0
SECTION
2
HEADER
9
$MEASUREMENT
70
1
0
ENDSEC
0
SECTION
2
TABLES
0
TABLE
2
LTYPE
0
LTYPE
72
65
70
64
2
CONTINUOUS
3
______
73
0
40
0
0
ENDTAB
0
TABLE
2
LAYER
0
LAYER
2
DEFAULT_255_2_778
70
0
62
255
6
CONTINUOUS
0
LAYER
2
DEFAULT_255_1_234
70
0
62
255
6
CONTINUOUS
0
ENDTAB
0
ENDSEC
0
SECTION
2
ENTITIES
0
ARC
8
DEFAULT_255_2_778
10
3.5700693
20
20.2426538
40
0.7914215
50
129.1312896
51
180.1450914
0
ARC
8
DEFAULT_255_2_778
10
3.5703345
20
20.2431409
40
0.7912112
50
89.854026
51
129.1684493
0
ARC
8
DEFAULT_255_2_778
10
25.7993937
20
20.2428275
40
0.7915249
50
39.4792447
51
90.147911
0
ARC
8
DEFAULT_255_2_778
10
25.7999935
20
20.2426741
40
0.7911595
50
359.8533901
51
39.5154338
0
ARC
8
DEFAULT_255_2_778
10
25.7996693
20
-1.9863985
40
0.7914836
50
309.4761667
51
0.1482649
0
ARC
8
DEFAULT_255_2_778
10
25.799398
20
-1.9868295
40
0.7913235
50
269.8517415
51
309.511178
0
ARC
8
DEFAULT_255_2_778
10
3.570342
20
-1.9867714
40
0.7913815
50
219.1282118
51
270.1454017
0
ARC
8
DEFAULT_255_2_778
10
3.5700247
20
-1.9863889
40
0.7913769
50
179.8524075
51
219.1641908
0
LINE
8
DEFAULT_255_2_778
10
3.5723503
20
21.0343497
11
25.7973503
21
21.0343497
0
LINE
8
DEFAULT_255_2_778
10
26.5911503
20
20.2406497
11
26.5911503
21
-1.9843503
0
LINE
8
DEFAULT_255_2_778
10
25.7973503
20
-2.7781503
11
3.5723503
21
-2.7781503
0
LINE
8
DEFAULT_255_2_778
10
2.7786503
20
-1.9843503
11
2.7786503
21
20.2406497
0
LINE
8
DEFAULT_255_1_234
10
10.072623
20
-0.2802337
11
10.2276355
21
-0.2802337
0
LINE
8
DEFAULT_255_1_234
10
9.3272777
20
-0.1212053
11
9.3272777
21
-0.0087609
0
LINE
8
DEFAULT_255_1_234
10
10.2276355
20
0.1422357
11
10.072623
21
0.1422357
0
LINE
8
DEFAULT_255_1_234
10
9.4822902
20
-0.0127768
11
9.4822902
21
-0.1260243
0
ARC
8
DEFAULT_255_1_234
10
9.6795742
20
-0.2205154
40
0.5513052
50
340.1774281
51
353.7814284
0
ARC
8
DEFAULT_255_1_234
10
9.8367095
20
-0.2790418
40
0.3836379
50
311.4558989
51
340.4421614
0
ARC
8
DEFAULT_255_1_234
10
9.8333763
20
-0.2679472
40
0.3941894
50
282.4333181
51
310.7513653
0
ARC
8
DEFAULT_255_1_234
10
9.7894502
20
-0.0864321
40
0.5809175
50
269.9358511
51
282.809604
0
ARC
8
DEFAULT_255_1_234
10
9.7842568
20
0.0593212
40
0.7266847
50
270.0021091
51
270.3581957
0
ARC
8
DEFAULT_255_1_234
10
9.7789985
20
-0.2007415
40
0.4666519
50
250.7884749
51
270.6489167
0
ARC
8
DEFAULT_255_1_234
10
9.762182
20
-0.2644681
40
0.4009729
50
219.3627325
51
250.0611886
0
ARC
8
DEFAULT_255_1_234
10
9.8451031
20
-0.1939958
40
0.5097822
50
193.5479632
51
219.5756669
0
ARC
8
DEFAULT_255_1_234
10
10.0822652
20
-0.1324081
40
0.7547848
50
181.1218675
51
193.87563
0
ARC
8
DEFAULT_255_1_234
10
10.2892833
20
-0.121342
40
0.9620055
50
179.9918545
51
181.5394234
0
ARC
8
DEFAULT_255_1_234
10
10.1041935
20
-0.0050212
40
0.7769248
50
169.5837241
51
180.2757934
0
ARC
8
DEFAULT_255_1_234
10
9.9204873
20
0.0289229
40
0.590109
50
155.0365899
51
169.6003176
0
ARC
8
DEFAULT_255_1_234
10
9.8069337
20
0.0836677
40
0.4640625
50
136.783148
51
155.2472683
0
ARC
8
DEFAULT_255_1_234
10
9.7679814
20
0.1167562
40
0.4130255
50
121.7633186
51
136.428115
0
ARC
8
DEFAULT_255_1_234
10
9.7814776
20
0.0918227
40
0.4413323
50
95.6459699
51
121.5490577
0
ARC
8
DEFAULT_255_1_234
10
9.7972058
20
-0.0190051
40
0.55319
50
89.924208
51
96.1377933
0
ARC
8
DEFAULT_255_1_234
10
9.8022491
20
-0.0071458
40
0.5413475
50
76.6779277
51
90.4563316
0
ARC
8
DEFAULT_255_1_234
10
9.8416114
20
0.1519114
40
0.3775041
50
47.485847
51
76.9287264
0
ARC
8
DEFAULT_255_1_234
10
9.8269087
20
0.1419159
40
0.3948286
50
16.5424086
51
46.8933463
0
ARC
8
DEFAULT_255_1_234
10
9.6661244
20
0.0890861
40
0.564021
50
5.4072051
51
17.0365086
0
ARC
8
DEFAULT_255_1_234
10
9.5222261
20
0.0659679
40
0.5556559
50
7.8891745
51
15.9239216
0
ARC
8
DEFAULT_255_1_234
10
9.7209274
20
0.1236631
40
0.3487515
50
15.7653144
51
27.9410532
0
ARC
8
DEFAULT_255_1_234
10
9.8313492
20
0.182779
40
0.2235026
50
27.8166557
51
46.4008329
0
ARC
8
DEFAULT_255_1_234
10
9.8363135
20
0.1822082
40
0.2205286
50
47.4371857
51
75.0698205
0
ARC
8
DEFAULT_255_1_234
10
9.8054529
20
0.0747765
40
0.3322915
50
74.7008593
51
87.8124495
0
ARC
8
DEFAULT_255_1_234
10
9.7981217
20
-0.0308156
40
0.4380987
50
87.3814673
51
90.0240855
0
ARC
8
DEFAULT_255_1_234
10
9.794276
20
0.0869291
40
0.3203749
50
89.3451631
51
108.5745436
0
ARC
8
DEFAULT_255_1_234
10
9.7805865
20
0.1382908
40
0.2673494
50
109.2998449
51
143.3037509
0
ARC
8
DEFAULT_255_1_234
10
9.8567938
20
0.0796881
40
0.3634757
50
143.0753173
51
163.1916937
0
ARC
8
DEFAULT_255_1_234
10
10.0519666
20
0.0180967
40
0.5681262
50
162.9373603
51
174.6208611
0
ARC
8
DEFAULT_255_1_234
10
10.3145708
20
-0.010699
40
0.8322832
50
174.3419979
51
180.1430411
0
ARC
8
DEFAULT_255_1_234
10
10.2214864
20
-0.1301302
40
0.7392076
50
179.6817502
51
189.150529
0
ARC
8
DEFAULT_255_1_234
10
9.9714112
20
-0.171781
40
0.4856932
50
188.9910863
51
203.5773039
0
ARC
8
DEFAULT_255_1_234
10
9.8634445
20
-0.2165789
40
0.3688271
50
203.9077269
51
215.1312379
0
ARC
8
DEFAULT_255_1_234
10
9.7711539
20
-0.2881059
40
0.2522457
50
213.9071664
51
263.8849284
0
ARC
8
DEFAULT_255_1_234
10
9.7836868
20
-0.2096482
40
0.3316174
50
263.1758525
51
270.1031083
0
ARC
8
DEFAULT_255_1_234
10
9.786896
20
-0.0849635
40
0.4563091
50
269.6719807
51
279.0609165
0
ARC
8
DEFAULT_255_1_234
10
9.8135728
20
-0.2462093
40
0.2928759
50
278.8750225
51
293.6346586
0
ARC
8
DEFAULT_255_1_234
10
9.8455936
20
-0.32141
40
0.2111472
50
293.8553404
51
310.0518804
0
ARC
8
DEFAULT_255_1_234
10
9.846079
20
-0.3276484
40
0.2060917
50
311.0646779
51
332.0108348
0
ARC
8
DEFAULT_255_1_234
10
9.7268517
20
-0.2619022
40
0.3422352
50
331.6588543
51
343.2878891
0
ARC
8
DEFAULT_255_1_234
10
9.5206032
20
-0.1985202
40
0.5580003
50
343.1446044
51
351.010618
0
ARC
8
DEFAULT_255_1_234
10
9.3664678
20
-0.1704129
40
0.7146438
50
350.7157277
51
351.1602153
0
LINE
8
DEFAULT_255_1_234
10
11.213933
20
0.1799849
11
11.0589205
21
0.1799849
0
LINE
8
DEFAULT_255_1_234
10
10.3665846
20
-0.3123606
11
10.5215972
21
-0.3123606
0
ARC
8
DEFAULT_255_1_234
10
11.1248017
20
1.0746768
40
1.252368
50
248.9199003
51
254.1439814
0
ARC
8
DEFAULT_255_1_234
10
10.9567512
20
0.6420234
40
0.788226
50
241.633709
51
249.0064503
0
ARC
8
DEFAULT_255_1_234
10
10.8038907
20
0.3619317
40
0.4691427
50
230.498225
51
241.8087113
0
ARC
8
DEFAULT_255_1_234
10
10.7254481
20
0.2619906
40
0.3421437
50
227.4064532
51
229.9881192
0
ARC
8
DEFAULT_255_1_234
10
10.6767002
20
0.2144088
40
0.2741476
50
200.6781896
51
228.1763934
0
ARC
8
DEFAULT_255_1_234
10
10.6839312
20
0.2129077
40
0.2804109
50
179.5061581
51
199.8694617
0
ARC
8
DEFAULT_255_1_234
10
10.6830064
20
0.220321
40
0.2795204
50
132.4834203
51
181.0242172
0
ARC
8
DEFAULT_255_1_234
10
10.7425646
20
0.1640704
40
0.3612768
50
129.2532479
51
133.4242687
0
ARC
8
DEFAULT_255_1_234
10
10.7572096
20
0.1420965
40
0.3875675
50
101.98776
51
128.8742646
0
ARC
8
DEFAULT_255_1_234
10
10.7970706
20
-0.0300259
40
0.5642249
50
89.5906553
51
102.3169264
0
ARC
8
DEFAULT_255_1_234
10
10.8041199
20
0.0018148
40
0.5323783
50
77.2360837
51
90.3248275
0
ARC
8
DEFAULT_255_1_234
10
10.8248278
20
0.09854
40
0.4334697
50
63.837784
51
77.0809408
0
ARC
8
DEFAULT_255_1_234
10
10.8526039
20
0.1502911
40
0.3747796
50
45.9864267
51
64.1607727
0
ARC
8
DEFAULT_255_1_234
10
10.8786921
20
0.1800866
40
0.3352302
50
32.2747395
51
45.6547121
0
ARC
8
DEFAULT_255_1_234
10
10.8853361
20
0.181988
40
0.328603
50
359.6507365
51
32.6130309
0
ARC
8
DEFAULT_255_1_234
10
10.7910457
20
0.182466
40
0.2678863
50
359.469343
51
14.9832209
0
ARC
8
DEFAULT_255_1_234
10
10.8615519
20
0.2013539
40
0.1948938
50
14.9781179
51
48.2004265
0
ARC
8
DEFAULT_255_1_234
10
10.8451163
20
0.1806983
40
0.2212521
50
48.5927837
51
74.1241538
0
ARC
8
DEFAULT_255_1_234
10
10.8117653
20
0.0706248
40
0.3362561
50
73.7888341
51
86.6652678
0
ARC
8
DEFAULT_255_1_234
10
10.8015218
20
-0.0501119
40
0.4573953
50
86.2640471
51
90.0526343
0
ARC
8
DEFAULT_255_1_234
10
10.7986931
20
-0.0105808
40
0.4178709
50
89.6697524
51
99.2309573
0
ARC
8
DEFAULT_255_1_234
10
10.7744382
20
0.1338964
40
0.2713749
50
99.069534
51
113.7658566
0
ARC
8
DEFAULT_255_1_234
10
10.7470573
20
0.1984677
40
0.2012469
50
114.0401004
51
127.9850673
0
ARC
8
DEFAULT_255_1_234
10
10.7230137
20
0.228073
40
0.1631167
50
127.7287463
51
176.7105154
0
ARC
8
DEFAULT_255_1_234
10
10.7908854
20
0.2179693
40
0.2315392
50
175.1779447
51
180.0581938
0
ARC
8
DEFAULT_255_1_234
10
10.7065701
20
0.2167428
40
0.1472271
50
179.6142195
51
228.1246017
0
ARC
8
DEFAULT_255_1_234
10
10.750737
20
0.2576308
40
0.2072299
50
226.5779593
51
230.8800004
0
ARC
8
DEFAULT_255_1_234
10
10.7978448
20
0.3201636
40
0.2854818
50
231.4635071
51
241.9260842
0
ARC
8
DEFAULT_255_1_234
10
10.9175626
20
0.54048
40
0.53622
50
241.7178533
51
248.3259551
0
ARC
8
DEFAULT_255_1_234
10
11.0560998
20
0.8837064
40
0.9063478
50
248.2007737
51
252.4528373
0
ARC
8
DEFAULT_255_1_234
10
11.1764723
20
1.2558441
40
1.2974635
50
252.3391078
51
254.3469452
0
ARC
8
DEFAULT_255_1_234
10
10.4222426
20
-1.4418852
40
1.5037162
50
71.0197183
51
74.4087047
0
ARC
8
DEFAULT_255_1_234
10
10.5917111
20
-0.9526889
40
0.9859993
50
66.1847285
51
71.086374
0
ARC
8
DEFAULT_255_1_234
10
10.7473423
20
-0.60228
40
0.6025855
50
59.3536294
51
66.2691831
0
ARC
8
DEFAULT_255_1_234
10
10.8362076
20
-0.4519391
40
0.4279449
50
49.1020879
51
59.3293958
0
ARC
8
DEFAULT_255_1_234
10
10.9180816
20
-0.3586166
40
0.3038015
50
32.7919921
51
49.2505539
0
ARC
8
DEFAULT_255_1_234
10
10.9501906
20
-0.3357809
40
0.264448
50
31.1181161
51
32.4005348
0
ARC
8
DEFAULT_255_1_234
10
10.9413443
20
-0.3393221
40
0.2738556
50
8.1116974
51
30.7958831
0
ARC
8
DEFAULT_255_1_234
10
10.8603111
20
-0.3531247
40
0.3560327
50
359.8389159
51
8.4706516
0
ARC
8
DEFAULT_255_1_234
10
10.9228903
20
-0.3579863
40
0.2934776
50
337.4731098
51
0.7537279
0
ARC
8
DEFAULT_255_1_234
10
10.9407598
20
-0.3599613
40
0.2762607
50
307.5917067
51
336.4315538
0
ARC
8
DEFAULT_255_1_234
10
10.8947426
20
-0.3086898
40
0.3449979
50
307.6551545
51
308.4529766
0
ARC
8
DEFAULT_255_1_234
10
10.8717145
20
-0.273175
40
0.3871988
50
284.3734338
51
307.1424381
0
ARC
8
DEFAULT_255_1_234
10
10.8221975
20
-0.0910068
40
0.5759636
50
272.4382747
51
284.646547
0
ARC
8
DEFAULT_255_1_234
10
10.8095184
20
0.0889893
40
0.7563528
50
269.9708387
51
272.8178037
0
ARC
8
DEFAULT_255_1_234
10
10.8052223
20
-0.1148284
40
0.5525489
50
248.2707594
51
270.4055579
0
ARC
8
DEFAULT_255_1_234
10
10.7997964
20
-0.1338808
40
0.5328452
50
246.1383403
51
248.0542782
0
ARC
8
DEFAULT_255_1_234
10
10.7579343
20
-0.2218157
40
0.4355005
50
233.1670131
51
246.4950969
0
ARC
8
DEFAULT_255_1_234
10
10.7025248
20
-0.2966188
40
0.3424126
50
215.3403242
51
233.0843104
0
ARC
8
DEFAULT_255_1_234
10
10.6752679
20
-0.3164451
40
0.3087104
50
179.2419209
51
215.2648451
0
ARC
8
DEFAULT_255_1_234
10
10.7520273
20
-0.3150334
40
0.2304457
50
179.335461
51
199.1045811
0
ARC
8
DEFAULT_255_1_234
10
10.718795
20
-0.3237234
40
0.1962176
50
199.8828939
51
232.7063202
0
ARC
8
DEFAULT_255_1_234
10
10.7660218
20
-0.2643212
40
0.2720938
50
232.3738199
51
255.5136649
0
ARC
8
DEFAULT_255_1_234
10
10.8001085
20
-0.1399165
40
0.4010747
50
255.2446292
51
267.5320849
0
ARC
8
DEFAULT_255_1_234
10
10.8088708
20
-0.0166298
40
0.5246356
50
267.1557994
51
270.0286766
0
ARC
8
DEFAULT_255_1_234
10
10.811648
20
-0.061005
40
0.4802668
50
269.7000017
51
278.1660162
0
ARC
8
DEFAULT_255_1_234
10
10.8372485
20
-0.2340485
40
0.3053425
50
278.0231263
51
290.625471
0
ARC
8
DEFAULT_255_1_234
10
10.8720172
20
-0.3267975
40
0.206291
50
290.6619762
51
307.0370976
0
ARC
8
DEFAULT_255_1_234
10
10.9020562
20
-0.3636496
40
0.1587906
50
306.3943566
51
355.3030547
0
ARC
8
DEFAULT_255_1_234
10
10.8508493
20
-0.3559887
40
0.2104809
50
354.3660432
51
0.0698737
0
ARC
8
DEFAULT_255_1_234
10
10.8650838
20
-0.3537383
40
0.1962563
50
359.417946
51
16.1971788
0
ARC
8
DEFAULT_255_1_234
10
10.9106149
20
-0.3412582
40
0.149053
50
16.4723299
51
52.6262157
0
ARC
8
DEFAULT_255_1_234
10
10.8285202
20
-0.4496567
40
0.2850296
50
52.7386432
51
62.4979148
0
ARC
8
DEFAULT_255_1_234
10
10.6900279
20
-0.7102717
40
0.5801521
50
62.2515216
51
68.1220564
0
ARC
8
DEFAULT_255_1_234
10
10.518019
20
-1.1330128
40
1.0365451
50
68.0062803
51
71.8053402
0
ARC
8
DEFAULT_255_1_234
10
10.3384562
20
-1.6715242
40
1.6042013
50
71.7183119
51
73.9258742
0
LINE
8
DEFAULT_255_1_234
10
11.8637006
20
0.5237433
11
11.8637006
21
-0.6513
0
LINE
8
DEFAULT_255_1_234
10
11.8637006
20
-0.6513
11
11.7143103
21
-0.6513
0
LINE
8
DEFAULT_255_1_234
10
11.7143103
20
-0.6513
11
11.7143103
21
0.3390133
0
LINE
8
DEFAULT_255_1_234
10
11.7143103
20
0.3390133
11
11.4147265
21
0.2289785
0
LINE
8
DEFAULT_255_1_234
10
11.4147265
20
0.2289785
11
11.4147265
21
0.3639117
0
LINE
8
DEFAULT_255_1_234
10
11.4147265
20
0.3639117
11
11.8404086
21
0.5237433
0
LINE
8
DEFAULT_255_1_234
10
11.8404086
20
0.5237433
11
11.8637006
21
0.5237433
0
LINE
8
DEFAULT_255_1_234
10
12.4050398
20
0.5181211
11
12.5897698
21
-0.2826432
0
LINE
8
DEFAULT_255_1_234
10
12.5897698
20
-0.2826432
11
12.6122586
21
-0.4368526
0
LINE
8
DEFAULT_255_1_234
10
12.6122586
20
-0.4368526
11
12.6451888
21
-0.2979035
0
LINE
8
DEFAULT_255_1_234
10
12.6451888
20
-0.2979035
11
12.8765028
21
0.5181211
0
LINE
8
DEFAULT_255_1_234
10
12.8765028
20
0.5181211
11
13.006617
21
0.5181211
0
LINE
8
DEFAULT_255_1_234
10
13.006617
20
0.5181211
11
13.2323088
21
-0.2979035
0
LINE
8
DEFAULT_255_1_234
10
13.2323088
20
-0.2979035
11
13.2644358
21
-0.4392621
0
LINE
8
DEFAULT_255_1_234
10
13.2644358
20
-0.4392621
11
13.2893342
21
-0.28184
0
LINE
8
DEFAULT_255_1_234
10
13.2893342
20
-0.28184
11
13.4708515
21
0.5181211
0
LINE
8
DEFAULT_255_1_234
10
13.4708515
20
0.5181211
11
13.625864
21
0.5181211
0
LINE
8
DEFAULT_255_1_234
10
13.625864
20
0.5181211
11
13.3423437
21
-0.6513
0
LINE
8
DEFAULT_255_1_234
10
13.3423437
20
-0.6513
11
13.2017882
21
-0.6513
0
LINE
8
DEFAULT_255_1_234
10
13.2017882
20
-0.6513
11
12.9608361
21
0.2008674
0
LINE
8
DEFAULT_255_1_234
10
12.9608361
20
0.2008674
11
12.9423631
21
0.2900197
0
LINE
8
DEFAULT_255_1_234
10
12.9423631
20
0.2900197
11
12.9238901
21
0.2008674
0
LINE
8
DEFAULT_255_1_234
10
12.9238901
20
0.2008674
11
12.674103
21
-0.6513
0
LINE
8
DEFAULT_255_1_234
10
12.674103
20
-0.6513
11
12.5335476
21
-0.6513
0
LINE
8
DEFAULT_255_1_234
10
12.5335476
20
-0.6513
11
12.2508304
21
0.5181211
0
LINE
8
DEFAULT_255_1_234
10
12.2508304
20
0.5181211
11
12.4050398
21
0.5181211
0
LINE
8
DEFAULT_255_1_234
10
14.0346795
20
-0.0938974
11
14.0346795
21
-0.2151766
0
LINE
8
DEFAULT_255_1_234
10
14.0346795
20
-0.2151766
11
13.6427307
21
-0.2151766
0
LINE
8
DEFAULT_255_1_234
10
13.6427307
20
-0.2151766
11
13.6427307
21
-0.0938974
0
LINE
8
DEFAULT_255_1_234
10
13.6427307
20
-0.0938974
11
14.0346795
21
-0.0938974
0
LINE
8
DEFAULT_255_1_234
10
15.1012943
20
0.5181211
11
15.1012943
21
-0.6513
0
LINE
8
DEFAULT_255_1_234
10
15.1012943
20
-0.6513
11
14.9462818
21
-0.6513
0
LINE
8
DEFAULT_255_1_234
10
14.9462818
20
-0.6513
11
14.3575554
21
0.249861
0
LINE
8
DEFAULT_255_1_234
10
14.3575554
20
0.249861
11
14.3575554
21
-0.6513
0
LINE
8
DEFAULT_255_1_234
10
14.3575554
20
-0.6513
11
14.2025428
21
-0.6513
0
LINE
8
DEFAULT_255_1_234
10
14.2025428
20
-0.6513
11
14.2025428
21
0.5181211
0
LINE
8
DEFAULT_255_1_234
10
14.2025428
20
0.5181211
11
14.3575554
21
0.5181211
0
LINE
8
DEFAULT_255_1_234
10
14.3575554
20
0.5181211
11
14.9478881
21
-0.3870558
0
LINE
8
DEFAULT_255_1_234
10
14.9478881
20
-0.3870558
11
14.9478881
21
0.5181211
0
LINE
8
DEFAULT_255_1_234
10
14.9478881
20
0.5181211
11
15.1012943
21
0.5181211
0
LINE
8
DEFAULT_255_1_234
10
16.0803632
20
-0.2802337
11
16.2353758
21
-0.2802337
0
LINE
8
DEFAULT_255_1_234
10
15.3350179
20
-0.1212053
11
15.3350179
21
-0.0087609
0
LINE
8
DEFAULT_255_1_234
10
16.2353758
20
0.1422357
11
16.0803632
21
0.1422357
0
LINE
8
DEFAULT_255_1_234
10
15.4900305
20
-0.0127768
11
15.4900305
21
-0.1260243
0
ARC
8
DEFAULT_255_1_234
10
15.6873145
20
-0.2205154
40
0.5513052
50
340.1774281
51
353.7814284
0
ARC
8
DEFAULT_255_1_234
10
15.8444497
20
-0.2790418
40
0.3836379
50
311.4558989
51
340.4421614
0
ARC
8
DEFAULT_255_1_234
10
15.8411165
20
-0.2679472
40
0.3941894
50
282.4333181
51
310.7513653
0
ARC
8
DEFAULT_255_1_234
10
15.7971905
20
-0.0864321
40
0.5809175
50
269.9358511
51
282.809604
0
ARC
8
DEFAULT_255_1_234
10
15.7919971
20
0.0593212
40
0.7266847
50
270.0021091
51
270.3581957
0
ARC
8
DEFAULT_255_1_234
10
15.7867388
20
-0.2007415
40
0.4666519
50
250.7884749
51
270.6489167
0
ARC
8
DEFAULT_255_1_234
10
15.7699222
20
-0.2644681
40
0.4009729
50
219.3627325
51
250.0611886
0
ARC
8
DEFAULT_255_1_234
10
15.8528433
20
-0.1939958
40
0.5097822
50
193.5479632
51
219.5756669
0
ARC
8
DEFAULT_255_1_234
10
16.0900054
20
-0.1324081
40
0.7547848
50
181.1218675
51
193.87563
0
ARC
8
DEFAULT_255_1_234
10
16.2970235
20
-0.121342
40
0.9620055
50
179.9918545
51
181.5394234
0
ARC
8
DEFAULT_255_1_234
10
16.1119337
20
-0.0050212
40
0.7769248
50
169.5837241
51
180.2757934
0
ARC
8
DEFAULT_255_1_234
10
15.9282275
20
0.0289229
40
0.590109
50
155.0365899
51
169.6003176
0
ARC
8
DEFAULT_255_1_234
10
15.8146739
20
0.0836677
40
0.4640625
50
136.783148
51
155.2472683
0
ARC
8
DEFAULT_255_1_234
10
15.7757216
20
0.1167562
40
0.4130255
50
121.7633186
51
136.428115
0
ARC
8
DEFAULT_255_1_234
10
15.7892178
20
0.0918227
40
0.4413323
50
95.6459699
51
121.5490577
0
ARC
8
DEFAULT_255_1_234
10
15.804946
20
-0.0190051
40
0.55319
50
89.924208
51
96.1377933
0
ARC
8
DEFAULT_255_1_234
10
15.8099893
20
-0.0071458
40
0.5413475
50
76.6779277
51
90.4563316
0
ARC
8
DEFAULT_255_1_234
10
15.8493516
20
0.1519114
40
0.3775041
50
47.485847
51
76.9287264
0
ARC
8
DEFAULT_255_1_234
10
15.8346489
20
0.1419159
40
0.3948286
50
16.5424086
51
46.8933463
0
ARC
8
DEFAULT_255_1_234
10
15.6738646
20
0.0890861
40
0.564021
50
5.4072051
51
17.0365086
0
ARC
8
DEFAULT_255_1_234
10
15.5299664
20
0.0659679
40
0.5556559
50
7.8891745
51
15.9239216
0
ARC
8
DEFAULT_255_1_234
10
15.7286677
20
0.1236631
40
0.3487515
50
15.7653144
51
27.9410532
0
ARC
8
DEFAULT_255_1_234
10
15.8390895
20
0.182779
40
0.2235026
50
27.8166557
51
46.4008329
0
ARC
8
DEFAULT_255_1_234
10
15.8440537
20
0.1822082
40
0.2205286
50
47.4371857
51
75.0698205
0
ARC
8
DEFAULT_255_1_234
10
15.8131932
20
0.0747765
40
0.3322915
50
74.7008593
51
87.8124495
0
ARC
8
DEFAULT_255_1_234
10
15.8058619
20
-0.0308156
40
0.4380987
50
87.3814673
51
90.0240855
0
ARC
8
DEFAULT_255_1_234
10
15.8020163
20
0.0869291
40
0.3203749
50
89.3451631
51
108.5745436
0
ARC
8
DEFAULT_255_1_234
10
15.7883268
20
0.1382908
40
0.2673494
50
109.2998449
51
143.3037509
0
ARC
8
DEFAULT_255_1_234
10
15.8645341
20
0.0796881
40
0.3634757
50
143.0753173
51
163.1916937
0
ARC
8
DEFAULT_255_1_234
10
16.0597068
20
0.0180967
40
0.5681262
50
162.9373603
51
174.6208611
0
ARC
8
DEFAULT_255_1_234
10
16.322311
20
-0.010699
40
0.8322832
50
174.3419979
51
180.1430411
0
ARC
8
DEFAULT_255_1_234
10
16.2292267
20
-0.1301302
40
0.7392076
50
179.6817502
51
189.150529
0
ARC
8
DEFAULT_255_1_234
10
15.9791515
20
-0.171781
40
0.4856932
50
188.9910863
51
203.5773039
0
ARC
8
DEFAULT_255_1_234
10
15.8711848
20
-0.2165789
40
0.3688271
50
203.9077269
51
215.1312379
0
ARC
8
DEFAULT_255_1_234
10
15.7788941
20
-0.2881059
40
0.2522457
50
213.9071664
51
263.8849284
0
ARC
8
DEFAULT_255_1_234
10
15.7914271
20
-0.2096482
40
0.3316174
50
263.1758525
51
270.1031083
0
ARC
8
DEFAULT_255_1_234
10
15.7946362
20
-0.0849635
40
0.4563091
50
269.6719807
51
279.0609165
0
ARC
8
DEFAULT_255_1_234
10
15.821313
20
-0.2462093
40
0.2928759
50
278.8750225
51
293.6346586
0
ARC
8
DEFAULT_255_1_234
10
15.8533338
20
-0.32141
40
0.2111472
50
293.8553404
51
310.0518804
0
ARC
8
DEFAULT_255_1_234
10
15.8538192
20
-0.3276484
40
0.2060917
50
311.0646779
51
332.0108348
0
ARC
8
DEFAULT_255_1_234
10
15.7345919
20
-0.2619022
40
0.3422352
50
331.6588543
51
343.2878891
0
ARC
8
DEFAULT_255_1_234
10
15.5283434
20
-0.1985202
40
0.5580003
50
343.1446044
51
351.010618
0
ARC
8
DEFAULT_255_1_234
10
15.374208
20
-0.1704129
40
0.7146438
50
350.7157277
51
351.1602153
0
LINE
8
DEFAULT_255_1_234
10
17.0345337
20
0.5181211
11
17.0345337
21
-0.258548
0
LINE
8
DEFAULT_255_1_234
10
17.0345337
20
-0.258548
11
17.1967749
21
-0.258548
0
LINE
8
DEFAULT_255_1_234
10
17.1967749
20
-0.258548
11
17.1967749
21
-0.3798272
0
LINE
8
DEFAULT_255_1_234
10
17.1967749
20
-0.3798272
11
17.0345337
21
-0.3798272
0
LINE
8
DEFAULT_255_1_234
10
17.0345337
20
-0.3798272
11
17.0345337
21
-0.6513
0
LINE
8
DEFAULT_255_1_234
10
17.0345337
20
-0.6513
11
16.8851434
21
-0.6513
0
LINE
8
DEFAULT_255_1_234
10
16.8851434
20
-0.6513
11
16.8851434
21
-0.3798272
0
LINE
8
DEFAULT_255_1_234
10
16.8851434
20
-0.3798272
11
16.3526392
21
-0.3798272
0
LINE
8
DEFAULT_255_1_234
10
16.3526392
20
-0.3798272
11
16.3526392
21
-0.2922813
0
LINE
8
DEFAULT_255_1_234
10
16.3526392
20
-0.2922813
11
16.8763085
21
0.5181211
0
LINE
8
DEFAULT_255_1_234
10
16.8763085
20
0.5181211
11
17.0345337
21
0.5181211
0
LINE
8
DEFAULT_255_1_234
10
16.8674736
20
0.2827912
11
16.5213057
21
-0.258548
0
LINE
8
DEFAULT_255_1_234
10
16.5213057
20
-0.258548
11
16.8851434
21
-0.258548
0
LINE
8
DEFAULT_255_1_234
10
16.8851434
20
-0.258548
11
16.8851434
21
0.3149181
0
LINE
8
DEFAULT_255_1_234
10
16.8851434
20
0.3149181
11
16.8674736
21
0.2827912
0
LINE
8
DEFAULT_255_1_234
10
18.0858883
20
0.5181211
11
18.0858883
21
0.434591
0
LINE
8
DEFAULT_255_1_234
10
18.0858883
20
0.434591
11
17.6015745
21
-0.6513
0
LINE
8
DEFAULT_255_1_234
10
17.6015745
20
-0.6513
11
17.4457587
21
-0.6513
0
LINE
8
DEFAULT_255_1_234
10
17.4457587
20
-0.6513
11
17.9284662
21
0.3960387
0
LINE
8
DEFAULT_255_1_234
10
17.9284662
20
0.3960387
11
17.2955652
21
0.3960387
0
LINE
8
DEFAULT_255_1_234
10
17.2955652
20
0.3960387
11
17.2955652
21
0.5181211
0
LINE
8
DEFAULT_255_1_234
10
17.2955652
20
0.5181211
11
18.0858883
21
0.5181211
0
LINE
8
DEFAULT_255_1_234
10
18.7428845
20
0.5237433
11
18.7428845
21
-0.6513
0
LINE
8
DEFAULT_255_1_234
10
18.7428845
20
-0.6513
11
18.5934941
21
-0.6513
0
LINE
8
DEFAULT_255_1_234
10
18.5934941
20
-0.6513
11
18.5934941
21
0.3390133
0
LINE
8
DEFAULT_255_1_234
10
18.5934941
20
0.3390133
11
18.2939103
21
0.2289785
0
LINE
8
DEFAULT_255_1_234
10
18.2939103
20
0.2289785
11
18.2939103
21
0.3639117
0
LINE
8
DEFAULT_255_1_234
10
18.2939103
20
0.3639117
11
18.7195924
21
0.5237433
0
LINE
8
DEFAULT_255_1_234
10
18.7195924
20
0.5237433
11
18.7428845
21
0.5237433
0
ARC
8
DEFAULT_255_2_778
10
15.2718323
20
18.799189
40
0.3782009
50
0.4397807
51
91.3045231
0
ARC
8
DEFAULT_255_2_778
10
15.2696879
20
18.7969064
40
0.3803695
50
269.0259909
51
0.7811192
0
ARC
8
DEFAULT_255_2_778
10
15.4288293
20
18.7844643
40
0.7639615
50
290.7362057
51
357.8000295
0
ARC
8
DEFAULT_255_2_778
10
15.3436031
20
18.8020235
40
0.8499188
50
356.8376875
51
0.0046095
0
ARC
8
DEFAULT_255_2_778
10
15.3422443
20
18.8020748
40
0.8512778
50
0.0011515
51
85.3589632
0
ARC
8
DEFAULT_255_2_778
10
15.3422371
20
18.7830092
40
0.8702827
50
85.4600549
51
90.0075769
0
ARC
8
DEFAULT_255_2_778
10
20.173385
20
18.7927426
40
0.3845507
50
1.3931151
51
90.158378
0
ARC
8
DEFAULT_255_2_778
10
20.2329096
20
18.7863635
40
0.8684198
50
359.7643557
51
42.1181505
0
ARC
8
DEFAULT_255_2_778
10
20.2353156
20
18.7867931
40
0.866348
50
42.2037872
51
87.9292218
0
ARC
8
DEFAULT_255_2_778
10
20.2305626
20
18.7455097
40
0.9077821
50
87.7235759
51
90.0025578
0
ARC
8
DEFAULT_255_2_778
10
12.9264947
20
18.7996344
40
0.3777354
50
0.3727528
51
91.1638813
0
ARC
8
DEFAULT_255_2_778
10
12.9805692
20
18.7863595
40
0.8684602
50
359.7646302
51
42.1161032
0
ARC
8
DEFAULT_255_2_778
10
12.9830774
20
18.7869127
40
0.8662296
50
42.2002176
51
87.9268901
0
ARC
8
DEFAULT_255_2_778
10
12.9783626
20
18.7458749
40
0.9074169
50
87.7231194
51
90.002558
0
ARC
8
DEFAULT_255_2_778
10
17.559042
20
18.3945858
40
1.2841942
50
233.3100129
51
270.0348017
0
ARC
8
DEFAULT_255_2_778
10
17.5711133
20
18.4149622
40
1.3077482
50
187.7860459
51
233.4193197
0
ARC
8
DEFAULT_255_2_778
10
17.5893588
20
18.4165185
40
1.3260368
50
179.9838663
51
187.7458681
0
ARC
8
DEFAULT_255_2_778
10
17.5478523
20
18.4171375
40
1.2845303
50
143.7084173
51
180.0109545
0
ARC
8
DEFAULT_255_2_778
10
17.5629238
20
18.4120899
40
1.2996747
50
94.9692901
51
143.9223324
0
ARC
8
DEFAULT_255_2_778
10
17.5597032
20
18.4127347
40
1.2987573
50
89.9947559
51
94.8302073
0
ARC
8
DEFAULT_255_2_778
10
17.5619339
20
18.4069304
40
1.3045632
50
58.1407344
51
90.0927508
0
ARC
8
DEFAULT_255_2_778
10
17.5700831
20
18.4125662
40
1.2954809
50
3.5056409
51
58.315291
0
ARC
8
DEFAULT_255_2_778
10
17.5711163
20
18.4166563
40
1.2942058
50
359.9971467
51
3.3277024
0
ARC
8
DEFAULT_255_2_778
10
17.3826088
20
18.4145483
40
1.4827147
50
0.006083
51
0.0789681
0
ARC
8
DEFAULT_255_2_778
10
17.5604187
20
18.4147022
40
1.3049047
50
315.0308293
51
0.0001529
0
ARC
8
DEFAULT_255_2_778
10
17.5609377
20
18.4144521
40
1.3043608
50
270.000667
51
315.0224921
0
LINE
8
DEFAULT_255_2_778
10
17.5609529
20
17.1100914
11
17.5598221
21
17.1100919
0
ARC
8
DEFAULT_255_2_778
10
17.5640812
20
18.4129112
40
0.7580313
50
269.6780691
51
315.5292436
0
ARC
8
DEFAULT_255_2_778
10
17.5610107
20
18.4121878
40
0.7597205
50
315.7303962
51
0.2857903
0
ARC
8
DEFAULT_255_2_778
10
17.8487376
20
18.4164382
40
0.4719845
50
359.944048
51
0.0186519
0
ARC
8
DEFAULT_255_2_778
10
17.5687772
20
18.4154605
40
0.7519457
50
0.086204
51
85.4319233
0
ARC
8
DEFAULT_255_2_778
10
17.5599609
20
18.3730338
40
0.7949581
50
85.0420495
51
90.0100075
0
ARC
8
DEFAULT_255_2_778
10
17.5579396
20
18.4297519
40
0.7382424
50
89.8538973
51
89.9999976
0
ARC
8
DEFAULT_255_2_778
10
17.5580088
20
18.4172109
40
0.7507833
50
90.0052819
51
134.9571409
0
ARC
8
DEFAULT_255_2_778
10
17.5579709
20
18.4166565
40
0.751149
50
134.9252185
51
180.0049334
0
ARC
8
DEFAULT_255_2_778
10
17.5708624
20
18.4126875
40
0.7640503
50
179.7072119
51
222.5790813
0
ARC
8
DEFAULT_255_2_778
10
17.5579296
20
18.4016475
40
0.7470579
50
222.6267201
51
270.1451401
0
ARC
8
DEFAULT_255_2_778
10
9.564442
20
18.3945858
40
1.2841942
50
233.3100129
51
270.0348017
0
ARC
8
DEFAULT_255_2_778
10
9.5765133
20
18.4149622
40
1.3077482
50
187.7860459
51
233.4193197
0
ARC
8
DEFAULT_255_2_778
10
9.5947588
20
18.4165185
40
1.3260368
50
179.9838663
51
187.7458681
0
ARC
8
DEFAULT_255_2_778
10
9.5535129
20
18.4169961
40
1.2847909
50
143.1940819
51
180.0046489
0
ARC
8
DEFAULT_255_2_778
10
9.5683078
20
18.4123006
40
1.2994598
50
94.9233187
51
143.4191345
0
ARC
8
DEFAULT_255_2_778
10
9.5651008
20
18.413012
40
1.2984798
50
89.9946509
51
94.7850278
0
ARC
8
DEFAULT_255_2_778
10
9.5673902
20
18.4068441
40
1.3046496
50
58.1428905
51
90.0952196
0
ARC
8
DEFAULT_255_2_778
10
9.5758177
20
18.4129453
40
1.2950254
50
3.2656058
51
58.3171105
0
ARC
8
DEFAULT_255_2_778
10
9.5763693
20
18.4169485
40
1.2942527
50
359.997494
51
3.0900664
0
ARC
8
DEFAULT_255_2_778
10
9.5936718
20
18.4147448
40
1.276952
50
359.9949307
51
0.0963391
0
ARC
8
DEFAULT_255_2_778
10
9.5659855
20
18.4147925
40
1.3046385
50
315.0321687
51
359.9929412
0
ARC
8
DEFAULT_255_2_778
10
9.5662654
20
18.4149266
40
1.3045353
50
270.0038431
51
315.0193137
0
LINE
8
DEFAULT_255_2_778
10
9.5663529
20
17.1103914
11
9.5652221
21
17.1103919
0
ARC
8
DEFAULT_255_2_778
10
9.5694412
20
18.4129135
40
0.7580334
50
269.6810953
51
315.6152252
0
ARC
8
DEFAULT_255_2_778
10
9.5663839
20
18.4122381
40
0.7597504
50
315.8129036
51
0.3254485
0
ARC
8
DEFAULT_255_2_778
10
9.5738176
20
18.4151565
40
0.7523058
50
0.1093155
51
85.7820321
0
ARC
8
DEFAULT_255_2_778
10
9.5653381
20
18.3736263
40
0.7943655
50
85.3923987
51
90.0083732
0
ARC
8
DEFAULT_255_2_778
10
9.5633385
20
18.4288348
40
0.7391595
50
89.8539942
51
89.9999859
0
ARC
8
DEFAULT_255_2_778
10
9.563405
20
18.4169783
40
0.7510159
50
90.0050654
51
134.9497993
0
ARC
8
DEFAULT_255_2_778
10
9.5632746
20
18.4167963
40
0.7510526
50
134.9329452
51
180.0155944
0
ARC
8
DEFAULT_255_2_778
10
9.5762945
20
18.4126612
40
0.7640826
50
179.7052536
51
222.5741919
0
ARC
8
DEFAULT_255_2_778
10
9.5632805
20
18.4016163
40
0.7470269
50
222.6256588
51
270.1489141
0
LINE
8
DEFAULT_255_2_778
10
14.0768221
20
19.6326919
11
14.0768221
21
17.1698919
0
LINE
8
DEFAULT_255_2_778
10
14.0768221
20
17.1698919
11
14.6203221
21
17.1698919
0
LINE
8
DEFAULT_255_2_778
10
14.6203221
20
17.1698919
11
14.6203221
21
19.1772919
0
LINE
8
DEFAULT_255_2_778
10
14.6203221
20
19.1772919
11
15.2632221
21
19.1772919
0
LINE
8
DEFAULT_255_2_778
10
15.2632221
20
18.4165919
11
14.7986221
21
18.4165919
0
LINE
8
DEFAULT_255_2_778
10
14.7986221
20
18.4165919
11
15.6397221
21
17.1695919
0
LINE
8
DEFAULT_255_2_778
10
15.6397221
20
17.1695919
11
16.3126221
21
17.1695919
0
LINE
8
DEFAULT_255_2_778
10
16.3126221
20
17.1695919
11
15.6993221
21
18.0699919
0
LINE
8
DEFAULT_255_2_778
10
15.3421221
20
19.6532919
11
14.6200221
21
19.6532919
0
LINE
8
DEFAULT_255_2_778
10
14.6200221
20
19.6532919
11
14.0766221
21
19.6326919
0
LINE
8
DEFAULT_255_2_778
10
14.0766221
20
19.6326919
11
14.0768221
21
19.6326919
0
LINE
8
DEFAULT_255_2_778
10
19.0142221
20
19.6326919
11
19.0142221
21
17.1698919
0
LINE
8
DEFAULT_255_2_778
10
19.0142221
20
17.1698919
11
19.5577221
21
17.1698919
0
LINE
8
DEFAULT_255_2_778
10
19.5577221
20
17.1698919
11
19.5577221
21
19.1772919
0
LINE
8
DEFAULT_255_2_778
10
19.5577221
20
19.1772919
11
20.1723221
21
19.1772919
0
LINE
8
DEFAULT_255_2_778
10
20.5578221
20
18.8020919
11
20.5578221
21
17.1698919
0
LINE
8
DEFAULT_255_2_778
10
20.5578221
20
17.1698919
11
21.1013221
21
17.1698919
0
LINE
8
DEFAULT_255_2_778
10
21.1013221
20
17.1698919
11
21.1013221
21
18.7827919
0
LINE
8
DEFAULT_255_2_778
10
20.2305221
20
19.6532919
11
19.5577221
21
19.6532919
0
LINE
8
DEFAULT_255_2_778
10
19.5577221
20
19.6532919
11
19.0142221
21
19.6326919
0
LINE
8
DEFAULT_255_2_778
10
19.0142221
20
19.6326919
11
19.0142221
21
19.6326919
0
LINE
8
DEFAULT_255_2_778
10
11.0196221
20
19.6326919
11
11.0196221
21
17.1698919
0
LINE
8
DEFAULT_255_2_778
10
11.0196221
20
17.1698919
11
11.5628221
21
17.1698919
0
LINE
8
DEFAULT_255_2_778
10
11.5628221
20
17.1698919
11
11.5628221
21
19.1772919
0
LINE
8
DEFAULT_255_2_778
10
11.5628221
20
19.1772919
11
12.1671221
21
19.1772919
0
LINE
8
DEFAULT_255_2_778
10
12.1671221
20
19.1772919
11
12.1671221
21
17.1698919
0
LINE
8
DEFAULT_255_2_778
10
12.1671221
20
17.1698919
11
12.7105221
21
17.1698919
0
LINE
8
DEFAULT_255_2_778
10
12.7105221
20
17.1698919
11
12.7105221
21
19.1772919
0
LINE
8
DEFAULT_255_2_778
10
12.7105221
20
19.1772919
11
12.9188221
21
19.1772919
0
LINE
8
DEFAULT_255_2_778
10
13.3042221
20
18.8020919
11
13.3042221
21
17.1698919
0
LINE
8
DEFAULT_255_2_778
10
13.3042221
20
17.1698919
11
13.8490221
21
17.1698919
0
LINE
8
DEFAULT_255_2_778
10
13.8490221
20
17.1698919
11
13.8490221
21
18.7827919
0
LINE
8
DEFAULT_255_2_778
10
12.9783221
20
19.6532919
11
11.5731221
21
19.6532919
0
LINE
8
DEFAULT_255_2_778
10
11.5731221
20
19.6532919
11
11.0193221
21
19.6326919
0
LINE
8
DEFAULT_255_2_778
10
11.0193221
20
19.6326919
11
11.0196221
21
19.6326919
0
LINE
8
DEFAULT_255_2_778
10
17.5598221
20
17.1100919
11
17.5598221
21
17.1103919
0
LINE
8
DEFAULT_255_2_778
10
9.5652221
20
17.1103919
11
9.5652221
21
17.1103919
0
LINE
8
DEFAULT_255_1_234
10
11.023523
20
14.9332663
11
11.1785355
21
14.9332663
0
LINE
8
DEFAULT_255_1_234
10
10.2781777
20
15.0922947
11
10.2781777
21
15.2047391
0
LINE
8
DEFAULT_255_1_234
10
11.1785355
20
15.3557357
11
11.023523
21
15.3557357
0
LINE
8
DEFAULT_255_1_234
10
10.4331902
20
15.2007232
11
10.4331902
21
15.0874757
0
ARC
8
DEFAULT_255_1_234
10
10.6304742
20
14.9929846
40
0.5513052
50
340.1774281
51
353.7814284
0
ARC
8
DEFAULT_255_1_234
10
10.7876095
20
14.9344582
40
0.3836379
50
311.4558989
51
340.4421614
0
ARC
8
DEFAULT_255_1_234
10
10.7842763
20
14.9455528
40
0.3941894
50
282.4333181
51
310.7513653
0
ARC
8
DEFAULT_255_1_234
10
10.7403502
20
15.1270679
40
0.5809175
50
269.9358511
51
282.809604
0
ARC
8
DEFAULT_255_1_234
10
10.7351568
20
15.2728212
40
0.7266847
50
270.0021091
51
270.3581957
0
ARC
8
DEFAULT_255_1_234
10
10.7298985
20
15.0127585
40
0.4666519
50
250.7884749
51
270.6489167
0
ARC
8
DEFAULT_255_1_234
10
10.713082
20
14.9490319
40
0.4009729
50
219.3627325
51
250.0611886
0
ARC
8
DEFAULT_255_1_234
10
10.7960031
20
15.0195042
40
0.5097822
50
193.5479632
51
219.5756669
0
ARC
8
DEFAULT_255_1_234
10
11.0331652
20
15.0810919
40
0.7547848
50
181.1218675
51
193.87563
0
ARC
8
DEFAULT_255_1_234
10
11.2401833
20
15.092158
40
0.9620055
50
179.9918545
51
181.5394234
0
ARC
8
DEFAULT_255_1_234
10
11.0550935
20
15.2084788
40
0.7769248
50
169.5837241
51
180.2757934
0
ARC
8
DEFAULT_255_1_234
10
10.8713873
20
15.2424229
40
0.590109
50
155.0365899
51
169.6003176
0
ARC
8
DEFAULT_255_1_234
10
10.7578337
20
15.2971677
40
0.4640625
50
136.783148
51
155.2472683
0
ARC
8
DEFAULT_255_1_234
10
10.7188814
20
15.3302562
40
0.4130255
50
121.7633186
51
136.428115
0
ARC
8
DEFAULT_255_1_234
10
10.7323776
20
15.3053227
40
0.4413323
50
95.6459699
51
121.5490577
0
ARC
8
DEFAULT_255_1_234
10
10.7481058
20
15.1944949
40
0.55319
50
89.924208
51
96.1377933
0
ARC
8
DEFAULT_255_1_234
10
10.7531491
20
15.2063542
40
0.5413475
50
76.6779277
51
90.4563316
0
ARC
8
DEFAULT_255_1_234
10
10.7925114
20
15.3654114
40
0.3775041
50
47.485847
51
76.9287264
0
ARC
8
DEFAULT_255_1_234
10
10.7778087
20
15.3554159
40
0.3948286
50
16.5424086
51
46.8933463
0
ARC
8
DEFAULT_255_1_234
10
10.6170244
20
15.3025861
40
0.564021
50
5.4072051
51
17.0365086
0
ARC
8
DEFAULT_255_1_234
10
10.4731261
20
15.2794679
40
0.5556559
50
7.8891745
51
15.9239216
0
ARC
8
DEFAULT_255_1_234
10
10.6718274
20
15.3371631
40
0.3487515
50
15.7653144
51
27.9410532
0
ARC
8
DEFAULT_255_1_234
10
10.7822492
20
15.396279
40
0.2235026
50
27.8166557
51
46.4008329
0
ARC
8
DEFAULT_255_1_234
10
10.7872135
20
15.3957082
40
0.2205286
50
47.4371857
51
75.0698205
0
ARC
8
DEFAULT_255_1_234
10
10.7563529
20
15.2882765
40
0.3322915
50
74.7008593
51
87.8124495
0
ARC
8
DEFAULT_255_1_234
10
10.7490217
20
15.1826844
40
0.4380987
50
87.3814673
51
90.0240855
0
ARC
8
DEFAULT_255_1_234
10
10.745176
20
15.3004291
40
0.3203749
50
89.3451631
51
108.5745436
0
ARC
8
DEFAULT_255_1_234
10
10.7314865
20
15.3517908
40
0.2673494
50
109.2998449
51
143.3037509
0
ARC
8
DEFAULT_255_1_234
10
10.8076938
20
15.2931881
40
0.3634757
50
143.0753173
51
163.1916937
0
ARC
8
DEFAULT_255_1_234
10
11.0028666
20
15.2315967
40
0.5681262
50
162.9373603
51
174.6208611
0
ARC
8
DEFAULT_255_1_234
10
11.2654708
20
15.202801
40
0.8322832
50
174.3419979
51
180.1430411
0
ARC
8
DEFAULT_255_1_234
10
11.1723864
20
15.0833698
40
0.7392076
50
179.6817502
51
189.150529
0
ARC
8
DEFAULT_255_1_234
10
10.9223112
20
15.041719
40
0.4856932
50
188.9910863
51
203.5773039
0
ARC
8
DEFAULT_255_1_234
10
10.8143445
20
14.9969211
40
0.3688271
50
203.9077269
51
215.1312379
0
ARC
8
DEFAULT_255_1_234
10
10.7220539
20
14.9253941
40
0.2522457
50
213.9071664
51
263.8849284
0
ARC
8
DEFAULT_255_1_234
10
10.7345868
20
15.0038518
40
0.3316174
50
263.1758525
51
270.1031083
0
ARC
8
DEFAULT_255_1_234
10
10.737796
20
15.1285365
40
0.4563091
50
269.6719807
51
279.0609165
0
ARC
8
DEFAULT_255_1_234
10
10.7644728
20
14.9672907
40
0.2928759
50
278.8750225
51
293.6346586
0
ARC
8
DEFAULT_255_1_234
10
10.7964936
20
14.89209
40
0.2111472
50
293.8553404
51
310.0518804
0
ARC
8
DEFAULT_255_1_234
10
10.796979
20
14.8858516
40
0.2060917
50
311.0646779
51
332.0108348
0
ARC
8
DEFAULT_255_1_234
10
10.6777517
20
14.9515978
40
0.3422352
50
331.6588543
51
343.2878891
0
ARC
8
DEFAULT_255_1_234
10
10.4715032
20
15.0149798
40
0.5580003
50
343.1446044
51
351.010618
0
ARC
8
DEFAULT_255_1_234
10
10.3173678
20
15.0430871
40
0.7146438
50
350.7157277
51
351.1602153
0
LINE
8
DEFAULT_255_1_234
10
12.164833
20
15.3934849
11
12.0098205
21
15.3934849
0
LINE
8
DEFAULT_255_1_234
10
11.3174846
20
14.9011394
11
11.4724972
21
14.9011394
0
ARC
8
DEFAULT_255_1_234
10
12.0757017
20
16.2881768
40
1.252368
50
248.9199003
51
254.1439814
0
ARC
8
DEFAULT_255_1_234
10
11.9076512
20
15.8555234
40
0.788226
50
241.633709
51
249.0064503
0
ARC
8
DEFAULT_255_1_234
10
11.7547907
20
15.5754317
40
0.4691427
50
230.498225
51
241.8087113
0
ARC
8
DEFAULT_255_1_234
10
11.6763481
20
15.4754906
40
0.3421437
50
227.4064532
51
229.9881192
0
ARC
8
DEFAULT_255_1_234
10
11.6276002
20
15.4279088
40
0.2741476
50
200.6781896
51
228.1763934
0
ARC
8
DEFAULT_255_1_234
10
11.6348312
20
15.4264077
40
0.2804109
50
179.5061581
51
199.8694617
0
ARC
8
DEFAULT_255_1_234
10
11.6339064
20
15.433821
40
0.2795204
50
132.4834203
51
181.0242172
0
ARC
8
DEFAULT_255_1_234
10
11.6934646
20
15.3775704
40
0.3612768
50
129.2532479
51
133.4242687
0
ARC
8
DEFAULT_255_1_234
10
11.7081096
20
15.3555965
40
0.3875675
50
101.98776
51
128.8742646
0
ARC
8
DEFAULT_255_1_234
10
11.7479706
20
15.1834741
40
0.5642249
50
89.5906553
51
102.3169264
0
ARC
8
DEFAULT_255_1_234
10
11.7550199
20
15.2153148
40
0.5323783
50
77.2360837
51
90.3248275
0
ARC
8
DEFAULT_255_1_234
10
11.7757278
20
15.31204
40
0.4334697
50
63.837784
51
77.0809408
0
ARC
8
DEFAULT_255_1_234
10
11.8035039
20
15.3637911
40
0.3747796
50
45.9864267
51
64.1607727
0
ARC
8
DEFAULT_255_1_234
10
11.8295921
20
15.3935866
40
0.3352302
50
32.2747395
51
45.6547121
0
ARC
8
DEFAULT_255_1_234
10
11.8362361
20
15.395488
40
0.328603
50
359.6507365
51
32.6130309
0
ARC
8
DEFAULT_255_1_234
10
11.7419457
20
15.395966
40
0.2678863
50
359.469343
51
14.9832209
0
ARC
8
DEFAULT_255_1_234
10
11.8124519
20
15.4148539
40
0.1948938
50
14.9781179
51
48.2004265
0
ARC
8
DEFAULT_255_1_234
10
11.7960163
20
15.3941983
40
0.2212521
50
48.5927837
51
74.1241538
0
ARC
8
DEFAULT_255_1_234
10
11.7626653
20
15.2841248
40
0.3362561
50
73.7888341
51
86.6652678
0
ARC
8
DEFAULT_255_1_234
10
11.7524218
20
15.1633881
40
0.4573953
50
86.2640471
51
90.0526343
0
ARC
8
DEFAULT_255_1_234
10
11.7495931
20
15.2029192
40
0.4178709
50
89.6697524
51
99.2309573
0
ARC
8
DEFAULT_255_1_234
10
11.7253382
20
15.3473964
40
0.2713749
50
99.069534
51
113.7658566
0
ARC
8
DEFAULT_255_1_234
10
11.6979573
20
15.4119677
40
0.2012469
50
114.0401004
51
127.9850673
0
ARC
8
DEFAULT_255_1_234
10
11.6739137
20
15.441573
40
0.1631167
50
127.7287463
51
176.7105154
0
ARC
8
DEFAULT_255_1_234
10
11.7417854
20
15.4314693
40
0.2315392
50
175.1779447
51
180.0581938
0
ARC
8
DEFAULT_255_1_234
10
11.6574701
20
15.4302428
40
0.1472271
50
179.6142195
51
228.1246017
0
ARC
8
DEFAULT_255_1_234
10
11.701637
20
15.4711308
40
0.2072299
50
226.5779593
51
230.8800004
0
ARC
8
DEFAULT_255_1_234
10
11.7487448
20
15.5336636
40
0.2854818
50
231.4635071
51
241.9260842
0
ARC
8
DEFAULT_255_1_234
10
11.8684626
20
15.75398
40
0.53622
50
241.7178533
51
248.3259551
0
ARC
8
DEFAULT_255_1_234
10
12.0069998
20
16.0972064
40
0.9063478
50
248.2007737
51
252.4528373
0
ARC
8
DEFAULT_255_1_234
10
12.1273723
20
16.4693441
40
1.2974635
50
252.3391078
51
254.3469452
0
ARC
8
DEFAULT_255_1_234
10
11.3731426
20
13.7716148
40
1.5037162
50
71.0197183
51
74.4087047
0
ARC
8
DEFAULT_255_1_234
10
11.5426111
20
14.2608111
40
0.9859993
50
66.1847285
51
71.086374
0
ARC
8
DEFAULT_255_1_234
10
11.6982423
20
14.61122
40
0.6025855
50
59.3536294
51
66.2691831
0
ARC
8
DEFAULT_255_1_234
10
11.7871076
20
14.7615609
40
0.4279449
50
49.1020879
51
59.3293958
0
ARC
8
DEFAULT_255_1_234
10
11.8689816
20
14.8548834
40
0.3038015
50
32.7919921
51
49.2505539
0
ARC
8
DEFAULT_255_1_234
10
11.9010906
20
14.8777191
40
0.264448
50
31.1181161
51
32.4005348
0
ARC
8
DEFAULT_255_1_234
10
11.8922443
20
14.8741779
40
0.2738556
50
8.1116974
51
30.7958831
0
ARC
8
DEFAULT_255_1_234
10
11.8112111
20
14.8603753
40
0.3560327
50
359.8389159
51
8.4706516
0
ARC
8
DEFAULT_255_1_234
10
11.8737903
20
14.8555137
40
0.2934776
50
337.4731098
51
0.7537279
0
ARC
8
DEFAULT_255_1_234
10
11.8916598
20
14.8535387
40
0.2762607
50
307.5917067
51
336.4315538
0
ARC
8
DEFAULT_255_1_234
10
11.8456426
20
14.9048102
40
0.3449979
50
307.6551545
51
308.4529766
0
ARC
8
DEFAULT_255_1_234
10
11.8226145
20
14.940325
40
0.3871988
50
284.3734338
51
307.1424381
0
ARC
8
DEFAULT_255_1_234
10
11.7730975
20
15.1224932
40
0.5759636
50
272.4382747
51
284.646547
0
ARC
8
DEFAULT_255_1_234
10
11.7604184
20
15.3024893
40
0.7563528
50
269.9708387
51
272.8178037
0
ARC
8
DEFAULT_255_1_234
10
11.7561223
20
15.0986716
40
0.5525489
50
248.2707594
51
270.4055579
0
ARC
8
DEFAULT_255_1_234
10
11.7506964
20
15.0796192
40
0.5328452
50
246.1383403
51
248.0542782
0
ARC
8
DEFAULT_255_1_234
10
11.7088343
20
14.9916843
40
0.4355005
50
233.1670131
51
246.4950969
0
ARC
8
DEFAULT_255_1_234
10
11.6534248
20
14.9168812
40
0.3424126
50
215.3403242
51
233.0843104
0
ARC
8
DEFAULT_255_1_234
10
11.6261679
20
14.8970549
40
0.3087104
50
179.2419209
51
215.2648451
0
ARC
8
DEFAULT_255_1_234
10
11.7029273
20
14.8984666
40
0.2304457
50
179.335461
51
199.1045811
0
ARC
8
DEFAULT_255_1_234
10
11.669695
20
14.8897766
40
0.1962176
50
199.8828939
51
232.7063202
0
ARC
8
DEFAULT_255_1_234
10
11.7169218
20
14.9491788
40
0.2720938
50
232.3738199
51
255.5136649
0
ARC
8
DEFAULT_255_1_234
10
11.7510085
20
15.0735835
40
0.4010747
50
255.2446292
51
267.5320849
0
ARC
8
DEFAULT_255_1_234
10
11.7597708
20
15.1968702
40
0.5246356
50
267.1557994
51
270.0286766
0
ARC
8
DEFAULT_255_1_234
10
11.762548
20
15.152495
40
0.4802668
50
269.7000017
51
278.1660162
0
ARC
8
DEFAULT_255_1_234
10
11.7881485
20
14.9794515
40
0.3053425
50
278.0231263
51
290.625471
0
ARC
8
DEFAULT_255_1_234
10
11.8229172
20
14.8867025
40
0.206291
50
290.6619762
51
307.0370976
0
ARC
8
DEFAULT_255_1_234
10
11.8529562
20
14.8498504
40
0.1587906
50
306.3943566
51
355.3030547
0
ARC
8
DEFAULT_255_1_234
10
11.8017493
20
14.8575113
40
0.2104809
50
354.3660432
51
0.0698737
0
ARC
8
DEFAULT_255_1_234
10
11.8159838
20
14.8597617
40
0.1962563
50
359.417946
51
16.1971788
0
ARC
8
DEFAULT_255_1_234
10
11.8615149
20
14.8722418
40
0.149053
50
16.4723299
51
52.6262157
0
ARC
8
DEFAULT_255_1_234
10
11.7794202
20
14.7638433
40
0.2850296
50
52.7386432
51
62.4979148
0
ARC
8
DEFAULT_255_1_234
10
11.6409279
20
14.5032283
40
0.5801521
50
62.2515216
51
68.1220564
0
ARC
8
DEFAULT_255_1_234
10
11.468919
20
14.0804872
40
1.0365451
50
68.0062803
51
71.8053402
0
ARC
8
DEFAULT_255_1_234
10
11.2893562
20
13.5419758
40
1.6042013
50
71.7183119
51
73.9258742
0
LINE
8
DEFAULT_255_1_234
10
12.8146006
20
15.7372433
11
12.8146006
21
14.5622
0
LINE
8
DEFAULT_255_1_234
10
12.8146006
20
14.5622
11
12.6652103
21
14.5622
0
LINE
8
DEFAULT_255_1_234
10
12.6652103
20
14.5622
11
12.6652103
21
15.5525133
0
LINE
8
DEFAULT_255_1_234
10
12.6652103
20
15.5525133
11
12.3656265
21
15.4424785
0
LINE
8
DEFAULT_255_1_234
10
12.3656265
20
15.4424785
11
12.3656265
21
15.5774117
0
LINE
8
DEFAULT_255_1_234
10
12.3656265
20
15.5774117
11
12.7913086
21
15.7372433
0
LINE
8
DEFAULT_255_1_234
10
12.7913086
20
15.7372433
11
12.8146006
21
15.7372433
0
LINE
8
DEFAULT_255_1_234
10
13.5744031
20
15.1196026
11
13.5744031
21
14.9983234
0
LINE
8
DEFAULT_255_1_234
10
13.5744031
20
14.9983234
11
13.1824542
21
14.9983234
0
LINE
8
DEFAULT_255_1_234
10
13.1824542
20
14.9983234
11
13.1824542
21
15.1196026
0
LINE
8
DEFAULT_255_1_234
10
13.1824542
20
15.1196026
11
13.5744031
21
15.1196026
0
LINE
8
DEFAULT_255_1_234
10
14.5181323
20
15.3934849
11
14.3631198
21
15.3934849
0
LINE
8
DEFAULT_255_1_234
10
13.6707839
20
14.9011394
11
13.8257965
21
14.9011394
0
ARC
8
DEFAULT_255_1_234
10
14.4290011
20
16.2881768
40
1.252368
50
248.9199003
51
254.1439814
0
ARC
8
DEFAULT_255_1_234
10
14.2609505
20
15.8555234
40
0.788226
50
241.633709
51
249.0064503
0
ARC
8
DEFAULT_255_1_234
10
14.10809
20
15.5754317
40
0.4691427
50
230.498225
51
241.8087113
0
ARC
8
DEFAULT_255_1_234
10
14.0296474
20
15.4754906
40
0.3421437
50
227.4064532
51
229.9881192
0
ARC
8
DEFAULT_255_1_234
10
13.9808995
20
15.4279088
40
0.2741476
50
200.6781896
51
228.1763934
0
ARC
8
DEFAULT_255_1_234
10
13.9881305
20
15.4264077
40
0.2804109
50
179.5061581
51
199.8694617
0
ARC
8
DEFAULT_255_1_234
10
13.9872057
20
15.433821
40
0.2795204
50
132.4834203
51
181.0242172
0
ARC
8
DEFAULT_255_1_234
10
14.0467639
20
15.3775704
40
0.3612768
50
129.2532479
51
133.4242687
0
ARC
8
DEFAULT_255_1_234
10
14.0614089
20
15.3555965
40
0.3875675
50
101.98776
51
128.8742646
0
ARC
8
DEFAULT_255_1_234
10
14.10127
20
15.1834741
40
0.5642249
50
89.5906553
51
102.3169264
0
ARC
8
DEFAULT_255_1_234
10
14.1083192
20
15.2153148
40
0.5323783
50
77.2360837
51
90.3248275
0
ARC
8
DEFAULT_255_1_234
10
14.1290271
20
15.31204
40
0.4334697
50
63.837784
51
77.0809408
0
ARC
8
DEFAULT_255_1_234
10
14.1568033
20
15.3637911
40
0.3747796
50
45.9864267
51
64.1607727
0
ARC
8
DEFAULT_255_1_234
10
14.1828914
20
15.3935866
40
0.3352302
50
32.2747395
51
45.6547121
0
ARC
8
DEFAULT_255_1_234
10
14.1895355
20
15.395488
40
0.328603
50
359.6507365
51
32.6130309
0
ARC
8
DEFAULT_255_1_234
10
14.095245
20
15.395966
40
0.2678863
50
359.469343
51
14.9832209
0
ARC
8
DEFAULT_255_1_234
10
14.1657512
20
15.4148539
40
0.1948938
50
14.9781179
51
48.2004265
0
ARC
8
DEFAULT_255_1_234
10
14.1493156
20
15.3941983
40
0.2212521
50
48.5927837
51
74.1241538
0
ARC
8
DEFAULT_255_1_234
10
14.1159646
20
15.2841248
40
0.3362561
50
73.7888341
51
86.6652678
0
ARC
8
DEFAULT_255_1_234
10
14.1057212
20
15.1633881
40
0.4573953
50
86.2640471
51
90.0526343
0
ARC
8
DEFAULT_255_1_234
10
14.1028924
20
15.2029192
40
0.4178709
50
89.6697524
51
99.2309573
0
ARC
8
DEFAULT_255_1_234
10
14.0786375
20
15.3473964
40
0.2713749
50
99.069534
51
113.7658566
0
ARC
8
DEFAULT_255_1_234
10
14.0512566
20
15.4119677
40
0.2012469
50
114.0401004
51
127.9850673
0
ARC
8
DEFAULT_255_1_234
10
14.027213
20
15.441573
40
0.1631167
50
127.7287463
51
176.7105154
0
ARC
8
DEFAULT_255_1_234
10
14.0950848
20
15.4314693
40
0.2315392
50
175.1779447
51
180.0581938
0
ARC
8
DEFAULT_255_1_234
10
14.0107694
20
15.4302428
40
0.1472271
50
179.6142195
51
228.1246017
0
ARC
8
DEFAULT_255_1_234
10
14.0549363
20
15.4711308
40
0.2072299
50
226.5779593
51
230.8800004
0
ARC
8
DEFAULT_255_1_234
10
14.1020442
20
15.5336636
40
0.2854818
50
231.4635071
51
241.9260842
0
ARC
8
DEFAULT_255_1_234
10
14.221762
20
15.75398
40
0.53622
50
241.7178533
51
248.3259551
0
ARC
8
DEFAULT_255_1_234
10
14.3602991
20
16.0972064
40
0.9063478
50
248.2007737
51
252.4528373
0
ARC
8
DEFAULT_255_1_234
10
14.4806716
20
16.4693441
40
1.2974635
50
252.3391078
51
254.3469452
0
ARC
8
DEFAULT_255_1_234
10
13.7264419
20
13.7716148
40
1.5037162
50
71.0197183
51
74.4087047
0
ARC
8
DEFAULT_255_1_234
10
13.8959104
20
14.2608111
40
0.9859993
50
66.1847285
51
71.086374
0
ARC
8
DEFAULT_255_1_234
10
14.0515417
20
14.61122
40
0.6025855
50
59.3536294
51
66.2691831
0
ARC
8
DEFAULT_255_1_234
10
14.1404069
20
14.7615609
40
0.4279449
50
49.1020879
51
59.3293958
0
ARC
8
DEFAULT_255_1_234
10
14.2222809
20
14.8548834
40
0.3038015
50
32.7919921
51
49.2505539
0
ARC
8
DEFAULT_255_1_234
10
14.2543899
20
14.8777191
40
0.264448
50
31.1181161
51
32.4005348
0
ARC
8
DEFAULT_255_1_234
10
14.2455437
20
14.8741779
40
0.2738556
50
8.1116974
51
30.7958831
0
ARC
8
DEFAULT_255_1_234
10
14.1645105
20
14.8603753
40
0.3560327
50
359.8389159
51
8.4706516
0
ARC
8
DEFAULT_255_1_234
10
14.2270896
20
14.8555137
40
0.2934776
50
337.4731098
51
0.7537279
0
ARC
8
DEFAULT_255_1_234
10
14.2449591
20
14.8535387
40
0.2762607
50
307.5917067
51
336.4315538
0
ARC
8
DEFAULT_255_1_234
10
14.1989419
20
14.9048102
40
0.3449979
50
307.6551545
51
308.4529766
0
ARC
8
DEFAULT_255_1_234
10
14.1759138
20
14.940325
40
0.3871988
50
284.3734338
51
307.1424381
0
ARC
8
DEFAULT_255_1_234
10
14.1263968
20
15.1224932
40
0.5759636
50
272.4382747
51
284.646547
0
ARC
8
DEFAULT_255_1_234
10
14.1137177
20
15.3024893
40
0.7563528
50
269.9708387
51
272.8178037
0
ARC
8
DEFAULT_255_1_234
10
14.1094216
20
15.0986716
40
0.5525489
50
248.2707594
51
270.4055579
0
ARC
8
DEFAULT_255_1_234
10
14.1039958
20
15.0796192
40
0.5328452
50
246.1383403
51
248.0542782
0
ARC
8
DEFAULT_255_1_234
10
14.0621336
20
14.9916843
40
0.4355005
50
233.1670131
51
246.4950969
0
ARC
8
DEFAULT_255_1_234
10
14.0067241
20
14.9168812
40
0.3424126
50
215.3403242
51
233.0843104
0
ARC
8
DEFAULT_255_1_234
10
13.9794673
20
14.8970549
40
0.3087104
50
179.2419209
51
215.2648451
0
ARC
8
DEFAULT_255_1_234
10
14.0562267
20
14.8984666
40
0.2304457
50
179.335461
51
199.1045811
0
ARC
8
DEFAULT_255_1_234
10
14.0229943
20
14.8897766
40
0.1962176
50
199.8828939
51
232.7063202
0
ARC
8
DEFAULT_255_1_234
10
14.0702211
20
14.9491788
40
0.2720938
50
232.3738199
51
255.5136649
0
ARC
8
DEFAULT_255_1_234
10
14.1043078
20
15.0735835
40
0.4010747
50
255.2446292
51
267.5320849
0
ARC
8
DEFAULT_255_1_234
10
14.1130701
20
15.1968702
40
0.5246356
50
267.1557994
51
270.0286766
0
ARC
8
DEFAULT_255_1_234
10
14.1158474
20
15.152495
40
0.4802668
50
269.7000017
51
278.1660162
0
ARC
8
DEFAULT_255_1_234
10
14.1414478
20
14.9794515
40
0.3053425
50
278.0231263
51
290.625471
0
ARC
8
DEFAULT_255_1_234
10
14.1762165
20
14.8867025
40
0.206291
50
290.6619762
51
307.0370976
0
ARC
8
DEFAULT_255_1_234
10
14.2062555
20
14.8498504
40
0.1587906
50
306.3943566
51
355.3030547
0
ARC
8
DEFAULT_255_1_234
10
14.1550486
20
14.8575113
40
0.2104809
50
354.3660432
51
0.0698737
0
ARC
8
DEFAULT_255_1_234
10
14.1692831
20
14.8597617
40
0.1962563
50
359.417946
51
16.1971788
0
ARC
8
DEFAULT_255_1_234
10
14.2148142
20
14.8722418
40
0.149053
50
16.4723299
51
52.6262157
0
ARC
8
DEFAULT_255_1_234
10
14.1327196
20
14.7638433
40
0.2850296
50
52.7386432
51
62.4979148
0
ARC
8
DEFAULT_255_1_234
10
13.9942272
20
14.5032283
40
0.5801521
50
62.2515216
51
68.1220564
0
ARC
8
DEFAULT_255_1_234
10
13.8222183
20
14.0804872
40
1.0365451
50
68.0062803
51
71.8053402
0
ARC
8
DEFAULT_255_1_234
10
13.6426555
20
13.5419758
40
1.6042013
50
71.7183119
51
73.9258742
0
LINE
8
DEFAULT_255_1_234
10
14.6570814
20
14.9726218
11
14.6570814
21
14.9999297
0
LINE
8
DEFAULT_255_1_234
10
15.394395
20
15.0159932
11
15.394395
21
14.9541488
0
LINE
8
DEFAULT_255_1_234
10
15.394395
20
14.9541488
11
14.8056686
21
14.9541488
0
LINE
8
DEFAULT_255_1_234
10
15.2923919
20
14.7846792
11
15.3831505
21
14.7139999
0
LINE
8
DEFAULT_255_1_234
10
14.8104876
20
15.0762313
11
15.2458078
21
15.0762313
0
LINE
8
DEFAULT_255_1_234
10
15.2458078
20
15.0762313
11
15.2458078
21
15.0874757
0
ARC
8
DEFAULT_255_1_234
10
15.0510179
20
14.9837332
40
0.4376191
50
252.3266134
51
270.5810217
0
ARC
8
DEFAULT_255_1_234
10
15.0305268
20
14.9096644
40
0.3608374
50
223.3000567
51
251.8561855
0
ARC
8
DEFAULT_255_1_234
10
15.0516629
20
14.9301937
40
0.3902993
50
190.9374509
51
223.3654032
0
ARC
8
DEFAULT_255_1_234
10
15.2241601
20
14.9691885
40
0.5670891
50
179.6531105
51
191.4989439
0
ARC
8
DEFAULT_255_1_234
10
15.2363613
20
15.0031417
40
0.5792888
50
167.4007466
51
180.3176909
0
ARC
8
DEFAULT_255_1_234
10
15.1311675
20
15.0253885
40
0.471777
50
154.1835823
51
167.250763
0
ARC
8
DEFAULT_255_1_234
10
15.0680142
20
15.0586417
40
0.4004528
50
134.3149965
51
154.5315275
0
ARC
8
DEFAULT_255_1_234
10
15.0462637
20
15.0777228
40
0.371612
50
122.8616532
51
133.9707695
0
ARC
8
DEFAULT_255_1_234
10
15.0359212
20
15.0999703
40
0.3473289
50
89.8249009
51
123.4199222
0
ARC
8
DEFAULT_255_1_234
10
15.0409253
20
15.0352967
40
0.4120197
50
74.7876118
51
90.5482747
0
ARC
8
DEFAULT_255_1_234
10
15.0702996
20
15.143803
40
0.2996077
50
39.8178249
51
74.7633718
0
ARC
8
DEFAULT_255_1_234
10
15.0190316
20
15.1038351
40
0.3645855
50
16.8990863
51
39.4829761
0
ARC
8
DEFAULT_255_1_234
10
14.8295612
20
15.0431526
40
0.5635218
50
4.9636328
51
17.2026414
0
ARC
8
DEFAULT_255_1_234
10
14.5877683
20
15.017634
40
0.8066286
50
359.8834553
51
5.2834307
0
ARC
8
DEFAULT_255_1_234
10
15.1915207
20
14.9607803
40
0.3859091
50
180.9846213
51
194.9401313
0
ARC
8
DEFAULT_255_1_234
10
15.0865485
20
14.9320849
40
0.2770883
50
194.80314
51
222.0412631
0
ARC
8
DEFAULT_255_1_234
10
15.0561367
20
14.9019116
40
0.2343055
50
221.5417084
51
268.8614402
0
ARC
8
DEFAULT_255_1_234
10
15.0634361
20
14.9695686
40
0.3021528
50
267.732405
51
270.0097136
0
ARC
8
DEFAULT_255_1_234
10
15.0652172
20
14.9897105
40
0.3222994
50
269.6924892
51
280.4117579
0
ARC
8
DEFAULT_255_1_234
10
15.0828578
20
14.8978193
40
0.2287344
50
280.2255091
51
298.6338936
0
ARC
8
DEFAULT_255_1_234
10
15.094537
20
14.8734223
40
0.2017294
50
299.0430333
51
300.4643464
0
ARC
8
DEFAULT_255_1_234
10
15.0265376
20
14.9868038
40
0.3339357
50
300.6577328
51
322.0378878
0
ARC
8
DEFAULT_255_1_234
10
14.9914915
20
15.0172021
40
0.3802736
50
321.6750233
51
322.3046845
0
ARC
8
DEFAULT_255_1_234
10
15.0845876
20
14.900537
40
0.3520454
50
276.9728461
51
328.0035423
0
ARC
8
DEFAULT_255_1_234
10
15.0568929
20
15.0485841
40
0.5024498
50
269.8361028
51
278.0581756
0
ARC
8
DEFAULT_255_1_234
10
15.0341666
20
15.1230757
40
0.202159
50
89.2018686
51
117.2851756
0
ARC
8
DEFAULT_255_1_234
10
15.0394835
20
15.1188752
40
0.2083484
50
118.0551165
51
137.4540413
0
ARC
8
DEFAULT_255_1_234
10
15.0769575
20
15.0848304
40
0.2589774
50
137.5109581
51
158.8516286
0
ARC
8
DEFAULT_255_1_234
10
15.1907411
20
15.0389074
40
0.38167
50
158.5845963
51
170.1721436
0
ARC
8
DEFAULT_255_1_234
10
15.30768
20
15.0156823
40
0.5008657
50
169.8376422
51
173.0566086
0
ARC
8
DEFAULT_255_1_234
10
14.8379874
20
15.0667509
40
0.4083467
50
2.9091802
51
12.8847116
0
ARC
8
DEFAULT_255_1_234
10
14.9750551
20
15.0990101
40
0.2675383
50
12.6957781
51
28.6404489
0
ARC
8
DEFAULT_255_1_234
10
15.0292221
20
15.1270458
40
0.2065654
50
29.0169854
51
41.1487595
0
ARC
8
DEFAULT_255_1_234
10
15.0495007
20
15.1447003
40
0.1796786
50
41.1646065
51
85.0013516
0
ARC
8
DEFAULT_255_1_234
10
15.0374103
20
15.0712431
40
0.2539726
50
83.7280015
51
90.0964893
0
LINE
8
DEFAULT_255_1_234
10
15.9863341
20
15.4360531
11
15.9863341
21
15.2979072
0
LINE
8
DEFAULT_255_1_234
10
15.7148613
20
15.1790375
11
15.7148613
21
14.5622
0
LINE
8
DEFAULT_255_1_234
10
15.7148613
20
14.5622
11
15.5662742
21
14.5622
0
LINE
8
DEFAULT_255_1_234
10
15.5662742
20
14.5622
11
15.5662742
21
15.4312341
0
LINE
8
DEFAULT_255_1_234
10
15.5662742
20
15.4312341
11
15.7108455
21
15.4312341
0
LINE
8
DEFAULT_255_1_234
10
15.7108455
20
15.4312341
11
15.713255
21
15.3308374
0
ARC
8
DEFAULT_255_1_234
10
15.9196746
20
14.8919342
40
0.4114092
50
80.6754243
51
86.8932892
0
ARC
8
DEFAULT_255_1_234
10
15.9136281
20
14.79517
40
0.5083596
50
86.8038578
51
90.0431435
0
ARC
8
DEFAULT_255_1_234
10
15.9099261
20
15.0408866
40
0.2626638
50
89.2759698
51
106.6213787
0
ARC
8
DEFAULT_255_1_234
10
15.8894825
20
15.115183
40
0.1856317
50
107.1346045
51
157.6458115
0
ARC
8
DEFAULT_255_1_234
10
15.9586427
20
15.0768311
40
0.2643398
50
155.6586782
51
157.2539184
0
ARC
8
DEFAULT_255_1_234
10
15.9381629
20
15.1937157
40
0.2634121
50
127.8165941
51
148.6302098
0
ARC
8
DEFAULT_255_1_234
10
15.9128098
20
15.2197218
40
0.2273596
50
91.3329982
51
126.7875809
0
ARC
8
DEFAULT_255_1_234
10
15.9204039
20
15.1482195
40
0.299078
50
89.986594
51
92.4688449
0
ARC
8
DEFAULT_255_1_234
10
15.9212433
20
15.1757078
40
0.2715908
50
85.3589899
51
90.1623399
0
ARC
8
DEFAULT_255_1_234
10
15.9296949
20
15.2761164
40
0.1708278
50
78.401942
51
85.4594656
0
ARC
8
DEFAULT_255_1_234
10
15.9441833
20
15.3452236
40
0.1002194
50
67.7858312
51
78.5728455
0
ARC
8
DEFAULT_255_1_234
10
15.9549686
20
15.3731887
40
0.0702548
50
63.4835954
51
67.3062642
0
LINE
8
DEFAULT_255_1_234
10
16.2843116
20
15.4312341
11
16.2843116
21
14.5622
0
LINE
8
DEFAULT_255_1_234
10
16.2843116
20
14.5622
11
16.1357244
21
14.5622
0
LINE
8
DEFAULT_255_1_234
10
16.1357244
20
14.5622
11
16.1357244
21
15.4312341
0
LINE
8
DEFAULT_255_1_234
10
16.1357244
20
15.4312341
11
16.2843116
21
15.4312341
0
ARC
8
DEFAULT_255_1_234
10
16.2215393
20
15.6626889
40
0.097867
50
161.415052
51
180.5526306
0
ARC
8
DEFAULT_255_1_234
10
16.2091171
20
15.6661077
40
0.0850062
50
138.1827368
51
160.9307106
0
ARC
8
DEFAULT_255_1_234
10
16.1981117
20
15.6756588
40
0.0704362
50
104.6368899
51
138.0039868
0
ARC
8
DEFAULT_255_1_234
10
16.2088271
20
15.6389963
40
0.1086221
50
92.0600725
51
105.2189128
0
ARC
8
DEFAULT_255_1_234
10
16.211162
20
15.6047117
40
0.1429728
50
89.9756393
51
92.5012496
0
ARC
8
DEFAULT_255_1_234
10
16.2121639
20
15.6272731
40
0.1204151
50
78.0235316
51
90.4478182
0
ARC
8
DEFAULT_255_1_234
10
16.2213731
20
15.6686295
40
0.0780493
50
55.051506
51
78.3369085
0
ARC
8
DEFAULT_255_1_234
10
16.2264005
20
15.6770711
40
0.0682538
50
42.0501187
51
54.4513741
0
ARC
8
DEFAULT_255_1_234
10
16.2128873
20
15.6646798
40
0.0865878
50
1.7497075
51
42.1496013
0
ARC
8
DEFAULT_255_1_234
10
16.1874205
20
15.6617738
40
0.1121515
50
359.9852656
51
2.8364544
0
ARC
8
DEFAULT_255_1_234
10
16.2040198
20
15.6608229
40
0.0955566
50
342.1070653
51
0.552888
0
ARC
8
DEFAULT_255_1_234
10
16.2182895
20
15.6568904
40
0.0807713
50
316.7107116
51
341.6516965
0
ARC
8
DEFAULT_255_1_234
10
16.2249932
20
15.6508823
40
0.0717724
50
285.4397031
51
316.5324284
0
ARC
8
DEFAULT_255_1_234
10
16.2139849
20
15.6874554
40
0.1099597
50
272.3547054
51
285.8953117
0
ARC
8
DEFAULT_255_1_234
10
16.2113007
20
15.7240048
40
0.1465932
50
269.9695369
51
272.8160237
0
ARC
8
DEFAULT_255_1_234
10
16.2103188
20
15.7020863
40
0.1246779
50
258.8431134
51
270.4153935
0
ARC
8
DEFAULT_255_1_234
10
16.2013231
20
15.6585414
40
0.0802162
50
238.5431189
51
259.1288175
0
ARC
8
DEFAULT_255_1_234
10
16.1945116
20
15.6461856
40
0.0661247
50
222.5062634
51
237.9906969
0
ARC
8
DEFAULT_255_1_234
10
16.2072703
20
15.6577889
40
0.0833707
50
184.1069131
51
222.460413
0
ARC
8
DEFAULT_255_1_234
10
16.2341944
20
15.6616349
40
0.1105176
50
179.9429482
51
185.0960898
0
LINE
8
DEFAULT_255_1_234
10
16.4843019
20
14.9726218
11
16.4843019
21
14.9999297
0
LINE
8
DEFAULT_255_1_234
10
17.2216154
20
15.0159932
11
17.2216154
21
14.9541488
0
LINE
8
DEFAULT_255_1_234
10
17.2216154
20
14.9541488
11
16.632889
21
14.9541488
0
LINE
8
DEFAULT_255_1_234
10
17.1196124
20
14.7846792
11
17.210371
21
14.7139999
0
LINE
8
DEFAULT_255_1_234
10
16.6377081
20
15.0762313
11
17.0730283
21
15.0762313
0
LINE
8
DEFAULT_255_1_234
10
17.0730283
20
15.0762313
11
17.0730283
21
15.0874757
0
ARC
8
DEFAULT_255_1_234
10
16.8782384
20
14.9837332
40
0.4376191
50
252.3266134
51
270.5810217
0
ARC
8
DEFAULT_255_1_234
10
16.8577473
20
14.9096644
40
0.3608374
50
223.3000567
51
251.8561855
0
ARC
8
DEFAULT_255_1_234
10
16.8788833
20
14.9301937
40
0.3902993
50
190.9374509
51
223.3654032
0
ARC
8
DEFAULT_255_1_234
10
17.0513806
20
14.9691885
40
0.5670891
50
179.6531105
51
191.4989439
0
ARC
8
DEFAULT_255_1_234
10
17.0635818
20
15.0031417
40
0.5792888
50
167.4007466
51
180.3176909
0
ARC
8
DEFAULT_255_1_234
10
16.9583879
20
15.0253885
40
0.471777
50
154.1835823
51
167.250763
0
ARC
8
DEFAULT_255_1_234
10
16.8952347
20
15.0586417
40
0.4004528
50
134.3149965
51
154.5315275
0
ARC
8
DEFAULT_255_1_234
10
16.8734842
20
15.0777228
40
0.371612
50
122.8616532
51
133.9707695
0
ARC
8
DEFAULT_255_1_234
10
16.8631416
20
15.0999703
40
0.3473289
50
89.8249009
51
123.4199222
0
ARC
8
DEFAULT_255_1_234
10
16.8681457
20
15.0352967
40
0.4120197
50
74.7876118
51
90.5482747
0
ARC
8
DEFAULT_255_1_234
10
16.89752
20
15.143803
40
0.2996077
50
39.8178249
51
74.7633718
0
ARC
8
DEFAULT_255_1_234
10
16.8462521
20
15.1038351
40
0.3645855
50
16.8990863
51
39.4829761
0
ARC
8
DEFAULT_255_1_234
10
16.6567817
20
15.0431526
40
0.5635218
50
4.9636328
51
17.2026414
0
ARC
8
DEFAULT_255_1_234
10
16.4149887
20
15.017634
40
0.8066286
50
359.8834553
51
5.2834307
0
ARC
8
DEFAULT_255_1_234
10
17.0187412
20
14.9607803
40
0.3859091
50
180.9846213
51
194.9401313
0
ARC
8
DEFAULT_255_1_234
10
16.9137689
20
14.9320849
40
0.2770883
50
194.80314
51
222.0412631
0
ARC
8
DEFAULT_255_1_234
10
16.8833571
20
14.9019116
40
0.2343055
50
221.5417084
51
268.8614402
0
ARC
8
DEFAULT_255_1_234
10
16.8906566
20
14.9695686
40
0.3021528
50
267.732405
51
270.0097136
0
ARC
8
DEFAULT_255_1_234
10
16.8924376
20
14.9897105
40
0.3222994
50
269.6924892
51
280.4117579
0
ARC
8
DEFAULT_255_1_234
10
16.9100783
20
14.8978193
40
0.2287344
50
280.2255091
51
298.6338936
0
ARC
8
DEFAULT_255_1_234
10
16.9217575
20
14.8734223
40
0.2017294
50
299.0430333
51
300.4643464
0
ARC
8
DEFAULT_255_1_234
10
16.853758
20
14.9868038
40
0.3339357
50
300.6577328
51
322.0378878
0
ARC
8
DEFAULT_255_1_234
10
16.8187119
20
15.0172021
40
0.3802736
50
321.6750233
51
322.3046845
0
ARC
8
DEFAULT_255_1_234
10
16.9118081
20
14.900537
40
0.3520454
50
276.9728461
51
328.0035423
0
ARC
8
DEFAULT_255_1_234
10
16.8841134
20
15.0485841
40
0.5024498
50
269.8361028
51
278.0581756
0
ARC
8
DEFAULT_255_1_234
10
16.8613871
20
15.1230757
40
0.202159
50
89.2018686
51
117.2851756
0
ARC
8
DEFAULT_255_1_234
10
16.866704
20
15.1188752
40
0.2083484
50
118.0551165
51
137.4540413
0
ARC
8
DEFAULT_255_1_234
10
16.904178
20
15.0848304
40
0.2589774
50
137.5109581
51
158.8516286
0
ARC
8
DEFAULT_255_1_234
10
17.0179615
20
15.0389074
40
0.38167
50
158.5845963
51
170.1721436
0
ARC
8
DEFAULT_255_1_234
10
17.1349005
20
15.0156823
40
0.5008657
50
169.8376422
51
173.0566086
0
ARC
8
DEFAULT_255_1_234
10
16.6652079
20
15.0667509
40
0.4083467
50
2.9091802
51
12.8847116
0
ARC
8
DEFAULT_255_1_234
10
16.8022755
20
15.0990101
40
0.2675383
50
12.6957781
51
28.6404489
0
ARC
8
DEFAULT_255_1_234
10
16.8564426
20
15.1270458
40
0.2065654
50
29.0169854
51
41.1487595
0
ARC
8
DEFAULT_255_1_234
10
16.8767211
20
15.1447003
40
0.1796786
50
41.1646065
51
85.0013516
0
ARC
8
DEFAULT_255_1_234
10
16.8646308
20
15.0712431
40
0.2539726
50
83.7280015
51
90.0964893
0
LINE
8
DEFAULT_255_1_234
10
18.0400496
20
15.1758248
11
17.8906592
21
15.1758248
0
LINE
8
DEFAULT_255_1_234
10
17.3573518
20
14.8296569
11
17.505939
21
14.8296569
0
ARC
8
DEFAULT_255_1_234
10
17.7718411
20
14.7941959
40
0.1276617
50
359.3334982
51
18.5871358
0
ARC
8
DEFAULT_255_1_234
10
17.7927048
20
14.7997133
40
0.1061371
50
19.3540742
51
54.6485071
0
ARC
8
DEFAULT_255_1_234
10
17.742295
20
14.7301919
40
0.1920087
50
54.3827097
51
65.0622807
0
ARC
8
DEFAULT_255_1_234
10
17.6654346
20
14.56849
40
0.3710447
50
64.8282493
51
71.4200025
0
ARC
8
DEFAULT_255_1_234
10
17.5752222
20
14.3038107
40
0.6506741
50
71.3164301
51
75.8006402
0
ARC
8
DEFAULT_255_1_234
10
17.4911042
20
13.9797561
40
0.9854641
50
75.6809531
51
78.0061883
0
ARC
8
DEFAULT_255_1_234
10
17.9359575
20
16.077677
40
1.1591028
50
254.6901892
51
258.0466452
0
ARC
8
DEFAULT_255_1_234
10
17.8321483
20
15.7017781
40
0.7691345
50
249.9010773
51
254.755261
0
ARC
8
DEFAULT_255_1_234
10
17.7317826
20
15.4291982
40
0.478665
50
243.3097214
51
249.9709442
0
ARC
8
DEFAULT_255_1_234
10
17.6688847
20
15.3037778
40
0.3383568
50
234.4047477
51
243.2862168
0
ARC
8
DEFAULT_255_1_234
10
17.606637
20
15.2178232
40
0.2322322
50
220.8667099
51
234.5493881
0
ARC
8
DEFAULT_255_1_234
10
17.5724311
20
15.1866817
40
0.1859923
50
214.3062465
51
220.5065136
0
ARC
8
DEFAULT_255_1_234
10
17.569839
20
15.183588
40
0.1821108
50
186.912965
51
213.9618616
0
ARC
8
DEFAULT_255_1_234
10
17.6230485
20
15.1922009
40
0.2359799
50
179.8808832
51
187.4339886
0
ARC
8
DEFAULT_255_1_234
10
17.6075619
20
15.1942088
40
0.2204978
50
132.005434
51
180.3942919
0
ARC
8
DEFAULT_255_1_234
10
17.6732232
20
15.1336083
40
0.3095791
50
129.2319861
51
133.5302299
0
ARC
8
DEFAULT_255_1_234
10
17.678574
20
15.1241928
40
0.3202615
50
100.4410011
51
128.9081242
0
ARC
8
DEFAULT_255_1_234
10
17.7059624
20
14.9956455
40
0.4516583
50
89.6985377
51
100.9026564
0
ARC
8
DEFAULT_255_1_234
10
17.7116666
20
14.9796166
40
0.4676928
50
77.6965325
51
90.4076836
0
ARC
8
DEFAULT_255_1_234
10
17.744765
20
15.1223413
40
0.3211988
50
50.7276602
51
78.0399361
0
ARC
8
DEFAULT_255_1_234
10
17.7892108
20
15.1741296
40
0.2529778
50
25.7545084
51
51.0957453
0
ARC
8
DEFAULT_255_1_234
10
17.7893333
20
15.1791206
40
0.250738
50
359.2468627
51
24.7394243
0
ARC
8
DEFAULT_255_1_234
10
17.7608785
20
15.1762664
40
0.1297815
50
359.8050318
51
45.1544908
0
ARC
8
DEFAULT_255_1_234
10
17.7201927
20
15.1414794
40
0.1831883
50
43.8047702
51
49.6271585
0
ARC
8
DEFAULT_255_1_234
10
17.7209828
20
15.1415678
40
0.18261
50
49.7980766
51
82.1218353
0
ARC
8
DEFAULT_255_1_234
10
17.70908
20
15.0768998
40
0.2483163
50
81.4465357
51
90.1710293
0
ARC
8
DEFAULT_255_1_234
10
17.7066403
20
15.024288
40
0.300932
50
89.6766211
51
99.1264602
0
ARC
8
DEFAULT_255_1_234
10
17.6894865
20
15.1276537
40
0.1961547
50
98.968313
51
113.4570237
0
ARC
8
DEFAULT_255_1_234
10
17.669895
20
15.1744965
40
0.1453859
50
113.722589
51
127.4763106
0
ARC
8
DEFAULT_255_1_234
10
17.6530596
20
15.1945124
40
0.1192639
50
126.9083309
51
150.3165862
0
ARC
8
DEFAULT_255_1_234
10
17.6482929
20
15.1995981
40
0.112623
50
151.3635175
51
180.0701457
0
ARC
8
DEFAULT_255_1_234
10
17.6791714
20
15.197499
40
0.1435149
50
179.2169974
51
179.9954013
0
ARC
8
DEFAULT_255_1_234
10
17.6430771
20
15.1962056
40
0.1074286
50
179.3040112
51
198.4225446
0
ARC
8
DEFAULT_255_1_234
10
17.6238904
20
15.1912127
40
0.0876573
50
199.2895851
51
238.6034594
0
ARC
8
DEFAULT_255_1_234
10
17.6841751
20
15.285845
40
0.1998512
50
237.9846301
51
246.8744712
0
ARC
8
DEFAULT_255_1_234
10
17.7699696
20
15.4821205
40
0.4140547
50
246.6234531
51
251.8168941
0
ARC
8
DEFAULT_255_1_234
10
17.8730239
20
15.7915905
40
0.7402308
50
251.713434
51
255.0778414
0
ARC
8
DEFAULT_255_1_234
10
17.9929502
20
16.2382563
40
1.2027155
50
255.0367487
51
257.4705983
0
ARC
8
DEFAULT_255_1_234
10
17.4821512
20
13.9368863
40
1.1546601
50
73.6837552
51
77.5016755
0
ARC
8
DEFAULT_255_1_234
10
17.5910287
20
14.3068581
40
0.7690009
50
68.7044154
51
73.7249639
0
ARC
8
DEFAULT_255_1_234
10
17.6813308
20
14.5395654
40
0.5193873
50
63.590599
51
68.6626804
0
ARC
8
DEFAULT_255_1_234
10
17.7584326
20
14.6933123
40
0.3473927
50
54.7106439
51
63.7013633
0
ARC
8
DEFAULT_255_1_234
10
17.8208781
20
14.78054
40
0.2401192
50
41.0622434
51
54.8487496
0
ARC
8
DEFAULT_255_1_234
10
17.8550167
20
14.8118592
40
0.1938094
50
34.4950568
51
40.7105546
0
ARC
8
DEFAULT_255_1_234
10
17.8596975
20
14.8167078
40
0.1872106
50
9.3763373
51
34.0833615
0
ARC
8
DEFAULT_255_1_234
10
17.7943845
20
14.8041728
40
0.2536988
50
359.7694872
51
9.7663171
0
ARC
8
DEFAULT_255_1_234
10
17.8141346
20
14.7998764
40
0.2339696
50
335.8654732
51
0.8022045
0
ARC
8
DEFAULT_255_1_234
10
17.821639
20
14.8012197
40
0.2277108
50
307.7357725
51
334.7849066
0
ARC
8
DEFAULT_255_1_234
10
17.7815566
20
14.8462645
40
0.2878951
50
307.0241536
51
308.5578354
0
ARC
8
DEFAULT_255_1_234
10
17.7557897
20
14.8848801
40
0.3342515
50
282.9362969
51
306.5646424
0
ARC
8
DEFAULT_255_1_234
10
17.7196195
20
15.0316108
40
0.4853615
50
271.1026298
51
283.2200835
0
ARC
8
DEFAULT_255_1_234
10
17.7132439
20
15.1557418
40
0.6096052
50
269.9919117
51
271.4772449
0
ARC
8
DEFAULT_255_1_234
10
17.7106194
20
15.0479436
40
0.5018135
50
259.0723564
51
270.289833
0
ARC
8
DEFAULT_255_1_234
10
17.6893926
20
14.9362271
40
0.388099
50
245.4963068
51
259.0227342
0
ARC
8
DEFAULT_255_1_234
10
17.6615882
20
14.8780615
40
0.3236422
50
228.9684658
51
245.7044727
0
ARC
8
DEFAULT_255_1_234
10
17.6350326
20
14.8453575
40
0.2815426
50
214.4011705
51
228.6759915
0
ARC
8
DEFAULT_255_1_234
10
17.6061067
20
14.829529
40
0.2487548
50
179.9705531
51
215.1572795
0
ARC
8
DEFAULT_255_1_234
10
17.6761666
20
14.8368806
40
0.1703809
50
182.4299387
51
203.0329699
0
ARC
8
DEFAULT_255_1_234
10
17.6577324
20
14.8312396
40
0.1512226
50
203.798802
51
232.548466
0
ARC
8
DEFAULT_255_1_234
10
17.6853845
20
14.8663826
40
0.1959374
50
232.3782728
51
256.3934612
0
ARC
8
DEFAULT_255_1_234
10
17.7084207
20
14.9553842
40
0.2878639
50
256.104506
51
268.4626716
0
ARC
8
DEFAULT_255_1_234
10
17.7130691
20
15.0350487
40
0.3676329
50
268.0715632
51
270.0138206
0
ARC
8
DEFAULT_255_1_234
10
17.7149216
20
15.0078083
40
0.3403971
50
269.7031147
51
278.8341955
0
ARC
8
DEFAULT_255_1_234
10
17.7331309
20
14.8947876
40
0.2259217
50
278.6728789
51
292.8232582
0
ARC
8
DEFAULT_255_1_234
10
17.7531847
20
14.8446449
40
0.171929
50
293.1452328
51
303.6655899
0
ARC
8
DEFAULT_255_1_234
10
17.7796726
20
14.8070204
40
0.1259367
50
303.1248165
51
321.742847
0
ARC
8
DEFAULT_255_1_234
10
17.7982607
20
14.7907156
40
0.1012531
50
322.4748573
51
1.1291126
0
LINE
8
DEFAULT_255_1_234
10
4.9274119
20
12.6991792
11
4.9274119
21
12.5779
0
LINE
8
DEFAULT_255_1_234
10
4.9274119
20
12.5779
11
4.161184
21
12.5779
0
LINE
8
DEFAULT_255_1_234
10
4.161184
20
12.5779
11
4.161184
21
12.6847221
0
LINE
8
DEFAULT_255_1_234
10
4.161184
20
12.6847221
11
4.5659836
21
13.1344995
0
LINE
8
DEFAULT_255_1_234
10
4.2872823
20
13.4027595
11
4.1386952
21
13.4027595
0
LINE
8
DEFAULT_255_1_234
10
4.6535296
20
13.0389218
11
4.3402918
21
12.6991792
0
LINE
8
DEFAULT_255_1_234
10
4.3402918
20
12.6991792
11
4.9274119
21
12.6991792
0
ARC
8
DEFAULT_255_1_234
10
3.216967
20
14.3274527
40
1.8008286
50
318.5132453
51
320.7828378
0
ARC
8
DEFAULT_255_1_234
10
3.7456644
20
13.8971426
40
1.1191493
50
320.7372736
51
323.9737074
0
ARC
8
DEFAULT_255_1_234
10
4.1376501
20
13.6131361
40
0.6350923
50
323.8961724
51
328.6421089
0
ARC
8
DEFAULT_255_1_234
10
4.3423096
20
13.4869031
40
0.3946393
50
328.8299013
51
331.789948
0
ARC
8
DEFAULT_255_1_234
10
4.4420274
20
13.4354509
40
0.2824501
50
331.4255242
51
352.9364833
0
ARC
8
DEFAULT_255_1_234
10
4.4556775
20
13.4323976
40
0.2685315
50
353.2248685
51
0.0169286
0
ARC
8
DEFAULT_255_1_234
10
4.4766652
20
13.434695
40
0.2475536
50
359.4866256
51
15.9339782
0
ARC
8
DEFAULT_255_1_234
10
4.5273637
20
13.4483286
40
0.1950618
50
16.1714718
51
43.5284424
0
ARC
8
DEFAULT_255_1_234
10
4.5350946
20
13.4560573
40
0.184134
50
43.4415429
51
83.1661404
0
ARC
8
DEFAULT_255_1_234
10
4.5216864
20
13.3823771
40
0.258926
50
82.160215
51
90.1505798
0
ARC
8
DEFAULT_255_1_234
10
4.5185291
20
13.3286865
40
0.3126255
50
89.5460705
51
102.5418777
0
ARC
8
DEFAULT_255_1_234
10
4.4942377
20
13.4317665
40
0.2067346
50
102.1739365
51
129.2061916
0
ARC
8
DEFAULT_255_1_234
10
4.4863449
20
13.4442094
40
0.1921118
50
129.7279328
51
135.7542026
0
ARC
8
DEFAULT_255_1_234
10
4.4984977
20
13.4345045
40
0.2075944
50
136.175737
51
166.3674722
0
ARC
8
DEFAULT_255_1_234
10
4.5991896
20
13.4075182
40
0.3118201
50
165.9092917
51
178.8683903
0
ARC
8
DEFAULT_255_1_234
10
4.6856757
20
13.4028179
40
0.3983935
50
178.438168
51
180.0083905
0
ARC
8
DEFAULT_255_1_234
10
4.5455359
20
13.4067231
40
0.4068601
50
163.2878735
51
180.5581814
0
ARC
8
DEFAULT_255_1_234
10
4.4653621
20
13.428784
40
0.3237344
50
133.454115
51
162.9470031
0
ARC
8
DEFAULT_255_1_234
10
4.4832162
20
13.4098
40
0.349795
50
100.7869394
51
133.4384016
0
ARC
8
DEFAULT_255_1_234
10
4.5179934
20
13.2549319
40
0.5084616
50
89.6605301
51
101.3704185
0
ARC
8
DEFAULT_255_1_234
10
4.5246273
20
13.2610496
40
0.502348
50
78.2171172
51
90.4130393
0
ARC
8
DEFAULT_255_1_234
10
4.5601351
20
13.4234637
40
0.3361092
50
55.9268222
51
78.4888551
0
ARC
8
DEFAULT_255_1_234
10
4.5797791
20
13.4573324
40
0.2970617
50
47.9292255
51
55.4054003
0
ARC
8
DEFAULT_255_1_234
10
4.5899352
20
13.4676502
40
0.2825983
50
4.3347696
51
48.0560701
0
ARC
8
DEFAULT_255_1_234
10
4.4803745
20
13.4506601
40
0.393225
50
359.925209
51
5.5967654
0
ARC
8
DEFAULT_255_1_234
10
4.5232637
20
13.4562816
40
0.3503892
50
337.8914096
51
358.9967724
0
ARC
8
DEFAULT_255_1_234
10
4.2519049
20
13.5609706
40
0.6412172
50
326.9135351
51
338.3505194
0
ARC
8
DEFAULT_255_1_234
10
3.8533353
20
13.8164284
40
1.1146189
50
319.6472867
51
327.095818
0
ARC
8
DEFAULT_255_1_234
10
3.4700356
20
14.1326
40
1.6114559
50
317.2586784
51
319.9046139
0
LINE
8
DEFAULT_255_1_234
10
5.7121127
20
13.7473211
11
5.7121127
21
12.970652
0
LINE
8
DEFAULT_255_1_234
10
5.7121127
20
12.970652
11
5.8743538
21
12.970652
0
LINE
8
DEFAULT_255_1_234
10
5.8743538
20
12.970652
11
5.8743538
21
12.8493728
0
LINE
8
DEFAULT_255_1_234
10
5.8743538
20
12.8493728
11
5.7121127
21
12.8493728
0
LINE
8
DEFAULT_255_1_234
10
5.7121127
20
12.8493728
11
5.7121127
21
12.5779
0
LINE
8
DEFAULT_255_1_234
10
5.7121127
20
12.5779
11
5.5627224
21
12.5779
0
LINE
8
DEFAULT_255_1_234
10
5.5627224
20
12.5779
11
5.5627224
21
12.8493728
0
LINE
8
DEFAULT_255_1_234
10
5.5627224
20
12.8493728
11
5.0302181
21
12.8493728
0
LINE
8
DEFAULT_255_1_234
10
5.0302181
20
12.8493728
11
5.0302181
21
12.9369187
0
LINE
8
DEFAULT_255_1_234
10
5.0302181
20
12.9369187
11
5.5538875
21
13.7473211
0
LINE
8
DEFAULT_255_1_234
10
5.5538875
20
13.7473211
11
5.7121127
21
13.7473211
0
LINE
8
DEFAULT_255_1_234
10
5.5450525
20
13.5119912
11
5.1988846
21
12.970652
0
LINE
8
DEFAULT_255_1_234
10
5.1988846
20
12.970652
11
5.5627224
21
12.970652
0
LINE
8
DEFAULT_255_1_234
10
5.5627224
20
12.970652
11
5.5627224
21
13.5441181
0
LINE
8
DEFAULT_255_1_234
10
5.5627224
20
13.5441181
11
5.5450525
21
13.5119912
0
LINE
8
DEFAULT_255_1_234
10
6.101652
20
13.7473211
11
6.434166
21
12.7827093
0
LINE
8
DEFAULT_255_1_234
10
6.434166
20
12.7827093
11
6.7682863
21
13.7473211
0
LINE
8
DEFAULT_255_1_234
10
6.7682863
20
13.7473211
11
6.9369528
21
13.7473211
0
LINE
8
DEFAULT_255_1_234
10
6.9369528
20
13.7473211
11
6.5032389
21
12.5779
0
LINE
8
DEFAULT_255_1_234
10
6.5032389
20
12.5779
11
6.3666994
21
12.5779
0
LINE
8
DEFAULT_255_1_234
10
6.3666994
20
12.5779
11
5.9337887
21
13.7473211
0
LINE
8
DEFAULT_255_1_234
10
5.9337887
20
13.7473211
11
6.101652
21
13.7473211
0
LINE
8
DEFAULT_255_1_234
10
4.2372364
20
5.8098211
11
4.4364235
21
5.8098211
0
LINE
8
DEFAULT_255_1_234
10
4.4364235
20
5.8098211
11
4.8187342
21
4.8556506
0
LINE
8
DEFAULT_255_1_234
10
4.8187342
20
4.8556506
11
5.201045
21
5.8098211
0
LINE
8
DEFAULT_255_1_234
10
5.201045
20
5.8098211
11
5.4010353
21
5.8098211
0
LINE
8
DEFAULT_255_1_234
10
5.4010353
20
5.8098211
11
5.4010353
21
4.6404
0
LINE
8
DEFAULT_255_1_234
10
5.4010353
20
4.6404
11
5.2468259
21
4.6404
0
LINE
8
DEFAULT_255_1_234
10
5.2468259
20
4.6404
11
5.2468259
21
5.0957996
0
LINE
8
DEFAULT_255_1_234
10
5.2468259
20
5.0957996
11
5.261283
21
5.5873419
0
LINE
8
DEFAULT_255_1_234
10
5.261283
20
5.5873419
11
4.8773659
21
4.6404
0
LINE
8
DEFAULT_255_1_234
10
4.8773659
20
4.6404
11
4.7592994
21
4.6404
0
LINE
8
DEFAULT_255_1_234
10
4.7592994
20
4.6404
11
4.3761854
21
5.5849324
0
LINE
8
DEFAULT_255_1_234
10
4.3761854
20
5.5849324
11
4.3914458
21
5.0957996
0
LINE
8
DEFAULT_255_1_234
10
4.3914458
20
5.0957996
11
4.3914458
21
4.6404
0
LINE
8
DEFAULT_255_1_234
10
4.3914458
20
4.6404
11
4.2372364
21
4.6404
0
LINE
8
DEFAULT_255_1_234
10
4.2372364
20
4.6404
11
4.2372364
21
5.8098211
0
LINE
8
DEFAULT_255_1_234
10
5.8283237
20
5.8098211
11
5.8283237
21
4.7664983
0
LINE
8
DEFAULT_255_1_234
10
5.8283237
20
4.7664983
11
6.3825137
21
4.7664983
0
LINE
8
DEFAULT_255_1_234
10
6.3825137
20
4.7664983
11
6.3825137
21
4.6404
0
LINE
8
DEFAULT_255_1_234
10
6.3825137
20
4.6404
11
5.6733112
21
4.6404
0
LINE
8
DEFAULT_255_1_234
10
5.6733112
20
4.6404
11
5.6733112
21
5.8098211
0
LINE
8
DEFAULT_255_1_234
10
5.6733112
20
5.8098211
11
5.8283237
21
5.8098211
0
LINE
8
DEFAULT_255_1_234
10
7.2700208
20
4.6404
11
6.8555831
21
5.1841487
0
LINE
8
DEFAULT_255_1_234
10
6.8555831
20
5.1841487
11
6.7126181
21
5.0355615
0
LINE
8
DEFAULT_255_1_234
10
6.7126181
20
5.0355615
11
6.7126181
21
4.6404
0
LINE
8
DEFAULT_255_1_234
10
6.7126181
20
4.6404
11
6.5584087
21
4.6404
0
LINE
8
DEFAULT_255_1_234
10
6.5584087
20
4.6404
11
6.5584087
21
5.8098211
0
LINE
8
DEFAULT_255_1_234
10
6.5584087
20
5.8098211
11
6.7126181
21
5.8098211
0
LINE
8
DEFAULT_255_1_234
10
6.7126181
20
5.8098211
11
6.7126181
21
5.2315359
0
LINE
8
DEFAULT_255_1_234
10
6.7126181
20
5.2315359
11
7.2322716
21
5.8098211
0
LINE
8
DEFAULT_255_1_234
10
7.2322716
20
5.8098211
11
7.4186079
21
5.8098211
0
LINE
8
DEFAULT_255_1_234
10
7.4186079
20
5.8098211
11
6.9583893
21
5.2933803
0
LINE
8
DEFAULT_255_1_234
10
6.9583893
20
5.2933803
11
7.4547507
21
4.6404
0
LINE
8
DEFAULT_255_1_234
10
7.4547507
20
4.6404
11
7.2700208
21
4.6404
0
LINE
8
DEFAULT_255_1_234
10
23.1659817
20
13.2694327
11
23.1659817
21
13.0766709
0
LINE
8
DEFAULT_255_1_234
10
22.427865
20
13.0565916
11
22.427865
21
13.2549755
0
LINE
8
DEFAULT_255_1_234
10
23.0173946
20
13.0365123
11
23.0173946
21
13.2798739
0
LINE
8
DEFAULT_255_1_234
10
22.5764521
20
13.2911184
11
22.5764521
21
13.0533789
0
ARC
8
DEFAULT_255_1_234
10
21.9412707
20
13.0717805
40
1.2247208
50
353.8441951
51
0.2287902
0
ARC
8
DEFAULT_255_1_234
10
22.4052211
20
13.0199806
40
0.7578929
50
344.4934747
51
353.9765454
0
ARC
8
DEFAULT_255_1_234
10
22.7044801
20
12.9348981
40
0.4467846
50
329.2803592
51
344.7472793
0
ARC
8
DEFAULT_255_1_234
10
22.8037626
20
12.8804018
40
0.3336173
50
324.9352394
51
328.6160465
0
ARC
8
DEFAULT_255_1_234
10
22.8414734
20
12.8540427
40
0.2876076
50
280.580143
51
324.9173126
0
ARC
8
DEFAULT_255_1_234
10
22.8013527
20
13.0211099
40
0.4592847
50
269.5977311
51
281.6734359
0
ARC
8
DEFAULT_255_1_234
10
22.7941433
20
13.0091173
40
0.4472986
50
256.6228859
51
270.51044
0
ARC
8
DEFAULT_255_1_234
10
22.753941
20
12.8542877
40
0.2873874
50
215.8618325
51
257.2788573
0
ARC
8
DEFAULT_255_1_234
10
22.8560442
20
12.9227977
40
0.4102928
50
197.9693508
51
215.2623606
0
ARC
8
DEFAULT_255_1_234
10
23.1045558
20
13.0066709
40
0.6725652
50
187.8816417
51
198.2346507
0
ARC
8
DEFAULT_255_1_234
10
23.5003766
20
13.0638079
40
1.0724845
50
180.8976217
51
188.0055519
0
ARC
8
DEFAULT_255_1_234
10
23.7803954
20
13.0741777
40
1.3526448
50
180.7449369
51
181.1510016
0
ARC
8
DEFAULT_255_1_234
10
23.6226683
20
13.2598042
40
1.1948131
50
173.7675579
51
180.231553
0
ARC
8
DEFAULT_255_1_234
10
23.170883
20
13.3108666
40
0.7401564
50
164.3058563
51
173.9002247
0
ARC
8
DEFAULT_255_1_234
10
22.8796899
20
13.3947656
40
0.4371288
50
148.7922025
51
164.568378
0
ARC
8
DEFAULT_255_1_234
10
22.7845351
20
13.4478929
40
0.3282386
50
144.5883898
51
148.1176286
0
ARC
8
DEFAULT_255_1_234
10
22.7502249
20
13.4718315
40
0.2864044
50
101.6440918
51
144.514236
0
ARC
8
DEFAULT_255_1_234
10
22.7927315
20
13.3029069
40
0.4604934
50
89.5284041
51
102.5819763
0
ARC
8
DEFAULT_255_1_234
10
22.8006403
20
13.2990018
40
0.464401
50
77.0437873
51
90.5081339
0
ARC
8
DEFAULT_255_1_234
10
22.8408405
20
13.4632615
40
0.2953195
50
48.2778575
51
77.4994676
0
ARC
8
DEFAULT_255_1_234
10
22.8481036
20
13.4761746
40
0.2808655
50
36.3142134
51
47.6305865
0
ARC
8
DEFAULT_255_1_234
10
22.7612343
20
13.4176515
40
0.3855453
50
18.2931786
51
35.6769206
0
ARC
8
DEFAULT_255_1_234
10
22.5069102
20
13.3303593
40
0.654423
50
8.024666
51
18.5605216
0
ARC
8
DEFAULT_255_1_234
10
22.0906022
20
13.2688792
40
1.0752407
50
1.1274072
51
8.1718305
0
ARC
8
DEFAULT_255_1_234
10
21.7670213
20
13.2561885
40
1.3990231
50
0.5424119
51
1.3863029
0
ARC
8
DEFAULT_255_1_234
10
21.949159
20
13.2834342
40
1.0682415
50
359.8090433
51
4.9407866
0
ARC
8
DEFAULT_255_1_234
10
22.3701604
20
13.3210113
40
0.6455691
50
4.8362157
51
12.2904523
0
ARC
8
DEFAULT_255_1_234
10
22.6456719
20
13.3823965
40
0.3633074
50
12.0805627
51
23.8173984
0
ARC
8
DEFAULT_255_1_234
10
22.7630425
20
13.4320919
40
0.2358723
50
24.2871213
51
31.3935614
0
ARC
8
DEFAULT_255_1_234
10
22.8155122
20
13.4664233
40
0.1732111
50
30.7407893
51
82.4657128
0
ARC
8
DEFAULT_255_1_234
10
22.7975256
20
13.3780691
40
0.263235
50
81.1060089
51
90.2184952
0
ARC
8
DEFAULT_255_1_234
10
22.7939555
20
13.4038924
40
0.2374236
50
89.3806855
51
105.6762551
0
ARC
8
DEFAULT_255_1_234
10
22.7756186
20
13.4705567
40
0.1682847
50
105.7981136
51
149.7388061
0
ARC
8
DEFAULT_255_1_234
10
22.8820264
20
13.406595
40
0.2924306
50
149.4208916
51
163.6286378
0
ARC
8
DEFAULT_255_1_234
10
23.0911152
20
13.342825
40
0.5110213
50
163.3763315
51
172.1410975
0
ARC
8
DEFAULT_255_1_234
10
23.4211871
20
13.2955518
40
0.8444586
50
172.0259487
51
178.0703232
0
ARC
8
DEFAULT_255_1_234
10
23.724196
20
13.2811906
40
1.1477868
50
177.8631668
51
179.5044149
0
ARC
8
DEFAULT_255_1_234
10
23.6169365
20
13.0497389
40
1.0404907
50
179.7995573
51
185.2460446
0
ARC
8
DEFAULT_255_1_234
10
23.2126404
20
13.0114513
40
0.6343885
50
185.1411642
51
193.0079639
0
ARC
8
DEFAULT_255_1_234
10
22.9482877
20
12.9489641
40
0.3627568
50
192.7897626
51
205.2507664
0
ARC
8
DEFAULT_255_1_234
10
22.8436424
20
12.9022415
40
0.2481908
50
205.8005384
51
211.2537509
0
ARC
8
DEFAULT_255_1_234
10
22.7912864
20
12.867158
40
0.1852521
50
210.3789793
51
238.4008143
0
ARC
8
DEFAULT_255_1_234
10
22.7893386
20
12.8718376
40
0.1882621
50
239.6520629
51
265.9793761
0
ARC
8
DEFAULT_255_1_234
10
22.7978586
20
12.9390427
40
0.2559272
50
265.1315437
51
270.060332
0
ARC
8
DEFAULT_255_1_234
10
22.8007365
20
12.9066534
40
0.2235528
50
269.3314664
51
287.2178029
0
ARC
8
DEFAULT_255_1_234
10
22.8145217
20
12.8563279
40
0.1714108
50
287.7958004
51
329.080874
0
ARC
8
DEFAULT_255_1_234
10
22.7187674
20
12.916093
40
0.2842745
50
328.6634704
51
343.3325132
0
ARC
8
DEFAULT_255_1_234
10
22.5014694
20
12.9837863
40
0.5118644
50
343.0499468
51
351.9393422
0
ARC
8
DEFAULT_255_1_234
10
22.1547994
20
13.0348949
40
0.8622784
50
351.8069023
51
357.7959224
0
ARC
8
DEFAULT_255_1_234
10
21.831255
20
13.0516721
40
1.1862365
50
357.5871873
51
359.2677531
0
LINE
8
DEFAULT_255_1_234
10
23.4495021
20
13.7473211
11
23.7820161
21
12.7827093
0
LINE
8
DEFAULT_255_1_234
10
23.7820161
20
12.7827093
11
24.1161364
21
13.7473211
0
LINE
8
DEFAULT_255_1_234
10
24.1161364
20
13.7473211
11
24.2848029
21
13.7473211
0
LINE
8
DEFAULT_255_1_234
10
24.2848029
20
13.7473211
11
23.851089
21
12.5779
0
LINE
8
DEFAULT_255_1_234
10
23.851089
20
12.5779
11
23.7145495
21
12.5779
0
LINE
8
DEFAULT_255_1_234
10
23.7145495
20
12.5779
11
23.2816388
21
13.7473211
0
LINE
8
DEFAULT_255_1_234
10
23.2816388
20
13.7473211
11
23.4495021
21
13.7473211
0
ENDSEC
0
EOF