0
SECTION
2
HEADER
9
$MEASUREMENT
70
1
0
ENDSEC
0
SECTION
2
TABLES
0
TABLE
2
LTYPE
0
LTYPE
72
65
70
64
2
CONTINUOUS
3
______
73
0
40
0
0
ENDTAB
0
TABLE
2
LAYER
0
LAYER
2
DEFAULT_255_2_778
70
0
62
255
6
CONTINUOUS
0
LAYER
2
DEFAULT_255_1_234
70
0
62
255
6
CONTINUOUS
0
ENDTAB
0
ENDSEC
0
SECTION
2
ENTITIES
0
ARC
8
DEFAULT_255_2_778
10
3.5700693
20
51.9926534
40
0.7914215
50
129.1312896
51
180.1450914
0
ARC
8
DEFAULT_255_2_778
10
3.5703345
20
51.9931405
40
0.7912112
50
89.854026
51
129.1684493
0
ARC
8
DEFAULT_255_2_778
10
25.7993937
20
51.992827
40
0.7915249
50
39.4792447
51
90.147911
0
ARC
8
DEFAULT_255_2_778
10
25.7999935
20
51.9926737
40
0.7911595
50
359.8533901
51
39.5154338
0
ARC
8
DEFAULT_255_2_778
10
25.7996693
20
-1.9863989
40
0.7914836
50
309.4761667
51
0.1482649
0
ARC
8
DEFAULT_255_2_778
10
25.799398
20
-1.98683
40
0.7913235
50
269.8517415
51
309.511178
0
ARC
8
DEFAULT_255_2_778
10
3.570342
20
-1.9867718
40
0.7913815
50
219.1282118
51
270.1454017
0
ARC
8
DEFAULT_255_2_778
10
3.5700247
20
-1.9863893
40
0.7913769
50
179.8524075
51
219.1641908
0
LINE
8
DEFAULT_255_2_778
10
3.5723503
20
52.7843492
11
25.7973503
21
52.7843492
0
LINE
8
DEFAULT_255_2_778
10
26.5911503
20
51.9906492
11
26.5911503
21
-1.9843508
0
LINE
8
DEFAULT_255_2_778
10
25.7973503
20
-2.7781508
11
3.5723503
21
-2.7781508
0
LINE
8
DEFAULT_255_2_778
10
2.7786503
20
-1.9843508
11
2.7786503
21
51.9906492
0
LINE
8
DEFAULT_255_1_234
10
10.146323
20
-0.2802337
11
10.3013355
21
-0.2802337
0
LINE
8
DEFAULT_255_1_234
10
9.4009777
20
-0.1212053
11
9.4009777
21
-0.0087609
0
LINE
8
DEFAULT_255_1_234
10
10.3013355
20
0.1422357
11
10.146323
21
0.1422357
0
LINE
8
DEFAULT_255_1_234
10
9.5559902
20
-0.0127768
11
9.5559902
21
-0.1260243
0
ARC
8
DEFAULT_255_1_234
10
9.7532742
20
-0.2205154
40
0.5513052
50
340.1774281
51
353.7814284
0
ARC
8
DEFAULT_255_1_234
10
9.9104095
20
-0.2790418
40
0.3836379
50
311.4558989
51
340.4421614
0
ARC
8
DEFAULT_255_1_234
10
9.9070763
20
-0.2679472
40
0.3941894
50
282.4333181
51
310.7513653
0
ARC
8
DEFAULT_255_1_234
10
9.8631502
20
-0.0864321
40
0.5809175
50
269.9358511
51
282.809604
0
ARC
8
DEFAULT_255_1_234
10
9.8579568
20
0.0593212
40
0.7266847
50
270.0021091
51
270.3581957
0
ARC
8
DEFAULT_255_1_234
10
9.8526985
20
-0.2007415
40
0.4666519
50
250.7884749
51
270.6489167
0
ARC
8
DEFAULT_255_1_234
10
9.835882
20
-0.2644681
40
0.4009729
50
219.3627325
51
250.0611886
0
ARC
8
DEFAULT_255_1_234
10
9.9188031
20
-0.1939958
40
0.5097822
50
193.5479632
51
219.5756669
0
ARC
8
DEFAULT_255_1_234
10
10.1559652
20
-0.1324081
40
0.7547848
50
181.1218675
51
193.87563
0
ARC
8
DEFAULT_255_1_234
10
10.3629833
20
-0.121342
40
0.9620055
50
179.9918545
51
181.5394234
0
ARC
8
DEFAULT_255_1_234
10
10.1778935
20
-0.0050212
40
0.7769248
50
169.5837241
51
180.2757934
0
ARC
8
DEFAULT_255_1_234
10
9.9941873
20
0.0289229
40
0.590109
50
155.0365899
51
169.6003176
0
ARC
8
DEFAULT_255_1_234
10
9.8806337
20
0.0836677
40
0.4640625
50
136.783148
51
155.2472683
0
ARC
8
DEFAULT_255_1_234
10
9.8416814
20
0.1167562
40
0.4130255
50
121.7633186
51
136.428115
0
ARC
8
DEFAULT_255_1_234
10
9.8551776
20
0.0918227
40
0.4413323
50
95.6459699
51
121.5490577
0
ARC
8
DEFAULT_255_1_234
10
9.8709058
20
-0.0190051
40
0.55319
50
89.924208
51
96.1377933
0
ARC
8
DEFAULT_255_1_234
10
9.8759491
20
-0.0071458
40
0.5413475
50
76.6779277
51
90.4563316
0
ARC
8
DEFAULT_255_1_234
10
9.9153114
20
0.1519114
40
0.3775041
50
47.485847
51
76.9287264
0
ARC
8
DEFAULT_255_1_234
10
9.9006087
20
0.1419159
40
0.3948286
50
16.5424086
51
46.8933463
0
ARC
8
DEFAULT_255_1_234
10
9.7398244
20
0.0890861
40
0.564021
50
5.4072051
51
17.0365086
0
ARC
8
DEFAULT_255_1_234
10
9.5959261
20
0.0659679
40
0.5556559
50
7.8891745
51
15.9239216
0
ARC
8
DEFAULT_255_1_234
10
9.7946274
20
0.1236631
40
0.3487515
50
15.7653144
51
27.9410532
0
ARC
8
DEFAULT_255_1_234
10
9.9050492
20
0.182779
40
0.2235026
50
27.8166557
51
46.4008329
0
ARC
8
DEFAULT_255_1_234
10
9.9100135
20
0.1822082
40
0.2205286
50
47.4371857
51
75.0698205
0
ARC
8
DEFAULT_255_1_234
10
9.8791529
20
0.0747765
40
0.3322915
50
74.7008593
51
87.8124495
0
ARC
8
DEFAULT_255_1_234
10
9.8718217
20
-0.0308156
40
0.4380987
50
87.3814673
51
90.0240855
0
ARC
8
DEFAULT_255_1_234
10
9.867976
20
0.0869291
40
0.3203749
50
89.3451631
51
108.5745436
0
ARC
8
DEFAULT_255_1_234
10
9.8542865
20
0.1382908
40
0.2673494
50
109.2998449
51
143.3037509
0
ARC
8
DEFAULT_255_1_234
10
9.9304938
20
0.0796881
40
0.3634757
50
143.0753173
51
163.1916937
0
ARC
8
DEFAULT_255_1_234
10
10.1256666
20
0.0180967
40
0.5681262
50
162.9373603
51
174.6208611
0
ARC
8
DEFAULT_255_1_234
10
10.3882708
20
-0.010699
40
0.8322832
50
174.3419979
51
180.1430411
0
ARC
8
DEFAULT_255_1_234
10
10.2951864
20
-0.1301302
40
0.7392076
50
179.6817502
51
189.150529
0
ARC
8
DEFAULT_255_1_234
10
10.0451112
20
-0.171781
40
0.4856932
50
188.9910863
51
203.5773039
0
ARC
8
DEFAULT_255_1_234
10
9.9371445
20
-0.2165789
40
0.3688271
50
203.9077269
51
215.1312379
0
ARC
8
DEFAULT_255_1_234
10
9.8448539
20
-0.2881059
40
0.2522457
50
213.9071664
51
263.8849284
0
ARC
8
DEFAULT_255_1_234
10
9.8573868
20
-0.2096482
40
0.3316174
50
263.1758525
51
270.1031083
0
ARC
8
DEFAULT_255_1_234
10
9.860596
20
-0.0849635
40
0.4563091
50
269.6719807
51
279.0609165
0
ARC
8
DEFAULT_255_1_234
10
9.8872728
20
-0.2462093
40
0.2928759
50
278.8750225
51
293.6346586
0
ARC
8
DEFAULT_255_1_234
10
9.9192936
20
-0.32141
40
0.2111472
50
293.8553404
51
310.0518804
0
ARC
8
DEFAULT_255_1_234
10
9.919779
20
-0.3276484
40
0.2060917
50
311.0646779
51
332.0108348
0
ARC
8
DEFAULT_255_1_234
10
9.8005517
20
-0.2619022
40
0.3422352
50
331.6588543
51
343.2878891
0
ARC
8
DEFAULT_255_1_234
10
9.5943032
20
-0.1985202
40
0.5580003
50
343.1446044
51
351.010618
0
ARC
8
DEFAULT_255_1_234
10
9.4401678
20
-0.1704129
40
0.7146438
50
350.7157277
51
351.1602153
0
LINE
8
DEFAULT_255_1_234
10
11.287633
20
0.1799849
11
11.1326205
21
0.1799849
0
LINE
8
DEFAULT_255_1_234
10
10.4402846
20
-0.3123606
11
10.5952972
21
-0.3123606
0
ARC
8
DEFAULT_255_1_234
10
11.1985017
20
1.0746768
40
1.252368
50
248.9199003
51
254.1439814
0
ARC
8
DEFAULT_255_1_234
10
11.0304512
20
0.6420234
40
0.788226
50
241.633709
51
249.0064503
0
ARC
8
DEFAULT_255_1_234
10
10.8775907
20
0.3619317
40
0.4691427
50
230.498225
51
241.8087113
0
ARC
8
DEFAULT_255_1_234
10
10.7991481
20
0.2619906
40
0.3421437
50
227.4064532
51
229.9881192
0
ARC
8
DEFAULT_255_1_234
10
10.7504002
20
0.2144088
40
0.2741476
50
200.6781896
51
228.1763934
0
ARC
8
DEFAULT_255_1_234
10
10.7576312
20
0.2129077
40
0.2804109
50
179.5061581
51
199.8694617
0
ARC
8
DEFAULT_255_1_234
10
10.7567064
20
0.220321
40
0.2795204
50
132.4834203
51
181.0242172
0
ARC
8
DEFAULT_255_1_234
10
10.8162646
20
0.1640704
40
0.3612768
50
129.2532479
51
133.4242687
0
ARC
8
DEFAULT_255_1_234
10
10.8309096
20
0.1420965
40
0.3875675
50
101.98776
51
128.8742646
0
ARC
8
DEFAULT_255_1_234
10
10.8707706
20
-0.0300259
40
0.5642249
50
89.5906553
51
102.3169264
0
ARC
8
DEFAULT_255_1_234
10
10.8778199
20
0.0018148
40
0.5323783
50
77.2360837
51
90.3248275
0
ARC
8
DEFAULT_255_1_234
10
10.8985278
20
0.09854
40
0.4334697
50
63.837784
51
77.0809408
0
ARC
8
DEFAULT_255_1_234
10
10.9263039
20
0.1502911
40
0.3747796
50
45.9864267
51
64.1607727
0
ARC
8
DEFAULT_255_1_234
10
10.9523921
20
0.1800866
40
0.3352302
50
32.2747395
51
45.6547121
0
ARC
8
DEFAULT_255_1_234
10
10.9590361
20
0.181988
40
0.328603
50
359.6507365
51
32.6130309
0
ARC
8
DEFAULT_255_1_234
10
10.8647457
20
0.182466
40
0.2678863
50
359.469343
51
14.9832209
0
ARC
8
DEFAULT_255_1_234
10
10.9352519
20
0.2013539
40
0.1948938
50
14.9781179
51
48.2004265
0
ARC
8
DEFAULT_255_1_234
10
10.9188163
20
0.1806983
40
0.2212521
50
48.5927837
51
74.1241538
0
ARC
8
DEFAULT_255_1_234
10
10.8854653
20
0.0706248
40
0.3362561
50
73.7888341
51
86.6652678
0
ARC
8
DEFAULT_255_1_234
10
10.8752218
20
-0.0501119
40
0.4573953
50
86.2640471
51
90.0526343
0
ARC
8
DEFAULT_255_1_234
10
10.8723931
20
-0.0105808
40
0.4178709
50
89.6697524
51
99.2309573
0
ARC
8
DEFAULT_255_1_234
10
10.8481382
20
0.1338964
40
0.2713749
50
99.069534
51
113.7658566
0
ARC
8
DEFAULT_255_1_234
10
10.8207573
20
0.1984677
40
0.2012469
50
114.0401004
51
127.9850673
0
ARC
8
DEFAULT_255_1_234
10
10.7967137
20
0.228073
40
0.1631167
50
127.7287463
51
176.7105154
0
ARC
8
DEFAULT_255_1_234
10
10.8645854
20
0.2179693
40
0.2315392
50
175.1779447
51
180.0581938
0
ARC
8
DEFAULT_255_1_234
10
10.7802701
20
0.2167428
40
0.1472271
50
179.6142195
51
228.1246017
0
ARC
8
DEFAULT_255_1_234
10
10.824437
20
0.2576308
40
0.2072299
50
226.5779593
51
230.8800004
0
ARC
8
DEFAULT_255_1_234
10
10.8715448
20
0.3201636
40
0.2854818
50
231.4635071
51
241.9260842
0
ARC
8
DEFAULT_255_1_234
10
10.9912626
20
0.54048
40
0.53622
50
241.7178533
51
248.3259551
0
ARC
8
DEFAULT_255_1_234
10
11.1297998
20
0.8837064
40
0.9063478
50
248.2007737
51
252.4528373
0
ARC
8
DEFAULT_255_1_234
10
11.2501723
20
1.2558441
40
1.2974635
50
252.3391078
51
254.3469452
0
ARC
8
DEFAULT_255_1_234
10
10.4959426
20
-1.4418852
40
1.5037162
50
71.0197183
51
74.4087047
0
ARC
8
DEFAULT_255_1_234
10
10.6654111
20
-0.9526889
40
0.9859993
50
66.1847285
51
71.086374
0
ARC
8
DEFAULT_255_1_234
10
10.8210423
20
-0.60228
40
0.6025855
50
59.3536294
51
66.2691831
0
ARC
8
DEFAULT_255_1_234
10
10.9099076
20
-0.4519391
40
0.4279449
50
49.1020879
51
59.3293958
0
ARC
8
DEFAULT_255_1_234
10
10.9917816
20
-0.3586166
40
0.3038015
50
32.7919921
51
49.2505539
0
ARC
8
DEFAULT_255_1_234
10
11.0238906
20
-0.3357809
40
0.264448
50
31.1181161
51
32.4005348
0
ARC
8
DEFAULT_255_1_234
10
11.0150443
20
-0.3393221
40
0.2738556
50
8.1116974
51
30.7958831
0
ARC
8
DEFAULT_255_1_234
10
10.9340111
20
-0.3531247
40
0.3560327
50
359.8389159
51
8.4706516
0
ARC
8
DEFAULT_255_1_234
10
10.9965903
20
-0.3579863
40
0.2934776
50
337.4731098
51
0.7537279
0
ARC
8
DEFAULT_255_1_234
10
11.0144598
20
-0.3599613
40
0.2762607
50
307.5917067
51
336.4315538
0
ARC
8
DEFAULT_255_1_234
10
10.9684426
20
-0.3086898
40
0.3449979
50
307.6551545
51
308.4529766
0
ARC
8
DEFAULT_255_1_234
10
10.9454145
20
-0.273175
40
0.3871988
50
284.3734338
51
307.1424381
0
ARC
8
DEFAULT_255_1_234
10
10.8958975
20
-0.0910068
40
0.5759636
50
272.4382747
51
284.646547
0
ARC
8
DEFAULT_255_1_234
10
10.8832184
20
0.0889893
40
0.7563528
50
269.9708387
51
272.8178037
0
ARC
8
DEFAULT_255_1_234
10
10.8789223
20
-0.1148284
40
0.5525489
50
248.2707594
51
270.4055579
0
ARC
8
DEFAULT_255_1_234
10
10.8734964
20
-0.1338808
40
0.5328452
50
246.1383403
51
248.0542782
0
ARC
8
DEFAULT_255_1_234
10
10.8316343
20
-0.2218157
40
0.4355005
50
233.1670131
51
246.4950969
0
ARC
8
DEFAULT_255_1_234
10
10.7762248
20
-0.2966188
40
0.3424126
50
215.3403242
51
233.0843104
0
ARC
8
DEFAULT_255_1_234
10
10.7489679
20
-0.3164451
40
0.3087104
50
179.2419209
51
215.2648451
0
ARC
8
DEFAULT_255_1_234
10
10.8257273
20
-0.3150334
40
0.2304457
50
179.335461
51
199.1045811
0
ARC
8
DEFAULT_255_1_234
10
10.792495
20
-0.3237234
40
0.1962176
50
199.8828939
51
232.7063202
0
ARC
8
DEFAULT_255_1_234
10
10.8397218
20
-0.2643212
40
0.2720938
50
232.3738199
51
255.5136649
0
ARC
8
DEFAULT_255_1_234
10
10.8738085
20
-0.1399165
40
0.4010747
50
255.2446292
51
267.5320849
0
ARC
8
DEFAULT_255_1_234
10
10.8825708
20
-0.0166298
40
0.5246356
50
267.1557994
51
270.0286766
0
ARC
8
DEFAULT_255_1_234
10
10.885348
20
-0.061005
40
0.4802668
50
269.7000017
51
278.1660162
0
ARC
8
DEFAULT_255_1_234
10
10.9109485
20
-0.2340485
40
0.3053425
50
278.0231263
51
290.625471
0
ARC
8
DEFAULT_255_1_234
10
10.9457172
20
-0.3267975
40
0.206291
50
290.6619762
51
307.0370976
0
ARC
8
DEFAULT_255_1_234
10
10.9757562
20
-0.3636496
40
0.1587906
50
306.3943566
51
355.3030547
0
ARC
8
DEFAULT_255_1_234
10
10.9245493
20
-0.3559887
40
0.2104809
50
354.3660432
51
0.0698737
0
ARC
8
DEFAULT_255_1_234
10
10.9387838
20
-0.3537383
40
0.1962563
50
359.417946
51
16.1971788
0
ARC
8
DEFAULT_255_1_234
10
10.9843149
20
-0.3412582
40
0.149053
50
16.4723299
51
52.6262157
0
ARC
8
DEFAULT_255_1_234
10
10.9022202
20
-0.4496567
40
0.2850296
50
52.7386432
51
62.4979148
0
ARC
8
DEFAULT_255_1_234
10
10.7637279
20
-0.7102717
40
0.5801521
50
62.2515216
51
68.1220564
0
ARC
8
DEFAULT_255_1_234
10
10.591719
20
-1.1330128
40
1.0365451
50
68.0062803
51
71.8053402
0
ARC
8
DEFAULT_255_1_234
10
10.4121562
20
-1.6715242
40
1.6042013
50
71.7183119
51
73.9258742
0
LINE
8
DEFAULT_255_1_234
10
11.9374006
20
0.5237433
11
11.9374006
21
-0.6513
0
LINE
8
DEFAULT_255_1_234
10
11.9374006
20
-0.6513
11
11.7880103
21
-0.6513
0
LINE
8
DEFAULT_255_1_234
10
11.7880103
20
-0.6513
11
11.7880103
21
0.3390133
0
LINE
8
DEFAULT_255_1_234
10
11.7880103
20
0.3390133
11
11.4884265
21
0.2289785
0
LINE
8
DEFAULT_255_1_234
10
11.4884265
20
0.2289785
11
11.4884265
21
0.3639117
0
LINE
8
DEFAULT_255_1_234
10
11.4884265
20
0.3639117
11
11.9141086
21
0.5237433
0
LINE
8
DEFAULT_255_1_234
10
11.9141086
20
0.5237433
11
11.9374006
21
0.5237433
0
LINE
8
DEFAULT_255_1_234
10
12.4787398
20
0.5181211
11
12.6634698
21
-0.2826432
0
LINE
8
DEFAULT_255_1_234
10
12.6634698
20
-0.2826432
11
12.6859586
21
-0.4368526
0
LINE
8
DEFAULT_255_1_234
10
12.6859586
20
-0.4368526
11
12.7188888
21
-0.2979035
0
LINE
8
DEFAULT_255_1_234
10
12.7188888
20
-0.2979035
11
12.9502028
21
0.5181211
0
LINE
8
DEFAULT_255_1_234
10
12.9502028
20
0.5181211
11
13.080317
21
0.5181211
0
LINE
8
DEFAULT_255_1_234
10
13.080317
20
0.5181211
11
13.3060088
21
-0.2979035
0
LINE
8
DEFAULT_255_1_234
10
13.3060088
20
-0.2979035
11
13.3381358
21
-0.4392621
0
LINE
8
DEFAULT_255_1_234
10
13.3381358
20
-0.4392621
11
13.3630342
21
-0.28184
0
LINE
8
DEFAULT_255_1_234
10
13.3630342
20
-0.28184
11
13.5445515
21
0.5181211
0
LINE
8
DEFAULT_255_1_234
10
13.5445515
20
0.5181211
11
13.699564
21
0.5181211
0
LINE
8
DEFAULT_255_1_234
10
13.699564
20
0.5181211
11
13.4160437
21
-0.6513
0
LINE
8
DEFAULT_255_1_234
10
13.4160437
20
-0.6513
11
13.2754882
21
-0.6513
0
LINE
8
DEFAULT_255_1_234
10
13.2754882
20
-0.6513
11
13.0345361
21
0.2008674
0
LINE
8
DEFAULT_255_1_234
10
13.0345361
20
0.2008674
11
13.0160631
21
0.2900197
0
LINE
8
DEFAULT_255_1_234
10
13.0160631
20
0.2900197
11
12.9975901
21
0.2008674
0
LINE
8
DEFAULT_255_1_234
10
12.9975901
20
0.2008674
11
12.747803
21
-0.6513
0
LINE
8
DEFAULT_255_1_234
10
12.747803
20
-0.6513
11
12.6072476
21
-0.6513
0
LINE
8
DEFAULT_255_1_234
10
12.6072476
20
-0.6513
11
12.3245304
21
0.5181211
0
LINE
8
DEFAULT_255_1_234
10
12.3245304
20
0.5181211
11
12.4787398
21
0.5181211
0
LINE
8
DEFAULT_255_1_234
10
14.1083795
20
-0.0938974
11
14.1083795
21
-0.2151766
0
LINE
8
DEFAULT_255_1_234
10
14.1083795
20
-0.2151766
11
13.7164307
21
-0.2151766
0
LINE
8
DEFAULT_255_1_234
10
13.7164307
20
-0.2151766
11
13.7164307
21
-0.0938974
0
LINE
8
DEFAULT_255_1_234
10
13.7164307
20
-0.0938974
11
14.1083795
21
-0.0938974
0
LINE
8
DEFAULT_255_1_234
10
14.6818456
20
-0.6513
11
14.2762428
21
-0.6513
0
LINE
8
DEFAULT_255_1_234
10
14.2762428
20
-0.6513
11
14.2762428
21
0.5181211
0
LINE
8
DEFAULT_255_1_234
10
14.2762428
20
0.5181211
11
14.6585536
21
0.5181211
0
LINE
8
DEFAULT_255_1_234
10
14.6874678
20
-0.1043386
11
14.4304522
21
-0.1043386
0
LINE
8
DEFAULT_255_1_234
10
14.4304522
20
-0.1043386
11
14.4304522
21
-0.5252017
0
LINE
8
DEFAULT_255_1_234
10
14.4304522
20
-0.5252017
11
14.6850583
21
-0.5252017
0
LINE
8
DEFAULT_255_1_234
10
14.4304522
20
0.3912196
11
14.4304522
21
0.0193501
0
LINE
8
DEFAULT_255_1_234
10
14.4304522
20
0.0193501
11
14.6633726
21
0.0193501
0
LINE
8
DEFAULT_255_1_234
10
14.6585536
20
0.3912196
11
14.4304522
21
0.3912196
0
ARC
8
DEFAULT_255_1_234
10
14.6623244
20
-0.2186099
40
0.7367406
50
82.1257326
51
90.2932599
0
ARC
8
DEFAULT_255_1_234
10
14.7012199
20
0.0532013
40
0.4621653
50
69.9044149
51
82.2857423
0
ARC
8
DEFAULT_255_1_234
10
14.7582877
20
0.2074637
40
0.2976871
50
51.1838526
51
70.0181538
0
ARC
8
DEFAULT_255_1_234
10
14.7837843
20
0.244524
40
0.2528517
50
12.1017251
51
50.4214761
0
ARC
8
DEFAULT_255_1_234
10
14.6453717
20
0.2097676
40
0.3955061
50
359.5251267
51
12.8211707
0
ARC
8
DEFAULT_255_1_234
10
14.8033644
20
0.2028344
40
0.2375281
50
323.4908128
51
0.8817314
0
ARC
8
DEFAULT_255_1_234
10
14.761533
20
0.235155
40
0.2903817
50
298.6825083
51
323.2756573
0
ARC
8
DEFAULT_255_1_234
10
14.7253693
20
0.2952649
40
0.3604842
50
293.1999386
51
299.1396394
0
ARC
8
DEFAULT_255_1_234
10
14.7926666
20
-0.3132874
40
0.2871098
50
54.0011765
51
74.9167975
0
ARC
8
DEFAULT_255_1_234
10
14.8043025
20
-0.2935668
40
0.2643248
50
36.3580696
51
53.5291921
0
ARC
8
DEFAULT_255_1_234
10
14.7916268
20
-0.3026002
40
0.2798884
50
4.8189881
51
36.3089977
0
ARC
8
DEFAULT_255_1_234
10
14.7137103
20
-0.313573
40
0.358478
50
359.9370252
51
5.5204067
0
ARC
8
DEFAULT_255_1_234
10
14.6812624
20
-0.3176333
40
0.3909429
50
344.7478609
51
0.5373281
0
ARC
8
DEFAULT_255_1_234
10
14.7803596
20
-0.3443456
40
0.2883093
50
311.1786488
51
344.6886812
0
ARC
8
DEFAULT_255_1_234
10
14.7511643
20
-0.3080013
40
0.3348923
50
286.0418249
51
310.8441291
0
ARC
8
DEFAULT_255_1_234
10
14.7004475
20
-0.1433193
40
0.5071869
50
274.1042341
51
286.4071509
0
ARC
8
DEFAULT_255_1_234
10
14.682773
20
0.0450229
40
0.6963234
50
269.9236873
51
274.445647
0
ARC
8
DEFAULT_255_1_234
10
14.6873731
20
-0.1889463
40
0.3362634
50
269.6055768
51
281.3740047
0
ARC
8
DEFAULT_255_1_234
10
14.7104369
20
-0.2982647
40
0.224546
50
281.1055983
51
302.5132223
0
ARC
8
DEFAULT_255_1_234
10
14.7251269
20
-0.3246177
40
0.1944357
50
303.0368945
51
311.8811219
0
ARC
8
DEFAULT_255_1_234
10
14.7322675
20
-0.333111
40
0.1833454
50
311.9916004
51
351.7143462
0
ARC
8
DEFAULT_255_1_234
10
14.6505905
20
-0.316607
40
0.2665871
50
350.7339597
51
0.2221581
0
ARC
8
DEFAULT_255_1_234
10
14.6398351
20
-0.3109533
40
0.2773789
50
359.0456241
51
17.2296242
0
ARC
8
DEFAULT_255_1_234
10
14.7437468
20
-0.2800837
40
0.1689915
50
17.6685481
51
78.9940892
0
ARC
8
DEFAULT_255_1_234
10
14.6920632
20
-0.4655776
40
0.3612658
50
76.5635957
51
90.6980921
0
LINE
8
DEFAULT_255_1_234
10
14.6876617
20
-0.1043387
11
14.6874678
21
-0.1043386
0
ARC
8
DEFAULT_255_1_234
10
14.6656293
20
0.3479036
40
0.3285612
50
269.6064736
51
281.4533503
0
ARC
8
DEFAULT_255_1_234
10
14.6879112
20
0.2427688
40
0.2210975
50
281.2041486
51
302.5148063
0
ARC
8
DEFAULT_255_1_234
10
14.7015962
20
0.2181241
40
0.1929674
50
303.021671
51
309.8369575
0
ARC
8
DEFAULT_255_1_234
10
14.7199424
20
0.1975488
40
0.1654181
50
309.5228395
51
356.9509836
0
ARC
8
DEFAULT_255_1_234
10
14.6536006
20
0.2070932
40
0.2322512
50
355.4701227
51
0.0492546
0
ARC
8
DEFAULT_255_1_234
10
14.6257097
20
0.2093094
40
0.2601498
50
359.5558597
51
11.2096359
0
ARC
8
DEFAULT_255_1_234
10
14.7214387
20
0.229123
40
0.1623975
50
10.9182341
51
31.3230275
0
ARC
8
DEFAULT_255_1_234
10
14.7500121
20
0.2450214
40
0.1297302
50
31.8852677
51
52.1412565
0
ARC
8
DEFAULT_255_1_234
10
14.7225853
20
0.206275
40
0.1771663
50
52.8285564
51
71.9850297
0
ARC
8
DEFAULT_255_1_234
10
14.685003
20
0.0956664
40
0.2939794
50
71.6863486
51
82.8455995
0
ARC
8
DEFAULT_255_1_234
10
14.6610566
20
-0.0852851
40
0.476506
50
82.6984714
51
90.1729175
0
ARC
8
DEFAULT_255_1_234
10
14.6588201
20
0.0370623
40
0.3541573
50
89.8708275
51
90.0431131
0
LINE
8
DEFAULT_255_1_234
10
16.0167205
20
0.5181211
11
16.0167205
21
0.434591
0
LINE
8
DEFAULT_255_1_234
10
16.0167205
20
0.434591
11
15.5324067
21
-0.6513
0
LINE
8
DEFAULT_255_1_234
10
15.5324067
20
-0.6513
11
15.376591
21
-0.6513
0
LINE
8
DEFAULT_255_1_234
10
15.376591
20
-0.6513
11
15.8592984
21
0.3960387
0
LINE
8
DEFAULT_255_1_234
10
15.8592984
20
0.3960387
11
15.2263975
21
0.3960387
0
LINE
8
DEFAULT_255_1_234
10
15.2263975
20
0.3960387
11
15.2263975
21
0.5181211
0
LINE
8
DEFAULT_255_1_234
10
15.2263975
20
0.5181211
11
16.0167205
21
0.5181211
0
LINE
8
DEFAULT_255_1_234
10
16.9813323
20
-0.6513
11
16.8696911
21
-0.3460939
0
LINE
8
DEFAULT_255_1_234
10
16.8696911
20
-0.3460939
11
16.3797551
21
-0.3460939
0
LINE
8
DEFAULT_255_1_234
10
16.3797551
20
-0.3460939
11
16.2697203
21
-0.6513
0
LINE
8
DEFAULT_255_1_234
10
16.2697203
20
-0.6513
11
16.1106918
21
-0.6513
0
LINE
8
DEFAULT_255_1_234
10
16.1106918
20
-0.6513
11
16.5572565
21
0.5181211
0
LINE
8
DEFAULT_255_1_234
10
16.5572565
20
0.5181211
11
16.6921897
21
0.5181211
0
LINE
8
DEFAULT_255_1_234
10
16.6921897
20
0.5181211
11
17.1395575
21
-0.6513
0
LINE
8
DEFAULT_255_1_234
10
17.1395575
20
-0.6513
11
16.9813323
21
-0.6513
0
LINE
8
DEFAULT_255_1_234
10
16.6247231
20
0.3277689
11
16.4263392
21
-0.2191925
0
LINE
8
DEFAULT_255_1_234
10
16.4263392
20
-0.2191925
11
16.8239102
21
-0.2191925
0
LINE
8
DEFAULT_255_1_234
10
16.8239102
20
-0.2191925
11
16.6247231
21
0.3277689
0
LINE
8
DEFAULT_255_1_234
10
17.7467569
20
0.5237433
11
17.7467569
21
-0.6513
0
LINE
8
DEFAULT_255_1_234
10
17.7467569
20
-0.6513
11
17.5973666
21
-0.6513
0
LINE
8
DEFAULT_255_1_234
10
17.5973666
20
-0.6513
11
17.5973666
21
0.3390133
0
LINE
8
DEFAULT_255_1_234
10
17.5973666
20
0.3390133
11
17.2977828
21
0.2289785
0
LINE
8
DEFAULT_255_1_234
10
17.2977828
20
0.2289785
11
17.2977828
21
0.3639117
0
LINE
8
DEFAULT_255_1_234
10
17.2977828
20
0.3639117
11
17.7234649
21
0.5237433
0
LINE
8
DEFAULT_255_1_234
10
17.7234649
20
0.5237433
11
17.7467569
21
0.5237433
0
LINE
8
DEFAULT_255_1_234
10
18.948305
20
-0.5300208
11
18.948305
21
-0.6513
0
LINE
8
DEFAULT_255_1_234
10
18.948305
20
-0.6513
11
18.1820771
21
-0.6513
0
LINE
8
DEFAULT_255_1_234
10
18.1820771
20
-0.6513
11
18.1820771
21
-0.5444779
0
LINE
8
DEFAULT_255_1_234
10
18.1820771
20
-0.5444779
11
18.5868768
21
-0.0947005
0
LINE
8
DEFAULT_255_1_234
10
18.3081754
20
0.1735595
11
18.1595883
21
0.1735595
0
LINE
8
DEFAULT_255_1_234
10
18.6744227
20
-0.1902782
11
18.3611849
21
-0.5300208
0
LINE
8
DEFAULT_255_1_234
10
18.3611849
20
-0.5300208
11
18.948305
21
-0.5300208
0
ARC
8
DEFAULT_255_1_234
10
17.2378601
20
1.0982527
40
1.8008286
50
318.5132453
51
320.7828378
0
ARC
8
DEFAULT_255_1_234
10
17.7665575
20
0.6679426
40
1.1191493
50
320.7372736
51
323.9737074
0
ARC
8
DEFAULT_255_1_234
10
18.1585432
20
0.3839361
40
0.6350923
50
323.8961724
51
328.6421089
0
ARC
8
DEFAULT_255_1_234
10
18.3632027
20
0.2577031
40
0.3946393
50
328.8299013
51
331.789948
0
ARC
8
DEFAULT_255_1_234
10
18.4629206
20
0.2062509
40
0.2824501
50
331.4255242
51
352.9364833
0
ARC
8
DEFAULT_255_1_234
10
18.4765706
20
0.2031976
40
0.2685315
50
353.2248685
51
0.0169286
0
ARC
8
DEFAULT_255_1_234
10
18.4975583
20
0.205495
40
0.2475536
50
359.4866256
51
15.9339782
0
ARC
8
DEFAULT_255_1_234
10
18.5482568
20
0.2191286
40
0.1950618
50
16.1714718
51
43.5284424
0
ARC
8
DEFAULT_255_1_234
10
18.5559877
20
0.2268573
40
0.184134
50
43.4415429
51
83.1661404
0
ARC
8
DEFAULT_255_1_234
10
18.5425795
20
0.1531771
40
0.258926
50
82.160215
51
90.1505798
0
ARC
8
DEFAULT_255_1_234
10
18.5394223
20
0.0994865
40
0.3126255
50
89.5460705
51
102.5418777
0
ARC
8
DEFAULT_255_1_234
10
18.5151309
20
0.2025665
40
0.2067346
50
102.1739365
51
129.2061916
0
ARC
8
DEFAULT_255_1_234
10
18.507238
20
0.2150094
40
0.1921118
50
129.7279328
51
135.7542026
0
ARC
8
DEFAULT_255_1_234
10
18.5193908
20
0.2053045
40
0.2075944
50
136.175737
51
166.3674722
0
ARC
8
DEFAULT_255_1_234
10
18.6200827
20
0.1783182
40
0.3118201
50
165.9092917
51
178.8683903
0
ARC
8
DEFAULT_255_1_234
10
18.7065689
20
0.1736179
40
0.3983935
50
178.438168
51
180.0083905
0
ARC
8
DEFAULT_255_1_234
10
18.5664291
20
0.1775231
40
0.4068601
50
163.2878735
51
180.5581814
0
ARC
8
DEFAULT_255_1_234
10
18.4862552
20
0.199584
40
0.3237344
50
133.454115
51
162.9470031
0
ARC
8
DEFAULT_255_1_234
10
18.5041094
20
0.1806
40
0.349795
50
100.7869394
51
133.4384016
0
ARC
8
DEFAULT_255_1_234
10
18.5388865
20
0.0257319
40
0.5084616
50
89.6605301
51
101.3704185
0
ARC
8
DEFAULT_255_1_234
10
18.5455204
20
0.0318496
40
0.502348
50
78.2171172
51
90.4130393
0
ARC
8
DEFAULT_255_1_234
10
18.5810282
20
0.1942637
40
0.3361092
50
55.9268222
51
78.4888551
0
ARC
8
DEFAULT_255_1_234
10
18.6006722
20
0.2281324
40
0.2970617
50
47.9292255
51
55.4054003
0
ARC
8
DEFAULT_255_1_234
10
18.6108283
20
0.2384502
40
0.2825983
50
4.3347696
51
48.0560701
0
ARC
8
DEFAULT_255_1_234
10
18.5012676
20
0.2214601
40
0.393225
50
359.925209
51
5.5967654
0
ARC
8
DEFAULT_255_1_234
10
18.5441568
20
0.2270816
40
0.3503892
50
337.8914096
51
358.9967724
0
ARC
8
DEFAULT_255_1_234
10
18.272798
20
0.3317706
40
0.6412172
50
326.9135351
51
338.3505194
0
ARC
8
DEFAULT_255_1_234
10
17.8742284
20
0.5872284
40
1.1146189
50
319.6472867
51
327.095818
0
ARC
8
DEFAULT_255_1_234
10
17.4909287
20
0.9034
40
1.6114559
50
317.2586784
51
319.9046139
0
ARC
8
DEFAULT_255_2_778
10
15.2718323
20
50.549189
40
0.3782009
50
0.4397807
51
91.3045231
0
ARC
8
DEFAULT_255_2_778
10
15.2696879
20
50.5469064
40
0.3803695
50
269.0259909
51
0.7811192
0
ARC
8
DEFAULT_255_2_778
10
15.4288293
20
50.5344643
40
0.7639615
50
290.7362057
51
357.8000295
0
ARC
8
DEFAULT_255_2_778
10
15.3436031
20
50.5520235
40
0.8499188
50
356.8376875
51
0.0046095
0
ARC
8
DEFAULT_255_2_778
10
15.3422443
20
50.5520748
40
0.8512778
50
0.0011515
51
85.3589632
0
ARC
8
DEFAULT_255_2_778
10
15.3422371
20
50.5330092
40
0.8702827
50
85.4600549
51
90.0075769
0
ARC
8
DEFAULT_255_2_778
10
20.173385
20
50.5427426
40
0.3845507
50
1.3931151
51
90.158378
0
ARC
8
DEFAULT_255_2_778
10
20.2329096
20
50.5363635
40
0.8684198
50
359.7643557
51
42.1181505
0
ARC
8
DEFAULT_255_2_778
10
20.2353156
20
50.5367931
40
0.866348
50
42.2037872
51
87.9292218
0
ARC
8
DEFAULT_255_2_778
10
20.2305626
20
50.4955097
40
0.9077821
50
87.7235759
51
90.0025578
0
ARC
8
DEFAULT_255_2_778
10
12.9264947
20
50.5496344
40
0.3777354
50
0.3727528
51
91.1638813
0
ARC
8
DEFAULT_255_2_778
10
12.9805692
20
50.5363595
40
0.8684602
50
359.7646302
51
42.1161032
0
ARC
8
DEFAULT_255_2_778
10
12.9830774
20
50.5369127
40
0.8662296
50
42.2002176
51
87.9268901
0
ARC
8
DEFAULT_255_2_778
10
12.9783626
20
50.4958749
40
0.9074169
50
87.7231194
51
90.002558
0
ARC
8
DEFAULT_255_2_778
10
17.559042
20
50.1445858
40
1.2841942
50
233.3100129
51
270.0348017
0
ARC
8
DEFAULT_255_2_778
10
17.5711133
20
50.1649622
40
1.3077482
50
187.7860459
51
233.4193197
0
ARC
8
DEFAULT_255_2_778
10
17.5893588
20
50.1665185
40
1.3260368
50
179.9838663
51
187.7458681
0
ARC
8
DEFAULT_255_2_778
10
17.5478523
20
50.1671375
40
1.2845303
50
143.7084173
51
180.0109545
0
ARC
8
DEFAULT_255_2_778
10
17.5629238
20
50.1620899
40
1.2996747
50
94.9692901
51
143.9223324
0
ARC
8
DEFAULT_255_2_778
10
17.5597032
20
50.1627347
40
1.2987573
50
89.9947559
51
94.8302073
0
ARC
8
DEFAULT_255_2_778
10
17.5619339
20
50.1569304
40
1.3045632
50
58.1407344
51
90.0927508
0
ARC
8
DEFAULT_255_2_778
10
17.5700831
20
50.1625662
40
1.2954809
50
3.5056409
51
58.315291
0
ARC
8
DEFAULT_255_2_778
10
17.5711163
20
50.1666563
40
1.2942058
50
359.9971467
51
3.3277024
0
ARC
8
DEFAULT_255_2_778
10
17.3826088
20
50.1645483
40
1.4827147
50
0.006083
51
0.0789681
0
ARC
8
DEFAULT_255_2_778
10
17.5604187
20
50.1647022
40
1.3049047
50
315.0308293
51
0.0001529
0
ARC
8
DEFAULT_255_2_778
10
17.5609377
20
50.1644521
40
1.3043608
50
270.000667
51
315.0224921
0
LINE
8
DEFAULT_255_2_778
10
17.5609529
20
48.8600914
11
17.5598221
21
48.8600919
0
ARC
8
DEFAULT_255_2_778
10
17.5640812
20
50.1629112
40
0.7580313
50
269.6780691
51
315.5292436
0
ARC
8
DEFAULT_255_2_778
10
17.5610107
20
50.1621878
40
0.7597205
50
315.7303962
51
0.2857903
0
ARC
8
DEFAULT_255_2_778
10
17.8487376
20
50.1664382
40
0.4719845
50
359.944048
51
0.0186519
0
ARC
8
DEFAULT_255_2_778
10
17.5687772
20
50.1654605
40
0.7519457
50
0.086204
51
85.4319233
0
ARC
8
DEFAULT_255_2_778
10
17.5599609
20
50.1230338
40
0.7949581
50
85.0420495
51
90.0100075
0
ARC
8
DEFAULT_255_2_778
10
17.5579396
20
50.1797519
40
0.7382424
50
89.8538973
51
89.9999976
0
ARC
8
DEFAULT_255_2_778
10
17.5580088
20
50.1672109
40
0.7507833
50
90.0052819
51
134.9571409
0
ARC
8
DEFAULT_255_2_778
10
17.5579709
20
50.1666565
40
0.751149
50
134.9252185
51
180.0049334
0
ARC
8
DEFAULT_255_2_778
10
17.5708624
20
50.1626875
40
0.7640503
50
179.7072119
51
222.5790813
0
ARC
8
DEFAULT_255_2_778
10
17.5579296
20
50.1516475
40
0.7470579
50
222.6267201
51
270.1451401
0
ARC
8
DEFAULT_255_2_778
10
9.564442
20
50.1445858
40
1.2841942
50
233.3100129
51
270.0348017
0
ARC
8
DEFAULT_255_2_778
10
9.5765133
20
50.1649622
40
1.3077482
50
187.7860459
51
233.4193197
0
ARC
8
DEFAULT_255_2_778
10
9.5947588
20
50.1665185
40
1.3260368
50
179.9838663
51
187.7458681
0
ARC
8
DEFAULT_255_2_778
10
9.5535129
20
50.1669961
40
1.2847909
50
143.1940819
51
180.0046489
0
ARC
8
DEFAULT_255_2_778
10
9.5683078
20
50.1623006
40
1.2994598
50
94.9233187
51
143.4191345
0
ARC
8
DEFAULT_255_2_778
10
9.5651008
20
50.163012
40
1.2984798
50
89.9946509
51
94.7850278
0
ARC
8
DEFAULT_255_2_778
10
9.5673902
20
50.1568441
40
1.3046496
50
58.1428905
51
90.0952196
0
ARC
8
DEFAULT_255_2_778
10
9.5758177
20
50.1629453
40
1.2950254
50
3.2656058
51
58.3171105
0
ARC
8
DEFAULT_255_2_778
10
9.5763693
20
50.1669485
40
1.2942527
50
359.997494
51
3.0900664
0
ARC
8
DEFAULT_255_2_778
10
9.5936718
20
50.1647448
40
1.276952
50
359.9949307
51
0.0963391
0
ARC
8
DEFAULT_255_2_778
10
9.5659855
20
50.1647925
40
1.3046385
50
315.0321687
51
359.9929412
0
ARC
8
DEFAULT_255_2_778
10
9.5662654
20
50.1649266
40
1.3045353
50
270.0038431
51
315.0193137
0
LINE
8
DEFAULT_255_2_778
10
9.5663529
20
48.8603914
11
9.5652221
21
48.8603919
0
ARC
8
DEFAULT_255_2_778
10
9.5694412
20
50.1629135
40
0.7580334
50
269.6810953
51
315.6152252
0
ARC
8
DEFAULT_255_2_778
10
9.5663839
20
50.1622381
40
0.7597504
50
315.8129036
51
0.3254485
0
ARC
8
DEFAULT_255_2_778
10
9.5738176
20
50.1651565
40
0.7523058
50
0.1093155
51
85.7820321
0
ARC
8
DEFAULT_255_2_778
10
9.5653381
20
50.1236263
40
0.7943655
50
85.3923987
51
90.0083732
0
ARC
8
DEFAULT_255_2_778
10
9.5633385
20
50.1788348
40
0.7391595
50
89.8539942
51
89.9999859
0
ARC
8
DEFAULT_255_2_778
10
9.563405
20
50.1669783
40
0.7510159
50
90.0050654
51
134.9497993
0
ARC
8
DEFAULT_255_2_778
10
9.5632746
20
50.1667963
40
0.7510526
50
134.9329452
51
180.0155944
0
ARC
8
DEFAULT_255_2_778
10
9.5762945
20
50.1626612
40
0.7640826
50
179.7052536
51
222.5741919
0
ARC
8
DEFAULT_255_2_778
10
9.5632805
20
50.1516163
40
0.7470269
50
222.6256588
51
270.1489141
0
LINE
8
DEFAULT_255_2_778
10
14.0768221
20
51.3826919
11
14.0768221
21
48.9198919
0
LINE
8
DEFAULT_255_2_778
10
14.0768221
20
48.9198919
11
14.6203221
21
48.9198919
0
LINE
8
DEFAULT_255_2_778
10
14.6203221
20
48.9198919
11
14.6203221
21
50.9272919
0
LINE
8
DEFAULT_255_2_778
10
14.6203221
20
50.9272919
11
15.2632221
21
50.9272919
0
LINE
8
DEFAULT_255_2_778
10
15.2632221
20
50.1665919
11
14.7986221
21
50.1665919
0
LINE
8
DEFAULT_255_2_778
10
14.7986221
20
50.1665919
11
15.6397221
21
48.9195919
0
LINE
8
DEFAULT_255_2_778
10
15.6397221
20
48.9195919
11
16.3126221
21
48.9195919
0
LINE
8
DEFAULT_255_2_778
10
16.3126221
20
48.9195919
11
15.6993221
21
49.8199919
0
LINE
8
DEFAULT_255_2_778
10
15.3421221
20
51.4032919
11
14.6200221
21
51.4032919
0
LINE
8
DEFAULT_255_2_778
10
14.6200221
20
51.4032919
11
14.0766221
21
51.3826919
0
LINE
8
DEFAULT_255_2_778
10
14.0766221
20
51.3826919
11
14.0768221
21
51.3826919
0
LINE
8
DEFAULT_255_2_778
10
19.0142221
20
51.3826919
11
19.0142221
21
48.9198919
0
LINE
8
DEFAULT_255_2_778
10
19.0142221
20
48.9198919
11
19.5577221
21
48.9198919
0
LINE
8
DEFAULT_255_2_778
10
19.5577221
20
48.9198919
11
19.5577221
21
50.9272919
0
LINE
8
DEFAULT_255_2_778
10
19.5577221
20
50.9272919
11
20.1723221
21
50.9272919
0
LINE
8
DEFAULT_255_2_778
10
20.5578221
20
50.5520919
11
20.5578221
21
48.9198919
0
LINE
8
DEFAULT_255_2_778
10
20.5578221
20
48.9198919
11
21.1013221
21
48.9198919
0
LINE
8
DEFAULT_255_2_778
10
21.1013221
20
48.9198919
11
21.1013221
21
50.5327919
0
LINE
8
DEFAULT_255_2_778
10
20.2305221
20
51.4032919
11
19.5577221
21
51.4032919
0
LINE
8
DEFAULT_255_2_778
10
19.5577221
20
51.4032919
11
19.0142221
21
51.3826919
0
LINE
8
DEFAULT_255_2_778
10
19.0142221
20
51.3826919
11
19.0142221
21
51.3826919
0
LINE
8
DEFAULT_255_2_778
10
11.0196221
20
51.3826919
11
11.0196221
21
48.9198919
0
LINE
8
DEFAULT_255_2_778
10
11.0196221
20
48.9198919
11
11.5628221
21
48.9198919
0
LINE
8
DEFAULT_255_2_778
10
11.5628221
20
48.9198919
11
11.5628221
21
50.9272919
0
LINE
8
DEFAULT_255_2_778
10
11.5628221
20
50.9272919
11
12.1671221
21
50.9272919
0
LINE
8
DEFAULT_255_2_778
10
12.1671221
20
50.9272919
11
12.1671221
21
48.9198919
0
LINE
8
DEFAULT_255_2_778
10
12.1671221
20
48.9198919
11
12.7105221
21
48.9198919
0
LINE
8
DEFAULT_255_2_778
10
12.7105221
20
48.9198919
11
12.7105221
21
50.9272919
0
LINE
8
DEFAULT_255_2_778
10
12.7105221
20
50.9272919
11
12.9188221
21
50.9272919
0
LINE
8
DEFAULT_255_2_778
10
13.3042221
20
50.5520919
11
13.3042221
21
48.9198919
0
LINE
8
DEFAULT_255_2_778
10
13.3042221
20
48.9198919
11
13.8490221
21
48.9198919
0
LINE
8
DEFAULT_255_2_778
10
13.8490221
20
48.9198919
11
13.8490221
21
50.5327919
0
LINE
8
DEFAULT_255_2_778
10
12.9783221
20
51.4032919
11
11.5731221
21
51.4032919
0
LINE
8
DEFAULT_255_2_778
10
11.5731221
20
51.4032919
11
11.0193221
21
51.3826919
0
LINE
8
DEFAULT_255_2_778
10
11.0193221
20
51.3826919
11
11.0196221
21
51.3826919
0
LINE
8
DEFAULT_255_2_778
10
17.5598221
20
48.8600919
11
17.5598221
21
48.8603919
0
LINE
8
DEFAULT_255_2_778
10
9.5652221
20
48.8603919
11
9.5652221
21
48.8603919
0
LINE
8
DEFAULT_255_1_234
10
11.023823
20
46.6832663
11
11.1788355
21
46.6832663
0
LINE
8
DEFAULT_255_1_234
10
10.2784777
20
46.8422947
11
10.2784777
21
46.9547391
0
LINE
8
DEFAULT_255_1_234
10
11.1788355
20
47.1057357
11
11.023823
21
47.1057357
0
LINE
8
DEFAULT_255_1_234
10
10.4334902
20
46.9507232
11
10.4334902
21
46.8374757
0
ARC
8
DEFAULT_255_1_234
10
10.6307742
20
46.7429846
40
0.5513052
50
340.1774281
51
353.7814284
0
ARC
8
DEFAULT_255_1_234
10
10.7879095
20
46.6844582
40
0.3836379
50
311.4558989
51
340.4421614
0
ARC
8
DEFAULT_255_1_234
10
10.7845763
20
46.6955528
40
0.3941894
50
282.4333181
51
310.7513653
0
ARC
8
DEFAULT_255_1_234
10
10.7406502
20
46.8770679
40
0.5809175
50
269.9358511
51
282.809604
0
ARC
8
DEFAULT_255_1_234
10
10.7354568
20
47.0228212
40
0.7266847
50
270.0021091
51
270.3581957
0
ARC
8
DEFAULT_255_1_234
10
10.7301985
20
46.7627585
40
0.4666519
50
250.7884749
51
270.6489167
0
ARC
8
DEFAULT_255_1_234
10
10.713382
20
46.6990319
40
0.4009729
50
219.3627325
51
250.0611886
0
ARC
8
DEFAULT_255_1_234
10
10.7963031
20
46.7695042
40
0.5097822
50
193.5479632
51
219.5756669
0
ARC
8
DEFAULT_255_1_234
10
11.0334652
20
46.8310919
40
0.7547848
50
181.1218675
51
193.87563
0
ARC
8
DEFAULT_255_1_234
10
11.2404833
20
46.842158
40
0.9620055
50
179.9918545
51
181.5394234
0
ARC
8
DEFAULT_255_1_234
10
11.0553935
20
46.9584788
40
0.7769248
50
169.5837241
51
180.2757934
0
ARC
8
DEFAULT_255_1_234
10
10.8716873
20
46.9924229
40
0.590109
50
155.0365899
51
169.6003176
0
ARC
8
DEFAULT_255_1_234
10
10.7581337
20
47.0471677
40
0.4640625
50
136.783148
51
155.2472683
0
ARC
8
DEFAULT_255_1_234
10
10.7191814
20
47.0802562
40
0.4130255
50
121.7633186
51
136.428115
0
ARC
8
DEFAULT_255_1_234
10
10.7326776
20
47.0553227
40
0.4413323
50
95.6459699
51
121.5490577
0
ARC
8
DEFAULT_255_1_234
10
10.7484058
20
46.9444949
40
0.55319
50
89.924208
51
96.1377933
0
ARC
8
DEFAULT_255_1_234
10
10.7534491
20
46.9563542
40
0.5413475
50
76.6779277
51
90.4563316
0
ARC
8
DEFAULT_255_1_234
10
10.7928114
20
47.1154114
40
0.3775041
50
47.485847
51
76.9287264
0
ARC
8
DEFAULT_255_1_234
10
10.7781087
20
47.1054159
40
0.3948286
50
16.5424086
51
46.8933463
0
ARC
8
DEFAULT_255_1_234
10
10.6173244
20
47.0525861
40
0.564021
50
5.4072051
51
17.0365086
0
ARC
8
DEFAULT_255_1_234
10
10.4734261
20
47.0294679
40
0.5556559
50
7.8891745
51
15.9239216
0
ARC
8
DEFAULT_255_1_234
10
10.6721274
20
47.0871631
40
0.3487515
50
15.7653144
51
27.9410532
0
ARC
8
DEFAULT_255_1_234
10
10.7825492
20
47.146279
40
0.2235026
50
27.8166557
51
46.4008329
0
ARC
8
DEFAULT_255_1_234
10
10.7875135
20
47.1457082
40
0.2205286
50
47.4371857
51
75.0698205
0
ARC
8
DEFAULT_255_1_234
10
10.7566529
20
47.0382765
40
0.3322915
50
74.7008593
51
87.8124495
0
ARC
8
DEFAULT_255_1_234
10
10.7493217
20
46.9326844
40
0.4380987
50
87.3814673
51
90.0240855
0
ARC
8
DEFAULT_255_1_234
10
10.745476
20
47.0504291
40
0.3203749
50
89.3451631
51
108.5745436
0
ARC
8
DEFAULT_255_1_234
10
10.7317865
20
47.1017908
40
0.2673494
50
109.2998449
51
143.3037509
0
ARC
8
DEFAULT_255_1_234
10
10.8079938
20
47.0431881
40
0.3634757
50
143.0753173
51
163.1916937
0
ARC
8
DEFAULT_255_1_234
10
11.0031666
20
46.9815967
40
0.5681262
50
162.9373603
51
174.6208611
0
ARC
8
DEFAULT_255_1_234
10
11.2657708
20
46.952801
40
0.8322832
50
174.3419979
51
180.1430411
0
ARC
8
DEFAULT_255_1_234
10
11.1726864
20
46.8333698
40
0.7392076
50
179.6817502
51
189.150529
0
ARC
8
DEFAULT_255_1_234
10
10.9226112
20
46.791719
40
0.4856932
50
188.9910863
51
203.5773039
0
ARC
8
DEFAULT_255_1_234
10
10.8146445
20
46.7469211
40
0.3688271
50
203.9077269
51
215.1312379
0
ARC
8
DEFAULT_255_1_234
10
10.7223539
20
46.6753941
40
0.2522457
50
213.9071664
51
263.8849284
0
ARC
8
DEFAULT_255_1_234
10
10.7348868
20
46.7538518
40
0.3316174
50
263.1758525
51
270.1031083
0
ARC
8
DEFAULT_255_1_234
10
10.738096
20
46.8785365
40
0.4563091
50
269.6719807
51
279.0609165
0
ARC
8
DEFAULT_255_1_234
10
10.7647728
20
46.7172907
40
0.2928759
50
278.8750225
51
293.6346586
0
ARC
8
DEFAULT_255_1_234
10
10.7967936
20
46.64209
40
0.2111472
50
293.8553404
51
310.0518804
0
ARC
8
DEFAULT_255_1_234
10
10.797279
20
46.6358516
40
0.2060917
50
311.0646779
51
332.0108348
0
ARC
8
DEFAULT_255_1_234
10
10.6780517
20
46.7015978
40
0.3422352
50
331.6588543
51
343.2878891
0
ARC
8
DEFAULT_255_1_234
10
10.4718032
20
46.7649798
40
0.5580003
50
343.1446044
51
351.010618
0
ARC
8
DEFAULT_255_1_234
10
10.3176678
20
46.7930871
40
0.7146438
50
350.7157277
51
351.1602153
0
LINE
8
DEFAULT_255_1_234
10
12.165133
20
47.1434849
11
12.0101205
21
47.1434849
0
LINE
8
DEFAULT_255_1_234
10
11.3177846
20
46.6511394
11
11.4727972
21
46.6511394
0
ARC
8
DEFAULT_255_1_234
10
12.0760017
20
48.0381768
40
1.252368
50
248.9199003
51
254.1439814
0
ARC
8
DEFAULT_255_1_234
10
11.9079512
20
47.6055234
40
0.788226
50
241.633709
51
249.0064503
0
ARC
8
DEFAULT_255_1_234
10
11.7550907
20
47.3254317
40
0.4691427
50
230.498225
51
241.8087113
0
ARC
8
DEFAULT_255_1_234
10
11.6766481
20
47.2254906
40
0.3421437
50
227.4064532
51
229.9881192
0
ARC
8
DEFAULT_255_1_234
10
11.6279002
20
47.1779088
40
0.2741476
50
200.6781896
51
228.1763934
0
ARC
8
DEFAULT_255_1_234
10
11.6351312
20
47.1764077
40
0.2804109
50
179.5061581
51
199.8694617
0
ARC
8
DEFAULT_255_1_234
10
11.6342064
20
47.183821
40
0.2795204
50
132.4834203
51
181.0242172
0
ARC
8
DEFAULT_255_1_234
10
11.6937646
20
47.1275704
40
0.3612768
50
129.2532479
51
133.4242687
0
ARC
8
DEFAULT_255_1_234
10
11.7084096
20
47.1055965
40
0.3875675
50
101.98776
51
128.8742646
0
ARC
8
DEFAULT_255_1_234
10
11.7482706
20
46.9334741
40
0.5642249
50
89.5906553
51
102.3169264
0
ARC
8
DEFAULT_255_1_234
10
11.7553199
20
46.9653148
40
0.5323783
50
77.2360837
51
90.3248275
0
ARC
8
DEFAULT_255_1_234
10
11.7760278
20
47.06204
40
0.4334697
50
63.837784
51
77.0809408
0
ARC
8
DEFAULT_255_1_234
10
11.8038039
20
47.1137911
40
0.3747796
50
45.9864267
51
64.1607727
0
ARC
8
DEFAULT_255_1_234
10
11.8298921
20
47.1435866
40
0.3352302
50
32.2747395
51
45.6547121
0
ARC
8
DEFAULT_255_1_234
10
11.8365361
20
47.145488
40
0.328603
50
359.6507365
51
32.6130309
0
ARC
8
DEFAULT_255_1_234
10
11.7422457
20
47.145966
40
0.2678863
50
359.469343
51
14.9832209
0
ARC
8
DEFAULT_255_1_234
10
11.8127519
20
47.1648539
40
0.1948938
50
14.9781179
51
48.2004265
0
ARC
8
DEFAULT_255_1_234
10
11.7963163
20
47.1441983
40
0.2212521
50
48.5927837
51
74.1241538
0
ARC
8
DEFAULT_255_1_234
10
11.7629653
20
47.0341248
40
0.3362561
50
73.7888341
51
86.6652678
0
ARC
8
DEFAULT_255_1_234
10
11.7527218
20
46.9133881
40
0.4573953
50
86.2640471
51
90.0526343
0
ARC
8
DEFAULT_255_1_234
10
11.7498931
20
46.9529192
40
0.4178709
50
89.6697524
51
99.2309573
0
ARC
8
DEFAULT_255_1_234
10
11.7256382
20
47.0973964
40
0.2713749
50
99.069534
51
113.7658566
0
ARC
8
DEFAULT_255_1_234
10
11.6982573
20
47.1619677
40
0.2012469
50
114.0401004
51
127.9850673
0
ARC
8
DEFAULT_255_1_234
10
11.6742137
20
47.191573
40
0.1631167
50
127.7287463
51
176.7105154
0
ARC
8
DEFAULT_255_1_234
10
11.7420854
20
47.1814693
40
0.2315392
50
175.1779447
51
180.0581938
0
ARC
8
DEFAULT_255_1_234
10
11.6577701
20
47.1802428
40
0.1472271
50
179.6142195
51
228.1246017
0
ARC
8
DEFAULT_255_1_234
10
11.701937
20
47.2211308
40
0.2072299
50
226.5779593
51
230.8800004
0
ARC
8
DEFAULT_255_1_234
10
11.7490448
20
47.2836636
40
0.2854818
50
231.4635071
51
241.9260842
0
ARC
8
DEFAULT_255_1_234
10
11.8687626
20
47.50398
40
0.53622
50
241.7178533
51
248.3259551
0
ARC
8
DEFAULT_255_1_234
10
12.0072998
20
47.8472064
40
0.9063478
50
248.2007737
51
252.4528373
0
ARC
8
DEFAULT_255_1_234
10
12.1276723
20
48.2193441
40
1.2974635
50
252.3391078
51
254.3469452
0
ARC
8
DEFAULT_255_1_234
10
11.3734426
20
45.5216148
40
1.5037162
50
71.0197183
51
74.4087047
0
ARC
8
DEFAULT_255_1_234
10
11.5429111
20
46.0108111
40
0.9859993
50
66.1847285
51
71.086374
0
ARC
8
DEFAULT_255_1_234
10
11.6985423
20
46.36122
40
0.6025855
50
59.3536294
51
66.2691831
0
ARC
8
DEFAULT_255_1_234
10
11.7874076
20
46.5115609
40
0.4279449
50
49.1020879
51
59.3293958
0
ARC
8
DEFAULT_255_1_234
10
11.8692816
20
46.6048834
40
0.3038015
50
32.7919921
51
49.2505539
0
ARC
8
DEFAULT_255_1_234
10
11.9013906
20
46.6277191
40
0.264448
50
31.1181161
51
32.4005348
0
ARC
8
DEFAULT_255_1_234
10
11.8925443
20
46.6241779
40
0.2738556
50
8.1116974
51
30.7958831
0
ARC
8
DEFAULT_255_1_234
10
11.8115111
20
46.6103753
40
0.3560327
50
359.8389159
51
8.4706516
0
ARC
8
DEFAULT_255_1_234
10
11.8740903
20
46.6055137
40
0.2934776
50
337.4731098
51
0.7537279
0
ARC
8
DEFAULT_255_1_234
10
11.8919598
20
46.6035387
40
0.2762607
50
307.5917067
51
336.4315538
0
ARC
8
DEFAULT_255_1_234
10
11.8459426
20
46.6548102
40
0.3449979
50
307.6551545
51
308.4529766
0
ARC
8
DEFAULT_255_1_234
10
11.8229145
20
46.690325
40
0.3871988
50
284.3734338
51
307.1424381
0
ARC
8
DEFAULT_255_1_234
10
11.7733975
20
46.8724932
40
0.5759636
50
272.4382747
51
284.646547
0
ARC
8
DEFAULT_255_1_234
10
11.7607184
20
47.0524893
40
0.7563528
50
269.9708387
51
272.8178037
0
ARC
8
DEFAULT_255_1_234
10
11.7564223
20
46.8486716
40
0.5525489
50
248.2707594
51
270.4055579
0
ARC
8
DEFAULT_255_1_234
10
11.7509964
20
46.8296192
40
0.5328452
50
246.1383403
51
248.0542782
0
ARC
8
DEFAULT_255_1_234
10
11.7091343
20
46.7416843
40
0.4355005
50
233.1670131
51
246.4950969
0
ARC
8
DEFAULT_255_1_234
10
11.6537248
20
46.6668812
40
0.3424126
50
215.3403242
51
233.0843104
0
ARC
8
DEFAULT_255_1_234
10
11.6264679
20
46.6470549
40
0.3087104
50
179.2419209
51
215.2648451
0
ARC
8
DEFAULT_255_1_234
10
11.7032273
20
46.6484666
40
0.2304457
50
179.335461
51
199.1045811
0
ARC
8
DEFAULT_255_1_234
10
11.669995
20
46.6397766
40
0.1962176
50
199.8828939
51
232.7063202
0
ARC
8
DEFAULT_255_1_234
10
11.7172218
20
46.6991788
40
0.2720938
50
232.3738199
51
255.5136649
0
ARC
8
DEFAULT_255_1_234
10
11.7513085
20
46.8235835
40
0.4010747
50
255.2446292
51
267.5320849
0
ARC
8
DEFAULT_255_1_234
10
11.7600708
20
46.9468702
40
0.5246356
50
267.1557994
51
270.0286766
0
ARC
8
DEFAULT_255_1_234
10
11.762848
20
46.902495
40
0.4802668
50
269.7000017
51
278.1660162
0
ARC
8
DEFAULT_255_1_234
10
11.7884485
20
46.7294515
40
0.3053425
50
278.0231263
51
290.625471
0
ARC
8
DEFAULT_255_1_234
10
11.8232172
20
46.6367025
40
0.206291
50
290.6619762
51
307.0370976
0
ARC
8
DEFAULT_255_1_234
10
11.8532562
20
46.5998504
40
0.1587906
50
306.3943566
51
355.3030547
0
ARC
8
DEFAULT_255_1_234
10
11.8020493
20
46.6075113
40
0.2104809
50
354.3660432
51
0.0698737
0
ARC
8
DEFAULT_255_1_234
10
11.8162838
20
46.6097617
40
0.1962563
50
359.417946
51
16.1971788
0
ARC
8
DEFAULT_255_1_234
10
11.8618149
20
46.6222418
40
0.149053
50
16.4723299
51
52.6262157
0
ARC
8
DEFAULT_255_1_234
10
11.7797202
20
46.5138433
40
0.2850296
50
52.7386432
51
62.4979148
0
ARC
8
DEFAULT_255_1_234
10
11.6412279
20
46.2532283
40
0.5801521
50
62.2515216
51
68.1220564
0
ARC
8
DEFAULT_255_1_234
10
11.469219
20
45.8304872
40
1.0365451
50
68.0062803
51
71.8053402
0
ARC
8
DEFAULT_255_1_234
10
11.2896562
20
45.2919758
40
1.6042013
50
71.7183119
51
73.9258742
0
LINE
8
DEFAULT_255_1_234
10
12.8149006
20
47.4872433
11
12.8149006
21
46.3122
0
LINE
8
DEFAULT_255_1_234
10
12.8149006
20
46.3122
11
12.6655103
21
46.3122
0
LINE
8
DEFAULT_255_1_234
10
12.6655103
20
46.3122
11
12.6655103
21
47.3025133
0
LINE
8
DEFAULT_255_1_234
10
12.6655103
20
47.3025133
11
12.3659265
21
47.1924785
0
LINE
8
DEFAULT_255_1_234
10
12.3659265
20
47.1924785
11
12.3659265
21
47.3274117
0
LINE
8
DEFAULT_255_1_234
10
12.3659265
20
47.3274117
11
12.7916086
21
47.4872433
0
LINE
8
DEFAULT_255_1_234
10
12.7916086
20
47.4872433
11
12.8149006
21
47.4872433
0
LINE
8
DEFAULT_255_1_234
10
13.5747031
20
46.8696026
11
13.5747031
21
46.7483234
0
LINE
8
DEFAULT_255_1_234
10
13.5747031
20
46.7483234
11
13.1827542
21
46.7483234
0
LINE
8
DEFAULT_255_1_234
10
13.1827542
20
46.7483234
11
13.1827542
21
46.8696026
0
LINE
8
DEFAULT_255_1_234
10
13.1827542
20
46.8696026
11
13.5747031
21
46.8696026
0
LINE
8
DEFAULT_255_1_234
10
14.5184323
20
47.1434849
11
14.3634198
21
47.1434849
0
LINE
8
DEFAULT_255_1_234
10
13.6710839
20
46.6511394
11
13.8260965
21
46.6511394
0
ARC
8
DEFAULT_255_1_234
10
14.4293011
20
48.0381768
40
1.252368
50
248.9199003
51
254.1439814
0
ARC
8
DEFAULT_255_1_234
10
14.2612505
20
47.6055234
40
0.788226
50
241.633709
51
249.0064503
0
ARC
8
DEFAULT_255_1_234
10
14.10839
20
47.3254317
40
0.4691427
50
230.498225
51
241.8087113
0
ARC
8
DEFAULT_255_1_234
10
14.0299474
20
47.2254906
40
0.3421437
50
227.4064532
51
229.9881192
0
ARC
8
DEFAULT_255_1_234
10
13.9811995
20
47.1779088
40
0.2741476
50
200.6781896
51
228.1763934
0
ARC
8
DEFAULT_255_1_234
10
13.9884305
20
47.1764077
40
0.2804109
50
179.5061581
51
199.8694617
0
ARC
8
DEFAULT_255_1_234
10
13.9875057
20
47.183821
40
0.2795204
50
132.4834203
51
181.0242172
0
ARC
8
DEFAULT_255_1_234
10
14.0470639
20
47.1275704
40
0.3612768
50
129.2532479
51
133.4242687
0
ARC
8
DEFAULT_255_1_234
10
14.0617089
20
47.1055965
40
0.3875675
50
101.98776
51
128.8742646
0
ARC
8
DEFAULT_255_1_234
10
14.10157
20
46.9334741
40
0.5642249
50
89.5906553
51
102.3169264
0
ARC
8
DEFAULT_255_1_234
10
14.1086192
20
46.9653148
40
0.5323783
50
77.2360837
51
90.3248275
0
ARC
8
DEFAULT_255_1_234
10
14.1293271
20
47.06204
40
0.4334697
50
63.837784
51
77.0809408
0
ARC
8
DEFAULT_255_1_234
10
14.1571033
20
47.1137911
40
0.3747796
50
45.9864267
51
64.1607727
0
ARC
8
DEFAULT_255_1_234
10
14.1831914
20
47.1435866
40
0.3352302
50
32.2747395
51
45.6547121
0
ARC
8
DEFAULT_255_1_234
10
14.1898355
20
47.145488
40
0.328603
50
359.6507365
51
32.6130309
0
ARC
8
DEFAULT_255_1_234
10
14.095545
20
47.145966
40
0.2678863
50
359.469343
51
14.9832209
0
ARC
8
DEFAULT_255_1_234
10
14.1660512
20
47.1648539
40
0.1948938
50
14.9781179
51
48.2004265
0
ARC
8
DEFAULT_255_1_234
10
14.1496156
20
47.1441983
40
0.2212521
50
48.5927837
51
74.1241538
0
ARC
8
DEFAULT_255_1_234
10
14.1162646
20
47.0341248
40
0.3362561
50
73.7888341
51
86.6652678
0
ARC
8
DEFAULT_255_1_234
10
14.1060212
20
46.9133881
40
0.4573953
50
86.2640471
51
90.0526343
0
ARC
8
DEFAULT_255_1_234
10
14.1031924
20
46.9529192
40
0.4178709
50
89.6697524
51
99.2309573
0
ARC
8
DEFAULT_255_1_234
10
14.0789375
20
47.0973964
40
0.2713749
50
99.069534
51
113.7658566
0
ARC
8
DEFAULT_255_1_234
10
14.0515566
20
47.1619677
40
0.2012469
50
114.0401004
51
127.9850673
0
ARC
8
DEFAULT_255_1_234
10
14.027513
20
47.191573
40
0.1631167
50
127.7287463
51
176.7105154
0
ARC
8
DEFAULT_255_1_234
10
14.0953848
20
47.1814693
40
0.2315392
50
175.1779447
51
180.0581938
0
ARC
8
DEFAULT_255_1_234
10
14.0110694
20
47.1802428
40
0.1472271
50
179.6142195
51
228.1246017
0
ARC
8
DEFAULT_255_1_234
10
14.0552363
20
47.2211308
40
0.2072299
50
226.5779593
51
230.8800004
0
ARC
8
DEFAULT_255_1_234
10
14.1023442
20
47.2836636
40
0.2854818
50
231.4635071
51
241.9260842
0
ARC
8
DEFAULT_255_1_234
10
14.222062
20
47.50398
40
0.53622
50
241.7178533
51
248.3259551
0
ARC
8
DEFAULT_255_1_234
10
14.3605991
20
47.8472064
40
0.9063478
50
248.2007737
51
252.4528373
0
ARC
8
DEFAULT_255_1_234
10
14.4809716
20
48.2193441
40
1.2974635
50
252.3391078
51
254.3469452
0
ARC
8
DEFAULT_255_1_234
10
13.7267419
20
45.5216148
40
1.5037162
50
71.0197183
51
74.4087047
0
ARC
8
DEFAULT_255_1_234
10
13.8962104
20
46.0108111
40
0.9859993
50
66.1847285
51
71.086374
0
ARC
8
DEFAULT_255_1_234
10
14.0518417
20
46.36122
40
0.6025855
50
59.3536294
51
66.2691831
0
ARC
8
DEFAULT_255_1_234
10
14.1407069
20
46.5115609
40
0.4279449
50
49.1020879
51
59.3293958
0
ARC
8
DEFAULT_255_1_234
10
14.2225809
20
46.6048834
40
0.3038015
50
32.7919921
51
49.2505539
0
ARC
8
DEFAULT_255_1_234
10
14.2546899
20
46.6277191
40
0.264448
50
31.1181161
51
32.4005348
0
ARC
8
DEFAULT_255_1_234
10
14.2458437
20
46.6241779
40
0.2738556
50
8.1116974
51
30.7958831
0
ARC
8
DEFAULT_255_1_234
10
14.1648105
20
46.6103753
40
0.3560327
50
359.8389159
51
8.4706516
0
ARC
8
DEFAULT_255_1_234
10
14.2273896
20
46.6055137
40
0.2934776
50
337.4731098
51
0.7537279
0
ARC
8
DEFAULT_255_1_234
10
14.2452591
20
46.6035387
40
0.2762607
50
307.5917067
51
336.4315538
0
ARC
8
DEFAULT_255_1_234
10
14.1992419
20
46.6548102
40
0.3449979
50
307.6551545
51
308.4529766
0
ARC
8
DEFAULT_255_1_234
10
14.1762138
20
46.690325
40
0.3871988
50
284.3734338
51
307.1424381
0
ARC
8
DEFAULT_255_1_234
10
14.1266968
20
46.8724932
40
0.5759636
50
272.4382747
51
284.646547
0
ARC
8
DEFAULT_255_1_234
10
14.1140177
20
47.0524893
40
0.7563528
50
269.9708387
51
272.8178037
0
ARC
8
DEFAULT_255_1_234
10
14.1097216
20
46.8486716
40
0.5525489
50
248.2707594
51
270.4055579
0
ARC
8
DEFAULT_255_1_234
10
14.1042958
20
46.8296192
40
0.5328452
50
246.1383403
51
248.0542782
0
ARC
8
DEFAULT_255_1_234
10
14.0624336
20
46.7416843
40
0.4355005
50
233.1670131
51
246.4950969
0
ARC
8
DEFAULT_255_1_234
10
14.0070241
20
46.6668812
40
0.3424126
50
215.3403242
51
233.0843104
0
ARC
8
DEFAULT_255_1_234
10
13.9797673
20
46.6470549
40
0.3087104
50
179.2419209
51
215.2648451
0
ARC
8
DEFAULT_255_1_234
10
14.0565267
20
46.6484666
40
0.2304457
50
179.335461
51
199.1045811
0
ARC
8
DEFAULT_255_1_234
10
14.0232943
20
46.6397766
40
0.1962176
50
199.8828939
51
232.7063202
0
ARC
8
DEFAULT_255_1_234
10
14.0705211
20
46.6991788
40
0.2720938
50
232.3738199
51
255.5136649
0
ARC
8
DEFAULT_255_1_234
10
14.1046078
20
46.8235835
40
0.4010747
50
255.2446292
51
267.5320849
0
ARC
8
DEFAULT_255_1_234
10
14.1133701
20
46.9468702
40
0.5246356
50
267.1557994
51
270.0286766
0
ARC
8
DEFAULT_255_1_234
10
14.1161474
20
46.902495
40
0.4802668
50
269.7000017
51
278.1660162
0
ARC
8
DEFAULT_255_1_234
10
14.1417478
20
46.7294515
40
0.3053425
50
278.0231263
51
290.625471
0
ARC
8
DEFAULT_255_1_234
10
14.1765165
20
46.6367025
40
0.206291
50
290.6619762
51
307.0370976
0
ARC
8
DEFAULT_255_1_234
10
14.2065555
20
46.5998504
40
0.1587906
50
306.3943566
51
355.3030547
0
ARC
8
DEFAULT_255_1_234
10
14.1553486
20
46.6075113
40
0.2104809
50
354.3660432
51
0.0698737
0
ARC
8
DEFAULT_255_1_234
10
14.1695831
20
46.6097617
40
0.1962563
50
359.417946
51
16.1971788
0
ARC
8
DEFAULT_255_1_234
10
14.2151142
20
46.6222418
40
0.149053
50
16.4723299
51
52.6262157
0
ARC
8
DEFAULT_255_1_234
10
14.1330196
20
46.5138433
40
0.2850296
50
52.7386432
51
62.4979148
0
ARC
8
DEFAULT_255_1_234
10
13.9945272
20
46.2532283
40
0.5801521
50
62.2515216
51
68.1220564
0
ARC
8
DEFAULT_255_1_234
10
13.8225183
20
45.8304872
40
1.0365451
50
68.0062803
51
71.8053402
0
ARC
8
DEFAULT_255_1_234
10
13.6429555
20
45.2919758
40
1.6042013
50
71.7183119
51
73.9258742
0
LINE
8
DEFAULT_255_1_234
10
14.6573814
20
46.7226218
11
14.6573814
21
46.7499297
0
LINE
8
DEFAULT_255_1_234
10
15.394695
20
46.7659932
11
15.394695
21
46.7041488
0
LINE
8
DEFAULT_255_1_234
10
15.394695
20
46.7041488
11
14.8059686
21
46.7041488
0
LINE
8
DEFAULT_255_1_234
10
15.2926919
20
46.5346792
11
15.3834505
21
46.4639999
0
LINE
8
DEFAULT_255_1_234
10
14.8107876
20
46.8262313
11
15.2461078
21
46.8262313
0
LINE
8
DEFAULT_255_1_234
10
15.2461078
20
46.8262313
11
15.2461078
21
46.8374757
0
ARC
8
DEFAULT_255_1_234
10
15.0513179
20
46.7337332
40
0.4376191
50
252.3266134
51
270.5810217
0
ARC
8
DEFAULT_255_1_234
10
15.0308268
20
46.6596644
40
0.3608374
50
223.3000567
51
251.8561855
0
ARC
8
DEFAULT_255_1_234
10
15.0519629
20
46.6801937
40
0.3902993
50
190.9374509
51
223.3654032
0
ARC
8
DEFAULT_255_1_234
10
15.2244601
20
46.7191885
40
0.5670891
50
179.6531105
51
191.4989439
0
ARC
8
DEFAULT_255_1_234
10
15.2366613
20
46.7531417
40
0.5792888
50
167.4007466
51
180.3176909
0
ARC
8
DEFAULT_255_1_234
10
15.1314675
20
46.7753885
40
0.471777
50
154.1835823
51
167.250763
0
ARC
8
DEFAULT_255_1_234
10
15.0683142
20
46.8086417
40
0.4004528
50
134.3149965
51
154.5315275
0
ARC
8
DEFAULT_255_1_234
10
15.0465637
20
46.8277228
40
0.371612
50
122.8616532
51
133.9707695
0
ARC
8
DEFAULT_255_1_234
10
15.0362212
20
46.8499703
40
0.3473289
50
89.8249009
51
123.4199222
0
ARC
8
DEFAULT_255_1_234
10
15.0412253
20
46.7852967
40
0.4120197
50
74.7876118
51
90.5482747
0
ARC
8
DEFAULT_255_1_234
10
15.0705996
20
46.893803
40
0.2996077
50
39.8178249
51
74.7633718
0
ARC
8
DEFAULT_255_1_234
10
15.0193316
20
46.8538351
40
0.3645855
50
16.8990863
51
39.4829761
0
ARC
8
DEFAULT_255_1_234
10
14.8298612
20
46.7931526
40
0.5635218
50
4.9636328
51
17.2026414
0
ARC
8
DEFAULT_255_1_234
10
14.5880683
20
46.767634
40
0.8066286
50
359.8834553
51
5.2834307
0
ARC
8
DEFAULT_255_1_234
10
15.1918207
20
46.7107803
40
0.3859091
50
180.9846213
51
194.9401313
0
ARC
8
DEFAULT_255_1_234
10
15.0868485
20
46.6820849
40
0.2770883
50
194.80314
51
222.0412631
0
ARC
8
DEFAULT_255_1_234
10
15.0564367
20
46.6519116
40
0.2343055
50
221.5417084
51
268.8614402
0
ARC
8
DEFAULT_255_1_234
10
15.0637361
20
46.7195686
40
0.3021528
50
267.732405
51
270.0097136
0
ARC
8
DEFAULT_255_1_234
10
15.0655172
20
46.7397105
40
0.3222994
50
269.6924892
51
280.4117579
0
ARC
8
DEFAULT_255_1_234
10
15.0831578
20
46.6478193
40
0.2287344
50
280.2255091
51
298.6338936
0
ARC
8
DEFAULT_255_1_234
10
15.094837
20
46.6234223
40
0.2017294
50
299.0430333
51
300.4643464
0
ARC
8
DEFAULT_255_1_234
10
15.0268376
20
46.7368038
40
0.3339357
50
300.6577328
51
322.0378878
0
ARC
8
DEFAULT_255_1_234
10
14.9917915
20
46.7672021
40
0.3802736
50
321.6750233
51
322.3046845
0
ARC
8
DEFAULT_255_1_234
10
15.0848876
20
46.650537
40
0.3520454
50
276.9728461
51
328.0035423
0
ARC
8
DEFAULT_255_1_234
10
15.0571929
20
46.7985841
40
0.5024498
50
269.8361028
51
278.0581756
0
ARC
8
DEFAULT_255_1_234
10
15.0344666
20
46.8730757
40
0.202159
50
89.2018686
51
117.2851756
0
ARC
8
DEFAULT_255_1_234
10
15.0397835
20
46.8688752
40
0.2083484
50
118.0551165
51
137.4540413
0
ARC
8
DEFAULT_255_1_234
10
15.0772575
20
46.8348304
40
0.2589774
50
137.5109581
51
158.8516286
0
ARC
8
DEFAULT_255_1_234
10
15.1910411
20
46.7889074
40
0.38167
50
158.5845963
51
170.1721436
0
ARC
8
DEFAULT_255_1_234
10
15.30798
20
46.7656823
40
0.5008657
50
169.8376422
51
173.0566086
0
ARC
8
DEFAULT_255_1_234
10
14.8382874
20
46.8167509
40
0.4083467
50
2.9091802
51
12.8847116
0
ARC
8
DEFAULT_255_1_234
10
14.9753551
20
46.8490101
40
0.2675383
50
12.6957781
51
28.6404489
0
ARC
8
DEFAULT_255_1_234
10
15.0295221
20
46.8770458
40
0.2065654
50
29.0169854
51
41.1487595
0
ARC
8
DEFAULT_255_1_234
10
15.0498007
20
46.8947003
40
0.1796786
50
41.1646065
51
85.0013516
0
ARC
8
DEFAULT_255_1_234
10
15.0377103
20
46.8212431
40
0.2539726
50
83.7280015
51
90.0964893
0
LINE
8
DEFAULT_255_1_234
10
15.9866341
20
47.1860531
11
15.9866341
21
47.0479072
0
LINE
8
DEFAULT_255_1_234
10
15.7151613
20
46.9290375
11
15.7151613
21
46.3122
0
LINE
8
DEFAULT_255_1_234
10
15.7151613
20
46.3122
11
15.5665742
21
46.3122
0
LINE
8
DEFAULT_255_1_234
10
15.5665742
20
46.3122
11
15.5665742
21
47.1812341
0
LINE
8
DEFAULT_255_1_234
10
15.5665742
20
47.1812341
11
15.7111455
21
47.1812341
0
LINE
8
DEFAULT_255_1_234
10
15.7111455
20
47.1812341
11
15.713555
21
47.0808374
0
ARC
8
DEFAULT_255_1_234
10
15.9199746
20
46.6419342
40
0.4114092
50
80.6754243
51
86.8932892
0
ARC
8
DEFAULT_255_1_234
10
15.9139281
20
46.54517
40
0.5083596
50
86.8038578
51
90.0431435
0
ARC
8
DEFAULT_255_1_234
10
15.9102261
20
46.7908866
40
0.2626638
50
89.2759698
51
106.6213787
0
ARC
8
DEFAULT_255_1_234
10
15.8897825
20
46.865183
40
0.1856317
50
107.1346045
51
157.6458115
0
ARC
8
DEFAULT_255_1_234
10
15.9589427
20
46.8268311
40
0.2643398
50
155.6586782
51
157.2539184
0
ARC
8
DEFAULT_255_1_234
10
15.9384629
20
46.9437157
40
0.2634121
50
127.8165941
51
148.6302098
0
ARC
8
DEFAULT_255_1_234
10
15.9131098
20
46.9697218
40
0.2273596
50
91.3329982
51
126.7875809
0
ARC
8
DEFAULT_255_1_234
10
15.9207039
20
46.8982195
40
0.299078
50
89.986594
51
92.4688449
0
ARC
8
DEFAULT_255_1_234
10
15.9215433
20
46.9257078
40
0.2715908
50
85.3589899
51
90.1623399
0
ARC
8
DEFAULT_255_1_234
10
15.9299949
20
47.0261164
40
0.1708278
50
78.401942
51
85.4594656
0
ARC
8
DEFAULT_255_1_234
10
15.9444833
20
47.0952236
40
0.1002194
50
67.7858312
51
78.5728455
0
ARC
8
DEFAULT_255_1_234
10
15.9552686
20
47.1231887
40
0.0702548
50
63.4835954
51
67.3062642
0
LINE
8
DEFAULT_255_1_234
10
16.2846116
20
47.1812341
11
16.2846116
21
46.3122
0
LINE
8
DEFAULT_255_1_234
10
16.2846116
20
46.3122
11
16.1360244
21
46.3122
0
LINE
8
DEFAULT_255_1_234
10
16.1360244
20
46.3122
11
16.1360244
21
47.1812341
0
LINE
8
DEFAULT_255_1_234
10
16.1360244
20
47.1812341
11
16.2846116
21
47.1812341
0
ARC
8
DEFAULT_255_1_234
10
16.2218393
20
47.4126889
40
0.097867
50
161.415052
51
180.5526306
0
ARC
8
DEFAULT_255_1_234
10
16.2094171
20
47.4161077
40
0.0850062
50
138.1827368
51
160.9307106
0
ARC
8
DEFAULT_255_1_234
10
16.1984117
20
47.4256588
40
0.0704362
50
104.6368899
51
138.0039868
0
ARC
8
DEFAULT_255_1_234
10
16.2091271
20
47.3889963
40
0.1086221
50
92.0600725
51
105.2189128
0
ARC
8
DEFAULT_255_1_234
10
16.211462
20
47.3547117
40
0.1429728
50
89.9756393
51
92.5012496
0
ARC
8
DEFAULT_255_1_234
10
16.2124639
20
47.3772731
40
0.1204151
50
78.0235316
51
90.4478182
0
ARC
8
DEFAULT_255_1_234
10
16.2216731
20
47.4186295
40
0.0780493
50
55.051506
51
78.3369085
0
ARC
8
DEFAULT_255_1_234
10
16.2267005
20
47.4270711
40
0.0682538
50
42.0501187
51
54.4513741
0
ARC
8
DEFAULT_255_1_234
10
16.2131873
20
47.4146798
40
0.0865878
50
1.7497075
51
42.1496013
0
ARC
8
DEFAULT_255_1_234
10
16.1877205
20
47.4117738
40
0.1121515
50
359.9852656
51
2.8364544
0
ARC
8
DEFAULT_255_1_234
10
16.2043198
20
47.4108229
40
0.0955566
50
342.1070653
51
0.552888
0
ARC
8
DEFAULT_255_1_234
10
16.2185895
20
47.4068904
40
0.0807713
50
316.7107116
51
341.6516965
0
ARC
8
DEFAULT_255_1_234
10
16.2252932
20
47.4008823
40
0.0717724
50
285.4397031
51
316.5324284
0
ARC
8
DEFAULT_255_1_234
10
16.2142849
20
47.4374554
40
0.1099597
50
272.3547054
51
285.8953117
0
ARC
8
DEFAULT_255_1_234
10
16.2116007
20
47.4740048
40
0.1465932
50
269.9695369
51
272.8160237
0
ARC
8
DEFAULT_255_1_234
10
16.2106188
20
47.4520863
40
0.1246779
50
258.8431134
51
270.4153935
0
ARC
8
DEFAULT_255_1_234
10
16.2016231
20
47.4085414
40
0.0802162
50
238.5431189
51
259.1288175
0
ARC
8
DEFAULT_255_1_234
10
16.1948116
20
47.3961856
40
0.0661247
50
222.5062634
51
237.9906969
0
ARC
8
DEFAULT_255_1_234
10
16.2075703
20
47.4077889
40
0.0833707
50
184.1069131
51
222.460413
0
ARC
8
DEFAULT_255_1_234
10
16.2344944
20
47.4116349
40
0.1105176
50
179.9429482
51
185.0960898
0
LINE
8
DEFAULT_255_1_234
10
16.4846019
20
46.7226218
11
16.4846019
21
46.7499297
0
LINE
8
DEFAULT_255_1_234
10
17.2219154
20
46.7659932
11
17.2219154
21
46.7041488
0
LINE
8
DEFAULT_255_1_234
10
17.2219154
20
46.7041488
11
16.633189
21
46.7041488
0
LINE
8
DEFAULT_255_1_234
10
17.1199124
20
46.5346792
11
17.210671
21
46.4639999
0
LINE
8
DEFAULT_255_1_234
10
16.6380081
20
46.8262313
11
17.0733283
21
46.8262313
0
LINE
8
DEFAULT_255_1_234
10
17.0733283
20
46.8262313
11
17.0733283
21
46.8374757
0
ARC
8
DEFAULT_255_1_234
10
16.8785384
20
46.7337332
40
0.4376191
50
252.3266134
51
270.5810217
0
ARC
8
DEFAULT_255_1_234
10
16.8580473
20
46.6596644
40
0.3608374
50
223.3000567
51
251.8561855
0
ARC
8
DEFAULT_255_1_234
10
16.8791833
20
46.6801937
40
0.3902993
50
190.9374509
51
223.3654032
0
ARC
8
DEFAULT_255_1_234
10
17.0516806
20
46.7191885
40
0.5670891
50
179.6531105
51
191.4989439
0
ARC
8
DEFAULT_255_1_234
10
17.0638818
20
46.7531417
40
0.5792888
50
167.4007466
51
180.3176909
0
ARC
8
DEFAULT_255_1_234
10
16.9586879
20
46.7753885
40
0.471777
50
154.1835823
51
167.250763
0
ARC
8
DEFAULT_255_1_234
10
16.8955347
20
46.8086417
40
0.4004528
50
134.3149965
51
154.5315275
0
ARC
8
DEFAULT_255_1_234
10
16.8737842
20
46.8277228
40
0.371612
50
122.8616532
51
133.9707695
0
ARC
8
DEFAULT_255_1_234
10
16.8634416
20
46.8499703
40
0.3473289
50
89.8249009
51
123.4199222
0
ARC
8
DEFAULT_255_1_234
10
16.8684457
20
46.7852967
40
0.4120197
50
74.7876118
51
90.5482747
0
ARC
8
DEFAULT_255_1_234
10
16.89782
20
46.893803
40
0.2996077
50
39.8178249
51
74.7633718
0
ARC
8
DEFAULT_255_1_234
10
16.8465521
20
46.8538351
40
0.3645855
50
16.8990863
51
39.4829761
0
ARC
8
DEFAULT_255_1_234
10
16.6570817
20
46.7931526
40
0.5635218
50
4.9636328
51
17.2026414
0
ARC
8
DEFAULT_255_1_234
10
16.4152887
20
46.767634
40
0.8066286
50
359.8834553
51
5.2834307
0
ARC
8
DEFAULT_255_1_234
10
17.0190412
20
46.7107803
40
0.3859091
50
180.9846213
51
194.9401313
0
ARC
8
DEFAULT_255_1_234
10
16.9140689
20
46.6820849
40
0.2770883
50
194.80314
51
222.0412631
0
ARC
8
DEFAULT_255_1_234
10
16.8836571
20
46.6519116
40
0.2343055
50
221.5417084
51
268.8614402
0
ARC
8
DEFAULT_255_1_234
10
16.8909566
20
46.7195686
40
0.3021528
50
267.732405
51
270.0097136
0
ARC
8
DEFAULT_255_1_234
10
16.8927376
20
46.7397105
40
0.3222994
50
269.6924892
51
280.4117579
0
ARC
8
DEFAULT_255_1_234
10
16.9103783
20
46.6478193
40
0.2287344
50
280.2255091
51
298.6338936
0
ARC
8
DEFAULT_255_1_234
10
16.9220575
20
46.6234223
40
0.2017294
50
299.0430333
51
300.4643464
0
ARC
8
DEFAULT_255_1_234
10
16.854058
20
46.7368038
40
0.3339357
50
300.6577328
51
322.0378878
0
ARC
8
DEFAULT_255_1_234
10
16.8190119
20
46.7672021
40
0.3802736
50
321.6750233
51
322.3046845
0
ARC
8
DEFAULT_255_1_234
10
16.9121081
20
46.650537
40
0.3520454
50
276.9728461
51
328.0035423
0
ARC
8
DEFAULT_255_1_234
10
16.8844134
20
46.7985841
40
0.5024498
50
269.8361028
51
278.0581756
0
ARC
8
DEFAULT_255_1_234
10
16.8616871
20
46.8730757
40
0.202159
50
89.2018686
51
117.2851756
0
ARC
8
DEFAULT_255_1_234
10
16.867004
20
46.8688752
40
0.2083484
50
118.0551165
51
137.4540413
0
ARC
8
DEFAULT_255_1_234
10
16.904478
20
46.8348304
40
0.2589774
50
137.5109581
51
158.8516286
0
ARC
8
DEFAULT_255_1_234
10
17.0182615
20
46.7889074
40
0.38167
50
158.5845963
51
170.1721436
0
ARC
8
DEFAULT_255_1_234
10
17.1352005
20
46.7656823
40
0.5008657
50
169.8376422
51
173.0566086
0
ARC
8
DEFAULT_255_1_234
10
16.6655079
20
46.8167509
40
0.4083467
50
2.9091802
51
12.8847116
0
ARC
8
DEFAULT_255_1_234
10
16.8025755
20
46.8490101
40
0.2675383
50
12.6957781
51
28.6404489
0
ARC
8
DEFAULT_255_1_234
10
16.8567426
20
46.8770458
40
0.2065654
50
29.0169854
51
41.1487595
0
ARC
8
DEFAULT_255_1_234
10
16.8770211
20
46.8947003
40
0.1796786
50
41.1646065
51
85.0013516
0
ARC
8
DEFAULT_255_1_234
10
16.8649308
20
46.8212431
40
0.2539726
50
83.7280015
51
90.0964893
0
LINE
8
DEFAULT_255_1_234
10
18.0403496
20
46.9258248
11
17.8909592
21
46.9258248
0
LINE
8
DEFAULT_255_1_234
10
17.3576518
20
46.5796569
11
17.506239
21
46.5796569
0
ARC
8
DEFAULT_255_1_234
10
17.7721411
20
46.5441959
40
0.1276617
50
359.3334982
51
18.5871358
0
ARC
8
DEFAULT_255_1_234
10
17.7930048
20
46.5497133
40
0.1061371
50
19.3540742
51
54.6485071
0
ARC
8
DEFAULT_255_1_234
10
17.742595
20
46.4801919
40
0.1920087
50
54.3827097
51
65.0622807
0
ARC
8
DEFAULT_255_1_234
10
17.6657346
20
46.31849
40
0.3710447
50
64.8282493
51
71.4200025
0
ARC
8
DEFAULT_255_1_234
10
17.5755222
20
46.0538107
40
0.6506741
50
71.3164301
51
75.8006402
0
ARC
8
DEFAULT_255_1_234
10
17.4914042
20
45.7297561
40
0.9854641
50
75.6809531
51
78.0061883
0
ARC
8
DEFAULT_255_1_234
10
17.9362575
20
47.827677
40
1.1591028
50
254.6901892
51
258.0466452
0
ARC
8
DEFAULT_255_1_234
10
17.8324483
20
47.4517781
40
0.7691345
50
249.9010773
51
254.755261
0
ARC
8
DEFAULT_255_1_234
10
17.7320826
20
47.1791982
40
0.478665
50
243.3097214
51
249.9709442
0
ARC
8
DEFAULT_255_1_234
10
17.6691847
20
47.0537778
40
0.3383568
50
234.4047477
51
243.2862168
0
ARC
8
DEFAULT_255_1_234
10
17.606937
20
46.9678232
40
0.2322322
50
220.8667099
51
234.5493881
0
ARC
8
DEFAULT_255_1_234
10
17.5727311
20
46.9366817
40
0.1859923
50
214.3062465
51
220.5065136
0
ARC
8
DEFAULT_255_1_234
10
17.570139
20
46.933588
40
0.1821108
50
186.912965
51
213.9618616
0
ARC
8
DEFAULT_255_1_234
10
17.6233485
20
46.9422009
40
0.2359799
50
179.8808832
51
187.4339886
0
ARC
8
DEFAULT_255_1_234
10
17.6078619
20
46.9442088
40
0.2204978
50
132.005434
51
180.3942919
0
ARC
8
DEFAULT_255_1_234
10
17.6735232
20
46.8836083
40
0.3095791
50
129.2319861
51
133.5302299
0
ARC
8
DEFAULT_255_1_234
10
17.678874
20
46.8741928
40
0.3202615
50
100.4410011
51
128.9081242
0
ARC
8
DEFAULT_255_1_234
10
17.7062624
20
46.7456455
40
0.4516583
50
89.6985377
51
100.9026564
0
ARC
8
DEFAULT_255_1_234
10
17.7119666
20
46.7296166
40
0.4676928
50
77.6965325
51
90.4076836
0
ARC
8
DEFAULT_255_1_234
10
17.745065
20
46.8723413
40
0.3211988
50
50.7276602
51
78.0399361
0
ARC
8
DEFAULT_255_1_234
10
17.7895108
20
46.9241296
40
0.2529778
50
25.7545084
51
51.0957453
0
ARC
8
DEFAULT_255_1_234
10
17.7896333
20
46.9291206
40
0.250738
50
359.2468627
51
24.7394243
0
ARC
8
DEFAULT_255_1_234
10
17.7611785
20
46.9262664
40
0.1297815
50
359.8050318
51
45.1544908
0
ARC
8
DEFAULT_255_1_234
10
17.7204927
20
46.8914794
40
0.1831883
50
43.8047702
51
49.6271585
0
ARC
8
DEFAULT_255_1_234
10
17.7212828
20
46.8915678
40
0.18261
50
49.7980766
51
82.1218353
0
ARC
8
DEFAULT_255_1_234
10
17.70938
20
46.8268998
40
0.2483163
50
81.4465357
51
90.1710293
0
ARC
8
DEFAULT_255_1_234
10
17.7069403
20
46.774288
40
0.300932
50
89.6766211
51
99.1264602
0
ARC
8
DEFAULT_255_1_234
10
17.6897865
20
46.8776537
40
0.1961547
50
98.968313
51
113.4570237
0
ARC
8
DEFAULT_255_1_234
10
17.670195
20
46.9244965
40
0.1453859
50
113.722589
51
127.4763106
0
ARC
8
DEFAULT_255_1_234
10
17.6533596
20
46.9445124
40
0.1192639
50
126.9083309
51
150.3165862
0
ARC
8
DEFAULT_255_1_234
10
17.6485929
20
46.9495981
40
0.112623
50
151.3635175
51
180.0701457
0
ARC
8
DEFAULT_255_1_234
10
17.6794714
20
46.947499
40
0.1435149
50
179.2169974
51
179.9954013
0
ARC
8
DEFAULT_255_1_234
10
17.6433771
20
46.9462056
40
0.1074286
50
179.3040112
51
198.4225446
0
ARC
8
DEFAULT_255_1_234
10
17.6241904
20
46.9412127
40
0.0876573
50
199.2895851
51
238.6034594
0
ARC
8
DEFAULT_255_1_234
10
17.6844751
20
47.035845
40
0.1998512
50
237.9846301
51
246.8744712
0
ARC
8
DEFAULT_255_1_234
10
17.7702696
20
47.2321205
40
0.4140547
50
246.6234531
51
251.8168941
0
ARC
8
DEFAULT_255_1_234
10
17.8733239
20
47.5415905
40
0.7402308
50
251.713434
51
255.0778414
0
ARC
8
DEFAULT_255_1_234
10
17.9932502
20
47.9882563
40
1.2027155
50
255.0367487
51
257.4705983
0
ARC
8
DEFAULT_255_1_234
10
17.4824512
20
45.6868863
40
1.1546601
50
73.6837552
51
77.5016755
0
ARC
8
DEFAULT_255_1_234
10
17.5913287
20
46.0568581
40
0.7690009
50
68.7044154
51
73.7249639
0
ARC
8
DEFAULT_255_1_234
10
17.6816308
20
46.2895654
40
0.5193873
50
63.590599
51
68.6626804
0
ARC
8
DEFAULT_255_1_234
10
17.7587326
20
46.4433123
40
0.3473927
50
54.7106439
51
63.7013633
0
ARC
8
DEFAULT_255_1_234
10
17.8211781
20
46.53054
40
0.2401192
50
41.0622434
51
54.8487496
0
ARC
8
DEFAULT_255_1_234
10
17.8553167
20
46.5618592
40
0.1938094
50
34.4950568
51
40.7105546
0
ARC
8
DEFAULT_255_1_234
10
17.8599975
20
46.5667078
40
0.1872106
50
9.3763373
51
34.0833615
0
ARC
8
DEFAULT_255_1_234
10
17.7946845
20
46.5541728
40
0.2536988
50
359.7694872
51
9.7663171
0
ARC
8
DEFAULT_255_1_234
10
17.8144346
20
46.5498764
40
0.2339696
50
335.8654732
51
0.8022045
0
ARC
8
DEFAULT_255_1_234
10
17.821939
20
46.5512197
40
0.2277108
50
307.7357725
51
334.7849066
0
ARC
8
DEFAULT_255_1_234
10
17.7818566
20
46.5962645
40
0.2878951
50
307.0241536
51
308.5578354
0
ARC
8
DEFAULT_255_1_234
10
17.7560897
20
46.6348801
40
0.3342515
50
282.9362969
51
306.5646424
0
ARC
8
DEFAULT_255_1_234
10
17.7199195
20
46.7816108
40
0.4853615
50
271.1026298
51
283.2200835
0
ARC
8
DEFAULT_255_1_234
10
17.7135439
20
46.9057418
40
0.6096052
50
269.9919117
51
271.4772449
0
ARC
8
DEFAULT_255_1_234
10
17.7109194
20
46.7979436
40
0.5018135
50
259.0723564
51
270.289833
0
ARC
8
DEFAULT_255_1_234
10
17.6896926
20
46.6862271
40
0.388099
50
245.4963068
51
259.0227342
0
ARC
8
DEFAULT_255_1_234
10
17.6618882
20
46.6280615
40
0.3236422
50
228.9684658
51
245.7044727
0
ARC
8
DEFAULT_255_1_234
10
17.6353326
20
46.5953575
40
0.2815426
50
214.4011705
51
228.6759915
0
ARC
8
DEFAULT_255_1_234
10
17.6064067
20
46.579529
40
0.2487548
50
179.9705531
51
215.1572795
0
ARC
8
DEFAULT_255_1_234
10
17.6764666
20
46.5868806
40
0.1703809
50
182.4299387
51
203.0329699
0
ARC
8
DEFAULT_255_1_234
10
17.6580324
20
46.5812396
40
0.1512226
50
203.798802
51
232.548466
0
ARC
8
DEFAULT_255_1_234
10
17.6856845
20
46.6163826
40
0.1959374
50
232.3782728
51
256.3934612
0
ARC
8
DEFAULT_255_1_234
10
17.7087207
20
46.7053842
40
0.2878639
50
256.104506
51
268.4626716
0
ARC
8
DEFAULT_255_1_234
10
17.7133691
20
46.7850487
40
0.3676329
50
268.0715632
51
270.0138206
0
ARC
8
DEFAULT_255_1_234
10
17.7152216
20
46.7578083
40
0.3403971
50
269.7031147
51
278.8341955
0
ARC
8
DEFAULT_255_1_234
10
17.7334309
20
46.6447876
40
0.2259217
50
278.6728789
51
292.8232582
0
ARC
8
DEFAULT_255_1_234
10
17.7534847
20
46.5946449
40
0.171929
50
293.1452328
51
303.6655899
0
ARC
8
DEFAULT_255_1_234
10
17.7799726
20
46.5570204
40
0.1259367
50
303.1248165
51
321.742847
0
ARC
8
DEFAULT_255_1_234
10
17.7985607
20
46.5407156
40
0.1012531
50
322.4748573
51
1.1291126
0
LINE
8
DEFAULT_255_1_234
10
4.9274119
20
44.4491792
11
4.9274119
21
44.3279
0
LINE
8
DEFAULT_255_1_234
10
4.9274119
20
44.3279
11
4.161184
21
44.3279
0
LINE
8
DEFAULT_255_1_234
10
4.161184
20
44.3279
11
4.161184
21
44.4347221
0
LINE
8
DEFAULT_255_1_234
10
4.161184
20
44.4347221
11
4.5659836
21
44.8844995
0
LINE
8
DEFAULT_255_1_234
10
4.2872823
20
45.1527595
11
4.1386952
21
45.1527595
0
LINE
8
DEFAULT_255_1_234
10
4.6535296
20
44.7889218
11
4.3402918
21
44.4491792
0
LINE
8
DEFAULT_255_1_234
10
4.3402918
20
44.4491792
11
4.9274119
21
44.4491792
0
ARC
8
DEFAULT_255_1_234
10
3.216967
20
46.0774527
40
1.8008286
50
318.5132453
51
320.7828378
0
ARC
8
DEFAULT_255_1_234
10
3.7456644
20
45.6471426
40
1.1191493
50
320.7372736
51
323.9737074
0
ARC
8
DEFAULT_255_1_234
10
4.1376501
20
45.3631361
40
0.6350923
50
323.8961724
51
328.6421089
0
ARC
8
DEFAULT_255_1_234
10
4.3423096
20
45.2369031
40
0.3946393
50
328.8299013
51
331.789948
0
ARC
8
DEFAULT_255_1_234
10
4.4420274
20
45.1854509
40
0.2824501
50
331.4255242
51
352.9364833
0
ARC
8
DEFAULT_255_1_234
10
4.4556775
20
45.1823976
40
0.2685315
50
353.2248685
51
0.0169286
0
ARC
8
DEFAULT_255_1_234
10
4.4766652
20
45.184695
40
0.2475536
50
359.4866256
51
15.9339782
0
ARC
8
DEFAULT_255_1_234
10
4.5273637
20
45.1983286
40
0.1950618
50
16.1714718
51
43.5284424
0
ARC
8
DEFAULT_255_1_234
10
4.5350946
20
45.2060573
40
0.184134
50
43.4415429
51
83.1661404
0
ARC
8
DEFAULT_255_1_234
10
4.5216864
20
45.1323771
40
0.258926
50
82.160215
51
90.1505798
0
ARC
8
DEFAULT_255_1_234
10
4.5185291
20
45.0786865
40
0.3126255
50
89.5460705
51
102.5418777
0
ARC
8
DEFAULT_255_1_234
10
4.4942377
20
45.1817665
40
0.2067346
50
102.1739365
51
129.2061916
0
ARC
8
DEFAULT_255_1_234
10
4.4863449
20
45.1942094
40
0.1921118
50
129.7279328
51
135.7542026
0
ARC
8
DEFAULT_255_1_234
10
4.4984977
20
45.1845045
40
0.2075944
50
136.175737
51
166.3674722
0
ARC
8
DEFAULT_255_1_234
10
4.5991896
20
45.1575182
40
0.3118201
50
165.9092917
51
178.8683903
0
ARC
8
DEFAULT_255_1_234
10
4.6856757
20
45.1528179
40
0.3983935
50
178.438168
51
180.0083905
0
ARC
8
DEFAULT_255_1_234
10
4.5455359
20
45.1567231
40
0.4068601
50
163.2878735
51
180.5581814
0
ARC
8
DEFAULT_255_1_234
10
4.4653621
20
45.178784
40
0.3237344
50
133.454115
51
162.9470031
0
ARC
8
DEFAULT_255_1_234
10
4.4832162
20
45.1598
40
0.349795
50
100.7869394
51
133.4384016
0
ARC
8
DEFAULT_255_1_234
10
4.5179934
20
45.0049319
40
0.5084616
50
89.6605301
51
101.3704185
0
ARC
8
DEFAULT_255_1_234
10
4.5246273
20
45.0110496
40
0.502348
50
78.2171172
51
90.4130393
0
ARC
8
DEFAULT_255_1_234
10
4.5601351
20
45.1734637
40
0.3361092
50
55.9268222
51
78.4888551
0
ARC
8
DEFAULT_255_1_234
10
4.5797791
20
45.2073324
40
0.2970617
50
47.9292255
51
55.4054003
0
ARC
8
DEFAULT_255_1_234
10
4.5899352
20
45.2176502
40
0.2825983
50
4.3347696
51
48.0560701
0
ARC
8
DEFAULT_255_1_234
10
4.4803745
20
45.2006601
40
0.393225
50
359.925209
51
5.5967654
0
ARC
8
DEFAULT_255_1_234
10
4.5232637
20
45.2062816
40
0.3503892
50
337.8914096
51
358.9967724
0
ARC
8
DEFAULT_255_1_234
10
4.2519049
20
45.3109706
40
0.6412172
50
326.9135351
51
338.3505194
0
ARC
8
DEFAULT_255_1_234
10
3.8533353
20
45.5664284
40
1.1146189
50
319.6472867
51
327.095818
0
ARC
8
DEFAULT_255_1_234
10
3.4700356
20
45.8826
40
1.6114559
50
317.2586784
51
319.9046139
0
LINE
8
DEFAULT_255_1_234
10
5.7121127
20
45.4973211
11
5.7121127
21
44.720652
0
LINE
8
DEFAULT_255_1_234
10
5.7121127
20
44.720652
11
5.8743538
21
44.720652
0
LINE
8
DEFAULT_255_1_234
10
5.8743538
20
44.720652
11
5.8743538
21
44.5993728
0
LINE
8
DEFAULT_255_1_234
10
5.8743538
20
44.5993728
11
5.7121127
21
44.5993728
0
LINE
8
DEFAULT_255_1_234
10
5.7121127
20
44.5993728
11
5.7121127
21
44.3279
0
LINE
8
DEFAULT_255_1_234
10
5.7121127
20
44.3279
11
5.5627224
21
44.3279
0
LINE
8
DEFAULT_255_1_234
10
5.5627224
20
44.3279
11
5.5627224
21
44.5993728
0
LINE
8
DEFAULT_255_1_234
10
5.5627224
20
44.5993728
11
5.0302181
21
44.5993728
0
LINE
8
DEFAULT_255_1_234
10
5.0302181
20
44.5993728
11
5.0302181
21
44.6869187
0
LINE
8
DEFAULT_255_1_234
10
5.0302181
20
44.6869187
11
5.5538875
21
45.4973211
0
LINE
8
DEFAULT_255_1_234
10
5.5538875
20
45.4973211
11
5.7121127
21
45.4973211
0
LINE
8
DEFAULT_255_1_234
10
5.5450525
20
45.2619912
11
5.1988846
21
44.720652
0
LINE
8
DEFAULT_255_1_234
10
5.1988846
20
44.720652
11
5.5627224
21
44.720652
0
LINE
8
DEFAULT_255_1_234
10
5.5627224
20
44.720652
11
5.5627224
21
45.2941181
0
LINE
8
DEFAULT_255_1_234
10
5.5627224
20
45.2941181
11
5.5450525
21
45.2619912
0
LINE
8
DEFAULT_255_1_234
10
6.101652
20
45.4973211
11
6.434166
21
44.5327093
0
LINE
8
DEFAULT_255_1_234
10
6.434166
20
44.5327093
11
6.7682863
21
45.4973211
0
LINE
8
DEFAULT_255_1_234
10
6.7682863
20
45.4973211
11
6.9369528
21
45.4973211
0
LINE
8
DEFAULT_255_1_234
10
6.9369528
20
45.4973211
11
6.5032389
21
44.3279
0
LINE
8
DEFAULT_255_1_234
10
6.5032389
20
44.3279
11
6.3666994
21
44.3279
0
LINE
8
DEFAULT_255_1_234
10
6.3666994
20
44.3279
11
5.9337887
21
45.4973211
0
LINE
8
DEFAULT_255_1_234
10
5.9337887
20
45.4973211
11
6.101652
21
45.4973211
0
LINE
8
DEFAULT_255_1_234
10
4.9697293
20
20.5154
11
4.8580881
21
20.8206061
0
LINE
8
DEFAULT_255_1_234
10
4.8580881
20
20.8206061
11
4.3681521
21
20.8206061
0
LINE
8
DEFAULT_255_1_234
10
4.3681521
20
20.8206061
11
4.2581173
21
20.5154
0
LINE
8
DEFAULT_255_1_234
10
4.2581173
20
20.5154
11
4.0990889
21
20.5154
0
LINE
8
DEFAULT_255_1_234
10
4.0990889
20
20.5154
11
4.5456535
21
21.6848211
0
LINE
8
DEFAULT_255_1_234
10
4.5456535
20
21.6848211
11
4.6805867
21
21.6848211
0
LINE
8
DEFAULT_255_1_234
10
4.6805867
20
21.6848211
11
5.1279545
21
20.5154
0
LINE
8
DEFAULT_255_1_234
10
5.1279545
20
20.5154
11
4.9697293
21
20.5154
0
LINE
8
DEFAULT_255_1_234
10
4.6131201
20
21.4944689
11
4.4147362
21
20.9475075
0
LINE
8
DEFAULT_255_1_234
10
4.4147362
20
20.9475075
11
4.8123072
21
20.9475075
0
LINE
8
DEFAULT_255_1_234
10
4.8123072
20
20.9475075
11
4.6131201
21
21.4944689
0
LINE
8
DEFAULT_255_1_234
10
5.9656648
20
21.2173739
11
5.9656648
21
21.1740025
0
LINE
8
DEFAULT_255_1_234
10
5.4235225
20
20.5145968
11
5.3946083
21
20.5145968
0
LINE
8
DEFAULT_255_1_234
10
5.3946083
20
20.5145968
11
5.3946083
21
20.6398919
0
LINE
8
DEFAULT_255_1_234
10
5.3946083
20
20.6398919
11
5.425932
21
20.6398919
0
LINE
8
DEFAULT_255_1_234
10
5.8170777
20
21.1884597
11
5.8170777
21
21.2478945
0
ARC
8
DEFAULT_255_1_234
10
5.5377046
20
21.2630403
40
0.3635579
50
297.4037347
51
320.016758
0
ARC
8
DEFAULT_255_1_234
10
5.5666995
20
21.207324
40
0.3007486
50
270.2633101
51
297.3851877
0
ARC
8
DEFAULT_255_1_234
10
5.5632951
20
21.2536904
40
0.3471448
50
269.9966443
51
270.7900392
0
ARC
8
DEFAULT_255_1_234
10
5.5607432
20
21.2535143
40
0.3469779
50
254.5999133
51
270.4180344
0
ARC
8
DEFAULT_255_1_234
10
5.5464792
20
21.1970647
40
0.2887697
50
236.4717942
51
254.3541279
0
ARC
8
DEFAULT_255_1_234
10
5.5621009
20
21.2180711
40
0.3149125
50
208.4727207
51
236.2134933
0
ARC
8
DEFAULT_255_1_234
10
5.6259784
20
21.2571455
40
0.3897115
50
204.3447514
51
209.0453999
0
ARC
8
DEFAULT_255_1_234
10
5.693936
20
21.2859656
40
0.4635101
50
183.9375985
51
204.1276318
0
ARC
8
DEFAULT_255_1_234
10
5.7847612
20
21.2957482
40
0.5548037
50
179.9652252
51
184.3013875
0
ARC
8
DEFAULT_255_1_234
10
5.7607658
20
21.2990507
40
0.5308164
50
166.7585989
51
180.3201225
0
ARC
8
DEFAULT_255_1_234
10
5.6761271
20
21.3174488
40
0.4442163
50
154.6955053
51
166.5679793
0
ARC
8
DEFAULT_255_1_234
10
5.5908141
20
21.360421
40
0.3487299
50
136.3324195
51
155.0871442
0
ARC
8
DEFAULT_255_1_234
10
5.5627214
20
21.3844954
40
0.3117924
50
121.236733
51
135.9680508
0
ARC
8
DEFAULT_255_1_234
10
5.5767712
20
21.3584743
40
0.3413302
50
96.845628
51
120.9881519
0
ARC
8
DEFAULT_255_1_234
10
5.5913294
20
21.2649515
40
0.4359341
50
89.8870174
51
97.2802754
0
ARC
8
DEFAULT_255_1_234
10
5.5965732
20
21.3287095
40
0.3722009
50
70.6505584
51
90.6749113
0
ARC
8
DEFAULT_255_1_234
10
5.6097011
20
21.3800361
40
0.3194571
50
36.7492984
51
69.8219918
0
ARC
8
DEFAULT_255_1_234
10
5.5098176
20
21.3021993
40
0.4460685
50
15.39587
51
37.0840084
0
ARC
8
DEFAULT_255_1_234
10
5.296861
20
21.2401242
40
0.6678714
50
3.9488873
51
15.6798563
0
ARC
8
DEFAULT_255_1_234
10
5.0567237
20
21.2184964
40
0.9089418
50
359.929245
51
4.2665314
0
ARC
8
DEFAULT_255_1_234
10
4.5961675
20
21.1673513
40
1.3695135
50
352.8366322
51
0.2782669
0
ARC
8
DEFAULT_255_1_234
10
5.1249353
20
21.0986629
40
0.8363105
50
341.8359505
51
352.9884176
0
ARC
8
DEFAULT_255_1_234
10
5.4468072
20
20.99017
40
0.4966642
50
322.8578092
51
342.1527901
0
ARC
8
DEFAULT_255_1_234
10
5.5332028
20
20.9312384
40
0.3922466
50
319.334325
51
322.0998941
0
ARC
8
DEFAULT_255_1_234
10
5.5022365
20
20.9623209
40
0.4360033
50
285.9541367
51
318.8878087
0
ARC
8
DEFAULT_255_1_234
10
5.4295626
20
21.19336
40
0.678149
50
272.9281676
51
286.4922826
0
ARC
8
DEFAULT_255_1_234
10
5.4105744
20
21.4184587
40
0.9039547
50
270.8207226
51
273.4012994
0
ARC
8
DEFAULT_255_1_234
10
5.4194595
20
21.2365666
40
0.5967098
50
270.6214993
51
281.4062806
0
ARC
8
DEFAULT_255_1_234
10
5.4624576
20
21.0309833
40
0.3866861
50
281.1852553
51
299.0621114
0
ARC
8
DEFAULT_255_1_234
10
5.4998148
20
20.9588798
40
0.3055236
50
299.5067782
51
313.1200873
0
ARC
8
DEFAULT_255_1_234
10
5.5020114
20
20.9509554
40
0.2982623
50
313.8526205
51
338.5989322
0
ARC
8
DEFAULT_255_1_234
10
5.3396188
20
21.0176781
40
0.4738131
50
338.2523585
51
351.2430902
0
ARC
8
DEFAULT_255_1_234
10
5.0985484
20
21.0586447
40
0.7183203
50
350.9409515
51
357.6691871
0
ARC
8
DEFAULT_255_1_234
10
5.5875914
20
21.2588764
40
0.2294452
50
269.9447023
51
306.8248917
0
ARC
8
DEFAULT_255_1_234
10
5.5638829
20
21.3011898
40
0.2775994
50
305.5072438
51
327.0773448
0
ARC
8
DEFAULT_255_1_234
10
5.575727
20
21.2917025
40
0.2625056
50
327.4104943
51
336.840169
0
ARC
8
DEFAULT_255_1_234
10
5.2663335
20
21.2511302
40
0.5507537
50
359.6633817
51
10.117533
0
ARC
8
DEFAULT_255_1_234
10
5.4417133
20
21.2835777
40
0.372403
50
9.9430141
51
26.7700076
0
ARC
8
DEFAULT_255_1_234
10
5.5014346
20
21.3111187
40
0.3066865
50
27.2015464
51
34.6829435
0
ARC
8
DEFAULT_255_1_234
10
5.5503826
20
21.3478977
40
0.245519
50
34.1250343
51
50.3070065
0
ARC
8
DEFAULT_255_1_234
10
5.5950505
20
21.4013385
40
0.1758693
50
50.3851167
51
90.6705993
0
ARC
8
DEFAULT_255_1_234
10
5.5903738
20
21.3708799
40
0.2063326
50
89.272901
51
111.9140407
0
ARC
8
DEFAULT_255_1_234
10
5.5884266
20
21.384944
40
0.1925887
50
112.9382311
51
142.5320782
0
ARC
8
DEFAULT_255_1_234
10
5.6430446
20
21.3405969
40
0.2629232
50
142.1021256
51
166.3835592
0
ARC
8
DEFAULT_255_1_234
10
5.7611752
20
21.3100915
40
0.3849193
50
166.1100289
51
178.665427
0
ARC
8
DEFAULT_255_1_234
10
5.8659341
20
21.3042117
40
0.4897989
50
178.2632126
51
180.0111093
0
ARC
8
DEFAULT_255_1_234
10
5.7857461
20
21.3013728
40
0.40962
50
179.6161962
51
191.8787166
0
ARC
8
DEFAULT_255_1_234
10
5.66373
20
21.2743896
40
0.2846655
50
191.6191692
51
215.2972286
0
ARC
8
DEFAULT_255_1_234
10
5.6440491
20
21.2628918
40
0.2619665
50
215.7320102
51
216.5355409
0
ARC
8
DEFAULT_255_1_234
10
5.5901578
20
21.2196647
40
0.1929497
50
215.7486685
51
239.9727502
0
ARC
8
DEFAULT_255_1_234
10
5.5831493
20
21.2145894
40
0.1850822
50
241.0650169
51
269.2810483
0
ARC
8
DEFAULT_255_1_234
10
5.5873408
20
21.2636371
40
0.2342059
50
268.4062526
51
270.0071348
0
LINE
8
DEFAULT_255_1_234
10
4.9697293
20
28.4529
11
4.8580881
21
28.7581061
0
LINE
8
DEFAULT_255_1_234
10
4.8580881
20
28.7581061
11
4.3681521
21
28.7581061
0
LINE
8
DEFAULT_255_1_234
10
4.3681521
20
28.7581061
11
4.2581173
21
28.4529
0
LINE
8
DEFAULT_255_1_234
10
4.2581173
20
28.4529
11
4.0990889
21
28.4529
0
LINE
8
DEFAULT_255_1_234
10
4.0990889
20
28.4529
11
4.5456535
21
29.6223211
0
LINE
8
DEFAULT_255_1_234
10
4.5456535
20
29.6223211
11
4.6805867
21
29.6223211
0
LINE
8
DEFAULT_255_1_234
10
4.6805867
20
29.6223211
11
5.1279545
21
28.4529
0
LINE
8
DEFAULT_255_1_234
10
5.1279545
20
28.4529
11
4.9697293
21
28.4529
0
LINE
8
DEFAULT_255_1_234
10
4.6131201
20
29.4319689
11
4.4147362
21
28.8850075
0
LINE
8
DEFAULT_255_1_234
10
4.4147362
20
28.8850075
11
4.8123072
21
28.8850075
0
LINE
8
DEFAULT_255_1_234
10
4.8123072
20
28.8850075
11
4.6131201
21
29.4319689
0
LINE
8
DEFAULT_255_1_234
10
5.4339638
20
29.0086963
11
5.315094
21
29.0392169
0
LINE
8
DEFAULT_255_1_234
10
5.315094
20
29.0392169
11
5.3745289
21
29.6223211
0
LINE
8
DEFAULT_255_1_234
10
5.3745289
20
29.6223211
11
5.9736966
21
29.6223211
0
LINE
8
DEFAULT_255_1_234
10
5.9736966
20
29.6223211
11
5.9736966
21
29.4849784
0
LINE
8
DEFAULT_255_1_234
10
5.9736966
20
29.4849784
11
5.5006272
21
29.4849784
0
LINE
8
DEFAULT_255_1_234
10
5.5006272
20
29.4849784
11
5.4652875
21
29.1661184
0
LINE
8
DEFAULT_255_1_234
10
5.273329
20
28.7605156
11
5.4138844
21
28.7605156
0
LINE
8
DEFAULT_255_1_234
10
5.4733193
20
29.0408232
11
5.4339638
21
29.0086963
0
ARC
8
DEFAULT_255_1_234
10
5.6507659
20
28.848123
40
0.3681349
50
93.7182161
51
120.2538958
0
ARC
8
DEFAULT_255_1_234
10
5.6601922
20
28.7673394
40
0.449379
50
89.9660152
51
94.2496022
0
ARC
8
DEFAULT_255_1_234
10
5.6642656
20
28.8262549
40
0.390482
50
73.8043271
51
90.5585896
0
ARC
8
DEFAULT_255_1_234
10
5.6877553
20
28.9120602
40
0.3015334
50
41.3071453
51
73.5430202
0
ARC
8
DEFAULT_255_1_234
10
5.6461381
20
28.8762324
40
0.3564457
50
13.5075983
51
41.2174222
0
ARC
8
DEFAULT_255_1_234
10
5.4819584
20
28.8332486
40
0.5261351
50
1.1331335
51
13.8829381
0
ARC
8
DEFAULT_255_1_234
10
5.3407953
20
28.8256665
40
0.6674378
50
359.9919444
51
1.544251
0
ARC
8
DEFAULT_255_1_234
10
5.468478
20
28.821528
40
0.5397702
50
347.8572367
51
0.4293338
0
ARC
8
DEFAULT_255_1_234
10
5.6435097
20
28.7818736
40
0.3603188
50
323.673004
51
348.1672506
0
ARC
8
DEFAULT_255_1_234
10
5.6729605
20
28.7639168
40
0.3259678
50
316.8171152
51
323.1492751
0
ARC
8
DEFAULT_255_1_234
10
5.6790794
20
28.760246
40
0.3189975
50
281.8396411
51
316.5457803
0
ARC
8
DEFAULT_255_1_234
10
5.6415058
20
28.9157762
40
0.4789527
50
269.5770101
51
282.4214771
0
ARC
8
DEFAULT_255_1_234
10
5.634387
20
28.8944125
40
0.45759
50
256.2427136
51
270.4486331
0
ARC
8
DEFAULT_255_1_234
10
5.6044772
20
28.7744229
40
0.3339303
50
228.9023911
51
256.3314342
0
ARC
8
DEFAULT_255_1_234
10
5.5971005
20
28.7627746
40
0.32031
50
193.753695
51
228.5271154
0
ARC
8
DEFAULT_255_1_234
10
5.7208959
20
28.79908
40
0.4492253
50
184.924711
51
194.497588
0
ARC
8
DEFAULT_255_1_234
10
5.7401525
20
28.8026591
40
0.3289787
50
187.3600538
51
198.6732863
0
ARC
8
DEFAULT_255_1_234
10
5.6351819
20
28.7662674
40
0.217884
50
198.4451669
51
217.794479
0
ARC
8
DEFAULT_255_1_234
10
5.6055995
20
28.7453085
40
0.1816698
50
218.2887171
51
228.5612368
0
ARC
8
DEFAULT_255_1_234
10
5.6153782
20
28.7584963
40
0.1980329
50
228.9654866
51
258.1234728
0
ARC
8
DEFAULT_255_1_234
10
5.6359492
20
28.8465833
40
0.2884748
50
257.7258293
51
270.401361
0
ARC
8
DEFAULT_255_1_234
10
5.6404378
20
28.8020821
40
0.2439788
50
269.4204404
51
286.4209037
0
ARC
8
DEFAULT_255_1_234
10
5.6552865
20
28.7481657
40
0.1880666
50
286.7251356
51
320.600362
0
ARC
8
DEFAULT_255_1_234
10
5.616969
20
28.7792595
40
0.2374121
50
320.6712579
51
344.5441685
0
ARC
8
DEFAULT_255_1_234
10
5.5013017
20
28.8132045
40
0.3579479
50
344.2412205
51
356.7357071
0
ARC
8
DEFAULT_255_1_234
10
5.3764165
20
28.8235444
40
0.4832297
50
356.3548756
51
0.0500261
0
ARC
8
DEFAULT_255_1_234
10
5.5100674
20
28.826665
40
0.3495889
50
359.5576869
51
12.953486
0
ARC
8
DEFAULT_255_1_234
10
5.6155572
20
28.8522434
40
0.2410532
50
12.6490276
51
41.6081334
0
ARC
8
DEFAULT_255_1_234
10
5.6385943
20
28.8718321
40
0.2108218
50
41.7850273
51
85.9892764
0
ARC
8
DEFAULT_255_1_234
10
5.6262679
20
28.7905462
40
0.2928454
50
84.6957577
51
90.0676183
0
ARC
8
DEFAULT_255_1_234
10
5.6239163
20
28.7236716
40
0.3597255
50
89.6804936
51
99.1614436
0
ARC
8
DEFAULT_255_1_234
10
5.6033795
20
28.8464131
40
0.235281
50
98.9830931
51
113.8908934
0
ARC
8
DEFAULT_255_1_234
10
5.5804205
20
28.9005587
40
0.176479
50
114.1950727
51
127.3641004
0
LINE
8
DEFAULT_255_1_234
10
4.9610293
20
36.3904
11
4.8493881
21
36.6956061
0
LINE
8
DEFAULT_255_1_234
10
4.8493881
20
36.6956061
11
4.3594521
21
36.6956061
0
LINE
8
DEFAULT_255_1_234
10
4.3594521
20
36.6956061
11
4.2494173
21
36.3904
0
LINE
8
DEFAULT_255_1_234
10
4.2494173
20
36.3904
11
4.0903889
21
36.3904
0
LINE
8
DEFAULT_255_1_234
10
4.0903889
20
36.3904
11
4.5369535
21
37.5598211
0
LINE
8
DEFAULT_255_1_234
10
4.5369535
20
37.5598211
11
4.6718867
21
37.5598211
0
LINE
8
DEFAULT_255_1_234
10
4.6718867
20
37.5598211
11
5.1192545
21
36.3904
0
LINE
8
DEFAULT_255_1_234
10
5.1192545
20
36.3904
11
4.9610293
21
36.3904
0
LINE
8
DEFAULT_255_1_234
10
4.6044201
20
37.3694689
11
4.4060362
21
36.8225075
0
LINE
8
DEFAULT_255_1_234
10
4.4060362
20
36.8225075
11
4.8036072
21
36.8225075
0
LINE
8
DEFAULT_255_1_234
10
4.8036072
20
36.8225075
11
4.6044201
21
37.3694689
0
LINE
8
DEFAULT_255_1_234
10
5.726454
20
37.5654433
11
5.726454
21
36.3904
0
LINE
8
DEFAULT_255_1_234
10
5.726454
20
36.3904
11
5.5770636
21
36.3904
0
LINE
8
DEFAULT_255_1_234
10
5.5770636
20
36.3904
11
5.5770636
21
37.3807133
0
LINE
8
DEFAULT_255_1_234
10
5.5770636
20
37.3807133
11
5.2774798
21
37.2706785
0
LINE
8
DEFAULT_255_1_234
10
5.2774798
20
37.2706785
11
5.2774798
21
37.4056117
0
LINE
8
DEFAULT_255_1_234
10
5.2774798
20
37.4056117
11
5.7031619
21
37.5654433
0
LINE
8
DEFAULT_255_1_234
10
5.7031619
20
37.5654433
11
5.726454
21
37.5654433
0
LINE
8
DEFAULT_255_1_234
10
23.1660817
20
45.0194327
11
23.1660817
21
44.8266709
0
LINE
8
DEFAULT_255_1_234
10
22.427965
20
44.8065916
11
22.427965
21
45.0049755
0
LINE
8
DEFAULT_255_1_234
10
23.0174946
20
44.7865123
11
23.0174946
21
45.0298739
0
LINE
8
DEFAULT_255_1_234
10
22.5765521
20
45.0411184
11
22.5765521
21
44.8033789
0
ARC
8
DEFAULT_255_1_234
10
21.9413707
20
44.8217805
40
1.2247208
50
353.8441951
51
0.2287902
0
ARC
8
DEFAULT_255_1_234
10
22.4053211
20
44.7699806
40
0.7578929
50
344.4934747
51
353.9765454
0
ARC
8
DEFAULT_255_1_234
10
22.7045801
20
44.6848981
40
0.4467846
50
329.2803592
51
344.7472793
0
ARC
8
DEFAULT_255_1_234
10
22.8038626
20
44.6304018
40
0.3336173
50
324.9352394
51
328.6160465
0
ARC
8
DEFAULT_255_1_234
10
22.8415734
20
44.6040427
40
0.2876076
50
280.580143
51
324.9173126
0
ARC
8
DEFAULT_255_1_234
10
22.8014527
20
44.7711099
40
0.4592847
50
269.5977311
51
281.6734359
0
ARC
8
DEFAULT_255_1_234
10
22.7942433
20
44.7591173
40
0.4472986
50
256.6228859
51
270.51044
0
ARC
8
DEFAULT_255_1_234
10
22.754041
20
44.6042877
40
0.2873874
50
215.8618325
51
257.2788573
0
ARC
8
DEFAULT_255_1_234
10
22.8561442
20
44.6727977
40
0.4102928
50
197.9693508
51
215.2623606
0
ARC
8
DEFAULT_255_1_234
10
23.1046558
20
44.7566709
40
0.6725652
50
187.8816417
51
198.2346507
0
ARC
8
DEFAULT_255_1_234
10
23.5004766
20
44.8138079
40
1.0724845
50
180.8976217
51
188.0055519
0
ARC
8
DEFAULT_255_1_234
10
23.7804954
20
44.8241777
40
1.3526448
50
180.7449369
51
181.1510016
0
ARC
8
DEFAULT_255_1_234
10
23.6227683
20
45.0098042
40
1.1948131
50
173.7675579
51
180.231553
0
ARC
8
DEFAULT_255_1_234
10
23.170983
20
45.0608666
40
0.7401564
50
164.3058563
51
173.9002247
0
ARC
8
DEFAULT_255_1_234
10
22.8797899
20
45.1447656
40
0.4371288
50
148.7922025
51
164.568378
0
ARC
8
DEFAULT_255_1_234
10
22.7846351
20
45.1978929
40
0.3282386
50
144.5883898
51
148.1176286
0
ARC
8
DEFAULT_255_1_234
10
22.7503249
20
45.2218315
40
0.2864044
50
101.6440918
51
144.514236
0
ARC
8
DEFAULT_255_1_234
10
22.7928315
20
45.0529069
40
0.4604934
50
89.5284041
51
102.5819763
0
ARC
8
DEFAULT_255_1_234
10
22.8007403
20
45.0490018
40
0.464401
50
77.0437873
51
90.5081339
0
ARC
8
DEFAULT_255_1_234
10
22.8409405
20
45.2132615
40
0.2953195
50
48.2778575
51
77.4994676
0
ARC
8
DEFAULT_255_1_234
10
22.8482036
20
45.2261746
40
0.2808655
50
36.3142134
51
47.6305865
0
ARC
8
DEFAULT_255_1_234
10
22.7613343
20
45.1676515
40
0.3855453
50
18.2931786
51
35.6769206
0
ARC
8
DEFAULT_255_1_234
10
22.5070102
20
45.0803593
40
0.654423
50
8.024666
51
18.5605216
0
ARC
8
DEFAULT_255_1_234
10
22.0907022
20
45.0188792
40
1.0752407
50
1.1274072
51
8.1718305
0
ARC
8
DEFAULT_255_1_234
10
21.7671213
20
45.0061885
40
1.3990231
50
0.5424119
51
1.3863029
0
ARC
8
DEFAULT_255_1_234
10
21.949259
20
45.0334342
40
1.0682415
50
359.8090433
51
4.9407866
0
ARC
8
DEFAULT_255_1_234
10
22.3702604
20
45.0710113
40
0.6455691
50
4.8362157
51
12.2904523
0
ARC
8
DEFAULT_255_1_234
10
22.6457719
20
45.1323965
40
0.3633074
50
12.0805627
51
23.8173984
0
ARC
8
DEFAULT_255_1_234
10
22.7631425
20
45.1820919
40
0.2358723
50
24.2871213
51
31.3935614
0
ARC
8
DEFAULT_255_1_234
10
22.8156122
20
45.2164233
40
0.1732111
50
30.7407893
51
82.4657128
0
ARC
8
DEFAULT_255_1_234
10
22.7976256
20
45.1280691
40
0.263235
50
81.1060089
51
90.2184952
0
ARC
8
DEFAULT_255_1_234
10
22.7940555
20
45.1538924
40
0.2374236
50
89.3806855
51
105.6762551
0
ARC
8
DEFAULT_255_1_234
10
22.7757186
20
45.2205567
40
0.1682847
50
105.7981136
51
149.7388061
0
ARC
8
DEFAULT_255_1_234
10
22.8821264
20
45.156595
40
0.2924306
50
149.4208916
51
163.6286378
0
ARC
8
DEFAULT_255_1_234
10
23.0912152
20
45.092825
40
0.5110213
50
163.3763315
51
172.1410975
0
ARC
8
DEFAULT_255_1_234
10
23.4212871
20
45.0455518
40
0.8444586
50
172.0259487
51
178.0703232
0
ARC
8
DEFAULT_255_1_234
10
23.724296
20
45.0311906
40
1.1477868
50
177.8631668
51
179.5044149
0
ARC
8
DEFAULT_255_1_234
10
23.6170365
20
44.7997389
40
1.0404907
50
179.7995573
51
185.2460446
0
ARC
8
DEFAULT_255_1_234
10
23.2127404
20
44.7614513
40
0.6343885
50
185.1411642
51
193.0079639
0
ARC
8
DEFAULT_255_1_234
10
22.9483877
20
44.6989641
40
0.3627568
50
192.7897626
51
205.2507664
0
ARC
8
DEFAULT_255_1_234
10
22.8437424
20
44.6522415
40
0.2481908
50
205.8005384
51
211.2537509
0
ARC
8
DEFAULT_255_1_234
10
22.7913864
20
44.617158
40
0.1852521
50
210.3789793
51
238.4008143
0
ARC
8
DEFAULT_255_1_234
10
22.7894386
20
44.6218376
40
0.1882621
50
239.6520629
51
265.9793761
0
ARC
8
DEFAULT_255_1_234
10
22.7979586
20
44.6890427
40
0.2559272
50
265.1315437
51
270.060332
0
ARC
8
DEFAULT_255_1_234
10
22.8008365
20
44.6566534
40
0.2235528
50
269.3314664
51
287.2178029
0
ARC
8
DEFAULT_255_1_234
10
22.8146217
20
44.6063279
40
0.1714108
50
287.7958004
51
329.080874
0
ARC
8
DEFAULT_255_1_234
10
22.7188674
20
44.666093
40
0.2842745
50
328.6634704
51
343.3325132
0
ARC
8
DEFAULT_255_1_234
10
22.5015694
20
44.7337863
40
0.5118644
50
343.0499468
51
351.9393422
0
ARC
8
DEFAULT_255_1_234
10
22.1548994
20
44.7848949
40
0.8622784
50
351.8069023
51
357.7959224
0
ARC
8
DEFAULT_255_1_234
10
21.831355
20
44.8016721
40
1.1862365
50
357.5871873
51
359.2677531
0
LINE
8
DEFAULT_255_1_234
10
23.4496021
20
45.4973211
11
23.7821161
21
44.5327093
0
LINE
8
DEFAULT_255_1_234
10
23.7821161
20
44.5327093
11
24.1162364
21
45.4973211
0
LINE
8
DEFAULT_255_1_234
10
24.1162364
20
45.4973211
11
24.2849029
21
45.4973211
0
LINE
8
DEFAULT_255_1_234
10
24.2849029
20
45.4973211
11
23.851189
21
44.3279
0
LINE
8
DEFAULT_255_1_234
10
23.851189
20
44.3279
11
23.7146495
21
44.3279
0
LINE
8
DEFAULT_255_1_234
10
23.7146495
20
44.3279
11
23.2817388
21
45.4973211
0
LINE
8
DEFAULT_255_1_234
10
23.2817388
20
45.4973211
11
23.4496021
21
45.4973211
0
LINE
8
DEFAULT_255_1_234
10
22.9376392
20
4.6404
11
22.5320364
21
4.6404
0
LINE
8
DEFAULT_255_1_234
10
22.5320364
20
4.6404
11
22.5320364
21
5.8098211
0
LINE
8
DEFAULT_255_1_234
10
22.5320364
20
5.8098211
11
22.9143471
21
5.8098211
0
LINE
8
DEFAULT_255_1_234
10
22.9432614
20
5.1873614
11
22.6862458
21
5.1873614
0
LINE
8
DEFAULT_255_1_234
10
22.6862458
20
5.1873614
11
22.6862458
21
4.7664983
0
LINE
8
DEFAULT_255_1_234
10
22.6862458
20
4.7664983
11
22.9408519
21
4.7664983
0
LINE
8
DEFAULT_255_1_234
10
22.6862458
20
5.6829196
11
22.6862458
21
5.3110501
0
LINE
8
DEFAULT_255_1_234
10
22.6862458
20
5.3110501
11
22.9191662
21
5.3110501
0
LINE
8
DEFAULT_255_1_234
10
22.9143471
20
5.6829196
11
22.6862458
21
5.6829196
0
ARC
8
DEFAULT_255_1_234
10
22.918118
20
5.0730901
40
0.7367406
50
82.1257326
51
90.2932599
0
ARC
8
DEFAULT_255_1_234
10
22.9570135
20
5.3449013
40
0.4621653
50
69.9044149
51
82.2857423
0
ARC
8
DEFAULT_255_1_234
10
23.0140813
20
5.4991637
40
0.2976871
50
51.1838526
51
70.0181538
0
ARC
8
DEFAULT_255_1_234
10
23.0395779
20
5.536224
40
0.2528517
50
12.1017251
51
50.4214761
0
ARC
8
DEFAULT_255_1_234
10
22.9011653
20
5.5014676
40
0.3955061
50
359.5251267
51
12.8211707
0
ARC
8
DEFAULT_255_1_234
10
23.0591579
20
5.4945344
40
0.2375281
50
323.4908128
51
0.8817314
0
ARC
8
DEFAULT_255_1_234
10
23.0173266
20
5.526855
40
0.2903817
50
298.6825083
51
323.2756573
0
ARC
8
DEFAULT_255_1_234
10
22.9811629
20
5.5869649
40
0.3604842
50
293.1999386
51
299.1396394
0
ARC
8
DEFAULT_255_1_234
10
23.0484602
20
4.9784126
40
0.2871098
50
54.0011765
51
74.9167975
0
ARC
8
DEFAULT_255_1_234
10
23.0600961
20
4.9981332
40
0.2643248
50
36.3580696
51
53.5291921
0
ARC
8
DEFAULT_255_1_234
10
23.0474203
20
4.9890998
40
0.2798884
50
4.8189881
51
36.3089977
0
ARC
8
DEFAULT_255_1_234
10
22.9695038
20
4.978127
40
0.358478
50
359.9370252
51
5.5204067
0
ARC
8
DEFAULT_255_1_234
10
22.937056
20
4.9740667
40
0.3909429
50
344.7478609
51
0.5373281
0
ARC
8
DEFAULT_255_1_234
10
23.0361531
20
4.9473544
40
0.2883093
50
311.1786488
51
344.6886812
0
ARC
8
DEFAULT_255_1_234
10
23.0069578
20
4.9836987
40
0.3348923
50
286.0418249
51
310.8441291
0
ARC
8
DEFAULT_255_1_234
10
22.956241
20
5.1483807
40
0.5071869
50
274.1042341
51
286.4071509
0
ARC
8
DEFAULT_255_1_234
10
22.9385666
20
5.3367229
40
0.6963234
50
269.9236873
51
274.445647
0
ARC
8
DEFAULT_255_1_234
10
22.9431667
20
5.1027537
40
0.3362634
50
269.6055768
51
281.3740047
0
ARC
8
DEFAULT_255_1_234
10
22.9662305
20
4.9934353
40
0.224546
50
281.1055983
51
302.5132223
0
ARC
8
DEFAULT_255_1_234
10
22.9809204
20
4.9670823
40
0.1944357
50
303.0368945
51
311.8811219
0
ARC
8
DEFAULT_255_1_234
10
22.9880611
20
4.958589
40
0.1833454
50
311.9916004
51
351.7143462
0
ARC
8
DEFAULT_255_1_234
10
22.9063841
20
4.975093
40
0.2665871
50
350.7339597
51
0.2221581
0
ARC
8
DEFAULT_255_1_234
10
22.8956287
20
4.9807467
40
0.2773789
50
359.0456241
51
17.2296242
0
ARC
8
DEFAULT_255_1_234
10
22.9995404
20
5.0116163
40
0.1689915
50
17.6685481
51
78.9940892
0
ARC
8
DEFAULT_255_1_234
10
22.9478568
20
4.8261224
40
0.3612658
50
76.5635957
51
90.6980921
0
LINE
8
DEFAULT_255_1_234
10
22.9434552
20
5.1873613
11
22.9432614
21
5.1873614
0
ARC
8
DEFAULT_255_1_234
10
22.9214228
20
5.6396036
40
0.3285612
50
269.6064736
51
281.4533503
0
ARC
8
DEFAULT_255_1_234
10
22.9437048
20
5.5344688
40
0.2210975
50
281.2041486
51
302.5148063
0
ARC
8
DEFAULT_255_1_234
10
22.9573898
20
5.5098241
40
0.1929674
50
303.021671
51
309.8369575
0
ARC
8
DEFAULT_255_1_234
10
22.9757359
20
5.4892488
40
0.1654181
50
309.5228395
51
356.9509836
0
ARC
8
DEFAULT_255_1_234
10
22.9093942
20
5.4987932
40
0.2322512
50
355.4701227
51
0.0492546
0
ARC
8
DEFAULT_255_1_234
10
22.8815033
20
5.5010094
40
0.2601498
50
359.5558597
51
11.2096359
0
ARC
8
DEFAULT_255_1_234
10
22.9772323
20
5.520823
40
0.1623975
50
10.9182341
51
31.3230275
0
ARC
8
DEFAULT_255_1_234
10
23.0058056
20
5.5367214
40
0.1297302
50
31.8852677
51
52.1412565
0
ARC
8
DEFAULT_255_1_234
10
22.9783789
20
5.497975
40
0.1771663
50
52.8285564
51
71.9850297
0
ARC
8
DEFAULT_255_1_234
10
22.9407965
20
5.3873664
40
0.2939794
50
71.6863486
51
82.8455995
0
ARC
8
DEFAULT_255_1_234
10
22.9168501
20
5.2064149
40
0.476506
50
82.6984714
51
90.1729175
0
ARC
8
DEFAULT_255_1_234
10
22.9146136
20
5.3287623
40
0.3541573
50
89.8708275
51
90.0431131
0
LINE
8
DEFAULT_255_1_234
10
24.2363712
20
5.3423739
11
24.2363712
21
5.2990025
0
LINE
8
DEFAULT_255_1_234
10
23.6942289
20
4.6395968
11
23.6653146
21
4.6395968
0
LINE
8
DEFAULT_255_1_234
10
23.6653146
20
4.6395968
11
23.6653146
21
4.7648919
0
LINE
8
DEFAULT_255_1_234
10
23.6653146
20
4.7648919
11
23.6966384
21
4.7648919
0
LINE
8
DEFAULT_255_1_234
10
24.0877841
20
5.3134597
11
24.0877841
21
5.3728945
0
ARC
8
DEFAULT_255_1_234
10
23.808411
20
5.3880403
40
0.3635579
50
297.4037347
51
320.016758
0
ARC
8
DEFAULT_255_1_234
10
23.8374059
20
5.332324
40
0.3007486
50
270.2633101
51
297.3851877
0
ARC
8
DEFAULT_255_1_234
10
23.8340015
20
5.3786904
40
0.3471448
50
269.9966443
51
270.7900392
0
ARC
8
DEFAULT_255_1_234
10
23.8314496
20
5.3785143
40
0.3469779
50
254.5999133
51
270.4180344
0
ARC
8
DEFAULT_255_1_234
10
23.8171856
20
5.3220647
40
0.2887697
50
236.4717942
51
254.3541279
0
ARC
8
DEFAULT_255_1_234
10
23.8328073
20
5.3430711
40
0.3149125
50
208.4727207
51
236.2134933
0
ARC
8
DEFAULT_255_1_234
10
23.8966848
20
5.3821455
40
0.3897115
50
204.3447514
51
209.0453999
0
ARC
8
DEFAULT_255_1_234
10
23.9646424
20
5.4109656
40
0.4635101
50
183.9375985
51
204.1276318
0
ARC
8
DEFAULT_255_1_234
10
24.0554676
20
5.4207482
40
0.5548037
50
179.9652252
51
184.3013875
0
ARC
8
DEFAULT_255_1_234
10
24.0314722
20
5.4240507
40
0.5308164
50
166.7585989
51
180.3201225
0
ARC
8
DEFAULT_255_1_234
10
23.9468335
20
5.4424488
40
0.4442163
50
154.6955053
51
166.5679793
0
ARC
8
DEFAULT_255_1_234
10
23.8615205
20
5.485421
40
0.3487299
50
136.3324195
51
155.0871442
0
ARC
8
DEFAULT_255_1_234
10
23.8334278
20
5.5094954
40
0.3117924
50
121.236733
51
135.9680508
0
ARC
8
DEFAULT_255_1_234
10
23.8474776
20
5.4834743
40
0.3413302
50
96.845628
51
120.9881519
0
ARC
8
DEFAULT_255_1_234
10
23.8620358
20
5.3899515
40
0.4359341
50
89.8870174
51
97.2802754
0
ARC
8
DEFAULT_255_1_234
10
23.8672796
20
5.4537095
40
0.3722009
50
70.6505584
51
90.6749113
0
ARC
8
DEFAULT_255_1_234
10
23.8804075
20
5.5050361
40
0.3194571
50
36.7492984
51
69.8219918
0
ARC
8
DEFAULT_255_1_234
10
23.780524
20
5.4271993
40
0.4460685
50
15.39587
51
37.0840084
0
ARC
8
DEFAULT_255_1_234
10
23.5675674
20
5.3651242
40
0.6678714
50
3.9488873
51
15.6798563
0
ARC
8
DEFAULT_255_1_234
10
23.3274301
20
5.3434964
40
0.9089418
50
359.929245
51
4.2665314
0
ARC
8
DEFAULT_255_1_234
10
22.8668738
20
5.2923513
40
1.3695135
50
352.8366322
51
0.2782669
0
ARC
8
DEFAULT_255_1_234
10
23.3956417
20
5.2236629
40
0.8363105
50
341.8359505
51
352.9884176
0
ARC
8
DEFAULT_255_1_234
10
23.7175136
20
5.11517
40
0.4966642
50
322.8578092
51
342.1527901
0
ARC
8
DEFAULT_255_1_234
10
23.8039092
20
5.0562384
40
0.3922466
50
319.334325
51
322.0998941
0
ARC
8
DEFAULT_255_1_234
10
23.7729429
20
5.0873209
40
0.4360033
50
285.9541367
51
318.8878087
0
ARC
8
DEFAULT_255_1_234
10
23.700269
20
5.31836
40
0.678149
50
272.9281676
51
286.4922826
0
ARC
8
DEFAULT_255_1_234
10
23.6812808
20
5.5434587
40
0.9039547
50
270.8207226
51
273.4012994
0
ARC
8
DEFAULT_255_1_234
10
23.6901659
20
5.3615666
40
0.5967098
50
270.6214993
51
281.4062806
0
ARC
8
DEFAULT_255_1_234
10
23.733164
20
5.1559833
40
0.3866861
50
281.1852553
51
299.0621114
0
ARC
8
DEFAULT_255_1_234
10
23.7705212
20
5.0838798
40
0.3055236
50
299.5067782
51
313.1200873
0
ARC
8
DEFAULT_255_1_234
10
23.7727178
20
5.0759554
40
0.2982623
50
313.8526205
51
338.5989322
0
ARC
8
DEFAULT_255_1_234
10
23.6103252
20
5.1426781
40
0.4738131
50
338.2523585
51
351.2430902
0
ARC
8
DEFAULT_255_1_234
10
23.3692548
20
5.1836447
40
0.7183203
50
350.9409515
51
357.6691871
0
ARC
8
DEFAULT_255_1_234
10
23.8582978
20
5.3838764
40
0.2294452
50
269.9447023
51
306.8248917
0
ARC
8
DEFAULT_255_1_234
10
23.8345893
20
5.4261898
40
0.2775994
50
305.5072438
51
327.0773448
0
ARC
8
DEFAULT_255_1_234
10
23.8464334
20
5.4167025
40
0.2625056
50
327.4104943
51
336.840169
0
ARC
8
DEFAULT_255_1_234
10
23.5370399
20
5.3761302
40
0.5507537
50
359.6633817
51
10.117533
0
ARC
8
DEFAULT_255_1_234
10
23.7124197
20
5.4085777
40
0.372403
50
9.9430141
51
26.7700076
0
ARC
8
DEFAULT_255_1_234
10
23.772141
20
5.4361187
40
0.3066865
50
27.2015464
51
34.6829435
0
ARC
8
DEFAULT_255_1_234
10
23.821089
20
5.4728977
40
0.245519
50
34.1250343
51
50.3070065
0
ARC
8
DEFAULT_255_1_234
10
23.8657569
20
5.5263385
40
0.1758693
50
50.3851167
51
90.6705993
0
ARC
8
DEFAULT_255_1_234
10
23.8610802
20
5.4958799
40
0.2063326
50
89.272901
51
111.9140407
0
ARC
8
DEFAULT_255_1_234
10
23.859133
20
5.509944
40
0.1925887
50
112.9382311
51
142.5320782
0
ARC
8
DEFAULT_255_1_234
10
23.913751
20
5.4655969
40
0.2629232
50
142.1021256
51
166.3835592
0
ARC
8
DEFAULT_255_1_234
10
24.0318816
20
5.4350915
40
0.3849193
50
166.1100289
51
178.665427
0
ARC
8
DEFAULT_255_1_234
10
24.1366405
20
5.4292117
40
0.4897989
50
178.2632126
51
180.0111093
0
ARC
8
DEFAULT_255_1_234
10
24.0564525
20
5.4263728
40
0.40962
50
179.6161962
51
191.8787166
0
ARC
8
DEFAULT_255_1_234
10
23.9344364
20
5.3993896
40
0.2846655
50
191.6191692
51
215.2972286
0
ARC
8
DEFAULT_255_1_234
10
23.9147555
20
5.3878918
40
0.2619665
50
215.7320102
51
216.5355409
0
ARC
8
DEFAULT_255_1_234
10
23.8608642
20
5.3446647
40
0.1929497
50
215.7486685
51
239.9727502
0
ARC
8
DEFAULT_255_1_234
10
23.8538557
20
5.3395894
40
0.1850822
50
241.0650169
51
269.2810483
0
ARC
8
DEFAULT_255_1_234
10
23.8580472
20
5.3886371
40
0.2342059
50
268.4062526
51
270.0071348
0
LINE
8
DEFAULT_255_1_234
10
22.9376392
20
12.5779
11
22.5320364
21
12.5779
0
LINE
8
DEFAULT_255_1_234
10
22.5320364
20
12.5779
11
22.5320364
21
13.7473211
0
LINE
8
DEFAULT_255_1_234
10
22.5320364
20
13.7473211
11
22.9143471
21
13.7473211
0
LINE
8
DEFAULT_255_1_234
10
22.9432614
20
13.1248614
11
22.6862458
21
13.1248614
0
LINE
8
DEFAULT_255_1_234
10
22.6862458
20
13.1248614
11
22.6862458
21
12.7039983
0
LINE
8
DEFAULT_255_1_234
10
22.6862458
20
12.7039983
11
22.9408519
21
12.7039983
0
LINE
8
DEFAULT_255_1_234
10
22.6862458
20
13.6204196
11
22.6862458
21
13.2485501
0
LINE
8
DEFAULT_255_1_234
10
22.6862458
20
13.2485501
11
22.9191662
21
13.2485501
0
LINE
8
DEFAULT_255_1_234
10
22.9143471
20
13.6204196
11
22.6862458
21
13.6204196
0
ARC
8
DEFAULT_255_1_234
10
22.918118
20
13.0105901
40
0.7367406
50
82.1257326
51
90.2932599
0
ARC
8
DEFAULT_255_1_234
10
22.9570135
20
13.2824013
40
0.4621653
50
69.9044149
51
82.2857423
0
ARC
8
DEFAULT_255_1_234
10
23.0140813
20
13.4366637
40
0.2976871
50
51.1838526
51
70.0181538
0
ARC
8
DEFAULT_255_1_234
10
23.0395779
20
13.473724
40
0.2528517
50
12.1017251
51
50.4214761
0
ARC
8
DEFAULT_255_1_234
10
22.9011653
20
13.4389676
40
0.3955061
50
359.5251267
51
12.8211707
0
ARC
8
DEFAULT_255_1_234
10
23.0591579
20
13.4320344
40
0.2375281
50
323.4908128
51
0.8817314
0
ARC
8
DEFAULT_255_1_234
10
23.0173266
20
13.464355
40
0.2903817
50
298.6825083
51
323.2756573
0
ARC
8
DEFAULT_255_1_234
10
22.9811629
20
13.5244649
40
0.3604842
50
293.1999386
51
299.1396394
0
ARC
8
DEFAULT_255_1_234
10
23.0484602
20
12.9159126
40
0.2871098
50
54.0011765
51
74.9167975
0
ARC
8
DEFAULT_255_1_234
10
23.0600961
20
12.9356332
40
0.2643248
50
36.3580696
51
53.5291921
0
ARC
8
DEFAULT_255_1_234
10
23.0474203
20
12.9265998
40
0.2798884
50
4.8189881
51
36.3089977
0
ARC
8
DEFAULT_255_1_234
10
22.9695038
20
12.915627
40
0.358478
50
359.9370252
51
5.5204067
0
ARC
8
DEFAULT_255_1_234
10
22.937056
20
12.9115667
40
0.3909429
50
344.7478609
51
0.5373281
0
ARC
8
DEFAULT_255_1_234
10
23.0361531
20
12.8848544
40
0.2883093
50
311.1786488
51
344.6886812
0
ARC
8
DEFAULT_255_1_234
10
23.0069578
20
12.9211987
40
0.3348923
50
286.0418249
51
310.8441291
0
ARC
8
DEFAULT_255_1_234
10
22.956241
20
13.0858807
40
0.5071869
50
274.1042341
51
286.4071509
0
ARC
8
DEFAULT_255_1_234
10
22.9385666
20
13.2742229
40
0.6963234
50
269.9236873
51
274.445647
0
ARC
8
DEFAULT_255_1_234
10
22.9431667
20
13.0402537
40
0.3362634
50
269.6055768
51
281.3740047
0
ARC
8
DEFAULT_255_1_234
10
22.9662305
20
12.9309353
40
0.224546
50
281.1055983
51
302.5132223
0
ARC
8
DEFAULT_255_1_234
10
22.9809204
20
12.9045823
40
0.1944357
50
303.0368945
51
311.8811219
0
ARC
8
DEFAULT_255_1_234
10
22.9880611
20
12.896089
40
0.1833454
50
311.9916004
51
351.7143462
0
ARC
8
DEFAULT_255_1_234
10
22.9063841
20
12.912593
40
0.2665871
50
350.7339597
51
0.2221581
0
ARC
8
DEFAULT_255_1_234
10
22.8956287
20
12.9182467
40
0.2773789
50
359.0456241
51
17.2296242
0
ARC
8
DEFAULT_255_1_234
10
22.9995404
20
12.9491163
40
0.1689915
50
17.6685481
51
78.9940892
0
ARC
8
DEFAULT_255_1_234
10
22.9478568
20
12.7636224
40
0.3612658
50
76.5635957
51
90.6980921
0
LINE
8
DEFAULT_255_1_234
10
22.9434552
20
13.1248613
11
22.9432614
21
13.1248614
0
ARC
8
DEFAULT_255_1_234
10
22.9214228
20
13.5771036
40
0.3285612
50
269.6064736
51
281.4533503
0
ARC
8
DEFAULT_255_1_234
10
22.9437048
20
13.4719688
40
0.2210975
50
281.2041486
51
302.5148063
0
ARC
8
DEFAULT_255_1_234
10
22.9573898
20
13.4473241
40
0.1929674
50
303.021671
51
309.8369575
0
ARC
8
DEFAULT_255_1_234
10
22.9757359
20
13.4267488
40
0.1654181
50
309.5228395
51
356.9509836
0
ARC
8
DEFAULT_255_1_234
10
22.9093942
20
13.4362932
40
0.2322512
50
355.4701227
51
0.0492546
0
ARC
8
DEFAULT_255_1_234
10
22.8815033
20
13.4385094
40
0.2601498
50
359.5558597
51
11.2096359
0
ARC
8
DEFAULT_255_1_234
10
22.9772323
20
13.458323
40
0.1623975
50
10.9182341
51
31.3230275
0
ARC
8
DEFAULT_255_1_234
10
23.0058056
20
13.4742214
40
0.1297302
50
31.8852677
51
52.1412565
0
ARC
8
DEFAULT_255_1_234
10
22.9783789
20
13.435475
40
0.1771663
50
52.8285564
51
71.9850297
0
ARC
8
DEFAULT_255_1_234
10
22.9407965
20
13.3248664
40
0.2939794
50
71.6863486
51
82.8455995
0
ARC
8
DEFAULT_255_1_234
10
22.9168501
20
13.1439149
40
0.476506
50
82.6984714
51
90.1729175
0
ARC
8
DEFAULT_255_1_234
10
22.9146136
20
13.2662623
40
0.3541573
50
89.8708275
51
90.0431131
0
LINE
8
DEFAULT_255_1_234
10
23.7046702
20
13.1336963
11
23.5858004
21
13.1642169
0
LINE
8
DEFAULT_255_1_234
10
23.5858004
20
13.1642169
11
23.6452353
21
13.7473211
0
LINE
8
DEFAULT_255_1_234
10
23.6452353
20
13.7473211
11
24.244403
21
13.7473211
0
LINE
8
DEFAULT_255_1_234
10
24.244403
20
13.7473211
11
24.244403
21
13.6099784
0
LINE
8
DEFAULT_255_1_234
10
24.244403
20
13.6099784
11
23.7713336
21
13.6099784
0
LINE
8
DEFAULT_255_1_234
10
23.7713336
20
13.6099784
11
23.7359939
21
13.2911184
0
LINE
8
DEFAULT_255_1_234
10
23.5440354
20
12.8855156
11
23.6845908
21
12.8855156
0
LINE
8
DEFAULT_255_1_234
10
23.7440257
20
13.1658232
11
23.7046702
21
13.1336963
0
ARC
8
DEFAULT_255_1_234
10
23.9214723
20
12.973123
40
0.3681349
50
93.7182161
51
120.2538958
0
ARC
8
DEFAULT_255_1_234
10
23.9308986
20
12.8923394
40
0.449379
50
89.9660152
51
94.2496022
0
ARC
8
DEFAULT_255_1_234
10
23.934972
20
12.9512549
40
0.390482
50
73.8043271
51
90.5585896
0
ARC
8
DEFAULT_255_1_234
10
23.9584617
20
13.0370602
40
0.3015334
50
41.3071453
51
73.5430202
0
ARC
8
DEFAULT_255_1_234
10
23.9168445
20
13.0012324
40
0.3564457
50
13.5075983
51
41.2174222
0
ARC
8
DEFAULT_255_1_234
10
23.7526648
20
12.9582486
40
0.5261351
50
1.1331335
51
13.8829381
0
ARC
8
DEFAULT_255_1_234
10
23.6115017
20
12.9506665
40
0.6674378
50
359.9919444
51
1.544251
0
ARC
8
DEFAULT_255_1_234
10
23.7391844
20
12.946528
40
0.5397702
50
347.8572367
51
0.4293338
0
ARC
8
DEFAULT_255_1_234
10
23.9142161
20
12.9068736
40
0.3603188
50
323.673004
51
348.1672506
0
ARC
8
DEFAULT_255_1_234
10
23.9436669
20
12.8889168
40
0.3259678
50
316.8171152
51
323.1492751
0
ARC
8
DEFAULT_255_1_234
10
23.9497858
20
12.885246
40
0.3189975
50
281.8396411
51
316.5457803
0
ARC
8
DEFAULT_255_1_234
10
23.9122122
20
13.0407762
40
0.4789527
50
269.5770101
51
282.4214771
0
ARC
8
DEFAULT_255_1_234
10
23.9050934
20
13.0194125
40
0.45759
50
256.2427136
51
270.4486331
0
ARC
8
DEFAULT_255_1_234
10
23.8751836
20
12.8994229
40
0.3339303
50
228.9023911
51
256.3314342
0
ARC
8
DEFAULT_255_1_234
10
23.8678069
20
12.8877746
40
0.32031
50
193.753695
51
228.5271154
0
ARC
8
DEFAULT_255_1_234
10
23.9916022
20
12.92408
40
0.4492253
50
184.924711
51
194.497588
0
ARC
8
DEFAULT_255_1_234
10
24.0108589
20
12.9276591
40
0.3289787
50
187.3600538
51
198.6732863
0
ARC
8
DEFAULT_255_1_234
10
23.9058883
20
12.8912674
40
0.217884
50
198.4451669
51
217.794479
0
ARC
8
DEFAULT_255_1_234
10
23.8763059
20
12.8703085
40
0.1816698
50
218.2887171
51
228.5612368
0
ARC
8
DEFAULT_255_1_234
10
23.8860846
20
12.8834963
40
0.1980329
50
228.9654866
51
258.1234728
0
ARC
8
DEFAULT_255_1_234
10
23.9066555
20
12.9715833
40
0.2884748
50
257.7258293
51
270.401361
0
ARC
8
DEFAULT_255_1_234
10
23.9111442
20
12.9270821
40
0.2439788
50
269.4204404
51
286.4209037
0
ARC
8
DEFAULT_255_1_234
10
23.9259929
20
12.8731657
40
0.1880666
50
286.7251356
51
320.600362
0
ARC
8
DEFAULT_255_1_234
10
23.8876754
20
12.9042595
40
0.2374121
50
320.6712579
51
344.5441685
0
ARC
8
DEFAULT_255_1_234
10
23.772008
20
12.9382045
40
0.3579479
50
344.2412205
51
356.7357071
0
ARC
8
DEFAULT_255_1_234
10
23.6471229
20
12.9485444
40
0.4832297
50
356.3548756
51
0.0500261
0
ARC
8
DEFAULT_255_1_234
10
23.7807738
20
12.951665
40
0.3495889
50
359.5576869
51
12.953486
0
ARC
8
DEFAULT_255_1_234
10
23.8862636
20
12.9772434
40
0.2410532
50
12.6490276
51
41.6081334
0
ARC
8
DEFAULT_255_1_234
10
23.9093007
20
12.9968321
40
0.2108218
50
41.7850273
51
85.9892764
0
ARC
8
DEFAULT_255_1_234
10
23.8969743
20
12.9155462
40
0.2928454
50
84.6957577
51
90.0676183
0
ARC
8
DEFAULT_255_1_234
10
23.8946227
20
12.8486716
40
0.3597255
50
89.6804936
51
99.1614436
0
ARC
8
DEFAULT_255_1_234
10
23.8740859
20
12.9714131
40
0.235281
50
98.9830931
51
113.8908934
0
ARC
8
DEFAULT_255_1_234
10
23.8511269
20
13.0255587
40
0.176479
50
114.1950727
51
127.3641004
0
LINE
8
DEFAULT_255_1_234
10
22.8318392
20
20.5154
11
22.4262364
21
20.5154
0
LINE
8
DEFAULT_255_1_234
10
22.4262364
20
20.5154
11
22.4262364
21
21.6848211
0
LINE
8
DEFAULT_255_1_234
10
22.4262364
20
21.6848211
11
22.8085471
21
21.6848211
0
LINE
8
DEFAULT_255_1_234
10
22.8374614
20
21.0623614
11
22.5804458
21
21.0623614
0
LINE
8
DEFAULT_255_1_234
10
22.5804458
20
21.0623614
11
22.5804458
21
20.6414983
0
LINE
8
DEFAULT_255_1_234
10
22.5804458
20
20.6414983
11
22.8350519
21
20.6414983
0
LINE
8
DEFAULT_255_1_234
10
22.5804458
20
21.5579196
11
22.5804458
21
21.1860501
0
LINE
8
DEFAULT_255_1_234
10
22.5804458
20
21.1860501
11
22.8133662
21
21.1860501
0
LINE
8
DEFAULT_255_1_234
10
22.8085471
20
21.5579196
11
22.5804458
21
21.5579196
0
ARC
8
DEFAULT_255_1_234
10
22.812318
20
20.9480901
40
0.7367406
50
82.1257326
51
90.2932599
0
ARC
8
DEFAULT_255_1_234
10
22.8512135
20
21.2199013
40
0.4621653
50
69.9044149
51
82.2857423
0
ARC
8
DEFAULT_255_1_234
10
22.9082813
20
21.3741637
40
0.2976871
50
51.1838526
51
70.0181538
0
ARC
8
DEFAULT_255_1_234
10
22.9337779
20
21.411224
40
0.2528517
50
12.1017251
51
50.4214761
0
ARC
8
DEFAULT_255_1_234
10
22.7953653
20
21.3764676
40
0.3955061
50
359.5251267
51
12.8211707
0
ARC
8
DEFAULT_255_1_234
10
22.9533579
20
21.3695344
40
0.2375281
50
323.4908128
51
0.8817314
0
ARC
8
DEFAULT_255_1_234
10
22.9115266
20
21.401855
40
0.2903817
50
298.6825083
51
323.2756573
0
ARC
8
DEFAULT_255_1_234
10
22.8753629
20
21.4619649
40
0.3604842
50
293.1999386
51
299.1396394
0
ARC
8
DEFAULT_255_1_234
10
22.9426602
20
20.8534126
40
0.2871098
50
54.0011765
51
74.9167975
0
ARC
8
DEFAULT_255_1_234
10
22.9542961
20
20.8731332
40
0.2643248
50
36.3580696
51
53.5291921
0
ARC
8
DEFAULT_255_1_234
10
22.9416203
20
20.8640998
40
0.2798884
50
4.8189881
51
36.3089977
0
ARC
8
DEFAULT_255_1_234
10
22.8637038
20
20.853127
40
0.358478
50
359.9370252
51
5.5204067
0
ARC
8
DEFAULT_255_1_234
10
22.831256
20
20.8490667
40
0.3909429
50
344.7478609
51
0.5373281
0
ARC
8
DEFAULT_255_1_234
10
22.9303531
20
20.8223544
40
0.2883093
50
311.1786488
51
344.6886812
0
ARC
8
DEFAULT_255_1_234
10
22.9011578
20
20.8586987
40
0.3348923
50
286.0418249
51
310.8441291
0
ARC
8
DEFAULT_255_1_234
10
22.850441
20
21.0233807
40
0.5071869
50
274.1042341
51
286.4071509
0
ARC
8
DEFAULT_255_1_234
10
22.8327666
20
21.2117229
40
0.6963234
50
269.9236873
51
274.445647
0
ARC
8
DEFAULT_255_1_234
10
22.8373667
20
20.9777537
40
0.3362634
50
269.6055768
51
281.3740047
0
ARC
8
DEFAULT_255_1_234
10
22.8604305
20
20.8684353
40
0.224546
50
281.1055983
51
302.5132223
0
ARC
8
DEFAULT_255_1_234
10
22.8751204
20
20.8420823
40
0.1944357
50
303.0368945
51
311.8811219
0
ARC
8
DEFAULT_255_1_234
10
22.8822611
20
20.833589
40
0.1833454
50
311.9916004
51
351.7143462
0
ARC
8
DEFAULT_255_1_234
10
22.8005841
20
20.850093
40
0.2665871
50
350.7339597
51
0.2221581
0
ARC
8
DEFAULT_255_1_234
10
22.7898287
20
20.8557467
40
0.2773789
50
359.0456241
51
17.2296242
0
ARC
8
DEFAULT_255_1_234
10
22.8937404
20
20.8866163
40
0.1689915
50
17.6685481
51
78.9940892
0
ARC
8
DEFAULT_255_1_234
10
22.8420568
20
20.7011224
40
0.3612658
50
76.5635957
51
90.6980921
0
LINE
8
DEFAULT_255_1_234
10
22.8376552
20
21.0623613
11
22.8374614
21
21.0623614
0
ARC
8
DEFAULT_255_1_234
10
22.8156228
20
21.5146036
40
0.3285612
50
269.6064736
51
281.4533503
0
ARC
8
DEFAULT_255_1_234
10
22.8379048
20
21.4094688
40
0.2210975
50
281.2041486
51
302.5148063
0
ARC
8
DEFAULT_255_1_234
10
22.8515898
20
21.3848241
40
0.1929674
50
303.021671
51
309.8369575
0
ARC
8
DEFAULT_255_1_234
10
22.8699359
20
21.3642488
40
0.1654181
50
309.5228395
51
356.9509836
0
ARC
8
DEFAULT_255_1_234
10
22.8035942
20
21.3737932
40
0.2322512
50
355.4701227
51
0.0492546
0
ARC
8
DEFAULT_255_1_234
10
22.7757033
20
21.3760094
40
0.2601498
50
359.5558597
51
11.2096359
0
ARC
8
DEFAULT_255_1_234
10
22.8714323
20
21.395823
40
0.1623975
50
10.9182341
51
31.3230275
0
ARC
8
DEFAULT_255_1_234
10
22.9000056
20
21.4117214
40
0.1297302
50
31.8852677
51
52.1412565
0
ARC
8
DEFAULT_255_1_234
10
22.8725789
20
21.372975
40
0.1771663
50
52.8285564
51
71.9850297
0
ARC
8
DEFAULT_255_1_234
10
22.8349965
20
21.2623664
40
0.2939794
50
71.6863486
51
82.8455995
0
ARC
8
DEFAULT_255_1_234
10
22.8110501
20
21.0814149
40
0.476506
50
82.6984714
51
90.1729175
0
ARC
8
DEFAULT_255_1_234
10
22.8088136
20
21.2037623
40
0.3541573
50
89.8708275
51
90.0431131
0
LINE
8
DEFAULT_255_1_234
10
24.0390094
20
21.6848211
11
24.0390094
21
20.908152
0
LINE
8
DEFAULT_255_1_234
10
24.0390094
20
20.908152
11
24.2012505
21
20.908152
0
LINE
8
DEFAULT_255_1_234
10
24.2012505
20
20.908152
11
24.2012505
21
20.7868728
0
LINE
8
DEFAULT_255_1_234
10
24.2012505
20
20.7868728
11
24.0390094
21
20.7868728
0
LINE
8
DEFAULT_255_1_234
10
24.0390094
20
20.7868728
11
24.0390094
21
20.5154
0
LINE
8
DEFAULT_255_1_234
10
24.0390094
20
20.5154
11
23.8896191
21
20.5154
0
LINE
8
DEFAULT_255_1_234
10
23.8896191
20
20.5154
11
23.8896191
21
20.7868728
0
LINE
8
DEFAULT_255_1_234
10
23.8896191
20
20.7868728
11
23.3571148
21
20.7868728
0
LINE
8
DEFAULT_255_1_234
10
23.3571148
20
20.7868728
11
23.3571148
21
20.8744187
0
LINE
8
DEFAULT_255_1_234
10
23.3571148
20
20.8744187
11
23.8807842
21
21.6848211
0
LINE
8
DEFAULT_255_1_234
10
23.8807842
20
21.6848211
11
24.0390094
21
21.6848211
0
LINE
8
DEFAULT_255_1_234
10
23.8719493
20
21.4494912
11
23.5257813
21
20.908152
0
LINE
8
DEFAULT_255_1_234
10
23.5257813
20
20.908152
11
23.8896191
21
20.908152
0
LINE
8
DEFAULT_255_1_234
10
23.8896191
20
20.908152
11
23.8896191
21
21.4816181
0
LINE
8
DEFAULT_255_1_234
10
23.8896191
20
21.4816181
11
23.8719493
21
21.4494912
0
LINE
8
DEFAULT_255_1_234
10
22.9452392
20
28.4529
11
22.5396364
21
28.4529
0
LINE
8
DEFAULT_255_1_234
10
22.5396364
20
28.4529
11
22.5396364
21
29.6223211
0
LINE
8
DEFAULT_255_1_234
10
22.5396364
20
29.6223211
11
22.9219471
21
29.6223211
0
LINE
8
DEFAULT_255_1_234
10
22.9508614
20
28.9998614
11
22.6938458
21
28.9998614
0
LINE
8
DEFAULT_255_1_234
10
22.6938458
20
28.9998614
11
22.6938458
21
28.5789983
0
LINE
8
DEFAULT_255_1_234
10
22.6938458
20
28.5789983
11
22.9484519
21
28.5789983
0
LINE
8
DEFAULT_255_1_234
10
22.6938458
20
29.4954196
11
22.6938458
21
29.1235501
0
LINE
8
DEFAULT_255_1_234
10
22.6938458
20
29.1235501
11
22.9267662
21
29.1235501
0
LINE
8
DEFAULT_255_1_234
10
22.9219471
20
29.4954196
11
22.6938458
21
29.4954196
0
ARC
8
DEFAULT_255_1_234
10
22.925718
20
28.8855901
40
0.7367406
50
82.1257326
51
90.2932599
0
ARC
8
DEFAULT_255_1_234
10
22.9646135
20
29.1574013
40
0.4621653
50
69.9044149
51
82.2857423
0
ARC
8
DEFAULT_255_1_234
10
23.0216813
20
29.3116637
40
0.2976871
50
51.1838526
51
70.0181538
0
ARC
8
DEFAULT_255_1_234
10
23.0471779
20
29.348724
40
0.2528517
50
12.1017251
51
50.4214761
0
ARC
8
DEFAULT_255_1_234
10
22.9087653
20
29.3139676
40
0.3955061
50
359.5251267
51
12.8211707
0
ARC
8
DEFAULT_255_1_234
10
23.0667579
20
29.3070344
40
0.2375281
50
323.4908128
51
0.8817314
0
ARC
8
DEFAULT_255_1_234
10
23.0249266
20
29.339355
40
0.2903817
50
298.6825083
51
323.2756573
0
ARC
8
DEFAULT_255_1_234
10
22.9887629
20
29.3994649
40
0.3604842
50
293.1999386
51
299.1396394
0
ARC
8
DEFAULT_255_1_234
10
23.0560602
20
28.7909126
40
0.2871098
50
54.0011765
51
74.9167975
0
ARC
8
DEFAULT_255_1_234
10
23.0676961
20
28.8106332
40
0.2643248
50
36.3580696
51
53.5291921
0
ARC
8
DEFAULT_255_1_234
10
23.0550203
20
28.8015998
40
0.2798884
50
4.8189881
51
36.3089977
0
ARC
8
DEFAULT_255_1_234
10
22.9771038
20
28.790627
40
0.358478
50
359.9370252
51
5.5204067
0
ARC
8
DEFAULT_255_1_234
10
22.944656
20
28.7865667
40
0.3909429
50
344.7478609
51
0.5373281
0
ARC
8
DEFAULT_255_1_234
10
23.0437531
20
28.7598544
40
0.2883093
50
311.1786488
51
344.6886812
0
ARC
8
DEFAULT_255_1_234
10
23.0145578
20
28.7961987
40
0.3348923
50
286.0418249
51
310.8441291
0
ARC
8
DEFAULT_255_1_234
10
22.963841
20
28.9608807
40
0.5071869
50
274.1042341
51
286.4071509
0
ARC
8
DEFAULT_255_1_234
10
22.9461666
20
29.1492229
40
0.6963234
50
269.9236873
51
274.445647
0
ARC
8
DEFAULT_255_1_234
10
22.9507667
20
28.9152537
40
0.3362634
50
269.6055768
51
281.3740047
0
ARC
8
DEFAULT_255_1_234
10
22.9738305
20
28.8059353
40
0.224546
50
281.1055983
51
302.5132223
0
ARC
8
DEFAULT_255_1_234
10
22.9885204
20
28.7795823
40
0.1944357
50
303.0368945
51
311.8811219
0
ARC
8
DEFAULT_255_1_234
10
22.9956611
20
28.771089
40
0.1833454
50
311.9916004
51
351.7143462
0
ARC
8
DEFAULT_255_1_234
10
22.9139841
20
28.787593
40
0.2665871
50
350.7339597
51
0.2221581
0
ARC
8
DEFAULT_255_1_234
10
22.9032287
20
28.7932467
40
0.2773789
50
359.0456241
51
17.2296242
0
ARC
8
DEFAULT_255_1_234
10
23.0071404
20
28.8241163
40
0.1689915
50
17.6685481
51
78.9940892
0
ARC
8
DEFAULT_255_1_234
10
22.9554568
20
28.6386224
40
0.3612658
50
76.5635957
51
90.6980921
0
LINE
8
DEFAULT_255_1_234
10
22.9510552
20
28.9998613
11
22.9508614
21
28.9998614
0
ARC
8
DEFAULT_255_1_234
10
22.9290228
20
29.4521036
40
0.3285612
50
269.6064736
51
281.4533503
0
ARC
8
DEFAULT_255_1_234
10
22.9513048
20
29.3469688
40
0.2210975
50
281.2041486
51
302.5148063
0
ARC
8
DEFAULT_255_1_234
10
22.9649898
20
29.3223241
40
0.1929674
50
303.021671
51
309.8369575
0
ARC
8
DEFAULT_255_1_234
10
22.9833359
20
29.3017488
40
0.1654181
50
309.5228395
51
356.9509836
0
ARC
8
DEFAULT_255_1_234
10
22.9169942
20
29.3112932
40
0.2322512
50
355.4701227
51
0.0492546
0
ARC
8
DEFAULT_255_1_234
10
22.8891033
20
29.3135094
40
0.2601498
50
359.5558597
51
11.2096359
0
ARC
8
DEFAULT_255_1_234
10
22.9848323
20
29.333323
40
0.1623975
50
10.9182341
51
31.3230275
0
ARC
8
DEFAULT_255_1_234
10
23.0134056
20
29.3492214
40
0.1297302
50
31.8852677
51
52.1412565
0
ARC
8
DEFAULT_255_1_234
10
22.9859789
20
29.310475
40
0.1771663
50
52.8285564
51
71.9850297
0
ARC
8
DEFAULT_255_1_234
10
22.9483965
20
29.1998664
40
0.2939794
50
71.6863486
51
82.8455995
0
ARC
8
DEFAULT_255_1_234
10
22.9244501
20
29.0189149
40
0.476506
50
82.6984714
51
90.1729175
0
ARC
8
DEFAULT_255_1_234
10
22.9222136
20
29.1412623
40
0.3541573
50
89.8708275
51
90.0431131
0
LINE
8
DEFAULT_255_1_234
10
24.0134604
20
29.6279433
11
24.0134604
21
28.4529
0
LINE
8
DEFAULT_255_1_234
10
24.0134604
20
28.4529
11
23.86407
21
28.4529
0
LINE
8
DEFAULT_255_1_234
10
23.86407
20
28.4529
11
23.86407
21
29.4432133
0
LINE
8
DEFAULT_255_1_234
10
23.86407
20
29.4432133
11
23.5644862
21
29.3331785
0
LINE
8
DEFAULT_255_1_234
10
23.5644862
20
29.3331785
11
23.5644862
21
29.4681117
0
LINE
8
DEFAULT_255_1_234
10
23.5644862
20
29.4681117
11
23.9901683
21
29.6279433
0
LINE
8
DEFAULT_255_1_234
10
23.9901683
20
29.6279433
11
24.0134604
21
29.6279433
0
LINE
8
DEFAULT_255_1_234
10
22.9376392
20
36.3904
11
22.5320364
21
36.3904
0
LINE
8
DEFAULT_255_1_234
10
22.5320364
20
36.3904
11
22.5320364
21
37.5598211
0
LINE
8
DEFAULT_255_1_234
10
22.5320364
20
37.5598211
11
22.9143471
21
37.5598211
0
LINE
8
DEFAULT_255_1_234
10
22.9432614
20
36.9373614
11
22.6862458
21
36.9373614
0
LINE
8
DEFAULT_255_1_234
10
22.6862458
20
36.9373614
11
22.6862458
21
36.5164983
0
LINE
8
DEFAULT_255_1_234
10
22.6862458
20
36.5164983
11
22.9408519
21
36.5164983
0
LINE
8
DEFAULT_255_1_234
10
22.6862458
20
37.4329196
11
22.6862458
21
37.0610501
0
LINE
8
DEFAULT_255_1_234
10
22.6862458
20
37.0610501
11
22.9191662
21
37.0610501
0
LINE
8
DEFAULT_255_1_234
10
22.9143471
20
37.4329196
11
22.6862458
21
37.4329196
0
ARC
8
DEFAULT_255_1_234
10
22.918118
20
36.8230901
40
0.7367406
50
82.1257326
51
90.2932599
0
ARC
8
DEFAULT_255_1_234
10
22.9570135
20
37.0949013
40
0.4621653
50
69.9044149
51
82.2857423
0
ARC
8
DEFAULT_255_1_234
10
23.0140813
20
37.2491637
40
0.2976871
50
51.1838526
51
70.0181538
0
ARC
8
DEFAULT_255_1_234
10
23.0395779
20
37.286224
40
0.2528517
50
12.1017251
51
50.4214761
0
ARC
8
DEFAULT_255_1_234
10
22.9011653
20
37.2514676
40
0.3955061
50
359.5251267
51
12.8211707
0
ARC
8
DEFAULT_255_1_234
10
23.0591579
20
37.2445344
40
0.2375281
50
323.4908128
51
0.8817314
0
ARC
8
DEFAULT_255_1_234
10
23.0173266
20
37.276855
40
0.2903817
50
298.6825083
51
323.2756573
0
ARC
8
DEFAULT_255_1_234
10
22.9811629
20
37.3369649
40
0.3604842
50
293.1999386
51
299.1396394
0
ARC
8
DEFAULT_255_1_234
10
23.0484602
20
36.7284126
40
0.2871098
50
54.0011765
51
74.9167975
0
ARC
8
DEFAULT_255_1_234
10
23.0600961
20
36.7481332
40
0.2643248
50
36.3580696
51
53.5291921
0
ARC
8
DEFAULT_255_1_234
10
23.0474203
20
36.7390998
40
0.2798884
50
4.8189881
51
36.3089977
0
ARC
8
DEFAULT_255_1_234
10
22.9695038
20
36.728127
40
0.358478
50
359.9370252
51
5.5204067
0
ARC
8
DEFAULT_255_1_234
10
22.937056
20
36.7240667
40
0.3909429
50
344.7478609
51
0.5373281
0
ARC
8
DEFAULT_255_1_234
10
23.0361531
20
36.6973544
40
0.2883093
50
311.1786488
51
344.6886812
0
ARC
8
DEFAULT_255_1_234
10
23.0069578
20
36.7336987
40
0.3348923
50
286.0418249
51
310.8441291
0
ARC
8
DEFAULT_255_1_234
10
22.956241
20
36.8983807
40
0.5071869
50
274.1042341
51
286.4071509
0
ARC
8
DEFAULT_255_1_234
10
22.9385666
20
37.0867229
40
0.6963234
50
269.9236873
51
274.445647
0
ARC
8
DEFAULT_255_1_234
10
22.9431667
20
36.8527537
40
0.3362634
50
269.6055768
51
281.3740047
0
ARC
8
DEFAULT_255_1_234
10
22.9662305
20
36.7434353
40
0.224546
50
281.1055983
51
302.5132223
0
ARC
8
DEFAULT_255_1_234
10
22.9809204
20
36.7170823
40
0.1944357
50
303.0368945
51
311.8811219
0
ARC
8
DEFAULT_255_1_234
10
22.9880611
20
36.708589
40
0.1833454
50
311.9916004
51
351.7143462
0
ARC
8
DEFAULT_255_1_234
10
22.9063841
20
36.725093
40
0.2665871
50
350.7339597
51
0.2221581
0
ARC
8
DEFAULT_255_1_234
10
22.8956287
20
36.7307467
40
0.2773789
50
359.0456241
51
17.2296242
0
ARC
8
DEFAULT_255_1_234
10
22.9995404
20
36.7616163
40
0.1689915
50
17.6685481
51
78.9940892
0
ARC
8
DEFAULT_255_1_234
10
22.9478568
20
36.5761224
40
0.3612658
50
76.5635957
51
90.6980921
0
LINE
8
DEFAULT_255_1_234
10
22.9434552
20
36.9373613
11
22.9432614
21
36.9373614
0
ARC
8
DEFAULT_255_1_234
10
22.9214228
20
37.3896036
40
0.3285612
50
269.6064736
51
281.4533503
0
ARC
8
DEFAULT_255_1_234
10
22.9437048
20
37.2844688
40
0.2210975
50
281.2041486
51
302.5148063
0
ARC
8
DEFAULT_255_1_234
10
22.9573898
20
37.2598241
40
0.1929674
50
303.021671
51
309.8369575
0
ARC
8
DEFAULT_255_1_234
10
22.9757359
20
37.2392488
40
0.1654181
50
309.5228395
51
356.9509836
0
ARC
8
DEFAULT_255_1_234
10
22.9093942
20
37.2487932
40
0.2322512
50
355.4701227
51
0.0492546
0
ARC
8
DEFAULT_255_1_234
10
22.8815033
20
37.2510094
40
0.2601498
50
359.5558597
51
11.2096359
0
ARC
8
DEFAULT_255_1_234
10
22.9772323
20
37.270823
40
0.1623975
50
10.9182341
51
31.3230275
0
ARC
8
DEFAULT_255_1_234
10
23.0058056
20
37.2867214
40
0.1297302
50
31.8852677
51
52.1412565
0
ARC
8
DEFAULT_255_1_234
10
22.9783789
20
37.247975
40
0.1771663
50
52.8285564
51
71.9850297
0
ARC
8
DEFAULT_255_1_234
10
22.9407965
20
37.1373664
40
0.2939794
50
71.6863486
51
82.8455995
0
ARC
8
DEFAULT_255_1_234
10
22.9168501
20
36.9564149
40
0.476506
50
82.6984714
51
90.1729175
0
ARC
8
DEFAULT_255_1_234
10
22.9146136
20
37.0787623
40
0.3541573
50
89.8708275
51
90.0431131
0
LINE
8
DEFAULT_255_1_234
10
24.2508284
20
37.0819327
11
24.2508284
21
36.8891709
0
LINE
8
DEFAULT_255_1_234
10
23.5127116
20
36.8690916
11
23.5127116
21
37.0674755
0
LINE
8
DEFAULT_255_1_234
10
24.1022412
20
36.8490123
11
24.1022412
21
37.0923739
0
LINE
8
DEFAULT_255_1_234
10
23.6612988
20
37.1036184
11
23.6612988
21
36.8658789
0
ARC
8
DEFAULT_255_1_234
10
23.0261173
20
36.8842805
40
1.2247208
50
353.8441951
51
0.2287902
0
ARC
8
DEFAULT_255_1_234
10
23.4900677
20
36.8324806
40
0.7578929
50
344.4934747
51
353.9765454
0
ARC
8
DEFAULT_255_1_234
10
23.7893267
20
36.7473981
40
0.4467846
50
329.2803592
51
344.7472793
0
ARC
8
DEFAULT_255_1_234
10
23.8886092
20
36.6929018
40
0.3336173
50
324.9352394
51
328.6160465
0
ARC
8
DEFAULT_255_1_234
10
23.9263201
20
36.6665427
40
0.2876076
50
280.580143
51
324.9173126
0
ARC
8
DEFAULT_255_1_234
10
23.8861993
20
36.8336099
40
0.4592847
50
269.5977311
51
281.6734359
0
ARC
8
DEFAULT_255_1_234
10
23.8789899
20
36.8216173
40
0.4472986
50
256.6228859
51
270.51044
0
ARC
8
DEFAULT_255_1_234
10
23.8387877
20
36.6667877
40
0.2873874
50
215.8618325
51
257.2788573
0
ARC
8
DEFAULT_255_1_234
10
23.9408908
20
36.7352977
40
0.4102928
50
197.9693508
51
215.2623606
0
ARC
8
DEFAULT_255_1_234
10
24.1894024
20
36.8191709
40
0.6725652
50
187.8816417
51
198.2346507
0
ARC
8
DEFAULT_255_1_234
10
24.5852232
20
36.8763079
40
1.0724845
50
180.8976217
51
188.0055519
0
ARC
8
DEFAULT_255_1_234
10
24.865242
20
36.8866777
40
1.3526448
50
180.7449369
51
181.1510016
0
ARC
8
DEFAULT_255_1_234
10
24.7075149
20
37.0723042
40
1.1948131
50
173.7675579
51
180.231553
0
ARC
8
DEFAULT_255_1_234
10
24.2557296
20
37.1233666
40
0.7401564
50
164.3058563
51
173.9002247
0
ARC
8
DEFAULT_255_1_234
10
23.9645365
20
37.2072656
40
0.4371288
50
148.7922025
51
164.568378
0
ARC
8
DEFAULT_255_1_234
10
23.8693817
20
37.2603929
40
0.3282386
50
144.5883898
51
148.1176286
0
ARC
8
DEFAULT_255_1_234
10
23.8350715
20
37.2843315
40
0.2864044
50
101.6440918
51
144.514236
0
ARC
8
DEFAULT_255_1_234
10
23.8775782
20
37.1154069
40
0.4604934
50
89.5284041
51
102.5819763
0
ARC
8
DEFAULT_255_1_234
10
23.8854869
20
37.1115018
40
0.464401
50
77.0437873
51
90.5081339
0
ARC
8
DEFAULT_255_1_234
10
23.9256871
20
37.2757615
40
0.2953195
50
48.2778575
51
77.4994676
0
ARC
8
DEFAULT_255_1_234
10
23.9329503
20
37.2886746
40
0.2808655
50
36.3142134
51
47.6305865
0
ARC
8
DEFAULT_255_1_234
10
23.8460809
20
37.2301515
40
0.3855453
50
18.2931786
51
35.6769206
0
ARC
8
DEFAULT_255_1_234
10
23.5917568
20
37.1428593
40
0.654423
50
8.024666
51
18.5605216
0
ARC
8
DEFAULT_255_1_234
10
23.1754488
20
37.0813792
40
1.0752407
50
1.1274072
51
8.1718305
0
ARC
8
DEFAULT_255_1_234
10
22.8518679
20
37.0686885
40
1.3990231
50
0.5424119
51
1.3863029
0
ARC
8
DEFAULT_255_1_234
10
23.0340057
20
37.0959342
40
1.0682415
50
359.8090433
51
4.9407866
0
ARC
8
DEFAULT_255_1_234
10
23.4550071
20
37.1335113
40
0.6455691
50
4.8362157
51
12.2904523
0
ARC
8
DEFAULT_255_1_234
10
23.7305186
20
37.1948965
40
0.3633074
50
12.0805627
51
23.8173984
0
ARC
8
DEFAULT_255_1_234
10
23.8478891
20
37.2445919
40
0.2358723
50
24.2871213
51
31.3935614
0
ARC
8
DEFAULT_255_1_234
10
23.9003588
20
37.2789233
40
0.1732111
50
30.7407893
51
82.4657128
0
ARC
8
DEFAULT_255_1_234
10
23.8823722
20
37.1905691
40
0.263235
50
81.1060089
51
90.2184952
0
ARC
8
DEFAULT_255_1_234
10
23.8788021
20
37.2163924
40
0.2374236
50
89.3806855
51
105.6762551
0
ARC
8
DEFAULT_255_1_234
10
23.8604652
20
37.2830567
40
0.1682847
50
105.7981136
51
149.7388061
0
ARC
8
DEFAULT_255_1_234
10
23.966873
20
37.219095
40
0.2924306
50
149.4208916
51
163.6286378
0
ARC
8
DEFAULT_255_1_234
10
24.1759618
20
37.155325
40
0.5110213
50
163.3763315
51
172.1410975
0
ARC
8
DEFAULT_255_1_234
10
24.5060337
20
37.1080518
40
0.8444586
50
172.0259487
51
178.0703232
0
ARC
8
DEFAULT_255_1_234
10
24.8090427
20
37.0936906
40
1.1477868
50
177.8631668
51
179.5044149
0
ARC
8
DEFAULT_255_1_234
10
24.7017831
20
36.8622389
40
1.0404907
50
179.7995573
51
185.2460446
0
ARC
8
DEFAULT_255_1_234
10
24.2974871
20
36.8239513
40
0.6343885
50
185.1411642
51
193.0079639
0
ARC
8
DEFAULT_255_1_234
10
24.0331343
20
36.7614641
40
0.3627568
50
192.7897626
51
205.2507664
0
ARC
8
DEFAULT_255_1_234
10
23.928489
20
36.7147415
40
0.2481908
50
205.8005384
51
211.2537509
0
ARC
8
DEFAULT_255_1_234
10
23.8761331
20
36.679658
40
0.1852521
50
210.3789793
51
238.4008143
0
ARC
8
DEFAULT_255_1_234
10
23.8741852
20
36.6843376
40
0.1882621
50
239.6520629
51
265.9793761
0
ARC
8
DEFAULT_255_1_234
10
23.8827053
20
36.7515427
40
0.2559272
50
265.1315437
51
270.060332
0
ARC
8
DEFAULT_255_1_234
10
23.8855831
20
36.7191534
40
0.2235528
50
269.3314664
51
287.2178029
0
ARC
8
DEFAULT_255_1_234
10
23.8993683
20
36.6688279
40
0.1714108
50
287.7958004
51
329.080874
0
ARC
8
DEFAULT_255_1_234
10
23.803614
20
36.728593
40
0.2842745
50
328.6634704
51
343.3325132
0
ARC
8
DEFAULT_255_1_234
10
23.586316
20
36.7962863
40
0.5118644
50
343.0499468
51
351.9393422
0
ARC
8
DEFAULT_255_1_234
10
23.239646
20
36.8473949
40
0.8622784
50
351.8069023
51
357.7959224
0
ARC
8
DEFAULT_255_1_234
10
22.9161016
20
36.8641721
40
1.1862365
50
357.5871873
51
359.2677531
0
ENDSEC
0
EOF