0
SECTION
2
HEADER
9
$MEASUREMENT
70
1
0
ENDSEC
0
SECTION
2
TABLES
0
TABLE
2
LTYPE
0
LTYPE
72
65
70
64
2
CONTINUOUS
3
______
73
0
40
0
0
ENDTAB
0
TABLE
2
LAYER
0
LAYER
2
DEFAULT_255_2_778
70
0
62
255
6
CONTINUOUS
0
ENDTAB
0
ENDSEC
0
SECTION
2
ENTITIES
0
LINE
8
DEFAULT_255_2_778
10
7.6719378
20
71.4339074
11
7.1719378
21
71.4339074
0
LINE
8
DEFAULT_255_2_778
10
24.9717378
20
69.9340074
11
24.9717378
21
70.1340074
0
LINE
8
DEFAULT_255_2_778
10
7.6719378
20
38.2340074
11
7.1719378
21
38.2340074
0
LINE
8
DEFAULT_255_2_778
10
24.9717378
20
39.7339074
11
24.9717378
21
39.5339074
0
LINE
8
DEFAULT_255_2_778
10
3.1719378
20
70.8838074
11
0.1718378
21
70.8838074
0
LINE
8
DEFAULT_255_2_778
10
0.1718378
20
70.8838074
11
0.1718378
21
73.4839074
0
LINE
8
DEFAULT_255_2_778
10
0.1718378
20
73.4839074
11
1.6717378
21
73.4839074
0
LINE
8
DEFAULT_255_2_778
10
1.6717378
20
73.4839074
11
1.6717378
21
72.9838074
0
LINE
8
DEFAULT_255_2_778
10
1.6717378
20
72.9838074
11
3.1716378
21
72.9838074
0
LINE
8
DEFAULT_255_2_778
10
3.1719378
20
38.7840074
11
0.1718378
21
38.7840074
0
LINE
8
DEFAULT_255_2_778
10
0.1718378
20
38.7840074
11
0.1718378
21
36.1840074
0
LINE
8
DEFAULT_255_2_778
10
0.1718378
20
36.1840074
11
1.6717378
21
36.1840074
0
LINE
8
DEFAULT_255_2_778
10
1.6717378
20
36.1840074
11
1.6717378
21
36.6840074
0
LINE
8
DEFAULT_255_2_778
10
1.6717378
20
36.6840074
11
3.1716378
21
36.6840074
0
LINE
8
DEFAULT_255_2_778
10
10.1717378
20
99.8337074
11
10.1717378
21
100.3338074
0
LINE
8
DEFAULT_255_2_778
10
10.1717378
20
100.3338074
11
8.9718378
21
100.3338074
0
LINE
8
DEFAULT_255_2_778
10
8.9718378
20
100.3338074
11
8.9718378
21
99.8337074
0
LINE
8
DEFAULT_255_2_778
10
3.1719378
20
74.1340074
11
4.1720378
21
73.1338074
0
LINE
8
DEFAULT_255_2_778
10
4.1720378
20
73.1338074
11
7.1721378
21
73.1338074
0
LINE
8
DEFAULT_255_2_778
10
7.1721378
20
73.1338074
11
7.1721378
21
99.8340074
0
ARC
8
DEFAULT_255_2_778
10
1.6716059
20
83.9690705
40
3.5003223
50
359.9988234
51
27.7542038
0
LINE
8
DEFAULT_255_2_778
10
5.1719282
20
73.1337986
11
5.1719282
21
83.9689986
0
LINE
8
DEFAULT_255_2_778
10
4.7692282
20
85.5990986
11
3.1719282
21
88.6338986
0
LINE
8
DEFAULT_255_2_778
10
81.1719282
20
72.8337986
11
81.1719282
21
70.3037986
0
LINE
8
DEFAULT_255_2_778
10
81.1719282
20
70.3037986
11
83.1718282
21
70.3037986
0
LINE
8
DEFAULT_255_2_778
10
83.1718282
20
70.3037986
11
83.1718282
21
109.8338986
0
LINE
8
DEFAULT_255_2_778
10
83.1718282
20
109.8338986
11
75.1719282
21
109.8338986
0
LINE
8
DEFAULT_255_2_778
10
75.1719282
20
109.8338986
11
75.1719282
21
99.8339986
0
LINE
8
DEFAULT_255_2_778
10
75.1719282
20
99.8339986
11
3.1719282
21
99.8339986
0
LINE
8
DEFAULT_255_2_778
10
3.1719282
20
99.8339986
11
3.1719282
21
9.8340986
0
LINE
8
DEFAULT_255_2_778
10
3.1719282
20
9.8340986
11
7.1719282
21
9.8340986
0
LINE
8
DEFAULT_255_2_778
10
7.1719282
20
9.8340986
11
7.1719282
21
36.5339986
0
LINE
8
DEFAULT_255_2_778
10
7.1719282
20
36.5339986
11
4.1720282
21
36.5339986
0
LINE
8
DEFAULT_255_2_778
10
4.1720282
20
36.5339986
11
3.1719282
21
35.5338986
0
ARC
8
DEFAULT_255_2_778
10
1.6713054
20
25.6988321
40
3.5006228
50
332.2470079
51
359.9999575
0
LINE
8
DEFAULT_255_2_778
10
3.1719282
20
21.0339295
11
4.7692282
21
24.0687295
0
LINE
8
DEFAULT_255_2_778
10
5.1719282
20
25.6988295
11
5.1719282
21
36.5340295
0
LINE
8
DEFAULT_255_2_778
10
83.1718282
20
72.8338295
11
79.1719282
21
72.8338295
0
LINE
8
DEFAULT_255_2_778
10
79.1719282
20
72.8338295
11
79.1719282
21
37.3339295
0
LINE
8
DEFAULT_255_2_778
10
79.1719282
20
37.3339295
11
83.1718282
21
37.3339295
0
LINE
8
DEFAULT_255_2_778
10
83.1718282
20
37.3339295
11
81.3719282
21
40.3340295
0
LINE
8
DEFAULT_255_2_778
10
81.3719282
20
40.3340295
11
80.3718282
21
40.3340295
0
LINE
8
DEFAULT_255_2_778
10
80.3718282
20
40.3340295
11
80.1717282
21
38.1340295
0
ARC
8
DEFAULT_255_2_778
10
78.2866901
20
67.8440241
40
1.4991808
50
306.1911132
51
343.2436961
0
ARC
8
DEFAULT_255_2_778
10
78.2865113
20
67.8448215
40
1.499582
50
343.2164896
51
359.9924211
0
ARC
8
DEFAULT_255_2_778
10
78.2902225
20
67.8446177
40
1.4958707
50
0.0002083
51
6.5545599
0
ARC
8
DEFAULT_255_2_778
10
78.2838108
20
67.8437544
40
1.5023392
50
6.5593587
51
15.0046973
0
LINE
8
DEFAULT_255_2_778
10
79.1719271
20
38.1340074
11
80.9718271
21
38.1340074
0
LINE
8
DEFAULT_255_2_778
10
80.9718271
20
38.1340074
11
80.9718271
21
37.3339074
0
LINE
8
DEFAULT_255_2_778
10
7.1719271
20
11.3341074
11
7.6719271
21
11.3341074
0
LINE
8
DEFAULT_255_2_778
10
79.7349271
20
68.2327074
11
79.1719271
21
70.3341074
0
LINE
8
DEFAULT_255_2_778
10
7.6719271
20
81.8339074
11
7.1719271
21
81.8339074
0
LINE
8
DEFAULT_255_2_778
10
3.6717271
20
73.6339074
11
3.6717271
21
72.3340074
0
LINE
8
DEFAULT_255_2_778
10
3.6717271
20
37.3339074
11
3.6717271
21
36.0340074
0
LINE
8
DEFAULT_255_2_778
10
30.1718271
20
37.1638074
11
30.1718271
21
72.5039074
0
LINE
8
DEFAULT_255_2_778
10
30.1718271
20
72.5039074
11
32.1718271
21
71.6755074
0
LINE
8
DEFAULT_255_2_778
10
32.1718271
20
71.6755074
11
32.1718271
21
37.9924074
0
LINE
8
DEFAULT_255_2_778
10
32.1718271
20
37.9924074
11
39.5301271
21
30.6341074
0
LINE
8
DEFAULT_255_2_778
10
39.5301271
20
30.6341074
11
83.1718271
21
30.6341074
0
LINE
8
DEFAULT_255_2_778
10
38.7017271
20
28.6341074
11
30.1718271
21
37.1640074
0
LINE
8
DEFAULT_255_2_778
10
30.1718271
20
37.1640074
11
32.1718271
21
37.9924074
0
LINE
8
DEFAULT_255_2_778
10
30.1718271
20
72.5042074
11
38.7017271
21
81.0341074
0
LINE
8
DEFAULT_255_2_778
10
38.7017271
20
81.0341074
11
39.5301271
21
79.0341074
0
LINE
8
DEFAULT_255_2_778
10
39.5301271
20
79.0341074
11
32.1718271
21
71.6758074
0
LINE
8
DEFAULT_255_2_778
10
83.1718465
20
79.0341066
11
39.5301465
21
79.0341066
0
LINE
8
DEFAULT_255_2_778
10
83.1718465
20
28.6339066
11
38.7017465
21
28.6339066
0
LINE
8
DEFAULT_255_2_778
10
38.7017465
20
28.6339066
11
39.5301465
21
30.6339066
0
LINE
8
DEFAULT_255_2_778
10
83.1718448
20
37.3340986
11
83.1718448
21
-0.1658014
0
LINE
8
DEFAULT_255_2_778
10
83.1718448
20
-0.1658014
11
75.1719448
21
-0.1658014
0
LINE
8
DEFAULT_255_2_778
10
75.1719448
20
-0.1658014
11
75.1719448
21
9.8340986
0
LINE
8
DEFAULT_255_2_778
10
75.1719448
20
9.8340986
11
7.6719448
21
9.8340986
0
LINE
8
DEFAULT_255_2_778
10
7.6719448
20
9.8340986
11
7.6719448
21
39.5338986
0
LINE
8
DEFAULT_255_2_778
10
7.6719448
20
39.5338986
11
28.1718448
21
39.5338986
0
LINE
8
DEFAULT_255_2_778
10
28.1718448
20
39.5338986
11
28.1718448
21
70.1339986
0
LINE
8
DEFAULT_255_2_778
10
28.1718448
20
70.1339986
11
7.6719448
21
70.1339986
0
LINE
8
DEFAULT_255_2_778
10
7.6719448
20
70.1339986
11
7.6719448
21
99.8339986
0
LINE
8
DEFAULT_255_2_778
10
83.1718282
20
81.0340848
11
38.7017282
21
81.0340848
0
LINE
8
DEFAULT_255_2_778
10
3.1719282
20
72.3340848
11
7.6719282
21
72.3340848
0
LINE
8
DEFAULT_255_2_778
10
7.1719282
20
69.9339848
11
28.1718282
21
69.9339848
0
LINE
8
DEFAULT_255_2_778
10
3.1719282
20
37.3338848
11
7.6719282
21
37.3338848
0
LINE
8
DEFAULT_255_2_778
10
7.1719282
20
39.7339848
11
28.1718282
21
39.7339848
0
LINE
8
DEFAULT_255_2_778
10
5.171918
20
72.3340327
11
5.171918
21
37.3341327
0
LINE
8
DEFAULT_255_2_778
10
7.171918
20
72.3340327
11
7.171918
21
37.3341327
0
LINE
8
DEFAULT_255_2_778
10
7.671918
20
27.8340327
11
7.171918
21
27.8340327
0
LINE
8
DEFAULT_255_2_778
10
7.171918
20
25.2339327
11
7.671918
21
25.2339327
0
LINE
8
DEFAULT_255_2_778
10
28.171918
20
68.5838327
11
26.171918
21
68.5838327
0
LINE
8
DEFAULT_255_2_778
10
26.171918
20
68.5838327
11
26.171918
21
54.8339327
0
LINE
8
DEFAULT_255_2_778
10
28.171918
20
41.0841327
11
26.171918
21
41.0841327
0
LINE
8
DEFAULT_255_2_778
10
26.171918
20
41.0841327
11
26.171918
21
54.8339327
0
ENDSEC
0
EOF