0
SECTION
2
HEADER
9
$MEASUREMENT
70
1
0
ENDSEC
0
SECTION
2
TABLES
0
TABLE
2
LTYPE
0
LTYPE
72
65
70
64
2
CONTINUOUS
3
______
73
0
40
0
0
ENDTAB
0
TABLE
2
LAYER
0
LAYER
2
DEFAULT_255_2_778
70
0
62
255
6
CONTINUOUS
0
ENDTAB
0
ENDSEC
0
SECTION
2
ENTITIES
0
ARC
8
DEFAULT_255_2_778
10
1.6716037
20
25.6987196
40
3.5003245
50
332.2458022
51
0.0011647
0
ARC
8
DEFAULT_255_2_778
10
1.6716073
20
83.9690628
40
3.5003209
50
359.9988207
51
27.754212
0
LINE
8
DEFAULT_255_2_778
10
3.1719282
20
21.0338907
11
4.7692282
21
24.0686907
0
LINE
8
DEFAULT_255_2_778
10
5.1719282
20
25.6987907
11
5.1719282
21
36.5339907
0
LINE
8
DEFAULT_255_2_778
10
5.1719282
20
73.1337907
11
5.1719282
21
83.9689907
0
LINE
8
DEFAULT_255_2_778
10
4.7692282
20
85.5990907
11
3.1719282
21
88.6338907
0
LINE
8
DEFAULT_255_2_778
10
83.1718282
20
81.0339907
11
38.7017282
21
81.0339907
0
LINE
8
DEFAULT_255_2_778
10
38.7017282
20
81.0339907
11
30.1718282
21
72.5040907
0
LINE
8
DEFAULT_255_2_778
10
30.1718282
20
72.5040907
11
30.1718282
21
37.1639907
0
LINE
8
DEFAULT_255_2_778
10
30.1718282
20
37.1639907
11
38.7017282
21
28.6340907
0
LINE
8
DEFAULT_255_2_778
10
38.7017282
20
28.6340907
11
83.1718282
21
28.6340907
0
LINE
8
DEFAULT_255_2_778
10
38.7017955
20
28.6337993
11
39.5301955
21
30.6337993
0
LINE
8
DEFAULT_255_2_778
10
39.5301955
20
30.6337993
11
83.1718955
21
30.6337993
0
LINE
8
DEFAULT_255_2_778
10
83.1718955
20
79.0339993
11
39.5301955
21
79.0339993
0
LINE
8
DEFAULT_255_2_778
10
39.5301955
20
79.0339993
11
38.7017955
21
81.0339993
0
LINE
8
DEFAULT_255_2_778
10
39.5301955
20
79.0339993
11
32.1718955
21
71.6756993
0
LINE
8
DEFAULT_255_2_778
10
32.1718955
20
71.6756993
11
30.1718955
21
72.5040993
0
LINE
8
DEFAULT_255_2_778
10
30.1718955
20
37.1639993
11
32.1718955
21
37.9923993
0
LINE
8
DEFAULT_255_2_778
10
32.1718955
20
37.9923993
11
39.5301955
21
30.6340993
0
ARC
8
DEFAULT_255_2_778
10
78.2838607
20
67.8437585
40
1.5022877
50
6.5444844
51
15.0047168
0
ARC
8
DEFAULT_255_2_778
10
78.2901018
20
67.8445997
40
1.4959914
50
0.0001479
51
6.5397204
0
ARC
8
DEFAULT_255_2_778
10
78.2857721
20
67.8447565
40
1.5003211
50
306.2026958
51
359.9941597
0
LINE
8
DEFAULT_255_2_778
10
83.1718271
20
72.8340986
11
79.1719271
21
72.8340986
0
LINE
8
DEFAULT_255_2_778
10
79.1719271
20
72.8340986
11
79.1719271
21
37.3340986
0
LINE
8
DEFAULT_255_2_778
10
79.1719271
20
37.3340986
11
83.1718271
21
37.3340986
0
LINE
8
DEFAULT_255_2_778
10
83.1718271
20
37.3340986
11
83.1718271
21
-0.1658014
0
LINE
8
DEFAULT_255_2_778
10
83.1718271
20
-0.1658014
11
75.1719271
21
-0.1658014
0
LINE
8
DEFAULT_255_2_778
10
75.1719271
20
-0.1658014
11
75.1719271
21
9.8340986
0
LINE
8
DEFAULT_255_2_778
10
75.1719271
20
9.8340986
11
7.6719271
21
9.8340986
0
LINE
8
DEFAULT_255_2_778
10
7.6719271
20
9.8340986
11
7.6719271
21
39.5338986
0
LINE
8
DEFAULT_255_2_778
10
7.6719271
20
39.5338986
11
28.1719271
21
39.5338986
0
LINE
8
DEFAULT_255_2_778
10
28.1719271
20
39.5338986
11
28.1719271
21
70.1339986
0
LINE
8
DEFAULT_255_2_778
10
28.1719271
20
70.1339986
11
7.6719271
21
70.1339986
0
LINE
8
DEFAULT_255_2_778
10
7.6719271
20
70.1339986
11
7.6719271
21
99.8339986
0
LINE
8
DEFAULT_255_2_778
10
3.6717271
20
37.3338986
11
3.6717271
21
36.0339986
0
LINE
8
DEFAULT_255_2_778
10
3.6717271
20
73.6338986
11
3.6717271
21
72.3339986
0
LINE
8
DEFAULT_255_2_778
10
7.6719271
20
81.8338986
11
7.1719271
21
81.8338986
0
LINE
8
DEFAULT_255_2_778
10
79.1719271
20
70.3339986
11
79.7349271
21
68.2326986
0
LINE
8
DEFAULT_255_2_778
10
7.1719271
20
11.3340986
11
7.6719271
21
11.3340986
0
LINE
8
DEFAULT_255_2_778
10
79.1719271
20
38.1339986
11
80.9718271
21
38.1339986
0
LINE
8
DEFAULT_255_2_778
10
80.9718271
20
38.1339986
11
80.9718271
21
37.3338986
0
LINE
8
DEFAULT_255_2_778
10
83.1718282
20
37.3337986
11
81.3719282
21
40.3338986
0
LINE
8
DEFAULT_255_2_778
10
81.3719282
20
40.3338986
11
80.3718282
21
40.3338986
0
LINE
8
DEFAULT_255_2_778
10
80.3718282
20
40.3338986
11
80.1717282
21
38.1338986
0
LINE
8
DEFAULT_255_2_778
10
3.1719282
20
35.5338986
11
4.1720282
21
36.5339986
0
LINE
8
DEFAULT_255_2_778
10
4.1720282
20
36.5339986
11
7.1721282
21
36.5339986
0
LINE
8
DEFAULT_255_2_778
10
7.1721282
20
36.5339986
11
7.1721282
21
9.8340986
0
LINE
8
DEFAULT_255_2_778
10
7.1721282
20
9.8340986
11
3.1719282
21
9.8340986
0
LINE
8
DEFAULT_255_2_778
10
3.1719282
20
9.8340986
11
3.1719282
21
99.8339986
0
LINE
8
DEFAULT_255_2_778
10
3.1719282
20
99.8339986
11
75.1719282
21
99.8339986
0
LINE
8
DEFAULT_255_2_778
10
75.1719282
20
99.8339986
11
75.1719282
21
109.8338986
0
LINE
8
DEFAULT_255_2_778
10
75.1719282
20
109.8338986
11
83.1718282
21
109.8338986
0
LINE
8
DEFAULT_255_2_778
10
83.1718282
20
109.8338986
11
83.1718282
21
70.3037986
0
LINE
8
DEFAULT_255_2_778
10
83.1718282
20
70.3037986
11
81.1719282
21
70.3037986
0
LINE
8
DEFAULT_255_2_778
10
81.1719282
20
70.3037986
11
81.1719282
21
72.8337986
0
LINE
8
DEFAULT_255_2_778
10
3.1719282
20
74.1338986
11
4.1720282
21
73.1337986
0
LINE
8
DEFAULT_255_2_778
10
4.1720282
20
73.1337986
11
7.1721282
21
73.1337986
0
LINE
8
DEFAULT_255_2_778
10
7.1721282
20
73.1337986
11
7.1721282
21
99.8339986
0
LINE
8
DEFAULT_255_2_778
10
10.1717378
20
99.8337074
11
10.1717378
21
100.3338074
0
LINE
8
DEFAULT_255_2_778
10
10.1717378
20
100.3338074
11
8.9718378
21
100.3338074
0
LINE
8
DEFAULT_255_2_778
10
8.9718378
20
100.3338074
11
8.9718378
21
99.8337074
0
LINE
8
DEFAULT_255_2_778
10
3.1719378
20
36.6840074
11
1.6717378
21
36.6840074
0
LINE
8
DEFAULT_255_2_778
10
1.6717378
20
36.6840074
11
1.6717378
21
36.1840074
0
LINE
8
DEFAULT_255_2_778
10
1.6717378
20
36.1840074
11
0.1718378
21
36.1840074
0
LINE
8
DEFAULT_255_2_778
10
0.1718378
20
36.1840074
11
0.1718378
21
38.7840074
0
LINE
8
DEFAULT_255_2_778
10
0.1718378
20
38.7840074
11
3.1719378
21
38.7840074
0
LINE
8
DEFAULT_255_2_778
10
3.1719378
20
72.9838074
11
1.6717378
21
72.9838074
0
LINE
8
DEFAULT_255_2_778
10
1.6717378
20
72.9838074
11
1.6717378
21
73.4839074
0
LINE
8
DEFAULT_255_2_778
10
1.6717378
20
73.4839074
11
0.1718378
21
73.4839074
0
LINE
8
DEFAULT_255_2_778
10
0.1718378
20
73.4839074
11
0.1718378
21
70.8838074
0
LINE
8
DEFAULT_255_2_778
10
0.1718378
20
70.8838074
11
3.1719378
21
70.8838074
0
LINE
8
DEFAULT_255_2_778
10
24.9717378
20
39.7339074
11
24.9717378
21
39.5339074
0
LINE
8
DEFAULT_255_2_778
10
7.6719378
20
38.2340074
11
7.1719378
21
38.2340074
0
LINE
8
DEFAULT_255_2_778
10
24.9717378
20
69.9340074
11
24.9717378
21
70.1340074
0
LINE
8
DEFAULT_255_2_778
10
7.6720688
20
71.4338764
11
7.1719688
21
71.4338764
0
LINE
8
DEFAULT_255_2_778
10
7.1719688
20
25.2338764
11
7.6720688
21
25.2338764
0
LINE
8
DEFAULT_255_2_778
10
7.6719253
20
27.8340025
11
7.1719253
21
27.8340025
0
LINE
8
DEFAULT_255_2_778
10
7.1719253
20
72.3340025
11
7.1719253
21
37.3341025
0
LINE
8
DEFAULT_255_2_778
10
5.1719253
20
72.3340025
11
5.1719253
21
37.3341025
0
LINE
8
DEFAULT_255_2_778
10
7.1719253
20
39.7339025
11
28.1718253
21
39.7339025
0
LINE
8
DEFAULT_255_2_778
10
3.1719253
20
37.3339025
11
7.6719253
21
37.3339025
0
LINE
8
DEFAULT_255_2_778
10
7.17194
20
69.9339964
11
28.17184
21
69.9339964
0
LINE
8
DEFAULT_255_2_778
10
3.17194
20
72.3339964
11
7.67194
21
72.3339964
0
LINE
8
DEFAULT_255_2_778
10
28.17184
20
68.5837964
11
26.17194
21
68.5837964
0
LINE
8
DEFAULT_255_2_778
10
26.17194
20
68.5837964
11
26.17194
21
54.8338964
0
LINE
8
DEFAULT_255_2_778
10
28.17184
20
41.0837964
11
26.17194
21
41.0837964
0
LINE
8
DEFAULT_255_2_778
10
26.17194
20
41.0837964
11
26.17194
21
54.8336964
0
LINE
8
DEFAULT_255_2_778
10
32.17184
20
71.6754964
11
32.17184
21
54.8338964
0
LINE
8
DEFAULT_255_2_778
10
32.17184
20
37.9923964
11
32.17184
21
54.8338964
0
ENDSEC
0
EOF