0
SECTION
2
HEADER
9
$MEASUREMENT
70
1
0
ENDSEC
0
SECTION
2
TABLES
0
TABLE
2
LTYPE
0
LTYPE
72
65
70
64
2
CONTINUOUS
3
______
73
0
40
0
0
ENDTAB
0
TABLE
2
LAYER
0
LAYER
2
DEFAULT_255_2_778
70
0
62
255
6
CONTINUOUS
0
ENDTAB
0
ENDSEC
0
SECTION
2
ENTITIES
0
ARC
8
DEFAULT_255_2_778
10
85.1594007
20
25.7713109
40
2.4000829
50
180.001978
51
222.6462169
0
ARC
8
DEFAULT_255_2_778
10
1.359814
20
25.7712718
40
2.3997039
50
317.3467215
51
359.9989546
0
ARC
8
DEFAULT_255_2_778
10
1.359135
20
83.8974449
40
2.4000828
50
0.0019843
51
42.6462224
0
LINE
8
DEFAULT_255_2_778
10
10.3095179
20
99.8341281
11
10.3095179
21
100.3342281
0
LINE
8
DEFAULT_255_2_778
10
10.3095179
20
100.3342281
11
3.1094179
21
100.3342281
0
LINE
8
DEFAULT_255_2_778
10
3.1094179
20
100.3342281
11
3.1094179
21
99.8341281
0
LINE
8
DEFAULT_255_2_778
10
84.5092179
20
36.5344281
11
82.7593179
21
35.5343281
0
LINE
8
DEFAULT_255_2_778
10
82.7593179
20
35.5343281
11
82.7593179
21
25.7712281
0
LINE
8
DEFAULT_255_2_778
10
83.3940179
20
24.1453281
11
86.2595179
21
21.0343281
0
LINE
8
DEFAULT_255_2_778
10
0.2593179
20
36.5344281
11
5.6592179
21
36.5344281
0
LINE
8
DEFAULT_255_2_778
10
5.6592179
20
36.5344281
11
5.6592179
21
28.6345281
0
LINE
8
DEFAULT_255_2_778
10
5.6592179
20
28.6345281
11
80.8591179
21
28.6345281
0
LINE
8
DEFAULT_255_2_778
10
80.8591179
20
28.6345281
11
80.8591179
21
36.5344281
0
LINE
8
DEFAULT_255_2_778
10
80.8591179
20
36.5344281
11
86.2589179
21
36.5344281
0
LINE
8
DEFAULT_255_2_778
10
5.6592179
20
35.5343281
11
3.7592179
21
35.5343281
0
LINE
8
DEFAULT_255_2_778
10
3.7592179
20
35.5343281
11
2.0093179
21
36.5344281
0
LINE
8
DEFAULT_255_2_778
10
0.2593179
20
21.0343281
11
3.1247179
21
24.1453281
0
LINE
8
DEFAULT_255_2_778
10
3.7595179
20
25.7712281
11
3.7595179
21
35.5343281
0
LINE
8
DEFAULT_255_2_778
10
82.7593179
20
35.5343281
11
80.8593179
21
35.5343281
0
LINE
8
DEFAULT_255_2_778
10
86.2592179
20
73.1345281
11
80.8593179
21
73.1345281
0
LINE
8
DEFAULT_255_2_778
10
80.8593179
20
73.1345281
11
80.8593179
21
81.0344281
0
LINE
8
DEFAULT_255_2_778
10
80.8593179
20
81.0344281
11
5.6592179
21
81.0344281
0
LINE
8
DEFAULT_255_2_778
10
5.6592179
20
81.0344281
11
5.6592179
21
73.1345281
0
LINE
8
DEFAULT_255_2_778
10
5.6592179
20
73.1345281
11
0.2593179
21
73.1345281
0
LINE
8
DEFAULT_255_2_778
10
2.0093179
20
73.1342281
11
3.7592179
21
74.1344281
0
LINE
8
DEFAULT_255_2_778
10
3.7592179
20
74.1344281
11
3.7592179
21
83.8975281
0
LINE
8
DEFAULT_255_2_778
10
3.1245179
20
85.5234281
11
0.2593179
21
88.6343281
0
ARC
8
DEFAULT_255_2_778
10
85.1582758
20
83.8975833
40
2.3992715
50
137.3426914
51
180.0005989
0
LINE
8
DEFAULT_255_2_778
10
80.8593043
20
74.1343582
11
82.7593043
21
74.1343582
0
LINE
8
DEFAULT_255_2_778
10
82.7593043
20
74.1343582
11
84.5092043
21
73.1342582
0
LINE
8
DEFAULT_255_2_778
10
86.2592043
20
88.6343582
11
83.3938043
21
85.5233582
0
LINE
8
DEFAULT_255_2_778
10
82.7590043
20
83.8975582
11
82.7590043
21
74.1343582
0
LINE
8
DEFAULT_255_2_778
10
3.7592043
20
74.1343582
11
5.6592043
21
74.1343582
0
LINE
8
DEFAULT_255_2_778
10
50.7593043
20
9.8342582
11
50.7593043
21
9.1342582
0
LINE
8
DEFAULT_255_2_778
10
50.7593043
20
9.1342582
11
48.7593043
21
9.1342582
0
LINE
8
DEFAULT_255_2_778
10
48.7593043
20
9.1342582
11
48.7593043
21
7.3342582
0
LINE
8
DEFAULT_255_2_778
10
48.7593043
20
7.3342582
11
45.7592043
21
5.1342582
0
LINE
8
DEFAULT_255_2_778
10
45.7592043
20
5.1342582
11
40.7591043
21
5.1342582
0
LINE
8
DEFAULT_255_2_778
10
40.7591043
20
5.1342582
11
37.7590043
21
7.3342582
0
LINE
8
DEFAULT_255_2_778
10
37.7590043
20
7.3342582
11
37.7590043
21
9.1342582
0
LINE
8
DEFAULT_255_2_778
10
37.7590043
20
9.1342582
11
35.7590043
21
9.1342582
0
LINE
8
DEFAULT_255_2_778
10
35.7590043
20
9.1342582
11
35.7590043
21
9.8342582
0
LINE
8
DEFAULT_255_2_778
10
0.2592502
20
99.8344309
11
86.2591502
21
99.8344309
0
LINE
8
DEFAULT_255_2_778
10
86.2591502
20
99.8344309
11
86.2591502
21
-0.1656691
0
LINE
8
DEFAULT_255_2_778
10
86.2591502
20
-0.1656691
11
78.2592502
21
-0.1656691
0
LINE
8
DEFAULT_255_2_778
10
78.2592502
20
-0.1656691
11
74.2592502
21
3.8343309
0
LINE
8
DEFAULT_255_2_778
10
74.2592502
20
3.8343309
11
74.2592502
21
9.8343309
0
LINE
8
DEFAULT_255_2_778
10
5.7591502
20
81.0344309
11
5.7591502
21
72.3344309
0
LINE
8
DEFAULT_255_2_778
10
5.7591502
20
72.3344309
11
0.2592502
21
72.3344309
0
LINE
8
DEFAULT_255_2_778
10
0.2592502
20
37.3343309
11
5.7591502
21
37.3343309
0
LINE
8
DEFAULT_255_2_778
10
5.7591502
20
37.3343309
11
5.7591502
21
28.6342309
0
LINE
8
DEFAULT_255_2_778
10
80.7593043
20
81.0344993
11
80.7593043
21
72.3344993
0
LINE
8
DEFAULT_255_2_778
10
80.7593043
20
72.3344993
11
86.2592043
21
72.3344993
0
LINE
8
DEFAULT_255_2_778
10
3.7592043
20
72.3344993
11
3.7592043
21
37.3345993
0
LINE
8
DEFAULT_255_2_778
10
86.2592043
20
37.3342993
11
80.7593043
21
37.3342993
0
LINE
8
DEFAULT_255_2_778
10
80.7593043
20
37.3342993
11
80.7593043
21
28.6342993
0
LINE
8
DEFAULT_255_2_778
10
82.7592757
20
72.33439
11
82.7592757
21
37.33449
0
LINE
8
DEFAULT_255_2_778
10
33.9592757
20
32.68419
11
33.9592757
21
35.03419
0
LINE
8
DEFAULT_255_2_778
10
33.9592757
20
35.03419
11
31.5592757
21
35.03419
0
LINE
8
DEFAULT_255_2_778
10
31.5592757
20
35.03419
11
31.5592757
21
32.68419
0
LINE
8
DEFAULT_255_2_778
10
31.5592757
20
32.68419
11
33.9592757
21
32.68419
0
LINE
8
DEFAULT_255_2_778
10
60.5594757
20
74.63419
11
60.5594757
21
76.98419
0
LINE
8
DEFAULT_255_2_778
10
60.5594757
20
76.98419
11
58.1593757
21
76.98419
0
LINE
8
DEFAULT_255_2_778
10
58.1593757
20
76.98419
11
58.1593757
21
74.63419
0
LINE
8
DEFAULT_255_2_778
10
58.1593757
20
74.63419
11
60.5594757
21
74.63419
0
LINE
8
DEFAULT_255_2_778
10
46.7592823
20
76.9842146
11
49.1592823
21
76.9842146
0
LINE
8
DEFAULT_255_2_778
10
49.1592823
20
76.9842146
11
49.1592823
21
79.3342146
0
LINE
8
DEFAULT_255_2_778
10
49.1592823
20
79.3342146
11
46.7592823
21
79.3342146
0
LINE
8
DEFAULT_255_2_778
10
46.7592823
20
79.3342146
11
46.7592823
21
76.9842146
0
LINE
8
DEFAULT_255_2_778
10
69.5591823
20
35.0343146
11
69.5591823
21
32.6843146
0
LINE
8
DEFAULT_255_2_778
10
69.5591823
20
32.6843146
11
71.9591823
21
32.6843146
0
LINE
8
DEFAULT_255_2_778
10
71.9591823
20
32.6843146
11
71.9591823
21
35.0343146
0
LINE
8
DEFAULT_255_2_778
10
71.9591823
20
35.0343146
11
69.5591823
21
35.0343146
0
LINE
8
DEFAULT_255_2_778
10
39.1593823
20
32.6843146
11
41.5593823
21
32.6843146
0
LINE
8
DEFAULT_255_2_778
10
41.5593823
20
32.6843146
11
41.5593823
21
35.0343146
0
LINE
8
DEFAULT_255_2_778
10
41.5593823
20
35.0343146
11
39.1593823
21
35.0343146
0
LINE
8
DEFAULT_255_2_778
10
39.1593823
20
35.0343146
11
39.1593823
21
32.6843146
0
LINE
8
DEFAULT_255_2_778
10
64.3594043
20
79.3343046
11
61.9594043
21
79.3343046
0
LINE
8
DEFAULT_255_2_778
10
61.9594043
20
79.3343046
11
61.9594043
21
76.9843046
0
LINE
8
DEFAULT_255_2_778
10
61.9594043
20
76.9843046
11
64.3594043
21
76.9843046
0
LINE
8
DEFAULT_255_2_778
10
64.3594043
20
76.9843046
11
64.3594043
21
79.3343046
0
LINE
8
DEFAULT_255_2_778
10
56.7592043
20
35.0343046
11
54.3592043
21
35.0343046
0
LINE
8
DEFAULT_255_2_778
10
54.3592043
20
35.0343046
11
54.3592043
21
32.6843046
0
LINE
8
DEFAULT_255_2_778
10
54.3592043
20
32.6843046
11
56.7592043
21
32.6843046
0
LINE
8
DEFAULT_255_2_778
10
56.7592043
20
32.6843046
11
56.7592043
21
35.0343046
0
LINE
8
DEFAULT_255_2_778
10
46.7592823
20
35.0343146
11
46.7592823
21
32.6843146
0
LINE
8
DEFAULT_255_2_778
10
46.7592823
20
32.6843146
11
49.1592823
21
32.6843146
0
LINE
8
DEFAULT_255_2_778
10
49.1592823
20
32.6843146
11
49.1592823
21
35.0343146
0
LINE
8
DEFAULT_255_2_778
10
49.1592823
20
35.0343146
11
46.7592823
21
35.0343146
0
LINE
8
DEFAULT_255_2_778
10
39.1593823
20
76.9842146
11
41.5593823
21
76.9842146
0
LINE
8
DEFAULT_255_2_778
10
41.5593823
20
76.9842146
11
41.5593823
21
79.3342146
0
LINE
8
DEFAULT_255_2_778
10
41.5593823
20
79.3342146
11
39.1593823
21
79.3342146
0
LINE
8
DEFAULT_255_2_778
10
39.1593823
20
79.3342146
11
39.1593823
21
76.9842146
0
LINE
8
DEFAULT_255_2_778
10
37.7592043
20
76.9842146
11
35.3592043
21
76.9842146
0
LINE
8
DEFAULT_255_2_778
10
35.3592043
20
76.9842146
11
35.3592043
21
74.6342146
0
LINE
8
DEFAULT_255_2_778
10
35.3592043
20
74.6342146
11
37.7592043
21
74.6342146
0
LINE
8
DEFAULT_255_2_778
10
37.7592043
20
74.6342146
11
37.7592043
21
76.9842146
0
LINE
8
DEFAULT_255_2_778
10
45.3594043
20
74.6342146
11
45.3594043
21
76.9842146
0
LINE
8
DEFAULT_255_2_778
10
45.3594043
20
76.9842146
11
42.9594043
21
76.9842146
0
LINE
8
DEFAULT_255_2_778
10
42.9594043
20
76.9842146
11
42.9594043
21
74.6342146
0
LINE
8
DEFAULT_255_2_778
10
42.9594043
20
74.6342146
11
45.3594043
21
74.6342146
0
LINE
8
DEFAULT_255_2_778
10
54.3591823
20
76.9842146
11
56.7591823
21
76.9842146
0
LINE
8
DEFAULT_255_2_778
10
56.7591823
20
76.9842146
11
56.7591823
21
79.3342146
0
LINE
8
DEFAULT_255_2_778
10
56.7591823
20
79.3342146
11
54.3591823
21
79.3342146
0
LINE
8
DEFAULT_255_2_778
10
54.3591823
20
79.3342146
11
54.3591823
21
76.9842146
0
LINE
8
DEFAULT_255_2_778
10
61.9592823
20
35.0343146
11
61.9592823
21
32.6843146
0
LINE
8
DEFAULT_255_2_778
10
61.9592823
20
32.6843146
11
64.3592823
21
32.6843146
0
LINE
8
DEFAULT_255_2_778
10
64.3592823
20
32.6843146
11
64.3592823
21
35.0343146
0
LINE
8
DEFAULT_255_2_778
10
64.3592823
20
35.0343146
11
61.9592823
21
35.0343146
0
LINE
8
DEFAULT_255_2_778
10
52.9591823
20
74.6342146
11
52.9591823
21
76.9842146
0
LINE
8
DEFAULT_255_2_778
10
52.9591823
20
76.9842146
11
50.5591823
21
76.9842146
0
LINE
8
DEFAULT_255_2_778
10
50.5591823
20
76.9842146
11
50.5591823
21
74.6342146
0
LINE
8
DEFAULT_255_2_778
10
50.5591823
20
74.6342146
11
52.9591823
21
74.6342146
0
ARC
8
DEFAULT_255_2_778
10
78.3545257
20
24.3373042
40
2.7955804
50
160.6250898
51
180.0625339
0
ARC
8
DEFAULT_255_2_778
10
78.3619872
20
24.3304633
40
2.8048915
50
101.7948804
51
160.5438283
0
ARC
8
DEFAULT_255_2_778
10
78.3574381
20
24.3220172
40
2.8122362
50
89.9692581
51
101.6689794
0
ARC
8
DEFAULT_255_2_778
10
78.3619925
20
24.3389398
40
2.7953149
50
70.6241591
51
90.0624243
0
ARC
8
DEFAULT_255_2_778
10
78.3550398
20
24.3312195
40
2.8049073
50
11.7946723
51
70.542501
0
ARC
8
DEFAULT_255_2_778
10
78.3465921
20
24.335761
40
2.8122552
50
359.969278
51
11.6689198
0
ARC
8
DEFAULT_255_2_778
10
78.3635072
20
24.3312098
40
2.7953414
50
340.624302
51
0.0623774
0
ARC
8
DEFAULT_255_2_778
10
78.3558204
20
24.3381325
40
2.8048924
50
281.7959826
51
340.5429938
0
ARC
8
DEFAULT_255_2_778
10
78.3604528
20
24.3463015
40
2.8119488
50
269.9693166
51
281.6695586
0
ARC
8
DEFAULT_255_2_778
10
78.3558981
20
24.3299583
40
2.7956069
50
250.6252326
51
270.062487
0
ARC
8
DEFAULT_255_2_778
10
78.362709
20
24.3373864
40
2.8048766
50
191.7961906
51
250.5443211
0
ARC
8
DEFAULT_255_2_778
10
78.3708764
20
24.3327462
40
2.8119298
50
179.9692966
51
191.6696183
0
LINE
8
DEFAULT_255_2_778
10
79.419747
20
25.395053
11
77.298347
21
23.273553
0
LINE
8
DEFAULT_255_2_778
10
79.419747
20
23.273553
11
77.298347
21
25.395053
0
LINE
8
DEFAULT_255_2_778
10
75.558947
20
24.334253
11
75.558947
21
24.334253
0
ARC
8
DEFAULT_255_2_778
10
70.7546257
20
24.3373042
40
2.7955804
50
160.6250898
51
180.0625339
0
ARC
8
DEFAULT_255_2_778
10
70.7620872
20
24.3304633
40
2.8048915
50
101.7948804
51
160.5438283
0
ARC
8
DEFAULT_255_2_778
10
70.7575381
20
24.3220172
40
2.8122362
50
89.9692581
51
101.6689794
0
ARC
8
DEFAULT_255_2_778
10
70.7620925
20
24.3389398
40
2.7953149
50
70.6241591
51
90.0624243
0
ARC
8
DEFAULT_255_2_778
10
70.7551398
20
24.3312195
40
2.8049073
50
11.7946723
51
70.542501
0
ARC
8
DEFAULT_255_2_778
10
70.7466921
20
24.335761
40
2.8122552
50
359.969278
51
11.6689198
0
ARC
8
DEFAULT_255_2_778
10
70.7636072
20
24.3312098
40
2.7953414
50
340.624302
51
0.0623774
0
ARC
8
DEFAULT_255_2_778
10
70.7559204
20
24.3381325
40
2.8048924
50
281.7959826
51
340.5429938
0
ARC
8
DEFAULT_255_2_778
10
70.7605528
20
24.3463015
40
2.8119488
50
269.9693166
51
281.6695586
0
ARC
8
DEFAULT_255_2_778
10
70.7559981
20
24.3299583
40
2.7956069
50
250.6252326
51
270.062487
0
ARC
8
DEFAULT_255_2_778
10
70.762809
20
24.3373864
40
2.8048766
50
191.7961906
51
250.5443211
0
ARC
8
DEFAULT_255_2_778
10
70.7709764
20
24.3327462
40
2.8119298
50
179.9692966
51
191.6696183
0
LINE
8
DEFAULT_255_2_778
10
71.819847
20
25.395053
11
69.698447
21
23.273553
0
LINE
8
DEFAULT_255_2_778
10
71.819847
20
23.273553
11
69.698447
21
25.395053
0
LINE
8
DEFAULT_255_2_778
10
67.959047
20
24.334253
11
67.959047
21
24.334253
0
ARC
8
DEFAULT_255_2_778
10
74.5545257
20
15.3372042
40
2.7955804
50
160.6250898
51
180.0625339
0
ARC
8
DEFAULT_255_2_778
10
74.5619872
20
15.3303633
40
2.8048915
50
101.7948804
51
160.5438283
0
ARC
8
DEFAULT_255_2_778
10
74.5574381
20
15.3219172
40
2.8122362
50
89.9692581
51
101.6689794
0
ARC
8
DEFAULT_255_2_778
10
74.5619925
20
15.3388398
40
2.7953149
50
70.6241591
51
90.0624243
0
ARC
8
DEFAULT_255_2_778
10
74.5550398
20
15.3311195
40
2.8049073
50
11.7946723
51
70.542501
0
ARC
8
DEFAULT_255_2_778
10
74.5465921
20
15.335661
40
2.8122552
50
359.969278
51
11.6689198
0
ARC
8
DEFAULT_255_2_778
10
74.5635072
20
15.3311098
40
2.7953414
50
340.624302
51
0.0623774
0
ARC
8
DEFAULT_255_2_778
10
74.5558204
20
15.3380325
40
2.8048924
50
281.7959826
51
340.5429938
0
ARC
8
DEFAULT_255_2_778
10
74.5604528
20
15.3462015
40
2.8119488
50
269.9693166
51
281.6695586
0
ARC
8
DEFAULT_255_2_778
10
74.5558981
20
15.3298583
40
2.7956069
50
250.6252326
51
270.062487
0
ARC
8
DEFAULT_255_2_778
10
74.562709
20
15.3372864
40
2.8048766
50
191.7961906
51
250.5443211
0
ARC
8
DEFAULT_255_2_778
10
74.5708764
20
15.3326462
40
2.8119298
50
179.9692966
51
191.6696183
0
LINE
8
DEFAULT_255_2_778
10
75.619747
20
16.394953
11
73.498347
21
14.273453
0
LINE
8
DEFAULT_255_2_778
10
75.619747
20
14.273453
11
73.498347
21
16.394953
0
LINE
8
DEFAULT_255_2_778
10
71.758947
20
15.334153
11
71.758947
21
15.334153
0
ARC
8
DEFAULT_255_2_778
10
66.9546257
20
15.3372042
40
2.7955804
50
160.6250898
51
180.0625339
0
ARC
8
DEFAULT_255_2_778
10
66.9620872
20
15.3303633
40
2.8048915
50
101.7948804
51
160.5438283
0
ARC
8
DEFAULT_255_2_778
10
66.9575381
20
15.3219172
40
2.8122362
50
89.9692581
51
101.6689794
0
ARC
8
DEFAULT_255_2_778
10
66.9620925
20
15.3388398
40
2.7953149
50
70.6241591
51
90.0624243
0
ARC
8
DEFAULT_255_2_778
10
66.9551398
20
15.3311195
40
2.8049073
50
11.7946723
51
70.542501
0
ARC
8
DEFAULT_255_2_778
10
66.9466921
20
15.335661
40
2.8122552
50
359.969278
51
11.6689198
0
ARC
8
DEFAULT_255_2_778
10
66.9636072
20
15.3311098
40
2.7953414
50
340.624302
51
0.0623774
0
ARC
8
DEFAULT_255_2_778
10
66.9559204
20
15.3380325
40
2.8048924
50
281.7959826
51
340.5429938
0
ARC
8
DEFAULT_255_2_778
10
66.9605528
20
15.3462015
40
2.8119488
50
269.9693166
51
281.6695586
0
ARC
8
DEFAULT_255_2_778
10
66.9559981
20
15.3298583
40
2.7956069
50
250.6252326
51
270.062487
0
ARC
8
DEFAULT_255_2_778
10
66.962809
20
15.3372864
40
2.8048766
50
191.7961906
51
250.5443211
0
ARC
8
DEFAULT_255_2_778
10
66.9709764
20
15.3326462
40
2.8119298
50
179.9692966
51
191.6696183
0
LINE
8
DEFAULT_255_2_778
10
68.019847
20
16.394953
11
65.898447
21
14.273453
0
LINE
8
DEFAULT_255_2_778
10
68.019847
20
14.273453
11
65.898447
21
16.394953
0
LINE
8
DEFAULT_255_2_778
10
64.159047
20
15.334153
11
64.159047
21
15.334153
0
ARC
8
DEFAULT_255_2_778
10
78.3545257
20
94.3373042
40
2.7955804
50
160.6250898
51
180.0625339
0
ARC
8
DEFAULT_255_2_778
10
78.3619872
20
94.3304633
40
2.8048915
50
101.7948804
51
160.5438283
0
ARC
8
DEFAULT_255_2_778
10
78.3574381
20
94.3220172
40
2.8122362
50
89.9692581
51
101.6689794
0
ARC
8
DEFAULT_255_2_778
10
78.3619925
20
94.3389398
40
2.7953149
50
70.6241591
51
90.0624243
0
ARC
8
DEFAULT_255_2_778
10
78.3550398
20
94.3312195
40
2.8049073
50
11.7946723
51
70.542501
0
ARC
8
DEFAULT_255_2_778
10
78.3465921
20
94.335761
40
2.8122552
50
359.969278
51
11.6689198
0
ARC
8
DEFAULT_255_2_778
10
78.3635072
20
94.3312098
40
2.7953414
50
340.624302
51
0.0623774
0
ARC
8
DEFAULT_255_2_778
10
78.3558204
20
94.3381325
40
2.8048924
50
281.7959826
51
340.5429938
0
ARC
8
DEFAULT_255_2_778
10
78.3604528
20
94.3463015
40
2.8119488
50
269.9693166
51
281.6695586
0
ARC
8
DEFAULT_255_2_778
10
78.3558981
20
94.3299583
40
2.7956069
50
250.6252326
51
270.062487
0
ARC
8
DEFAULT_255_2_778
10
78.362709
20
94.3373864
40
2.8048766
50
191.7961906
51
250.5443211
0
ARC
8
DEFAULT_255_2_778
10
78.3708764
20
94.3327462
40
2.8119298
50
179.9692966
51
191.6696183
0
LINE
8
DEFAULT_255_2_778
10
79.419747
20
95.395053
11
77.298347
21
93.273553
0
LINE
8
DEFAULT_255_2_778
10
79.419747
20
93.273553
11
77.298347
21
95.395053
0
LINE
8
DEFAULT_255_2_778
10
75.558947
20
94.334253
11
75.558947
21
94.334253
0
ARC
8
DEFAULT_255_2_778
10
70.7546257
20
94.3373042
40
2.7955804
50
160.6250898
51
180.0625339
0
ARC
8
DEFAULT_255_2_778
10
70.7620872
20
94.3304633
40
2.8048915
50
101.7948804
51
160.5438283
0
ARC
8
DEFAULT_255_2_778
10
70.7575381
20
94.3220172
40
2.8122362
50
89.9692581
51
101.6689794
0
ARC
8
DEFAULT_255_2_778
10
70.7620925
20
94.3389398
40
2.7953149
50
70.6241591
51
90.0624243
0
ARC
8
DEFAULT_255_2_778
10
70.7551398
20
94.3312195
40
2.8049073
50
11.7946723
51
70.542501
0
ARC
8
DEFAULT_255_2_778
10
70.7466921
20
94.335761
40
2.8122552
50
359.969278
51
11.6689198
0
ARC
8
DEFAULT_255_2_778
10
70.7636072
20
94.3312098
40
2.7953414
50
340.624302
51
0.0623774
0
ARC
8
DEFAULT_255_2_778
10
70.7559204
20
94.3381325
40
2.8048924
50
281.7959826
51
340.5429938
0
ARC
8
DEFAULT_255_2_778
10
70.7605528
20
94.3463015
40
2.8119488
50
269.9693166
51
281.6695586
0
ARC
8
DEFAULT_255_2_778
10
70.7559981
20
94.3299583
40
2.7956069
50
250.6252326
51
270.062487
0
ARC
8
DEFAULT_255_2_778
10
70.762809
20
94.3373864
40
2.8048766
50
191.7961906
51
250.5443211
0
ARC
8
DEFAULT_255_2_778
10
70.7709764
20
94.3327462
40
2.8119298
50
179.9692966
51
191.6696183
0
LINE
8
DEFAULT_255_2_778
10
71.819847
20
95.395053
11
69.698447
21
93.273553
0
LINE
8
DEFAULT_255_2_778
10
71.819847
20
93.273553
11
69.698447
21
95.395053
0
LINE
8
DEFAULT_255_2_778
10
67.959047
20
94.334253
11
67.959047
21
94.334253
0
ARC
8
DEFAULT_255_2_778
10
74.5545257
20
85.3372042
40
2.7955804
50
160.6250898
51
180.0625339
0
ARC
8
DEFAULT_255_2_778
10
74.5619872
20
85.3303633
40
2.8048915
50
101.7948804
51
160.5438283
0
ARC
8
DEFAULT_255_2_778
10
74.5574381
20
85.3219172
40
2.8122362
50
89.9692581
51
101.6689794
0
ARC
8
DEFAULT_255_2_778
10
74.5619925
20
85.3388398
40
2.7953149
50
70.6241591
51
90.0624243
0
ARC
8
DEFAULT_255_2_778
10
74.5550398
20
85.3311195
40
2.8049073
50
11.7946723
51
70.542501
0
ARC
8
DEFAULT_255_2_778
10
74.5465921
20
85.335661
40
2.8122552
50
359.969278
51
11.6689198
0
ARC
8
DEFAULT_255_2_778
10
74.5635072
20
85.3311098
40
2.7953414
50
340.624302
51
0.0623774
0
ARC
8
DEFAULT_255_2_778
10
74.5558204
20
85.3380325
40
2.8048924
50
281.7959826
51
340.5429938
0
ARC
8
DEFAULT_255_2_778
10
74.5604528
20
85.3462015
40
2.8119488
50
269.9693166
51
281.6695586
0
ARC
8
DEFAULT_255_2_778
10
74.5558981
20
85.3298583
40
2.7956069
50
250.6252326
51
270.062487
0
ARC
8
DEFAULT_255_2_778
10
74.562709
20
85.3372864
40
2.8048766
50
191.7961906
51
250.5443211
0
ARC
8
DEFAULT_255_2_778
10
74.5708764
20
85.3326462
40
2.8119298
50
179.9692966
51
191.6696183
0
LINE
8
DEFAULT_255_2_778
10
75.619747
20
86.394953
11
73.498347
21
84.273453
0
LINE
8
DEFAULT_255_2_778
10
75.619747
20
84.273453
11
73.498347
21
86.394953
0
LINE
8
DEFAULT_255_2_778
10
71.758947
20
85.334153
11
71.758947
21
85.334153
0
ARC
8
DEFAULT_255_2_778
10
66.9546257
20
85.3372042
40
2.7955804
50
160.6250898
51
180.0625339
0
ARC
8
DEFAULT_255_2_778
10
66.9620872
20
85.3303633
40
2.8048915
50
101.7948804
51
160.5438283
0
ARC
8
DEFAULT_255_2_778
10
66.9575381
20
85.3219172
40
2.8122362
50
89.9692581
51
101.6689794
0
ARC
8
DEFAULT_255_2_778
10
66.9620925
20
85.3388398
40
2.7953149
50
70.6241591
51
90.0624243
0
ARC
8
DEFAULT_255_2_778
10
66.9551398
20
85.3311195
40
2.8049073
50
11.7946723
51
70.542501
0
ARC
8
DEFAULT_255_2_778
10
66.9466921
20
85.335661
40
2.8122552
50
359.969278
51
11.6689198
0
ARC
8
DEFAULT_255_2_778
10
66.9636072
20
85.3311098
40
2.7953414
50
340.624302
51
0.0623774
0
ARC
8
DEFAULT_255_2_778
10
66.9559204
20
85.3380325
40
2.8048924
50
281.7959826
51
340.5429938
0
ARC
8
DEFAULT_255_2_778
10
66.9605528
20
85.3462015
40
2.8119488
50
269.9693166
51
281.6695586
0
ARC
8
DEFAULT_255_2_778
10
66.9559981
20
85.3298583
40
2.7956069
50
250.6252326
51
270.062487
0
ARC
8
DEFAULT_255_2_778
10
66.962809
20
85.3372864
40
2.8048766
50
191.7961906
51
250.5443211
0
ARC
8
DEFAULT_255_2_778
10
66.9709764
20
85.3326462
40
2.8119298
50
179.9692966
51
191.6696183
0
LINE
8
DEFAULT_255_2_778
10
68.019847
20
86.394953
11
65.898447
21
84.273453
0
LINE
8
DEFAULT_255_2_778
10
68.019847
20
84.273453
11
65.898447
21
86.394953
0
LINE
8
DEFAULT_255_2_778
10
64.159047
20
85.334153
11
64.159047
21
85.334153
0
LINE
8
DEFAULT_255_2_778
10
45.6594409
20
38.7842301
11
45.6594409
21
36.1841301
0
LINE
8
DEFAULT_255_2_778
10
45.6594409
20
36.1841301
11
61.6593409
21
36.1841301
0
LINE
8
DEFAULT_255_2_778
10
61.6593409
20
36.1841301
11
61.6593409
21
38.7842301
0
LINE
8
DEFAULT_255_2_778
10
43.6594409
20
36.8845301
11
43.6594409
21
40.3844301
0
LINE
8
DEFAULT_255_2_778
10
43.6594409
20
40.3844301
11
63.6595409
21
40.3844301
0
LINE
8
DEFAULT_255_2_778
10
63.6595409
20
40.3844301
11
63.6595409
21
36.8845301
0
LINE
8
DEFAULT_255_2_778
10
43.6594409
20
38.7842516
11
63.6595409
21
38.7842516
0
LINE
8
DEFAULT_255_2_778
10
45.6594409
20
70.8842516
11
45.6594409
21
73.4843516
0
LINE
8
DEFAULT_255_2_778
10
45.6594409
20
73.4843516
11
61.6593409
21
73.4843516
0
LINE
8
DEFAULT_255_2_778
10
61.6593409
20
73.4843516
11
61.6593409
21
70.8842516
0
LINE
8
DEFAULT_255_2_778
10
43.6594409
20
72.7842541
11
43.6594409
21
69.2843541
0
LINE
8
DEFAULT_255_2_778
10
43.6594409
20
69.2843541
11
63.6595409
21
69.2843541
0
LINE
8
DEFAULT_255_2_778
10
63.6595409
20
69.2843541
11
63.6595409
21
72.7842541
0
LINE
8
DEFAULT_255_2_778
10
63.65949
20
70.8842255
11
43.65939
21
70.8842255
0
LINE
8
DEFAULT_255_2_778
10
61.65929
20
36.6341255
11
71.85919
21
36.6341255
0
LINE
8
DEFAULT_255_2_778
10
71.85919
20
36.6341255
11
71.85919
21
71.0342255
0
LINE
8
DEFAULT_255_2_778
10
71.85919
20
71.0342255
11
69.85919
21
73.0342255
0
LINE
8
DEFAULT_255_2_778
10
69.85919
20
73.0342255
11
61.65929
21
73.0342255
0
LINE
8
DEFAULT_255_2_778
10
61.6592267
20
36.8842255
11
71.6091267
21
36.8842255
0
LINE
8
DEFAULT_255_2_778
10
71.6091267
20
36.8842255
11
71.6091267
21
70.7842255
0
LINE
8
DEFAULT_255_2_778
10
71.6091267
20
70.7842255
11
69.6092267
21
72.7842255
0
LINE
8
DEFAULT_255_2_778
10
69.6092267
20
72.7842255
11
61.6592267
21
72.7842255
0
LINE
8
DEFAULT_255_2_778
10
28.4593267
20
44.2343255
11
28.4593267
21
46.4343255
0
LINE
8
DEFAULT_255_2_778
10
28.4593267
20
46.4343255
11
25.4592267
21
46.4343255
0
LINE
8
DEFAULT_255_2_778
10
25.4592267
20
46.4343255
11
25.4592267
21
44.2343255
0
LINE
8
DEFAULT_255_2_778
10
25.4592267
20
44.2343255
11
28.4593267
21
44.2343255
0
LINE
8
DEFAULT_255_2_778
10
28.4593267
20
50.2343255
11
25.4592267
21
50.2343255
0
LINE
8
DEFAULT_255_2_778
10
25.4592267
20
50.2343255
11
25.4592267
21
48.0343255
0
LINE
8
DEFAULT_255_2_778
10
25.4592267
20
48.0343255
11
28.4593267
21
48.0343255
0
LINE
8
DEFAULT_255_2_778
10
28.4593267
20
48.0343255
11
28.4593267
21
50.2343255
0
LINE
8
DEFAULT_255_2_778
10
25.4592267
20
51.8342255
11
28.4593267
21
51.8342255
0
LINE
8
DEFAULT_255_2_778
10
28.4593267
20
51.8342255
11
28.4593267
21
54.0342255
0
LINE
8
DEFAULT_255_2_778
10
28.4593267
20
54.0342255
11
25.4592267
21
54.0342255
0
LINE
8
DEFAULT_255_2_778
10
25.4592267
20
54.0342255
11
25.4592267
21
51.8342255
0
LINE
8
DEFAULT_255_2_778
10
28.4593267
20
59.4344255
11
28.4593267
21
61.6344255
0
LINE
8
DEFAULT_255_2_778
10
28.4593267
20
61.6344255
11
25.4592267
21
61.6344255
0
LINE
8
DEFAULT_255_2_778
10
25.4592267
20
61.6344255
11
25.4592267
21
59.4344255
0
LINE
8
DEFAULT_255_2_778
10
25.4592267
20
59.4344255
11
28.4593267
21
59.4344255
0
LINE
8
DEFAULT_255_2_778
10
28.4593267
20
57.8342255
11
25.4592267
21
57.8342255
0
LINE
8
DEFAULT_255_2_778
10
25.4592267
20
57.8342255
11
25.4592267
21
55.6341255
0
LINE
8
DEFAULT_255_2_778
10
25.4592267
20
55.6341255
11
28.4593267
21
55.6341255
0
LINE
8
DEFAULT_255_2_778
10
28.4593267
20
55.6341255
11
28.4593267
21
57.8342255
0
LINE
8
DEFAULT_255_2_778
10
25.4592267
20
63.2343255
11
28.4593267
21
63.2343255
0
LINE
8
DEFAULT_255_2_778
10
28.4593267
20
63.2343255
11
28.4593267
21
65.4343255
0
LINE
8
DEFAULT_255_2_778
10
28.4593267
20
65.4343255
11
25.4592267
21
65.4343255
0
LINE
8
DEFAULT_255_2_778
10
25.4592267
20
65.4343255
11
25.4592267
21
63.2343255
0
LINE
8
DEFAULT_255_2_778
10
45.6591267
20
73.0342255
11
35.4591267
21
73.0342255
0
LINE
8
DEFAULT_255_2_778
10
35.4591267
20
73.0342255
11
35.4591267
21
36.6341255
0
LINE
8
DEFAULT_255_2_778
10
35.4591267
20
36.6341255
11
45.6591267
21
36.6341255
0
LINE
8
DEFAULT_255_2_778
10
45.6591267
20
72.7842255
11
35.7092267
21
72.7842255
0
LINE
8
DEFAULT_255_2_778
10
35.7092267
20
72.7842255
11
35.7092267
21
36.8842255
0
LINE
8
DEFAULT_255_2_778
10
35.7092267
20
36.8842255
11
45.6591267
21
36.8842255
0
LINE
8
DEFAULT_255_2_778
10
6.2592062
20
29.1343368
11
80.2592062
21
29.1343368
0
LINE
8
DEFAULT_255_2_778
10
80.2592062
20
29.1343368
11
80.2592062
21
80.5344368
0
LINE
8
DEFAULT_255_2_778
10
80.2592062
20
80.5344368
11
6.2592062
21
80.5344368
0
LINE
8
DEFAULT_255_2_778
10
6.2592062
20
80.5344368
11
6.2592062
21
29.1343368
0
LINE
8
DEFAULT_255_2_778
10
86.2591502
20
9.8342309
11
0.2592502
21
9.8342309
0
LINE
8
DEFAULT_255_2_778
10
0.2592502
20
9.8342309
11
0.2592502
21
109.8343309
0
LINE
8
DEFAULT_255_2_778
10
0.2592502
20
109.8343309
11
8.2591502
21
109.8343309
0
LINE
8
DEFAULT_255_2_778
10
8.2591502
20
109.8343309
11
12.2591502
21
105.8343309
0
LINE
8
DEFAULT_255_2_778
10
12.2591502
20
105.8343309
11
12.2591502
21
99.8344309
0
LINE
8
DEFAULT_255_2_778
10
80.7593635
20
74.3844348
11
80.8593635
21
74.3844348
0
LINE
8
DEFAULT_255_2_778
10
80.8593635
20
76.2844348
11
80.7593635
21
76.2844348
0
LINE
8
DEFAULT_255_2_778
10
5.7594635
20
76.2844348
11
5.6594635
21
76.2844348
0
LINE
8
DEFAULT_255_2_778
10
5.6594635
20
74.3844348
11
5.7594635
21
74.3844348
0
LINE
8
DEFAULT_255_2_778
10
80.7593635
20
33.3843348
11
80.8593635
21
33.3843348
0
ARC
8
DEFAULT_255_2_778
10
81.7654809
20
4.8316681
40
2.2439199
50
337.803709
51
0.0729885
0
ARC
8
DEFAULT_255_2_778
10
81.7575804
20
4.8370257
40
2.2532599
50
280.1068603
51
337.7534673
0
ARC
8
DEFAULT_255_2_778
10
81.760346
20
4.8486358
40
2.2642095
50
269.9760355
51
279.9864059
0
ARC
8
DEFAULT_255_2_778
10
80.7530924
20
4.8316667
40
2.2438952
50
179.9269747
51
202.1965098
0
ARC
8
DEFAULT_255_2_778
10
80.7610729
20
4.8370968
40
2.2533366
50
202.2476884
51
259.7582591
0
ARC
8
DEFAULT_255_2_778
10
80.7583288
20
4.8485919
40
2.2641656
50
259.8783136
51
270.0245516
0
LINE
8
DEFAULT_255_2_778
10
80.859299
20
35.2843266
11
80.759299
21
35.2843266
0
LINE
8
DEFAULT_255_2_778
10
5.759399
20
35.2843266
11
5.659399
21
35.2843266
0
LINE
8
DEFAULT_255_2_778
10
5.659399
20
33.3843266
11
5.759399
21
33.3843266
0
LINE
8
DEFAULT_255_2_778
10
81.759399
20
2.5844266
11
81.259299
21
2.5844266
0
LINE
8
DEFAULT_255_2_778
10
80.759299
20
2.5844266
11
81.259299
21
2.5844266
0
ARC
8
DEFAULT_255_2_778
10
81.7656577
20
4.8371045
40
2.2438099
50
359.9268356
51
22.196844
0
ARC
8
DEFAULT_255_2_778
10
81.7576969
20
4.8316692
40
2.253235
50
22.2483356
51
79.7586841
0
ARC
8
DEFAULT_255_2_778
10
81.7604376
20
4.8202092
40
2.2640302
50
79.8785003
51
90.024595
0
ARC
8
DEFAULT_255_2_778
10
80.7530738
20
4.8371045
40
2.2438099
50
157.803156
51
180.0731644
0
ARC
8
DEFAULT_255_2_778
10
80.7610345
20
4.8316692
40
2.253235
50
100.2413159
51
157.7516644
0
ARC
8
DEFAULT_255_2_778
10
80.7582938
20
4.8202092
40
2.2640302
50
89.975405
51
100.1214997
0
ARC
8
DEFAULT_255_2_778
10
5.2558307
20
104.8299552
40
2.2543868
50
89.9101572
51
111.7613949
0
ARC
8
DEFAULT_255_2_778
10
5.2548487
20
104.8392773
40
2.2453665
50
111.826312
51
169.5454888
0
ARC
8
DEFAULT_255_2_778
10
5.2888776
20
104.8355279
40
2.2795122
50
169.6080143
51
180.0298779
0
ARC
8
DEFAULT_255_2_778
10
5.2558243
20
104.8388593
40
2.2545229
50
248.2401607
51
270.0899995
0
ARC
8
DEFAULT_255_2_778
10
5.2547431
20
104.8293054
40
2.2452504
50
190.46182
51
248.1754031
0
ARC
8
DEFAULT_255_2_778
10
5.2891321
20
104.8331478
40
2.2797667
50
179.9700565
51
190.3998477
0
ARC
8
DEFAULT_255_2_778
10
5.2629143
20
104.8298105
40
2.2545315
50
68.2393107
51
90.0901832
0
ARC
8
DEFAULT_255_2_778
10
5.2639712
20
104.8393658
40
2.2452669
50
10.452684
51
68.1739611
0
ARC
8
DEFAULT_255_2_778
10
5.2296375
20
104.8355268
40
2.2797285
50
359.9701533
51
10.3910176
0
ARC
8
DEFAULT_255_2_778
10
5.2629207
20
104.839004
40
2.2546676
50
269.9096602
51
291.7591338
0
ARC
8
DEFAULT_255_2_778
10
5.2640774
20
104.8292159
40
2.2451496
50
291.8243171
51
349.5464435
0
ARC
8
DEFAULT_255_2_778
10
5.2294138
20
104.833146
40
2.2799523
50
349.6073717
51
0.0299867
0
LINE
8
DEFAULT_255_2_778
10
81.7594657
20
7.0842392
11
81.2593657
21
7.0842392
0
LINE
8
DEFAULT_255_2_778
10
80.7592657
20
7.0842392
11
81.2593657
21
7.0842392
0
ENDSEC
0
EOF