0
SECTION
2
HEADER
9
$MEASUREMENT
70
1
0
ENDSEC
0
SECTION
2
TABLES
0
TABLE
2
LTYPE
0
LTYPE
72
65
70
64
2
CONTINUOUS
3
______
73
0
40
0
0
ENDTAB
0
TABLE
2
LAYER
0
LAYER
2
DEFAULT_255_2_778
70
0
62
255
6
CONTINUOUS
0
ENDTAB
0
ENDSEC
0
SECTION
2
ENTITIES
0
LINE
8
DEFAULT_255_2_778
10
13.1915655
20
99.8341798
11
13.1915655
21
100.3342798
0
LINE
8
DEFAULT_255_2_778
10
13.1915655
20
100.3342798
11
5.9914655
21
100.3342798
0
LINE
8
DEFAULT_255_2_778
10
5.9914655
20
100.3342798
11
5.9914655
21
99.8341798
0
LINE
8
DEFAULT_255_2_778
10
144.7415655
20
74.1344798
11
146.6415655
21
74.1344798
0
LINE
8
DEFAULT_255_2_778
10
146.6415655
20
74.1344798
11
148.3915655
21
73.1342798
0
LINE
8
DEFAULT_255_2_778
10
150.1415198
20
73.1345486
11
144.7416198
21
73.1345486
0
LINE
8
DEFAULT_255_2_778
10
144.7416198
20
73.1345486
11
144.7416198
21
81.0344486
0
LINE
8
DEFAULT_255_2_778
10
144.7416198
20
81.0344486
11
5.5414198
21
81.0344486
0
LINE
8
DEFAULT_255_2_778
10
5.5414198
20
81.0344486
11
5.5414198
21
73.1345486
0
LINE
8
DEFAULT_255_2_778
10
5.5414198
20
73.1345486
11
0.1415198
21
73.1345486
0
LINE
8
DEFAULT_255_2_778
10
150.1415198
20
99.8344486
11
0.1415198
21
99.8344486
0
LINE
8
DEFAULT_255_2_778
10
1.8915521
20
73.1343327
11
3.6414521
21
74.1344327
0
LINE
8
DEFAULT_255_2_778
10
3.6414521
20
74.1344327
11
5.5414521
21
74.1344327
0
LINE
8
DEFAULT_255_2_778
10
0.1415521
20
36.5345327
11
5.5414521
21
36.5345327
0
LINE
8
DEFAULT_255_2_778
10
5.5414521
20
36.5345327
11
5.5414521
21
28.6345327
0
LINE
8
DEFAULT_255_2_778
10
5.5414521
20
28.6345327
11
144.7413521
21
28.6345327
0
LINE
8
DEFAULT_255_2_778
10
144.7413521
20
28.6345327
11
144.7413521
21
36.5345327
0
LINE
8
DEFAULT_255_2_778
10
144.7413521
20
36.5345327
11
150.1412521
21
36.5345327
0
LINE
8
DEFAULT_255_2_778
10
5.5414521
20
35.5343327
11
3.6414521
21
35.5343327
0
LINE
8
DEFAULT_255_2_778
10
3.6414521
20
35.5343327
11
1.8915521
21
36.5345327
0
LINE
8
DEFAULT_255_2_778
10
148.3915198
20
36.5344809
11
146.6416198
21
35.5343809
0
LINE
8
DEFAULT_255_2_778
10
146.6416198
20
35.5343809
11
144.7416198
21
35.5343809
0
LINE
8
DEFAULT_255_2_778
10
0.1415198
20
9.8342809
11
150.1415198
21
9.8342809
0
LINE
8
DEFAULT_255_2_778
10
44.6415565
20
9.8343291
11
44.6415565
21
9.1342291
0
LINE
8
DEFAULT_255_2_778
10
44.6415565
20
9.1342291
11
42.6415565
21
9.1342291
0
LINE
8
DEFAULT_255_2_778
10
42.6415565
20
9.1342291
11
42.6415565
21
7.3343291
0
LINE
8
DEFAULT_255_2_778
10
42.6415565
20
7.3343291
11
39.6414565
21
5.1342291
0
LINE
8
DEFAULT_255_2_778
10
39.6414565
20
5.1342291
11
34.6413565
21
5.1342291
0
LINE
8
DEFAULT_255_2_778
10
34.6413565
20
5.1342291
11
31.6412565
21
7.3343291
0
LINE
8
DEFAULT_255_2_778
10
31.6412565
20
7.3343291
11
31.6412565
21
9.1342291
0
LINE
8
DEFAULT_255_2_778
10
31.6412565
20
9.1342291
11
29.6412565
21
9.1342291
0
LINE
8
DEFAULT_255_2_778
10
29.6412565
20
9.1342291
11
29.6412565
21
9.8343291
0
LINE
8
DEFAULT_255_2_778
10
120.6415565
20
9.8343291
11
120.6415565
21
9.1342291
0
LINE
8
DEFAULT_255_2_778
10
120.6415565
20
9.1342291
11
118.6415565
21
9.1342291
0
LINE
8
DEFAULT_255_2_778
10
118.6415565
20
9.1342291
11
118.6415565
21
7.3343291
0
LINE
8
DEFAULT_255_2_778
10
118.6415565
20
7.3343291
11
115.6414565
21
5.1342291
0
LINE
8
DEFAULT_255_2_778
10
115.6414565
20
5.1342291
11
110.6413565
21
5.1342291
0
LINE
8
DEFAULT_255_2_778
10
110.6413565
20
5.1342291
11
107.6412565
21
7.3343291
0
LINE
8
DEFAULT_255_2_778
10
107.6412565
20
7.3343291
11
107.6412565
21
9.1342291
0
LINE
8
DEFAULT_255_2_778
10
107.6412565
20
9.1342291
11
105.6412565
21
9.1342291
0
LINE
8
DEFAULT_255_2_778
10
105.6412565
20
9.1342291
11
105.6412565
21
9.8343291
0
LINE
8
DEFAULT_255_2_778
10
0.1415666
20
37.3342993
11
5.6414666
21
37.3342993
0
LINE
8
DEFAULT_255_2_778
10
5.6414666
20
37.3342993
11
5.6414666
21
28.6342993
0
LINE
8
DEFAULT_255_2_778
10
144.6416666
20
37.3342993
11
144.6416666
21
28.6342993
0
LINE
8
DEFAULT_255_2_778
10
144.6416666
20
81.0344993
11
144.6416666
21
72.3344993
0
LINE
8
DEFAULT_255_2_778
10
5.6414532
20
81.0345145
11
5.6414532
21
72.3345145
0
LINE
8
DEFAULT_255_2_778
10
5.6414532
20
72.3345145
11
0.1415532
21
72.3345145
0
LINE
8
DEFAULT_255_2_778
10
99.4414823
20
32.6842146
11
99.4414823
21
30.3342146
0
LINE
8
DEFAULT_255_2_778
10
99.4414823
20
30.3342146
11
101.8414823
21
30.3342146
0
LINE
8
DEFAULT_255_2_778
10
101.8414823
20
30.3342146
11
101.8414823
21
32.6842146
0
LINE
8
DEFAULT_255_2_778
10
101.8414823
20
32.6842146
11
99.4414823
21
32.6842146
0
LINE
8
DEFAULT_255_2_778
10
76.6415956
20
76.9842146
11
79.0415956
21
76.9842146
0
LINE
8
DEFAULT_255_2_778
10
79.0415956
20
76.9842146
11
79.0415956
21
79.3342146
0
LINE
8
DEFAULT_255_2_778
10
79.0415956
20
79.3342146
11
76.6415956
21
79.3342146
0
LINE
8
DEFAULT_255_2_778
10
76.6415956
20
79.3342146
11
76.6415956
21
76.9842146
0
LINE
8
DEFAULT_255_2_778
10
139.8414823
20
32.6842146
11
137.4414823
21
32.6842146
0
LINE
8
DEFAULT_255_2_778
10
137.4414823
20
32.6842146
11
137.4414823
21
30.3342146
0
LINE
8
DEFAULT_255_2_778
10
137.4414823
20
30.3342146
11
139.8414823
21
30.3342146
0
LINE
8
DEFAULT_255_2_778
10
139.8414823
20
30.3342146
11
139.8414823
21
32.6842146
0
LINE
8
DEFAULT_255_2_778
10
65.2414823
20
76.9845146
11
65.2414823
21
74.6345146
0
LINE
8
DEFAULT_255_2_778
10
65.2414823
20
74.6345146
11
67.6414823
21
74.6345146
0
LINE
8
DEFAULT_255_2_778
10
67.6414823
20
74.6345146
11
67.6414823
21
76.9845146
0
LINE
8
DEFAULT_255_2_778
10
67.6414823
20
76.9845146
11
65.2414823
21
76.9845146
0
LINE
8
DEFAULT_255_2_778
10
63.8415823
20
76.9842146
11
63.8415823
21
79.3342146
0
LINE
8
DEFAULT_255_2_778
10
63.8415823
20
79.3342146
11
61.4415823
21
79.3342146
0
LINE
8
DEFAULT_255_2_778
10
61.4415823
20
79.3342146
11
61.4415823
21
76.9842146
0
LINE
8
DEFAULT_255_2_778
10
61.4415823
20
76.9842146
11
63.8415823
21
76.9842146
0
LINE
8
DEFAULT_255_2_778
10
91.8416823
20
32.6842146
11
91.8416823
21
30.3342146
0
LINE
8
DEFAULT_255_2_778
10
91.8416823
20
30.3342146
11
94.2416823
21
30.3342146
0
LINE
8
DEFAULT_255_2_778
10
94.2416823
20
30.3342146
11
94.2416823
21
32.6842146
0
LINE
8
DEFAULT_255_2_778
10
94.2416823
20
32.6842146
11
91.8416823
21
32.6842146
0
LINE
8
DEFAULT_255_2_778
10
80.4415823
20
74.6345146
11
82.8415823
21
74.6345146
0
LINE
8
DEFAULT_255_2_778
10
82.8415823
20
74.6345146
11
82.8415823
21
76.9845146
0
LINE
8
DEFAULT_255_2_778
10
82.8415823
20
76.9845146
11
80.4415823
21
76.9845146
0
LINE
8
DEFAULT_255_2_778
10
80.4415823
20
76.9845146
11
80.4415823
21
74.6345146
0
LINE
8
DEFAULT_255_2_778
10
105.6414823
20
35.0343146
11
103.2414823
21
35.0343146
0
LINE
8
DEFAULT_255_2_778
10
103.2414823
20
35.0343146
11
103.2414823
21
32.6843146
0
LINE
8
DEFAULT_255_2_778
10
103.2414823
20
32.6843146
11
105.6414823
21
32.6843146
0
LINE
8
DEFAULT_255_2_778
10
105.6414823
20
32.6843146
11
105.6414823
21
35.0343146
0
LINE
8
DEFAULT_255_2_778
10
120.8414823
20
76.9845146
11
118.4414823
21
76.9845146
0
LINE
8
DEFAULT_255_2_778
10
118.4414823
20
76.9845146
11
118.4414823
21
74.6345146
0
LINE
8
DEFAULT_255_2_778
10
118.4414823
20
74.6345146
11
120.8414823
21
74.6345146
0
LINE
8
DEFAULT_255_2_778
10
120.8414823
20
74.6345146
11
120.8414823
21
76.9845146
0
LINE
8
DEFAULT_255_2_778
10
128.4416823
20
32.6843146
11
128.4416823
21
35.0343146
0
LINE
8
DEFAULT_255_2_778
10
128.4416823
20
35.0343146
11
126.0416823
21
35.0343146
0
LINE
8
DEFAULT_255_2_778
10
126.0416823
20
35.0343146
11
126.0416823
21
32.6843146
0
LINE
8
DEFAULT_255_2_778
10
126.0416823
20
32.6843146
11
128.4416823
21
32.6843146
0
LINE
8
DEFAULT_255_2_778
10
117.0415823
20
79.3342146
11
114.6415823
21
79.3342146
0
LINE
8
DEFAULT_255_2_778
10
114.6415823
20
79.3342146
11
114.6415823
21
76.9842146
0
LINE
8
DEFAULT_255_2_778
10
114.6415823
20
76.9842146
11
117.0415823
21
76.9842146
0
LINE
8
DEFAULT_255_2_778
10
117.0415823
20
76.9842146
11
117.0415823
21
79.3342146
0
LINE
8
DEFAULT_255_2_778
10
75.2416823
20
32.6843146
11
75.2416823
21
35.0343146
0
LINE
8
DEFAULT_255_2_778
10
75.2416823
20
35.0343146
11
72.8416823
21
35.0343146
0
LINE
8
DEFAULT_255_2_778
10
72.8416823
20
35.0343146
11
72.8416823
21
32.6843146
0
LINE
8
DEFAULT_255_2_778
10
72.8416823
20
32.6843146
11
75.2416823
21
32.6843146
0
LINE
8
DEFAULT_255_2_778
10
80.4415823
20
35.0343146
11
80.4415823
21
32.6843146
0
LINE
8
DEFAULT_255_2_778
10
80.4415823
20
32.6843146
11
82.8415823
21
32.6843146
0
LINE
8
DEFAULT_255_2_778
10
82.8415823
20
32.6843146
11
82.8415823
21
35.0343146
0
LINE
8
DEFAULT_255_2_778
10
82.8415823
20
35.0343146
11
80.4415823
21
35.0343146
0
LINE
8
DEFAULT_255_2_778
10
69.0413823
20
79.3342146
11
69.0413823
21
76.9842146
0
LINE
8
DEFAULT_255_2_778
10
69.0413823
20
76.9842146
11
71.4413823
21
76.9842146
0
LINE
8
DEFAULT_255_2_778
10
71.4413823
20
76.9842146
11
71.4413823
21
79.3342146
0
LINE
8
DEFAULT_255_2_778
10
71.4413823
20
79.3342146
11
69.0413823
21
79.3342146
0
LINE
8
DEFAULT_255_2_778
10
136.0415823
20
74.6345146
11
136.0415823
21
76.9845146
0
LINE
8
DEFAULT_255_2_778
10
136.0415823
20
76.9845146
11
133.6415823
21
76.9845146
0
LINE
8
DEFAULT_255_2_778
10
133.6415823
20
76.9845146
11
133.6415823
21
74.6345146
0
LINE
8
DEFAULT_255_2_778
10
133.6415823
20
74.6345146
11
136.0415823
21
74.6345146
0
LINE
8
DEFAULT_255_2_778
10
137.4414823
20
79.3342146
11
137.4414823
21
76.9842146
0
LINE
8
DEFAULT_255_2_778
10
137.4414823
20
76.9842146
11
139.8414823
21
76.9842146
0
LINE
8
DEFAULT_255_2_778
10
139.8414823
20
76.9842146
11
139.8414823
21
79.3342146
0
LINE
8
DEFAULT_255_2_778
10
139.8414823
20
79.3342146
11
137.4414823
21
79.3342146
0
LINE
8
DEFAULT_255_2_778
10
98.0415823
20
35.0343146
11
95.6415823
21
35.0343146
0
LINE
8
DEFAULT_255_2_778
10
95.6415823
20
35.0343146
11
95.6415823
21
32.6843146
0
LINE
8
DEFAULT_255_2_778
10
95.6415823
20
32.6843146
11
98.0415823
21
32.6843146
0
LINE
8
DEFAULT_255_2_778
10
98.0415823
20
32.6843146
11
98.0415823
21
35.0343146
0
LINE
8
DEFAULT_255_2_778
10
50.0414823
20
76.9845146
11
50.0414823
21
74.6345146
0
LINE
8
DEFAULT_255_2_778
10
50.0414823
20
74.6345146
11
52.4414823
21
74.6345146
0
LINE
8
DEFAULT_255_2_778
10
52.4414823
20
74.6345146
11
52.4414823
21
76.9845146
0
LINE
8
DEFAULT_255_2_778
10
52.4414823
20
76.9845146
11
50.0414823
21
76.9845146
0
LINE
8
DEFAULT_255_2_778
10
65.2414823
20
35.0343146
11
65.2414823
21
32.6843146
0
LINE
8
DEFAULT_255_2_778
10
65.2414823
20
32.6843146
11
67.6414823
21
32.6843146
0
LINE
8
DEFAULT_255_2_778
10
67.6414823
20
32.6843146
11
67.6414823
21
35.0343146
0
LINE
8
DEFAULT_255_2_778
10
67.6414823
20
35.0343146
11
65.2414823
21
35.0343146
0
LINE
8
DEFAULT_255_2_778
10
110.8415823
20
74.6345146
11
113.2415823
21
74.6345146
0
LINE
8
DEFAULT_255_2_778
10
113.2415823
20
74.6345146
11
113.2415823
21
76.9845146
0
LINE
8
DEFAULT_255_2_778
10
113.2415823
20
76.9845146
11
110.8415823
21
76.9845146
0
LINE
8
DEFAULT_255_2_778
10
110.8415823
20
76.9845146
11
110.8415823
21
74.6345146
0
LINE
8
DEFAULT_255_2_778
10
109.4413823
20
79.3342146
11
107.0413823
21
79.3342146
0
LINE
8
DEFAULT_255_2_778
10
107.0413823
20
79.3342146
11
107.0413823
21
76.9842146
0
LINE
8
DEFAULT_255_2_778
10
107.0413823
20
76.9842146
11
109.4413823
21
76.9842146
0
LINE
8
DEFAULT_255_2_778
10
109.4413823
20
76.9842146
11
109.4413823
21
79.3342146
0
LINE
8
DEFAULT_255_2_778
10
94.2416823
20
79.3342146
11
91.8416823
21
79.3342146
0
LINE
8
DEFAULT_255_2_778
10
91.8416823
20
79.3342146
11
91.8416823
21
76.9842146
0
LINE
8
DEFAULT_255_2_778
10
91.8416823
20
76.9842146
11
94.2416823
21
76.9842146
0
LINE
8
DEFAULT_255_2_778
10
94.2416823
20
76.9842146
11
94.2416823
21
79.3342146
0
LINE
8
DEFAULT_255_2_778
10
88.0413823
20
76.9845146
11
88.0413823
21
74.6345146
0
LINE
8
DEFAULT_255_2_778
10
88.0413823
20
74.6345146
11
90.4413823
21
74.6345146
0
LINE
8
DEFAULT_255_2_778
10
90.4413823
20
74.6345146
11
90.4413823
21
76.9845146
0
LINE
8
DEFAULT_255_2_778
10
90.4413823
20
76.9845146
11
88.0413823
21
76.9845146
0
LINE
8
DEFAULT_255_2_778
10
136.0415823
20
35.0343146
11
133.6415823
21
35.0343146
0
LINE
8
DEFAULT_255_2_778
10
133.6415823
20
35.0343146
11
133.6415823
21
32.6843146
0
LINE
8
DEFAULT_255_2_778
10
133.6415823
20
32.6843146
11
136.0415823
21
32.6843146
0
LINE
8
DEFAULT_255_2_778
10
136.0415823
20
32.6843146
11
136.0415823
21
35.0343146
0
LINE
8
DEFAULT_255_2_778
10
129.8415823
20
30.3342146
11
132.2415823
21
30.3342146
0
LINE
8
DEFAULT_255_2_778
10
132.2415823
20
30.3342146
11
132.2415823
21
32.6842146
0
LINE
8
DEFAULT_255_2_778
10
132.2415823
20
32.6842146
11
129.8415823
21
32.6842146
0
LINE
8
DEFAULT_255_2_778
10
129.8415823
20
32.6842146
11
129.8415823
21
30.3342146
0
LINE
8
DEFAULT_255_2_778
10
129.8415823
20
76.9842146
11
132.2415823
21
76.9842146
0
LINE
8
DEFAULT_255_2_778
10
132.2415823
20
76.9842146
11
132.2415823
21
79.3342146
0
LINE
8
DEFAULT_255_2_778
10
132.2415823
20
79.3342146
11
129.8415823
21
79.3342146
0
LINE
8
DEFAULT_255_2_778
10
129.8415823
20
79.3342146
11
129.8415823
21
76.9842146
0
LINE
8
DEFAULT_255_2_778
10
120.8414823
20
35.0343146
11
118.4414823
21
35.0343146
0
LINE
8
DEFAULT_255_2_778
10
118.4414823
20
35.0343146
11
118.4414823
21
32.6843146
0
LINE
8
DEFAULT_255_2_778
10
118.4414823
20
32.6843146
11
120.8414823
21
32.6843146
0
LINE
8
DEFAULT_255_2_778
10
120.8414823
20
32.6843146
11
120.8414823
21
35.0343146
0
LINE
8
DEFAULT_255_2_778
10
144.1414759
20
72.3344368
11
144.1414759
21
80.5344368
0
LINE
8
DEFAULT_255_2_778
10
144.1414759
20
80.5344368
11
6.1414759
21
80.5344368
0
LINE
8
DEFAULT_255_2_778
10
6.1414759
20
80.5344368
11
6.1414759
21
29.1343368
0
LINE
8
DEFAULT_255_2_778
10
6.1414759
20
29.1343368
11
144.1414759
21
29.1343368
0
LINE
8
DEFAULT_255_2_778
10
144.1414759
20
29.1343368
11
144.1414759
21
37.3343368
0
LINE
8
DEFAULT_255_2_778
10
25.3415448
20
51.8343052
11
28.3416448
21
51.8343052
0
LINE
8
DEFAULT_255_2_778
10
28.3416448
20
51.8343052
11
28.3416448
21
54.0343052
0
LINE
8
DEFAULT_255_2_778
10
28.3416448
20
54.0343052
11
25.3415448
21
54.0343052
0
LINE
8
DEFAULT_255_2_778
10
25.3415448
20
54.0343052
11
25.3415448
21
51.8343052
0
LINE
8
DEFAULT_255_2_778
10
25.3415448
20
63.2344052
11
28.3416448
21
63.2344052
0
LINE
8
DEFAULT_255_2_778
10
28.3416448
20
63.2344052
11
28.3416448
21
65.4344052
0
LINE
8
DEFAULT_255_2_778
10
28.3416448
20
65.4344052
11
25.3415448
21
65.4344052
0
LINE
8
DEFAULT_255_2_778
10
25.3415448
20
65.4344052
11
25.3415448
21
63.2344052
0
LINE
8
DEFAULT_255_2_778
10
57.6415823
20
35.0343146
11
57.6415823
21
32.6843146
0
LINE
8
DEFAULT_255_2_778
10
57.6415823
20
32.6843146
11
60.0415823
21
32.6843146
0
LINE
8
DEFAULT_255_2_778
10
60.0415823
20
32.6843146
11
60.0415823
21
35.0343146
0
LINE
8
DEFAULT_255_2_778
10
60.0415823
20
35.0343146
11
57.6415823
21
35.0343146
0
LINE
8
DEFAULT_255_2_778
10
53.8416823
20
79.3342146
11
53.8416823
21
76.9842146
0
LINE
8
DEFAULT_255_2_778
10
53.8416823
20
76.9842146
11
56.2416823
21
76.9842146
0
LINE
8
DEFAULT_255_2_778
10
56.2416823
20
76.9842146
11
56.2416823
21
79.3342146
0
LINE
8
DEFAULT_255_2_778
10
56.2416823
20
79.3342146
11
53.8416823
21
79.3342146
0
LINE
8
DEFAULT_255_2_778
10
57.6415823
20
76.9845146
11
57.6415823
21
74.6345146
0
LINE
8
DEFAULT_255_2_778
10
57.6415823
20
74.6345146
11
60.0415823
21
74.6345146
0
LINE
8
DEFAULT_255_2_778
10
60.0415823
20
74.6345146
11
60.0415823
21
76.9845146
0
LINE
8
DEFAULT_255_2_778
10
60.0415823
20
76.9845146
11
57.6415823
21
76.9845146
0
LINE
8
DEFAULT_255_2_778
10
72.8416823
20
76.9845146
11
72.8416823
21
74.6345146
0
LINE
8
DEFAULT_255_2_778
10
72.8416823
20
74.6345146
11
75.2416823
21
74.6345146
0
LINE
8
DEFAULT_255_2_778
10
75.2416823
20
74.6345146
11
75.2416823
21
76.9845146
0
LINE
8
DEFAULT_255_2_778
10
75.2416823
20
76.9845146
11
72.8416823
21
76.9845146
0
LINE
8
DEFAULT_255_2_778
10
86.6414823
20
79.3342146
11
84.2414823
21
79.3342146
0
LINE
8
DEFAULT_255_2_778
10
84.2414823
20
79.3342146
11
84.2414823
21
76.9842146
0
LINE
8
DEFAULT_255_2_778
10
84.2414823
20
76.9842146
11
86.6414823
21
76.9842146
0
LINE
8
DEFAULT_255_2_778
10
86.6414823
20
76.9842146
11
86.6414823
21
79.3342146
0
LINE
8
DEFAULT_255_2_778
10
88.0413823
20
35.0343146
11
88.0413823
21
32.6843146
0
LINE
8
DEFAULT_255_2_778
10
88.0413823
20
32.6843146
11
90.4413823
21
32.6843146
0
LINE
8
DEFAULT_255_2_778
10
90.4413823
20
32.6843146
11
90.4413823
21
35.0343146
0
LINE
8
DEFAULT_255_2_778
10
90.4413823
20
35.0343146
11
88.0413823
21
35.0343146
0
LINE
8
DEFAULT_255_2_778
10
110.8415823
20
35.0343146
11
110.8415823
21
32.6843146
0
LINE
8
DEFAULT_255_2_778
10
110.8415823
20
32.6843146
11
113.2415823
21
32.6843146
0
LINE
8
DEFAULT_255_2_778
10
113.2415823
20
32.6843146
11
113.2415823
21
35.0343146
0
LINE
8
DEFAULT_255_2_778
10
113.2415823
20
35.0343146
11
110.8415823
21
35.0343146
0
LINE
8
DEFAULT_255_2_778
10
114.6415823
20
32.6842146
11
114.6415823
21
30.3342146
0
LINE
8
DEFAULT_255_2_778
10
114.6415823
20
30.3342146
11
117.0415823
21
30.3342146
0
LINE
8
DEFAULT_255_2_778
10
117.0415823
20
30.3342146
11
117.0415823
21
32.6842146
0
LINE
8
DEFAULT_255_2_778
10
117.0415823
20
32.6842146
11
114.6415823
21
32.6842146
0
LINE
8
DEFAULT_255_2_778
10
95.6415823
20
76.9845146
11
95.6415823
21
74.6345146
0
LINE
8
DEFAULT_255_2_778
10
95.6415823
20
74.6345146
11
98.0415823
21
74.6345146
0
LINE
8
DEFAULT_255_2_778
10
98.0415823
20
74.6345146
11
98.0415823
21
76.9845146
0
LINE
8
DEFAULT_255_2_778
10
98.0415823
20
76.9845146
11
95.6415823
21
76.9845146
0
LINE
8
DEFAULT_255_2_778
10
101.8414823
20
79.3342146
11
99.4414823
21
79.3342146
0
LINE
8
DEFAULT_255_2_778
10
99.4414823
20
79.3342146
11
99.4414823
21
76.9842146
0
LINE
8
DEFAULT_255_2_778
10
99.4414823
20
76.9842146
11
101.8414823
21
76.9842146
0
LINE
8
DEFAULT_255_2_778
10
101.8414823
20
76.9842146
11
101.8414823
21
79.3342146
0
LINE
8
DEFAULT_255_2_778
10
103.2414823
20
76.9845146
11
103.2414823
21
74.6345146
0
LINE
8
DEFAULT_255_2_778
10
103.2414823
20
74.6345146
11
105.6414823
21
74.6345146
0
LINE
8
DEFAULT_255_2_778
10
105.6414823
20
74.6345146
11
105.6414823
21
76.9845146
0
LINE
8
DEFAULT_255_2_778
10
105.6414823
20
76.9845146
11
103.2414823
21
76.9845146
0
LINE
8
DEFAULT_255_2_778
10
122.2414823
20
79.3342146
11
122.2414823
21
76.9842146
0
LINE
8
DEFAULT_255_2_778
10
122.2414823
20
76.9842146
11
124.6414823
21
76.9842146
0
LINE
8
DEFAULT_255_2_778
10
124.6414823
20
76.9842146
11
124.6414823
21
79.3342146
0
LINE
8
DEFAULT_255_2_778
10
124.6414823
20
79.3342146
11
122.2414823
21
79.3342146
0
LINE
8
DEFAULT_255_2_778
10
128.4416823
20
76.9845146
11
126.0416823
21
76.9845146
0
LINE
8
DEFAULT_255_2_778
10
126.0416823
20
76.9845146
11
126.0416823
21
74.6345146
0
LINE
8
DEFAULT_255_2_778
10
126.0416823
20
74.6345146
11
128.4416823
21
74.6345146
0
LINE
8
DEFAULT_255_2_778
10
128.4416823
20
74.6345146
11
128.4416823
21
76.9845146
0
ARC
8
DEFAULT_255_2_778
10
1.2418376
20
83.8975766
40
2.3996499
50
0.0003367
51
42.6502568
0
ARC
8
DEFAULT_255_2_778
10
1.2420826
20
25.7713348
40
2.3997048
50
317.3467325
51
359.9989478
0
ARC
8
DEFAULT_255_2_778
10
149.0408625
20
83.897762
40
2.399175
50
137.3453152
51
180.0040912
0
ARC
8
DEFAULT_255_2_778
10
149.0412958
20
25.7711885
40
2.3996083
50
179.99756
51
222.6506439
0
LINE
8
DEFAULT_255_2_778
10
3.6414875
20
74.1343907
11
3.6414875
21
83.8975907
0
LINE
8
DEFAULT_255_2_778
10
3.0067875
20
85.5233907
11
0.1415875
21
88.6343907
0
LINE
8
DEFAULT_255_2_778
10
0.1415875
20
21.0343907
11
3.0069875
21
24.1453907
0
LINE
8
DEFAULT_255_2_778
10
3.6417875
20
25.7712907
11
3.6417875
21
35.5343907
0
LINE
8
DEFAULT_255_2_778
10
150.1415875
20
88.6343907
11
147.2763875
21
85.5233907
0
LINE
8
DEFAULT_255_2_778
10
146.6416875
20
83.8975907
11
146.6416875
21
74.1343907
0
LINE
8
DEFAULT_255_2_778
10
146.6416875
20
35.5343907
11
146.6416875
21
25.7712907
0
LINE
8
DEFAULT_255_2_778
10
147.2763875
20
24.1453907
11
150.1417875
21
21.0343907
0
ARC
8
DEFAULT_255_2_778
10
134.8618257
20
24.3373042
40
2.7955804
50
160.6250898
51
180.0625339
0
ARC
8
DEFAULT_255_2_778
10
134.8692872
20
24.3304633
40
2.8048915
50
101.7948804
51
160.5438283
0
ARC
8
DEFAULT_255_2_778
10
134.8647381
20
24.3220172
40
2.8122362
50
89.9692581
51
101.6689794
0
ARC
8
DEFAULT_255_2_778
10
134.8692925
20
24.3389398
40
2.7953149
50
70.6241591
51
90.0624243
0
ARC
8
DEFAULT_255_2_778
10
134.8623398
20
24.3312195
40
2.8049073
50
11.7946723
51
70.542501
0
ARC
8
DEFAULT_255_2_778
10
134.8538921
20
24.335761
40
2.8122552
50
359.969278
51
11.6689198
0
ARC
8
DEFAULT_255_2_778
10
134.8708072
20
24.3312098
40
2.7953414
50
340.624302
51
0.0623774
0
ARC
8
DEFAULT_255_2_778
10
134.8631204
20
24.3381325
40
2.8048924
50
281.7959826
51
340.5429938
0
ARC
8
DEFAULT_255_2_778
10
134.8677528
20
24.3463015
40
2.8119488
50
269.9693166
51
281.6695586
0
ARC
8
DEFAULT_255_2_778
10
134.8631981
20
24.3299583
40
2.7956069
50
250.6252326
51
270.062487
0
ARC
8
DEFAULT_255_2_778
10
134.870009
20
24.3373864
40
2.8048766
50
191.7961906
51
250.5443211
0
ARC
8
DEFAULT_255_2_778
10
134.8781764
20
24.3327462
40
2.8119298
50
179.9692966
51
191.6696183
0
LINE
8
DEFAULT_255_2_778
10
135.927047
20
25.395053
11
133.805647
21
23.273553
0
LINE
8
DEFAULT_255_2_778
10
135.927047
20
23.273553
11
133.805647
21
25.395053
0
LINE
8
DEFAULT_255_2_778
10
132.066247
20
24.334253
11
132.066247
21
24.334253
0
ARC
8
DEFAULT_255_2_778
10
127.2619257
20
24.3373042
40
2.7955804
50
160.6250898
51
180.0625339
0
ARC
8
DEFAULT_255_2_778
10
127.2693872
20
24.3304633
40
2.8048915
50
101.7948804
51
160.5438283
0
ARC
8
DEFAULT_255_2_778
10
127.2648381
20
24.3220172
40
2.8122362
50
89.9692581
51
101.6689794
0
ARC
8
DEFAULT_255_2_778
10
127.2693925
20
24.3389398
40
2.7953149
50
70.6241591
51
90.0624243
0
ARC
8
DEFAULT_255_2_778
10
127.2624398
20
24.3312195
40
2.8049073
50
11.7946723
51
70.542501
0
ARC
8
DEFAULT_255_2_778
10
127.2539921
20
24.335761
40
2.8122552
50
359.969278
51
11.6689198
0
ARC
8
DEFAULT_255_2_778
10
127.2709072
20
24.3312098
40
2.7953414
50
340.624302
51
0.0623774
0
ARC
8
DEFAULT_255_2_778
10
127.2632204
20
24.3381325
40
2.8048924
50
281.7959826
51
340.5429938
0
ARC
8
DEFAULT_255_2_778
10
127.2678528
20
24.3463015
40
2.8119488
50
269.9693166
51
281.6695586
0
ARC
8
DEFAULT_255_2_778
10
127.2632981
20
24.3299583
40
2.7956069
50
250.6252326
51
270.062487
0
ARC
8
DEFAULT_255_2_778
10
127.270109
20
24.3373864
40
2.8048766
50
191.7961906
51
250.5443211
0
ARC
8
DEFAULT_255_2_778
10
127.2782764
20
24.3327462
40
2.8119298
50
179.9692966
51
191.6696183
0
LINE
8
DEFAULT_255_2_778
10
128.327147
20
25.395053
11
126.205747
21
23.273553
0
LINE
8
DEFAULT_255_2_778
10
128.327147
20
23.273553
11
126.205747
21
25.395053
0
LINE
8
DEFAULT_255_2_778
10
124.466347
20
24.334253
11
124.466347
21
24.334253
0
ARC
8
DEFAULT_255_2_778
10
131.0618257
20
15.3372042
40
2.7955804
50
160.6250898
51
180.0625339
0
ARC
8
DEFAULT_255_2_778
10
131.0692872
20
15.3303633
40
2.8048915
50
101.7948804
51
160.5438283
0
ARC
8
DEFAULT_255_2_778
10
131.0647381
20
15.3219172
40
2.8122362
50
89.9692581
51
101.6689794
0
ARC
8
DEFAULT_255_2_778
10
131.0692925
20
15.3388398
40
2.7953149
50
70.6241591
51
90.0624243
0
ARC
8
DEFAULT_255_2_778
10
131.0623398
20
15.3311195
40
2.8049073
50
11.7946723
51
70.542501
0
ARC
8
DEFAULT_255_2_778
10
131.0538921
20
15.335661
40
2.8122552
50
359.969278
51
11.6689198
0
ARC
8
DEFAULT_255_2_778
10
131.0708072
20
15.3311098
40
2.7953414
50
340.624302
51
0.0623774
0
ARC
8
DEFAULT_255_2_778
10
131.0631204
20
15.3380325
40
2.8048924
50
281.7959826
51
340.5429938
0
ARC
8
DEFAULT_255_2_778
10
131.0677528
20
15.3462015
40
2.8119488
50
269.9693166
51
281.6695586
0
ARC
8
DEFAULT_255_2_778
10
131.0631981
20
15.3298583
40
2.7956069
50
250.6252326
51
270.062487
0
ARC
8
DEFAULT_255_2_778
10
131.070009
20
15.3372864
40
2.8048766
50
191.7961906
51
250.5443211
0
ARC
8
DEFAULT_255_2_778
10
131.0781764
20
15.3326462
40
2.8119298
50
179.9692966
51
191.6696183
0
LINE
8
DEFAULT_255_2_778
10
132.127047
20
16.394953
11
130.005647
21
14.273453
0
LINE
8
DEFAULT_255_2_778
10
132.127047
20
14.273453
11
130.005647
21
16.394953
0
LINE
8
DEFAULT_255_2_778
10
128.266247
20
15.334153
11
128.266247
21
15.334153
0
ARC
8
DEFAULT_255_2_778
10
138.6617257
20
15.3372042
40
2.7955804
50
160.6250898
51
180.0625339
0
ARC
8
DEFAULT_255_2_778
10
138.6691872
20
15.3303633
40
2.8048915
50
101.7948804
51
160.5438283
0
ARC
8
DEFAULT_255_2_778
10
138.6646381
20
15.3219172
40
2.8122362
50
89.9692581
51
101.6689794
0
ARC
8
DEFAULT_255_2_778
10
138.6691925
20
15.3388398
40
2.7953149
50
70.6241591
51
90.0624243
0
ARC
8
DEFAULT_255_2_778
10
138.6622398
20
15.3311195
40
2.8049073
50
11.7946723
51
70.542501
0
ARC
8
DEFAULT_255_2_778
10
138.6537921
20
15.335661
40
2.8122552
50
359.969278
51
11.6689198
0
ARC
8
DEFAULT_255_2_778
10
138.6707072
20
15.3311098
40
2.7953414
50
340.624302
51
0.0623774
0
ARC
8
DEFAULT_255_2_778
10
138.6630204
20
15.3380325
40
2.8048924
50
281.7959826
51
340.5429938
0
ARC
8
DEFAULT_255_2_778
10
138.6676528
20
15.3462015
40
2.8119488
50
269.9693166
51
281.6695586
0
ARC
8
DEFAULT_255_2_778
10
138.6630981
20
15.3298583
40
2.7956069
50
250.6252326
51
270.062487
0
ARC
8
DEFAULT_255_2_778
10
138.669909
20
15.3372864
40
2.8048766
50
191.7961906
51
250.5443211
0
ARC
8
DEFAULT_255_2_778
10
138.6780764
20
15.3326462
40
2.8119298
50
179.9692966
51
191.6696183
0
LINE
8
DEFAULT_255_2_778
10
139.726947
20
16.394953
11
137.605547
21
14.273453
0
LINE
8
DEFAULT_255_2_778
10
139.726947
20
14.273453
11
137.605547
21
16.394953
0
LINE
8
DEFAULT_255_2_778
10
135.866147
20
15.334153
11
135.866147
21
15.334153
0
ARC
8
DEFAULT_255_2_778
10
138.6617257
20
94.3373042
40
2.7955804
50
160.6250898
51
180.0625339
0
ARC
8
DEFAULT_255_2_778
10
138.6691872
20
94.3304633
40
2.8048915
50
101.7948804
51
160.5438283
0
ARC
8
DEFAULT_255_2_778
10
138.6646381
20
94.3220172
40
2.8122362
50
89.9692581
51
101.6689794
0
ARC
8
DEFAULT_255_2_778
10
138.6691925
20
94.3389398
40
2.7953149
50
70.6241591
51
90.0624243
0
ARC
8
DEFAULT_255_2_778
10
138.6622398
20
94.3312195
40
2.8049073
50
11.7946723
51
70.542501
0
ARC
8
DEFAULT_255_2_778
10
138.6537921
20
94.335761
40
2.8122552
50
359.969278
51
11.6689198
0
ARC
8
DEFAULT_255_2_778
10
138.6707072
20
94.3312098
40
2.7953414
50
340.624302
51
0.0623774
0
ARC
8
DEFAULT_255_2_778
10
138.6630204
20
94.3381325
40
2.8048924
50
281.7959826
51
340.5429938
0
ARC
8
DEFAULT_255_2_778
10
138.6676528
20
94.3463015
40
2.8119488
50
269.9693166
51
281.6695586
0
ARC
8
DEFAULT_255_2_778
10
138.6630981
20
94.3299583
40
2.7956069
50
250.6252326
51
270.062487
0
ARC
8
DEFAULT_255_2_778
10
138.669909
20
94.3373864
40
2.8048766
50
191.7961906
51
250.5443211
0
ARC
8
DEFAULT_255_2_778
10
138.6780764
20
94.3327462
40
2.8119298
50
179.9692966
51
191.6696183
0
LINE
8
DEFAULT_255_2_778
10
139.726947
20
95.395053
11
137.605547
21
93.273553
0
LINE
8
DEFAULT_255_2_778
10
139.726947
20
93.273553
11
137.605547
21
95.395053
0
LINE
8
DEFAULT_255_2_778
10
135.866147
20
94.334253
11
135.866147
21
94.334253
0
ARC
8
DEFAULT_255_2_778
10
131.0618257
20
94.3373042
40
2.7955804
50
160.6250898
51
180.0625339
0
ARC
8
DEFAULT_255_2_778
10
131.0692872
20
94.3304633
40
2.8048915
50
101.7948804
51
160.5438283
0
ARC
8
DEFAULT_255_2_778
10
131.0647381
20
94.3220172
40
2.8122362
50
89.9692581
51
101.6689794
0
ARC
8
DEFAULT_255_2_778
10
131.0692925
20
94.3389398
40
2.7953149
50
70.6241591
51
90.0624243
0
ARC
8
DEFAULT_255_2_778
10
131.0623398
20
94.3312195
40
2.8049073
50
11.7946723
51
70.542501
0
ARC
8
DEFAULT_255_2_778
10
131.0538921
20
94.335761
40
2.8122552
50
359.969278
51
11.6689198
0
ARC
8
DEFAULT_255_2_778
10
131.0708072
20
94.3312098
40
2.7953414
50
340.624302
51
0.0623774
0
ARC
8
DEFAULT_255_2_778
10
131.0631204
20
94.3381325
40
2.8048924
50
281.7959826
51
340.5429938
0
ARC
8
DEFAULT_255_2_778
10
131.0677528
20
94.3463015
40
2.8119488
50
269.9693166
51
281.6695586
0
ARC
8
DEFAULT_255_2_778
10
131.0631981
20
94.3299583
40
2.7956069
50
250.6252326
51
270.062487
0
ARC
8
DEFAULT_255_2_778
10
131.070009
20
94.3373864
40
2.8048766
50
191.7961906
51
250.5443211
0
ARC
8
DEFAULT_255_2_778
10
131.0781764
20
94.3327462
40
2.8119298
50
179.9692966
51
191.6696183
0
LINE
8
DEFAULT_255_2_778
10
132.127047
20
95.395053
11
130.005647
21
93.273553
0
LINE
8
DEFAULT_255_2_778
10
132.127047
20
93.273553
11
130.005647
21
95.395053
0
LINE
8
DEFAULT_255_2_778
10
128.266247
20
94.334253
11
128.266247
21
94.334253
0
ARC
8
DEFAULT_255_2_778
10
134.8618257
20
85.3372042
40
2.7955804
50
160.6250898
51
180.0625339
0
ARC
8
DEFAULT_255_2_778
10
134.8692872
20
85.3303633
40
2.8048915
50
101.7948804
51
160.5438283
0
ARC
8
DEFAULT_255_2_778
10
134.8647381
20
85.3219172
40
2.8122362
50
89.9692581
51
101.6689794
0
ARC
8
DEFAULT_255_2_778
10
134.8692925
20
85.3388398
40
2.7953149
50
70.6241591
51
90.0624243
0
ARC
8
DEFAULT_255_2_778
10
134.8623398
20
85.3311195
40
2.8049073
50
11.7946723
51
70.542501
0
ARC
8
DEFAULT_255_2_778
10
134.8538921
20
85.335661
40
2.8122552
50
359.969278
51
11.6689198
0
ARC
8
DEFAULT_255_2_778
10
134.8708072
20
85.3311098
40
2.7953414
50
340.624302
51
0.0623774
0
ARC
8
DEFAULT_255_2_778
10
134.8631204
20
85.3380325
40
2.8048924
50
281.7959826
51
340.5429938
0
ARC
8
DEFAULT_255_2_778
10
134.8677528
20
85.3462015
40
2.8119488
50
269.9693166
51
281.6695586
0
ARC
8
DEFAULT_255_2_778
10
134.8631981
20
85.3298583
40
2.7956069
50
250.6252326
51
270.062487
0
ARC
8
DEFAULT_255_2_778
10
134.870009
20
85.3372864
40
2.8048766
50
191.7961906
51
250.5443211
0
ARC
8
DEFAULT_255_2_778
10
134.8781764
20
85.3326462
40
2.8119298
50
179.9692966
51
191.6696183
0
LINE
8
DEFAULT_255_2_778
10
135.927047
20
86.394953
11
133.805647
21
84.273453
0
LINE
8
DEFAULT_255_2_778
10
135.927047
20
84.273453
11
133.805647
21
86.394953
0
LINE
8
DEFAULT_255_2_778
10
132.066247
20
85.334153
11
132.066247
21
85.334153
0
ARC
8
DEFAULT_255_2_778
10
127.2619257
20
85.3372042
40
2.7955804
50
160.6250898
51
180.0625339
0
ARC
8
DEFAULT_255_2_778
10
127.2693872
20
85.3303633
40
2.8048915
50
101.7948804
51
160.5438283
0
ARC
8
DEFAULT_255_2_778
10
127.2648381
20
85.3219172
40
2.8122362
50
89.9692581
51
101.6689794
0
ARC
8
DEFAULT_255_2_778
10
127.2693925
20
85.3388398
40
2.7953149
50
70.6241591
51
90.0624243
0
ARC
8
DEFAULT_255_2_778
10
127.2624398
20
85.3311195
40
2.8049073
50
11.7946723
51
70.542501
0
ARC
8
DEFAULT_255_2_778
10
127.2539921
20
85.335661
40
2.8122552
50
359.969278
51
11.6689198
0
ARC
8
DEFAULT_255_2_778
10
127.2709072
20
85.3311098
40
2.7953414
50
340.624302
51
0.0623774
0
ARC
8
DEFAULT_255_2_778
10
127.2632204
20
85.3380325
40
2.8048924
50
281.7959826
51
340.5429938
0
ARC
8
DEFAULT_255_2_778
10
127.2678528
20
85.3462015
40
2.8119488
50
269.9693166
51
281.6695586
0
ARC
8
DEFAULT_255_2_778
10
127.2632981
20
85.3298583
40
2.7956069
50
250.6252326
51
270.062487
0
ARC
8
DEFAULT_255_2_778
10
127.270109
20
85.3372864
40
2.8048766
50
191.7961906
51
250.5443211
0
ARC
8
DEFAULT_255_2_778
10
127.2782764
20
85.3326462
40
2.8119298
50
179.9692966
51
191.6696183
0
LINE
8
DEFAULT_255_2_778
10
128.327147
20
86.394953
11
126.205747
21
84.273453
0
LINE
8
DEFAULT_255_2_778
10
128.327147
20
84.273453
11
126.205747
21
86.394953
0
LINE
8
DEFAULT_255_2_778
10
124.466347
20
85.334153
11
124.466347
21
85.334153
0
LINE
8
DEFAULT_255_2_778
10
45.5416409
20
38.7844979
11
45.5416409
21
36.1843979
0
LINE
8
DEFAULT_255_2_778
10
45.5416409
20
36.1843979
11
61.5415409
21
36.1843979
0
LINE
8
DEFAULT_255_2_778
10
61.5415409
20
36.1843979
11
61.5415409
21
38.7844979
0
LINE
8
DEFAULT_255_2_778
10
43.5416409
20
36.8844979
11
43.5416409
21
40.3843979
0
LINE
8
DEFAULT_255_2_778
10
43.5416409
20
40.3843979
11
63.5417409
21
40.3843979
0
LINE
8
DEFAULT_255_2_778
10
63.5417409
20
40.3843979
11
63.5417409
21
36.8844979
0
LINE
8
DEFAULT_255_2_778
10
43.5416409
20
38.7845193
11
63.5417409
21
38.7845193
0
LINE
8
DEFAULT_255_2_778
10
45.5416409
20
70.8842193
11
45.5416409
21
73.4843193
0
LINE
8
DEFAULT_255_2_778
10
45.5416409
20
73.4843193
11
61.5415409
21
73.4843193
0
LINE
8
DEFAULT_255_2_778
10
61.5415409
20
73.4843193
11
61.5415409
21
70.8842193
0
LINE
8
DEFAULT_255_2_778
10
43.5416409
20
72.7844541
11
43.5416409
21
69.2845541
0
LINE
8
DEFAULT_255_2_778
10
43.5416409
20
69.2845541
11
63.5417409
21
69.2845541
0
LINE
8
DEFAULT_255_2_778
10
63.5417409
20
69.2845541
11
63.5417409
21
72.7844541
0
LINE
8
DEFAULT_255_2_778
10
63.5417436
20
70.8842193
11
43.5416436
21
70.8842193
0
LINE
8
DEFAULT_255_2_778
10
87.8416436
20
38.7844193
11
87.8416436
21
36.1844193
0
LINE
8
DEFAULT_255_2_778
10
87.8416436
20
36.1844193
11
103.8415436
21
36.1844193
0
LINE
8
DEFAULT_255_2_778
10
103.8415436
20
36.1844193
11
103.8415436
21
38.7844193
0
LINE
8
DEFAULT_255_2_778
10
85.8416436
20
36.8844193
11
85.8416436
21
40.3844193
0
LINE
8
DEFAULT_255_2_778
10
85.8416436
20
40.3844193
11
105.8417436
21
40.3844193
0
LINE
8
DEFAULT_255_2_778
10
105.8417436
20
40.3844193
11
105.8417436
21
36.8844193
0
LINE
8
DEFAULT_255_2_778
10
85.8416409
20
38.7845193
11
105.8417409
21
38.7845193
0
LINE
8
DEFAULT_255_2_778
10
87.8416409
20
70.8842193
11
87.8416409
21
73.4843193
0
LINE
8
DEFAULT_255_2_778
10
87.8416409
20
73.4843193
11
103.8415409
21
73.4843193
0
LINE
8
DEFAULT_255_2_778
10
103.8415409
20
73.4843193
11
103.8415409
21
70.8842193
0
LINE
8
DEFAULT_255_2_778
10
85.8416409
20
72.7844541
11
85.8416409
21
69.2845541
0
LINE
8
DEFAULT_255_2_778
10
85.8416409
20
69.2845541
11
105.8417409
21
69.2845541
0
LINE
8
DEFAULT_255_2_778
10
105.8417409
20
69.2845541
11
105.8417409
21
72.7844541
0
LINE
8
DEFAULT_255_2_778
10
105.8417832
20
70.8842943
11
85.8416832
21
70.8842943
0
LINE
8
DEFAULT_255_2_778
10
138.1415832
20
99.8344943
11
138.1415832
21
105.8343943
0
LINE
8
DEFAULT_255_2_778
10
138.1415832
20
105.8343943
11
142.1415832
21
109.8343943
0
LINE
8
DEFAULT_255_2_778
10
142.1415832
20
109.8343943
11
150.1414832
21
109.8343943
0
LINE
8
DEFAULT_255_2_778
10
150.1414832
20
109.8343943
11
150.1414832
21
-0.1656057
0
LINE
8
DEFAULT_255_2_778
10
150.1414832
20
-0.1656057
11
142.1415832
21
-0.1656057
0
LINE
8
DEFAULT_255_2_778
10
142.1415832
20
-0.1656057
11
138.1415832
21
3.8343943
0
LINE
8
DEFAULT_255_2_778
10
138.1415832
20
3.8343943
11
138.1415832
21
9.8342943
0
LINE
8
DEFAULT_255_2_778
10
146.6416
20
72.3344381
11
146.6416
21
37.3345381
0
LINE
8
DEFAULT_255_2_778
10
150.1417875
20
72.3344943
11
140.6416875
21
72.3344943
0
LINE
8
DEFAULT_255_2_778
10
140.6416875
20
72.3344943
11
140.6416875
21
37.3345943
0
LINE
8
DEFAULT_255_2_778
10
140.6416875
20
37.3345943
11
150.1417875
21
37.3345943
0
LINE
8
DEFAULT_255_2_778
10
3.6414875
20
72.3344943
11
3.6414875
21
37.3345943
0
LINE
8
DEFAULT_255_2_778
10
12.1414875
20
9.8342943
11
12.1414875
21
3.8343943
0
LINE
8
DEFAULT_255_2_778
10
12.1414875
20
3.8343943
11
8.1414875
21
-0.1656057
0
LINE
8
DEFAULT_255_2_778
10
8.1414875
20
-0.1656057
11
0.1415875
21
-0.1656057
0
LINE
8
DEFAULT_255_2_778
10
0.1415875
20
-0.1656057
11
0.1415875
21
109.8343943
0
LINE
8
DEFAULT_255_2_778
10
0.1415875
20
109.8343943
11
8.1414875
21
109.8343943
0
LINE
8
DEFAULT_255_2_778
10
8.1414875
20
109.8343943
11
12.1414875
21
105.8343943
0
LINE
8
DEFAULT_255_2_778
10
12.1414875
20
105.8343943
11
12.1414875
21
100.3344943
0
LINE
8
DEFAULT_255_2_778
10
25.3415875
20
46.4343943
11
25.3415875
21
44.2343943
0
LINE
8
DEFAULT_255_2_778
10
25.3415875
20
44.2343943
11
28.3416875
21
44.2343943
0
LINE
8
DEFAULT_255_2_778
10
28.3416875
20
44.2343943
11
28.3416875
21
46.4343943
0
LINE
8
DEFAULT_255_2_778
10
28.3416875
20
46.4343943
11
25.3415875
21
46.4343943
0
LINE
8
DEFAULT_255_2_778
10
28.3416875
20
50.2343943
11
25.3415875
21
50.2343943
0
LINE
8
DEFAULT_255_2_778
10
25.3415875
20
50.2343943
11
25.3415875
21
48.0342943
0
LINE
8
DEFAULT_255_2_778
10
25.3415875
20
48.0342943
11
28.3416875
21
48.0342943
0
LINE
8
DEFAULT_255_2_778
10
28.3416875
20
48.0342943
11
28.3416875
21
50.2343943
0
LINE
8
DEFAULT_255_2_778
10
45.5414241
20
73.0342255
11
35.3414241
21
73.0342255
0
LINE
8
DEFAULT_255_2_778
10
35.3414241
20
73.0342255
11
35.3414241
21
36.6341255
0
LINE
8
DEFAULT_255_2_778
10
35.3414241
20
36.6341255
11
45.5414241
21
36.6341255
0
LINE
8
DEFAULT_255_2_778
10
45.5413397
20
72.7841943
11
35.5914397
21
72.7841943
0
LINE
8
DEFAULT_255_2_778
10
35.5914397
20
72.7841943
11
35.5914397
21
36.8841943
0
LINE
8
DEFAULT_255_2_778
10
35.5914397
20
36.8841943
11
45.5413397
21
36.8841943
0
LINE
8
DEFAULT_255_2_778
10
25.3415448
20
55.6345052
11
28.3416448
21
55.6345052
0
LINE
8
DEFAULT_255_2_778
10
28.3416448
20
55.6345052
11
28.3416448
21
57.8345052
0
LINE
8
DEFAULT_255_2_778
10
28.3416448
20
57.8345052
11
25.3415448
21
57.8345052
0
LINE
8
DEFAULT_255_2_778
10
25.3415448
20
57.8345052
11
25.3415448
21
55.6345052
0
LINE
8
DEFAULT_255_2_778
10
28.3416448
20
59.4344052
11
28.3416448
21
61.6344052
0
LINE
8
DEFAULT_255_2_778
10
28.3416448
20
61.6344052
11
25.3415448
21
61.6344052
0
LINE
8
DEFAULT_255_2_778
10
25.3415448
20
61.6344052
11
25.3415448
21
59.4344052
0
LINE
8
DEFAULT_255_2_778
10
25.3415448
20
59.4344052
11
28.3416448
21
59.4344052
0
LINE
8
DEFAULT_255_2_778
10
103.8415241
20
36.6341255
11
114.0415241
21
36.6341255
0
LINE
8
DEFAULT_255_2_778
10
114.0415241
20
36.6341255
11
114.0415241
21
71.0342255
0
LINE
8
DEFAULT_255_2_778
10
114.0415241
20
71.0342255
11
112.0414241
21
73.0342255
0
LINE
8
DEFAULT_255_2_778
10
112.0414241
20
73.0342255
11
103.8415241
21
73.0342255
0
LINE
8
DEFAULT_255_2_778
10
103.8415397
20
36.8841943
11
113.7914397
21
36.8841943
0
LINE
8
DEFAULT_255_2_778
10
113.7914397
20
36.8841943
11
113.7914397
21
70.7841943
0
LINE
8
DEFAULT_255_2_778
10
113.7914397
20
70.7841943
11
111.7914397
21
72.7841943
0
LINE
8
DEFAULT_255_2_778
10
111.7914397
20
72.7841943
11
103.8415397
21
72.7841943
0
LINE
8
DEFAULT_255_2_778
10
87.8414241
20
73.0342255
11
77.6414241
21
73.0342255
0
LINE
8
DEFAULT_255_2_778
10
77.6414241
20
73.0342255
11
77.6414241
21
36.6341255
0
LINE
8
DEFAULT_255_2_778
10
77.6414241
20
36.6341255
11
87.8414241
21
36.6341255
0
LINE
8
DEFAULT_255_2_778
10
87.8413397
20
72.7841943
11
77.8914397
21
72.7841943
0
LINE
8
DEFAULT_255_2_778
10
77.8914397
20
72.7841943
11
77.8914397
21
36.8841943
0
LINE
8
DEFAULT_255_2_778
10
77.8914397
20
36.8841943
11
87.8413397
21
36.8841943
0
LINE
8
DEFAULT_255_2_778
10
61.5415241
20
36.6341255
11
71.7415241
21
36.6341255
0
LINE
8
DEFAULT_255_2_778
10
71.7415241
20
36.6341255
11
71.7415241
21
71.0342255
0
LINE
8
DEFAULT_255_2_778
10
71.7415241
20
71.0342255
11
69.7415241
21
73.0342255
0
LINE
8
DEFAULT_255_2_778
10
69.7415241
20
73.0342255
11
61.5415241
21
73.0342255
0
LINE
8
DEFAULT_255_2_778
10
61.5415397
20
36.8841943
11
71.4914397
21
36.8841943
0
LINE
8
DEFAULT_255_2_778
10
71.4914397
20
36.8841943
11
71.4914397
21
70.7841943
0
LINE
8
DEFAULT_255_2_778
10
71.4914397
20
70.7841943
11
69.4914397
21
72.7841943
0
LINE
8
DEFAULT_255_2_778
10
69.4914397
20
72.7841943
11
61.5415397
21
72.7841943
0
LINE
8
DEFAULT_255_2_778
10
5.6414009
20
76.2844348
11
5.5414009
21
76.2844348
0
LINE
8
DEFAULT_255_2_778
10
5.5414009
20
74.3844348
11
5.6414009
21
74.3844348
0
LINE
8
DEFAULT_255_2_778
10
144.6416009
20
33.3843348
11
144.7416009
21
33.3843348
0
LINE
8
DEFAULT_255_2_778
10
144.7416009
20
35.2843348
11
144.6416009
21
35.2843348
0
LINE
8
DEFAULT_255_2_778
10
5.6414009
20
35.2843348
11
5.5414009
21
35.2843348
0
LINE
8
DEFAULT_255_2_778
10
5.5414009
20
33.3843348
11
5.6414009
21
33.3843348
0
LINE
8
DEFAULT_255_2_778
10
144.6416009
20
74.3844348
11
144.7416009
21
74.3844348
0
LINE
8
DEFAULT_255_2_778
10
144.7416009
20
76.2844348
11
144.6416009
21
76.2844348
0
ARC
8
DEFAULT_255_2_778
10
145.6478916
20
4.8316574
40
2.2436706
50
337.80246
51
0.0728024
0
ARC
8
DEFAULT_255_2_778
10
145.6397034
20
4.8371663
40
2.2533342
50
280.2431405
51
337.751425
0
ARC
8
DEFAULT_255_2_778
10
145.6425279
20
4.848386
40
2.2638779
50
269.9755154
51
280.1223018
0
LINE
8
DEFAULT_255_2_778
10
145.6415605
20
2.5845083
11
145.1414605
21
2.5845083
0
ARC
8
DEFAULT_255_2_778
10
144.6352293
20
4.8316574
40
2.2436706
50
179.9271976
51
202.19754
0
ARC
8
DEFAULT_255_2_778
10
144.6434175
20
4.8371663
40
2.2533342
50
202.248575
51
259.7568595
0
ARC
8
DEFAULT_255_2_778
10
144.640593
20
4.848386
40
2.2638779
50
259.8776982
51
270.0244846
0
LINE
8
DEFAULT_255_2_778
10
144.6415605
20
2.5845083
11
145.1416605
21
2.5845083
0
ARC
8
DEFAULT_255_2_778
10
145.6478916
20
4.8373592
40
2.2436706
50
359.9271976
51
22.19754
0
ARC
8
DEFAULT_255_2_778
10
145.6397034
20
4.8318503
40
2.2533342
50
22.248575
51
79.7568595
0
ARC
8
DEFAULT_255_2_778
10
145.6425279
20
4.8206306
40
2.2638779
50
79.8776982
51
90.0244846
0
LINE
8
DEFAULT_255_2_778
10
145.6415605
20
7.0845083
11
145.1414605
21
7.0845083
0
ARC
8
DEFAULT_255_2_778
10
144.6352293
20
4.8373592
40
2.2436706
50
157.80246
51
180.0728024
0
ARC
8
DEFAULT_255_2_778
10
144.6434175
20
4.8318503
40
2.2533342
50
100.2431405
51
157.751425
0
ARC
8
DEFAULT_255_2_778
10
144.640593
20
4.8206306
40
2.2638779
50
89.9755154
51
100.1223018
0
LINE
8
DEFAULT_255_2_778
10
144.6415605
20
7.0845083
11
145.1416605
21
7.0845083
0
ARC
8
DEFAULT_255_2_778
10
145.6478916
20
104.8371592
40
2.2436706
50
359.9271976
51
22.19754
0
ARC
8
DEFAULT_255_2_778
10
145.6397034
20
104.8316503
40
2.2533342
50
22.248575
51
79.7568595
0
ARC
8
DEFAULT_255_2_778
10
145.6425279
20
104.8204306
40
2.2638779
50
79.8776982
51
90.0244846
0
LINE
8
DEFAULT_255_2_778
10
145.6415605
20
107.0843083
11
145.1414605
21
107.0843083
0
ARC
8
DEFAULT_255_2_778
10
144.6352293
20
104.8371592
40
2.2436706
50
157.80246
51
180.0728024
0
ARC
8
DEFAULT_255_2_778
10
144.6434175
20
104.8316503
40
2.2533342
50
100.2431405
51
157.751425
0
ARC
8
DEFAULT_255_2_778
10
144.640593
20
104.8204306
40
2.2638779
50
89.9755154
51
100.1223018
0
LINE
8
DEFAULT_255_2_778
10
144.6415605
20
107.0843083
11
145.1416605
21
107.0843083
0
ARC
8
DEFAULT_255_2_778
10
145.6478916
20
104.8314574
40
2.2436706
50
337.80246
51
0.0728024
0
ARC
8
DEFAULT_255_2_778
10
145.6397034
20
104.8369663
40
2.2533342
50
280.2431405
51
337.751425
0
ARC
8
DEFAULT_255_2_778
10
145.6425279
20
104.848186
40
2.2638779
50
269.9755154
51
280.1223018
0
LINE
8
DEFAULT_255_2_778
10
145.6415605
20
102.5843083
11
145.1414605
21
102.5843083
0
ARC
8
DEFAULT_255_2_778
10
144.6352293
20
104.8314574
40
2.2436706
50
179.9271976
51
202.19754
0
ARC
8
DEFAULT_255_2_778
10
144.6434175
20
104.8369663
40
2.2533342
50
202.248575
51
259.7568595
0
ARC
8
DEFAULT_255_2_778
10
144.640593
20
104.848186
40
2.2638779
50
259.8776982
51
270.0244846
0
LINE
8
DEFAULT_255_2_778
10
144.6415605
20
102.5843083
11
145.1416605
21
102.5843083
0
ARC
8
DEFAULT_255_2_778
10
5.1380567
20
104.8299243
40
2.2543868
50
89.9101572
51
111.7613949
0
ARC
8
DEFAULT_255_2_778
10
5.1370747
20
104.8392464
40
2.2453665
50
111.826312
51
169.5454888
0
ARC
8
DEFAULT_255_2_778
10
5.1711036
20
104.835497
40
2.2795122
50
169.6080143
51
180.0298779
0
ARC
8
DEFAULT_255_2_778
10
5.1380503
20
104.8388284
40
2.2545229
50
248.2401607
51
270.0899995
0
ARC
8
DEFAULT_255_2_778
10
5.1369691
20
104.8292745
40
2.2452504
50
190.46182
51
248.1754031
0
ARC
8
DEFAULT_255_2_778
10
5.1713581
20
104.8331169
40
2.2797667
50
179.9700565
51
190.3998477
0
ARC
8
DEFAULT_255_2_778
10
5.1452403
20
104.8297796
40
2.2545315
50
68.2393107
51
90.0901832
0
ARC
8
DEFAULT_255_2_778
10
5.1462972
20
104.8393349
40
2.2452669
50
10.452684
51
68.1739611
0
ARC
8
DEFAULT_255_2_778
10
5.1119635
20
104.8354959
40
2.2797285
50
359.9701533
51
10.3910176
0
ARC
8
DEFAULT_255_2_778
10
5.1452467
20
104.8389731
40
2.2546676
50
269.9096602
51
291.7591338
0
ARC
8
DEFAULT_255_2_778
10
5.1464034
20
104.829185
40
2.2451496
50
291.8243171
51
349.5464435
0
ARC
8
DEFAULT_255_2_778
10
5.1117398
20
104.8331151
40
2.2799523
50
349.6073717
51
0.0299867
0
ARC
8
DEFAULT_255_2_778
10
5.1380567
20
4.8301243
40
2.2543868
50
89.9101572
51
111.7613949
0
ARC
8
DEFAULT_255_2_778
10
5.1370747
20
4.8394464
40
2.2453665
50
111.826312
51
169.5454888
0
ARC
8
DEFAULT_255_2_778
10
5.1711036
20
4.835697
40
2.2795122
50
169.6080143
51
180.0298779
0
ARC
8
DEFAULT_255_2_778
10
5.1380503
20
4.8390284
40
2.2545229
50
248.2401607
51
270.0899995
0
ARC
8
DEFAULT_255_2_778
10
5.1369691
20
4.8294745
40
2.2452504
50
190.46182
51
248.1754031
0
ARC
8
DEFAULT_255_2_778
10
5.1713581
20
4.8333169
40
2.2797667
50
179.9700565
51
190.3998477
0
ARC
8
DEFAULT_255_2_778
10
5.1452403
20
4.8299796
40
2.2545315
50
68.2393107
51
90.0901832
0
ARC
8
DEFAULT_255_2_778
10
5.1462972
20
4.8395349
40
2.2452669
50
10.452684
51
68.1739611
0
ARC
8
DEFAULT_255_2_778
10
5.1119635
20
4.8356959
40
2.2797285
50
359.9701533
51
10.3910176
0
ARC
8
DEFAULT_255_2_778
10
5.1452467
20
4.8391731
40
2.2546676
50
269.9096602
51
291.7591338
0
ARC
8
DEFAULT_255_2_778
10
5.1464034
20
4.829385
40
2.2451496
50
291.8243171
51
349.5464435
0
ARC
8
DEFAULT_255_2_778
10
5.1117398
20
4.8333151
40
2.2799523
50
349.6073717
51
0.0299867
0
ENDSEC
0
EOF