0
SECTION
2
HEADER
9
$MEASUREMENT
70
1
0
ENDSEC
0
SECTION
2
TABLES
0
TABLE
2
LTYPE
0
LTYPE
72
65
70
64
2
CONTINUOUS
3
______
73
0
40
0
0
ENDTAB
0
TABLE
2
LAYER
0
LAYER
2
DEFAULT_255_2_778
70
0
62
255
6
CONTINUOUS
0
ENDTAB
0
ENDSEC
0
SECTION
2
ENTITIES
0
LINE
8
DEFAULT_255_2_778
10
21.1414739
20
72.3344505
11
21.1414739
21
37.3345505
0
LINE
8
DEFAULT_255_2_778
10
3.6414739
20
72.3344505
11
3.6414739
21
37.3345505
0
LINE
8
DEFAULT_255_2_778
10
5.5413739
20
35.5343505
11
3.6414739
21
35.5343505
0
LINE
8
DEFAULT_255_2_778
10
3.6414739
20
35.5343505
11
1.8914739
21
36.5344505
0
LINE
8
DEFAULT_255_2_778
10
148.3915739
20
36.5344505
11
146.6415739
21
35.5343505
0
LINE
8
DEFAULT_255_2_778
10
146.6415739
20
35.5343505
11
144.7415739
21
35.5343505
0
LINE
8
DEFAULT_255_2_778
10
0.1415198
20
36.5344675
11
5.5414198
21
36.5344675
0
LINE
8
DEFAULT_255_2_778
10
5.5414198
20
36.5344675
11
5.5414198
21
28.6345675
0
LINE
8
DEFAULT_255_2_778
10
5.5414198
20
28.6345675
11
144.7413198
21
28.6345675
0
LINE
8
DEFAULT_255_2_778
10
144.7413198
20
28.6345675
11
144.7413198
21
36.5344675
0
LINE
8
DEFAULT_255_2_778
10
144.7413198
20
36.5344675
11
150.1412198
21
36.5344675
0
LINE
8
DEFAULT_255_2_778
10
0.1415198
20
9.8343675
11
150.1415198
21
9.8343675
0
LINE
8
DEFAULT_255_2_778
10
150.1415198
20
73.1345675
11
144.7416198
21
73.1345675
0
LINE
8
DEFAULT_255_2_778
10
144.7416198
20
73.1345675
11
144.7416198
21
81.0344675
0
LINE
8
DEFAULT_255_2_778
10
144.7416198
20
81.0344675
11
5.5414198
21
81.0344675
0
LINE
8
DEFAULT_255_2_778
10
5.5414198
20
81.0344675
11
5.5414198
21
73.1345675
0
LINE
8
DEFAULT_255_2_778
10
5.5414198
20
73.1345675
11
0.1415198
21
73.1345675
0
LINE
8
DEFAULT_255_2_778
10
150.1415198
20
99.8344675
11
0.1415198
21
99.8344675
0
LINE
8
DEFAULT_255_2_778
10
144.7415739
20
74.1343625
11
146.6415739
21
74.1343625
0
LINE
8
DEFAULT_255_2_778
10
146.6415739
20
74.1343625
11
148.3915739
21
73.1342625
0
LINE
8
DEFAULT_255_2_778
10
1.8914739
20
73.1342625
11
3.6414739
21
74.1343625
0
LINE
8
DEFAULT_255_2_778
10
3.6414739
20
74.1343625
11
5.5413739
21
74.1343625
0
LINE
8
DEFAULT_255_2_778
10
44.6415565
20
9.8343291
11
44.6415565
21
9.1342291
0
LINE
8
DEFAULT_255_2_778
10
44.6415565
20
9.1342291
11
42.6415565
21
9.1342291
0
LINE
8
DEFAULT_255_2_778
10
42.6415565
20
9.1342291
11
42.6415565
21
7.3343291
0
LINE
8
DEFAULT_255_2_778
10
42.6415565
20
7.3343291
11
39.6414565
21
5.1342291
0
LINE
8
DEFAULT_255_2_778
10
39.6414565
20
5.1342291
11
34.6413565
21
5.1342291
0
LINE
8
DEFAULT_255_2_778
10
34.6413565
20
5.1342291
11
31.6412565
21
7.3343291
0
LINE
8
DEFAULT_255_2_778
10
31.6412565
20
7.3343291
11
31.6412565
21
9.1342291
0
LINE
8
DEFAULT_255_2_778
10
31.6412565
20
9.1342291
11
29.6412565
21
9.1342291
0
LINE
8
DEFAULT_255_2_778
10
29.6412565
20
9.1342291
11
29.6412565
21
9.8343291
0
LINE
8
DEFAULT_255_2_778
10
120.6415565
20
9.8343291
11
120.6415565
21
9.1342291
0
LINE
8
DEFAULT_255_2_778
10
120.6415565
20
9.1342291
11
118.6415565
21
9.1342291
0
LINE
8
DEFAULT_255_2_778
10
118.6415565
20
9.1342291
11
118.6415565
21
7.3343291
0
LINE
8
DEFAULT_255_2_778
10
118.6415565
20
7.3343291
11
115.6414565
21
5.1342291
0
LINE
8
DEFAULT_255_2_778
10
115.6414565
20
5.1342291
11
110.6413565
21
5.1342291
0
LINE
8
DEFAULT_255_2_778
10
110.6413565
20
5.1342291
11
107.6412565
21
7.3343291
0
LINE
8
DEFAULT_255_2_778
10
107.6412565
20
7.3343291
11
107.6412565
21
9.1342291
0
LINE
8
DEFAULT_255_2_778
10
107.6412565
20
9.1342291
11
105.6412565
21
9.1342291
0
LINE
8
DEFAULT_255_2_778
10
105.6412565
20
9.1342291
11
105.6412565
21
9.8343291
0
LINE
8
DEFAULT_255_2_778
10
5.6414134
20
37.3342993
11
5.6414134
21
28.6342993
0
LINE
8
DEFAULT_255_2_778
10
144.6416134
20
37.3342993
11
144.6416134
21
28.6342993
0
LINE
8
DEFAULT_255_2_778
10
144.6416134
20
81.0344993
11
144.6416134
21
72.3344993
0
LINE
8
DEFAULT_255_2_778
10
5.6414134
20
81.0344993
11
5.6414134
21
72.3344993
0
LINE
8
DEFAULT_255_2_778
10
94.2416823
20
32.6842146
11
91.8416823
21
32.6842146
0
LINE
8
DEFAULT_255_2_778
10
91.8416823
20
32.6842146
11
91.8416823
21
30.3342146
0
LINE
8
DEFAULT_255_2_778
10
91.8416823
20
30.3342146
11
94.2416823
21
30.3342146
0
LINE
8
DEFAULT_255_2_778
10
94.2416823
20
30.3342146
11
94.2416823
21
32.6842146
0
LINE
8
DEFAULT_255_2_778
10
82.8415823
20
74.6345146
11
82.8415823
21
76.9845146
0
LINE
8
DEFAULT_255_2_778
10
82.8415823
20
76.9845146
11
80.4415823
21
76.9845146
0
LINE
8
DEFAULT_255_2_778
10
80.4415823
20
76.9845146
11
80.4415823
21
74.6345146
0
LINE
8
DEFAULT_255_2_778
10
80.4415823
20
74.6345146
11
82.8415823
21
74.6345146
0
LINE
8
DEFAULT_255_2_778
10
79.0415823
20
76.9842146
11
79.0415823
21
79.3342146
0
LINE
8
DEFAULT_255_2_778
10
79.0415823
20
79.3342146
11
76.6415823
21
79.3342146
0
LINE
8
DEFAULT_255_2_778
10
76.6415823
20
79.3342146
11
76.6415823
21
76.9842146
0
LINE
8
DEFAULT_255_2_778
10
76.6415823
20
76.9842146
11
79.0415823
21
76.9842146
0
LINE
8
DEFAULT_255_2_778
10
86.6414823
20
76.9842146
11
86.6414823
21
79.3342146
0
LINE
8
DEFAULT_255_2_778
10
86.6414823
20
79.3342146
11
84.2414823
21
79.3342146
0
LINE
8
DEFAULT_255_2_778
10
84.2414823
20
79.3342146
11
84.2414823
21
76.9842146
0
LINE
8
DEFAULT_255_2_778
10
84.2414823
20
76.9842146
11
86.6414823
21
76.9842146
0
LINE
8
DEFAULT_255_2_778
10
72.8416823
20
74.6345146
11
75.2416823
21
74.6345146
0
LINE
8
DEFAULT_255_2_778
10
75.2416823
20
74.6345146
11
75.2416823
21
76.9845146
0
LINE
8
DEFAULT_255_2_778
10
75.2416823
20
76.9845146
11
72.8416823
21
76.9845146
0
LINE
8
DEFAULT_255_2_778
10
72.8416823
20
76.9845146
11
72.8416823
21
74.6345146
0
LINE
8
DEFAULT_255_2_778
10
75.2416823
20
35.0343146
11
72.8416823
21
35.0343146
0
LINE
8
DEFAULT_255_2_778
10
72.8416823
20
35.0343146
11
72.8416823
21
32.6843146
0
LINE
8
DEFAULT_255_2_778
10
72.8416823
20
32.6843146
11
75.2416823
21
32.6843146
0
LINE
8
DEFAULT_255_2_778
10
75.2416823
20
32.6843146
11
75.2416823
21
35.0343146
0
LINE
8
DEFAULT_255_2_778
10
71.4413823
20
79.3342146
11
69.0413823
21
79.3342146
0
LINE
8
DEFAULT_255_2_778
10
69.0413823
20
79.3342146
11
69.0413823
21
76.9842146
0
LINE
8
DEFAULT_255_2_778
10
69.0413823
20
76.9842146
11
71.4413823
21
76.9842146
0
LINE
8
DEFAULT_255_2_778
10
71.4413823
20
76.9842146
11
71.4413823
21
79.3342146
0
LINE
8
DEFAULT_255_2_778
10
103.2414823
20
35.0343146
11
103.2414823
21
32.6843146
0
LINE
8
DEFAULT_255_2_778
10
103.2414823
20
32.6843146
11
105.6414823
21
32.6843146
0
LINE
8
DEFAULT_255_2_778
10
105.6414823
20
32.6843146
11
105.6414823
21
35.0343146
0
LINE
8
DEFAULT_255_2_778
10
105.6414823
20
35.0343146
11
103.2414823
21
35.0343146
0
LINE
8
DEFAULT_255_2_778
10
67.6414823
20
74.6345146
11
67.6414823
21
76.9845146
0
LINE
8
DEFAULT_255_2_778
10
67.6414823
20
76.9845146
11
65.2414823
21
76.9845146
0
LINE
8
DEFAULT_255_2_778
10
65.2414823
20
76.9845146
11
65.2414823
21
74.6345146
0
LINE
8
DEFAULT_255_2_778
10
65.2414823
20
74.6345146
11
67.6414823
21
74.6345146
0
LINE
8
DEFAULT_255_2_778
10
95.6415823
20
35.0343146
11
95.6415823
21
32.6843146
0
LINE
8
DEFAULT_255_2_778
10
95.6415823
20
32.6843146
11
98.0415823
21
32.6843146
0
LINE
8
DEFAULT_255_2_778
10
98.0415823
20
32.6843146
11
98.0415823
21
35.0343146
0
LINE
8
DEFAULT_255_2_778
10
98.0415823
20
35.0343146
11
95.6415823
21
35.0343146
0
LINE
8
DEFAULT_255_2_778
10
63.8415823
20
79.3342146
11
61.4415823
21
79.3342146
0
LINE
8
DEFAULT_255_2_778
10
61.4415823
20
79.3342146
11
61.4415823
21
76.9842146
0
LINE
8
DEFAULT_255_2_778
10
61.4415823
20
76.9842146
11
63.8415823
21
76.9842146
0
LINE
8
DEFAULT_255_2_778
10
63.8415823
20
76.9842146
11
63.8415823
21
79.3342146
0
LINE
8
DEFAULT_255_2_778
10
90.4413823
20
35.0343146
11
88.0413823
21
35.0343146
0
LINE
8
DEFAULT_255_2_778
10
88.0413823
20
35.0343146
11
88.0413823
21
32.6843146
0
LINE
8
DEFAULT_255_2_778
10
88.0413823
20
32.6843146
11
90.4413823
21
32.6843146
0
LINE
8
DEFAULT_255_2_778
10
90.4413823
20
32.6843146
11
90.4413823
21
35.0343146
0
LINE
8
DEFAULT_255_2_778
10
60.0415823
20
76.9845146
11
57.6415823
21
76.9845146
0
LINE
8
DEFAULT_255_2_778
10
57.6415823
20
76.9845146
11
57.6415823
21
74.6345146
0
LINE
8
DEFAULT_255_2_778
10
57.6415823
20
74.6345146
11
60.0415823
21
74.6345146
0
LINE
8
DEFAULT_255_2_778
10
60.0415823
20
74.6345146
11
60.0415823
21
76.9845146
0
LINE
8
DEFAULT_255_2_778
10
144.1414759
20
72.3344045
11
144.1414759
21
80.5344045
0
LINE
8
DEFAULT_255_2_778
10
144.1414759
20
80.5344045
11
6.1414759
21
80.5344045
0
LINE
8
DEFAULT_255_2_778
10
6.1414759
20
80.5344045
11
6.1414759
21
72.9345045
0
LINE
8
DEFAULT_255_2_778
10
6.1414759
20
72.9345045
11
21.7415759
21
72.9345045
0
LINE
8
DEFAULT_255_2_778
10
21.7415759
20
72.9345045
11
21.7415759
21
36.7345045
0
LINE
8
DEFAULT_255_2_778
10
21.7415759
20
36.7345045
11
6.1414759
21
36.7345045
0
LINE
8
DEFAULT_255_2_778
10
6.1414759
20
36.7345045
11
6.1414759
21
29.1346045
0
LINE
8
DEFAULT_255_2_778
10
6.1414759
20
29.1346045
11
144.1414759
21
29.1346045
0
LINE
8
DEFAULT_255_2_778
10
144.1414759
20
29.1346045
11
144.1414759
21
37.3346045
0
LINE
8
DEFAULT_255_2_778
10
53.8416823
20
79.3342146
11
53.8416823
21
76.9842146
0
LINE
8
DEFAULT_255_2_778
10
53.8416823
20
76.9842146
11
56.2416823
21
76.9842146
0
LINE
8
DEFAULT_255_2_778
10
56.2416823
20
76.9842146
11
56.2416823
21
79.3342146
0
LINE
8
DEFAULT_255_2_778
10
56.2416823
20
79.3342146
11
53.8416823
21
79.3342146
0
LINE
8
DEFAULT_255_2_778
10
50.0414823
20
76.9845146
11
50.0414823
21
74.6345146
0
LINE
8
DEFAULT_255_2_778
10
50.0414823
20
74.6345146
11
52.4414823
21
74.6345146
0
LINE
8
DEFAULT_255_2_778
10
52.4414823
20
74.6345146
11
52.4414823
21
76.9845146
0
LINE
8
DEFAULT_255_2_778
10
52.4414823
20
76.9845146
11
50.0414823
21
76.9845146
0
LINE
8
DEFAULT_255_2_778
10
118.4414823
20
76.9845146
11
118.4414823
21
74.6345146
0
LINE
8
DEFAULT_255_2_778
10
118.4414823
20
74.6345146
11
120.8414823
21
74.6345146
0
LINE
8
DEFAULT_255_2_778
10
120.8414823
20
74.6345146
11
120.8414823
21
76.9845146
0
LINE
8
DEFAULT_255_2_778
10
120.8414823
20
76.9845146
11
118.4414823
21
76.9845146
0
LINE
8
DEFAULT_255_2_778
10
139.8414823
20
32.6842146
11
137.4414823
21
32.6842146
0
LINE
8
DEFAULT_255_2_778
10
137.4414823
20
32.6842146
11
137.4414823
21
30.3342146
0
LINE
8
DEFAULT_255_2_778
10
137.4414823
20
30.3342146
11
139.8414823
21
30.3342146
0
LINE
8
DEFAULT_255_2_778
10
139.8414823
20
30.3342146
11
139.8414823
21
32.6842146
0
LINE
8
DEFAULT_255_2_778
10
114.6415823
20
79.3342146
11
114.6415823
21
76.9842146
0
LINE
8
DEFAULT_255_2_778
10
114.6415823
20
76.9842146
11
117.0415823
21
76.9842146
0
LINE
8
DEFAULT_255_2_778
10
117.0415823
20
76.9842146
11
117.0415823
21
79.3342146
0
LINE
8
DEFAULT_255_2_778
10
117.0415823
20
79.3342146
11
114.6415823
21
79.3342146
0
LINE
8
DEFAULT_255_2_778
10
82.8415823
20
35.0343146
11
80.4415823
21
35.0343146
0
LINE
8
DEFAULT_255_2_778
10
80.4415823
20
35.0343146
11
80.4415823
21
32.6843146
0
LINE
8
DEFAULT_255_2_778
10
80.4415823
20
32.6843146
11
82.8415823
21
32.6843146
0
LINE
8
DEFAULT_255_2_778
10
82.8415823
20
32.6843146
11
82.8415823
21
35.0343146
0
LINE
8
DEFAULT_255_2_778
10
110.8415823
20
76.9845146
11
110.8415823
21
74.6345146
0
LINE
8
DEFAULT_255_2_778
10
110.8415823
20
74.6345146
11
113.2415823
21
74.6345146
0
LINE
8
DEFAULT_255_2_778
10
113.2415823
20
74.6345146
11
113.2415823
21
76.9845146
0
LINE
8
DEFAULT_255_2_778
10
113.2415823
20
76.9845146
11
110.8415823
21
76.9845146
0
LINE
8
DEFAULT_255_2_778
10
139.8414823
20
79.3342146
11
137.4414823
21
79.3342146
0
LINE
8
DEFAULT_255_2_778
10
137.4414823
20
79.3342146
11
137.4414823
21
76.9842146
0
LINE
8
DEFAULT_255_2_778
10
137.4414823
20
76.9842146
11
139.8414823
21
76.9842146
0
LINE
8
DEFAULT_255_2_778
10
139.8414823
20
76.9842146
11
139.8414823
21
79.3342146
0
LINE
8
DEFAULT_255_2_778
10
107.0413823
20
76.9842146
11
109.4413823
21
76.9842146
0
LINE
8
DEFAULT_255_2_778
10
109.4413823
20
76.9842146
11
109.4413823
21
79.3342146
0
LINE
8
DEFAULT_255_2_778
10
109.4413823
20
79.3342146
11
107.0413823
21
79.3342146
0
LINE
8
DEFAULT_255_2_778
10
107.0413823
20
79.3342146
11
107.0413823
21
76.9842146
0
LINE
8
DEFAULT_255_2_778
10
103.2414823
20
76.9845146
11
103.2414823
21
74.6345146
0
LINE
8
DEFAULT_255_2_778
10
103.2414823
20
74.6345146
11
105.6414823
21
74.6345146
0
LINE
8
DEFAULT_255_2_778
10
105.6414823
20
74.6345146
11
105.6414823
21
76.9845146
0
LINE
8
DEFAULT_255_2_778
10
105.6414823
20
76.9845146
11
103.2414823
21
76.9845146
0
LINE
8
DEFAULT_255_2_778
10
67.6414823
20
35.0343146
11
65.2414823
21
35.0343146
0
LINE
8
DEFAULT_255_2_778
10
65.2414823
20
35.0343146
11
65.2414823
21
32.6843146
0
LINE
8
DEFAULT_255_2_778
10
65.2414823
20
32.6843146
11
67.6414823
21
32.6843146
0
LINE
8
DEFAULT_255_2_778
10
67.6414823
20
32.6843146
11
67.6414823
21
35.0343146
0
LINE
8
DEFAULT_255_2_778
10
60.0415823
20
35.0343146
11
57.6415823
21
35.0343146
0
LINE
8
DEFAULT_255_2_778
10
57.6415823
20
35.0343146
11
57.6415823
21
32.6843146
0
LINE
8
DEFAULT_255_2_778
10
57.6415823
20
32.6843146
11
60.0415823
21
32.6843146
0
LINE
8
DEFAULT_255_2_778
10
60.0415823
20
32.6843146
11
60.0415823
21
35.0343146
0
LINE
8
DEFAULT_255_2_778
10
98.0415823
20
76.9845146
11
95.6415823
21
76.9845146
0
LINE
8
DEFAULT_255_2_778
10
95.6415823
20
76.9845146
11
95.6415823
21
74.6345146
0
LINE
8
DEFAULT_255_2_778
10
95.6415823
20
74.6345146
11
98.0415823
21
74.6345146
0
LINE
8
DEFAULT_255_2_778
10
98.0415823
20
74.6345146
11
98.0415823
21
76.9845146
0
LINE
8
DEFAULT_255_2_778
10
94.2416823
20
76.9842146
11
94.2416823
21
79.3342146
0
LINE
8
DEFAULT_255_2_778
10
94.2416823
20
79.3342146
11
91.8416823
21
79.3342146
0
LINE
8
DEFAULT_255_2_778
10
91.8416823
20
79.3342146
11
91.8416823
21
76.9842146
0
LINE
8
DEFAULT_255_2_778
10
91.8416823
20
76.9842146
11
94.2416823
21
76.9842146
0
LINE
8
DEFAULT_255_2_778
10
90.4413823
20
76.9845146
11
88.0413823
21
76.9845146
0
LINE
8
DEFAULT_255_2_778
10
88.0413823
20
76.9845146
11
88.0413823
21
74.6345146
0
LINE
8
DEFAULT_255_2_778
10
88.0413823
20
74.6345146
11
90.4413823
21
74.6345146
0
LINE
8
DEFAULT_255_2_778
10
90.4413823
20
74.6345146
11
90.4413823
21
76.9845146
0
LINE
8
DEFAULT_255_2_778
10
128.4416823
20
32.6843146
11
128.4416823
21
35.0343146
0
LINE
8
DEFAULT_255_2_778
10
128.4416823
20
35.0343146
11
126.0416823
21
35.0343146
0
LINE
8
DEFAULT_255_2_778
10
126.0416823
20
35.0343146
11
126.0416823
21
32.6843146
0
LINE
8
DEFAULT_255_2_778
10
126.0416823
20
32.6843146
11
128.4416823
21
32.6843146
0
LINE
8
DEFAULT_255_2_778
10
133.6415823
20
32.6843146
11
136.0415823
21
32.6843146
0
LINE
8
DEFAULT_255_2_778
10
136.0415823
20
32.6843146
11
136.0415823
21
35.0343146
0
LINE
8
DEFAULT_255_2_778
10
136.0415823
20
35.0343146
11
133.6415823
21
35.0343146
0
LINE
8
DEFAULT_255_2_778
10
133.6415823
20
35.0343146
11
133.6415823
21
32.6843146
0
LINE
8
DEFAULT_255_2_778
10
129.8415823
20
79.3342146
11
129.8415823
21
76.9842146
0
LINE
8
DEFAULT_255_2_778
10
129.8415823
20
76.9842146
11
132.2415823
21
76.9842146
0
LINE
8
DEFAULT_255_2_778
10
132.2415823
20
76.9842146
11
132.2415823
21
79.3342146
0
LINE
8
DEFAULT_255_2_778
10
132.2415823
20
79.3342146
11
129.8415823
21
79.3342146
0
LINE
8
DEFAULT_255_2_778
10
27.1915011
20
42.4343802
11
25.0915011
21
42.4343802
0
LINE
8
DEFAULT_255_2_778
10
25.0915011
20
42.4343802
11
25.0915011
21
40.6343802
0
LINE
8
DEFAULT_255_2_778
10
25.0915011
20
40.6343802
11
27.1915011
21
40.6343802
0
LINE
8
DEFAULT_255_2_778
10
27.1915011
20
40.6343802
11
27.1915011
21
42.4343802
0
LINE
8
DEFAULT_255_2_778
10
110.8415823
20
32.6843146
11
113.2415823
21
32.6843146
0
LINE
8
DEFAULT_255_2_778
10
113.2415823
20
32.6843146
11
113.2415823
21
35.0343146
0
LINE
8
DEFAULT_255_2_778
10
113.2415823
20
35.0343146
11
110.8415823
21
35.0343146
0
LINE
8
DEFAULT_255_2_778
10
110.8415823
20
35.0343146
11
110.8415823
21
32.6843146
0
LINE
8
DEFAULT_255_2_778
10
101.8414823
20
32.6842146
11
99.4414823
21
32.6842146
0
LINE
8
DEFAULT_255_2_778
10
99.4414823
20
32.6842146
11
99.4414823
21
30.3342146
0
LINE
8
DEFAULT_255_2_778
10
99.4414823
20
30.3342146
11
101.8414823
21
30.3342146
0
LINE
8
DEFAULT_255_2_778
10
101.8414823
20
30.3342146
11
101.8414823
21
32.6842146
0
LINE
8
DEFAULT_255_2_778
10
133.6415823
20
74.6345146
11
136.0415823
21
74.6345146
0
LINE
8
DEFAULT_255_2_778
10
136.0415823
20
74.6345146
11
136.0415823
21
76.9845146
0
LINE
8
DEFAULT_255_2_778
10
136.0415823
20
76.9845146
11
133.6415823
21
76.9845146
0
LINE
8
DEFAULT_255_2_778
10
133.6415823
20
76.9845146
11
133.6415823
21
74.6345146
0
LINE
8
DEFAULT_255_2_778
10
27.1915011
20
69.0342802
11
25.0915011
21
69.0342802
0
LINE
8
DEFAULT_255_2_778
10
25.0915011
20
69.0342802
11
25.0915011
21
67.2342802
0
LINE
8
DEFAULT_255_2_778
10
25.0915011
20
67.2342802
11
27.1915011
21
67.2342802
0
LINE
8
DEFAULT_255_2_778
10
27.1915011
20
67.2342802
11
27.1915011
21
69.0342802
0
LINE
8
DEFAULT_255_2_778
10
118.4414823
20
35.0343146
11
118.4414823
21
32.6843146
0
LINE
8
DEFAULT_255_2_778
10
118.4414823
20
32.6843146
11
120.8414823
21
32.6843146
0
LINE
8
DEFAULT_255_2_778
10
120.8414823
20
32.6843146
11
120.8414823
21
35.0343146
0
LINE
8
DEFAULT_255_2_778
10
120.8414823
20
35.0343146
11
118.4414823
21
35.0343146
0
LINE
8
DEFAULT_255_2_778
10
124.6414823
20
79.3342146
11
122.2414823
21
79.3342146
0
LINE
8
DEFAULT_255_2_778
10
122.2414823
20
79.3342146
11
122.2414823
21
76.9842146
0
LINE
8
DEFAULT_255_2_778
10
122.2414823
20
76.9842146
11
124.6414823
21
76.9842146
0
LINE
8
DEFAULT_255_2_778
10
124.6414823
20
76.9842146
11
124.6414823
21
79.3342146
0
LINE
8
DEFAULT_255_2_778
10
117.0415823
20
32.6842146
11
114.6415823
21
32.6842146
0
LINE
8
DEFAULT_255_2_778
10
114.6415823
20
32.6842146
11
114.6415823
21
30.3342146
0
LINE
8
DEFAULT_255_2_778
10
114.6415823
20
30.3342146
11
117.0415823
21
30.3342146
0
LINE
8
DEFAULT_255_2_778
10
117.0415823
20
30.3342146
11
117.0415823
21
32.6842146
0
LINE
8
DEFAULT_255_2_778
10
129.8415823
20
32.6842146
11
129.8415823
21
30.3342146
0
LINE
8
DEFAULT_255_2_778
10
129.8415823
20
30.3342146
11
132.2415823
21
30.3342146
0
LINE
8
DEFAULT_255_2_778
10
132.2415823
20
30.3342146
11
132.2415823
21
32.6842146
0
LINE
8
DEFAULT_255_2_778
10
132.2415823
20
32.6842146
11
129.8415823
21
32.6842146
0
LINE
8
DEFAULT_255_2_778
10
99.4414823
20
79.3342146
11
99.4414823
21
76.9842146
0
LINE
8
DEFAULT_255_2_778
10
99.4414823
20
76.9842146
11
101.8414823
21
76.9842146
0
LINE
8
DEFAULT_255_2_778
10
101.8414823
20
76.9842146
11
101.8414823
21
79.3342146
0
LINE
8
DEFAULT_255_2_778
10
101.8414823
20
79.3342146
11
99.4414823
21
79.3342146
0
LINE
8
DEFAULT_255_2_778
10
128.4416823
20
76.9845146
11
126.0416823
21
76.9845146
0
LINE
8
DEFAULT_255_2_778
10
126.0416823
20
76.9845146
11
126.0416823
21
74.6345146
0
LINE
8
DEFAULT_255_2_778
10
126.0416823
20
74.6345146
11
128.4416823
21
74.6345146
0
LINE
8
DEFAULT_255_2_778
10
128.4416823
20
74.6345146
11
128.4416823
21
76.9845146
0
ARC
8
DEFAULT_255_2_778
10
149.0408625
20
83.897762
40
2.399175
50
137.3453152
51
180.0040912
0
ARC
8
DEFAULT_255_2_778
10
149.0412958
20
25.7711885
40
2.3996083
50
179.99756
51
222.6506439
0
ARC
8
DEFAULT_255_2_778
10
1.2420826
20
25.7713348
40
2.3997048
50
317.3467325
51
359.9989478
0
LINE
8
DEFAULT_255_2_778
10
150.1415875
20
88.6343907
11
147.2763875
21
85.5233907
0
LINE
8
DEFAULT_255_2_778
10
146.6416875
20
83.8975907
11
146.6416875
21
74.1343907
0
LINE
8
DEFAULT_255_2_778
10
146.6416875
20
35.5343907
11
146.6416875
21
25.7712907
0
LINE
8
DEFAULT_255_2_778
10
147.2763875
20
24.1453907
11
150.1417875
21
21.0343907
0
LINE
8
DEFAULT_255_2_778
10
0.1415875
20
21.0343907
11
3.0069875
21
24.1453907
0
LINE
8
DEFAULT_255_2_778
10
3.6417875
20
25.7712907
11
3.6417875
21
35.5343907
0
ARC
8
DEFAULT_255_2_778
10
1.241796
20
83.8975659
40
2.3996499
50
0.0003367
51
42.6502568
0
LINE
8
DEFAULT_255_2_778
10
3.6414459
20
74.13438
11
3.6414459
21
83.89758
0
LINE
8
DEFAULT_255_2_778
10
3.0067459
20
85.52338
11
0.1415459
21
88.63438
0
ARC
8
DEFAULT_255_2_778
10
138.6620257
20
15.3372042
40
2.7955804
50
160.6250898
51
180.0625339
0
ARC
8
DEFAULT_255_2_778
10
138.6694872
20
15.3303633
40
2.8048915
50
101.7948804
51
160.5438283
0
ARC
8
DEFAULT_255_2_778
10
138.6649381
20
15.3219172
40
2.8122362
50
89.9692581
51
101.6689794
0
ARC
8
DEFAULT_255_2_778
10
138.6694925
20
15.3388398
40
2.7953149
50
70.6241591
51
90.0624243
0
ARC
8
DEFAULT_255_2_778
10
138.6625398
20
15.3311195
40
2.8049073
50
11.7946723
51
70.542501
0
ARC
8
DEFAULT_255_2_778
10
138.6540921
20
15.335661
40
2.8122552
50
359.969278
51
11.6689198
0
ARC
8
DEFAULT_255_2_778
10
138.6710072
20
15.3311098
40
2.7953414
50
340.624302
51
0.0623774
0
ARC
8
DEFAULT_255_2_778
10
138.6633204
20
15.3380325
40
2.8048924
50
281.7959826
51
340.5429938
0
ARC
8
DEFAULT_255_2_778
10
138.6679528
20
15.3462015
40
2.8119488
50
269.9693166
51
281.6695586
0
ARC
8
DEFAULT_255_2_778
10
138.6633981
20
15.3298583
40
2.7956069
50
250.6252326
51
270.062487
0
ARC
8
DEFAULT_255_2_778
10
138.670209
20
15.3372864
40
2.8048766
50
191.7961906
51
250.5443211
0
ARC
8
DEFAULT_255_2_778
10
138.6783764
20
15.3326462
40
2.8119298
50
179.9692966
51
191.6696183
0
LINE
8
DEFAULT_255_2_778
10
135.866447
20
15.334153
11
135.866447
21
15.334153
0
LINE
8
DEFAULT_255_2_778
10
139.726947
20
14.273453
11
137.605547
21
16.394953
0
LINE
8
DEFAULT_255_2_778
10
139.726947
20
16.394953
11
137.605547
21
14.273453
0
ARC
8
DEFAULT_255_2_778
10
131.0621257
20
15.3372042
40
2.7955804
50
160.6250898
51
180.0625339
0
ARC
8
DEFAULT_255_2_778
10
131.0695872
20
15.3303633
40
2.8048915
50
101.7948804
51
160.5438283
0
ARC
8
DEFAULT_255_2_778
10
131.0650381
20
15.3219172
40
2.8122362
50
89.9692581
51
101.6689794
0
ARC
8
DEFAULT_255_2_778
10
131.0695925
20
15.3388398
40
2.7953149
50
70.6241591
51
90.0624243
0
ARC
8
DEFAULT_255_2_778
10
131.0626398
20
15.3311195
40
2.8049073
50
11.7946723
51
70.542501
0
ARC
8
DEFAULT_255_2_778
10
131.0541921
20
15.335661
40
2.8122552
50
359.969278
51
11.6689198
0
ARC
8
DEFAULT_255_2_778
10
131.0711072
20
15.3311098
40
2.7953414
50
340.624302
51
0.0623774
0
ARC
8
DEFAULT_255_2_778
10
131.0634204
20
15.3380325
40
2.8048924
50
281.7959826
51
340.5429938
0
ARC
8
DEFAULT_255_2_778
10
131.0680528
20
15.3462015
40
2.8119488
50
269.9693166
51
281.6695586
0
ARC
8
DEFAULT_255_2_778
10
131.0634981
20
15.3298583
40
2.7956069
50
250.6252326
51
270.062487
0
ARC
8
DEFAULT_255_2_778
10
131.070309
20
15.3372864
40
2.8048766
50
191.7961906
51
250.5443211
0
ARC
8
DEFAULT_255_2_778
10
131.0784764
20
15.3326462
40
2.8119298
50
179.9692966
51
191.6696183
0
LINE
8
DEFAULT_255_2_778
10
128.266547
20
15.334153
11
128.266547
21
15.334153
0
LINE
8
DEFAULT_255_2_778
10
132.127047
20
14.273453
11
130.005647
21
16.394953
0
LINE
8
DEFAULT_255_2_778
10
132.127047
20
16.394953
11
130.005647
21
14.273453
0
ARC
8
DEFAULT_255_2_778
10
127.2622257
20
24.3373042
40
2.7955804
50
160.6250898
51
180.0625339
0
ARC
8
DEFAULT_255_2_778
10
127.2696872
20
24.3304633
40
2.8048915
50
101.7948804
51
160.5438283
0
ARC
8
DEFAULT_255_2_778
10
127.2651381
20
24.3220172
40
2.8122362
50
89.9692581
51
101.6689794
0
ARC
8
DEFAULT_255_2_778
10
127.2696925
20
24.3389398
40
2.7953149
50
70.6241591
51
90.0624243
0
ARC
8
DEFAULT_255_2_778
10
127.2627398
20
24.3312195
40
2.8049073
50
11.7946723
51
70.542501
0
ARC
8
DEFAULT_255_2_778
10
127.2542921
20
24.335761
40
2.8122552
50
359.969278
51
11.6689198
0
ARC
8
DEFAULT_255_2_778
10
127.2712072
20
24.3312098
40
2.7953414
50
340.624302
51
0.0623774
0
ARC
8
DEFAULT_255_2_778
10
127.2635204
20
24.3381325
40
2.8048924
50
281.7959826
51
340.5429938
0
ARC
8
DEFAULT_255_2_778
10
127.2681528
20
24.3463015
40
2.8119488
50
269.9693166
51
281.6695586
0
ARC
8
DEFAULT_255_2_778
10
127.2635981
20
24.3299583
40
2.7956069
50
250.6252326
51
270.062487
0
ARC
8
DEFAULT_255_2_778
10
127.270409
20
24.3373864
40
2.8048766
50
191.7961906
51
250.5443211
0
ARC
8
DEFAULT_255_2_778
10
127.2785764
20
24.3327462
40
2.8119298
50
179.9692966
51
191.6696183
0
LINE
8
DEFAULT_255_2_778
10
124.466647
20
24.334253
11
124.466647
21
24.334253
0
LINE
8
DEFAULT_255_2_778
10
128.327147
20
23.273553
11
126.205747
21
25.395053
0
LINE
8
DEFAULT_255_2_778
10
128.327147
20
25.395053
11
126.205747
21
23.273553
0
ARC
8
DEFAULT_255_2_778
10
134.8621257
20
24.3373042
40
2.7955804
50
160.6250898
51
180.0625339
0
ARC
8
DEFAULT_255_2_778
10
134.8695872
20
24.3304633
40
2.8048915
50
101.7948804
51
160.5438283
0
ARC
8
DEFAULT_255_2_778
10
134.8650381
20
24.3220172
40
2.8122362
50
89.9692581
51
101.6689794
0
ARC
8
DEFAULT_255_2_778
10
134.8695925
20
24.3389398
40
2.7953149
50
70.6241591
51
90.0624243
0
ARC
8
DEFAULT_255_2_778
10
134.8626398
20
24.3312195
40
2.8049073
50
11.7946723
51
70.542501
0
ARC
8
DEFAULT_255_2_778
10
134.8541921
20
24.335761
40
2.8122552
50
359.969278
51
11.6689198
0
ARC
8
DEFAULT_255_2_778
10
134.8711072
20
24.3312098
40
2.7953414
50
340.624302
51
0.0623774
0
ARC
8
DEFAULT_255_2_778
10
134.8634204
20
24.3381325
40
2.8048924
50
281.7959826
51
340.5429938
0
ARC
8
DEFAULT_255_2_778
10
134.8680528
20
24.3463015
40
2.8119488
50
269.9693166
51
281.6695586
0
ARC
8
DEFAULT_255_2_778
10
134.8634981
20
24.3299583
40
2.7956069
50
250.6252326
51
270.062487
0
ARC
8
DEFAULT_255_2_778
10
134.870309
20
24.3373864
40
2.8048766
50
191.7961906
51
250.5443211
0
ARC
8
DEFAULT_255_2_778
10
134.8784764
20
24.3327462
40
2.8119298
50
179.9692966
51
191.6696183
0
LINE
8
DEFAULT_255_2_778
10
132.066547
20
24.334253
11
132.066547
21
24.334253
0
LINE
8
DEFAULT_255_2_778
10
135.927047
20
23.273553
11
133.805647
21
25.395053
0
LINE
8
DEFAULT_255_2_778
10
135.927047
20
25.395053
11
133.805647
21
23.273553
0
ARC
8
DEFAULT_255_2_778
10
127.2622257
20
85.3372042
40
2.7955804
50
160.6250898
51
180.0625339
0
ARC
8
DEFAULT_255_2_778
10
127.2696872
20
85.3303633
40
2.8048915
50
101.7948804
51
160.5438283
0
ARC
8
DEFAULT_255_2_778
10
127.2651381
20
85.3219172
40
2.8122362
50
89.9692581
51
101.6689794
0
ARC
8
DEFAULT_255_2_778
10
127.2696925
20
85.3388398
40
2.7953149
50
70.6241591
51
90.0624243
0
ARC
8
DEFAULT_255_2_778
10
127.2627398
20
85.3311195
40
2.8049073
50
11.7946723
51
70.542501
0
ARC
8
DEFAULT_255_2_778
10
127.2542921
20
85.335661
40
2.8122552
50
359.969278
51
11.6689198
0
ARC
8
DEFAULT_255_2_778
10
127.2712072
20
85.3311098
40
2.7953414
50
340.624302
51
0.0623774
0
ARC
8
DEFAULT_255_2_778
10
127.2635204
20
85.3380325
40
2.8048924
50
281.7959826
51
340.5429938
0
ARC
8
DEFAULT_255_2_778
10
127.2681528
20
85.3462015
40
2.8119488
50
269.9693166
51
281.6695586
0
ARC
8
DEFAULT_255_2_778
10
127.2635981
20
85.3298583
40
2.7956069
50
250.6252326
51
270.062487
0
ARC
8
DEFAULT_255_2_778
10
127.270409
20
85.3372864
40
2.8048766
50
191.7961906
51
250.5443211
0
ARC
8
DEFAULT_255_2_778
10
127.2785764
20
85.3326462
40
2.8119298
50
179.9692966
51
191.6696183
0
LINE
8
DEFAULT_255_2_778
10
124.466647
20
85.334153
11
124.466647
21
85.334153
0
LINE
8
DEFAULT_255_2_778
10
128.327147
20
84.273453
11
126.205747
21
86.394953
0
LINE
8
DEFAULT_255_2_778
10
128.327147
20
86.394953
11
126.205747
21
84.273453
0
ARC
8
DEFAULT_255_2_778
10
134.8621257
20
85.3372042
40
2.7955804
50
160.6250898
51
180.0625339
0
ARC
8
DEFAULT_255_2_778
10
134.8695872
20
85.3303633
40
2.8048915
50
101.7948804
51
160.5438283
0
ARC
8
DEFAULT_255_2_778
10
134.8650381
20
85.3219172
40
2.8122362
50
89.9692581
51
101.6689794
0
ARC
8
DEFAULT_255_2_778
10
134.8695925
20
85.3388398
40
2.7953149
50
70.6241591
51
90.0624243
0
ARC
8
DEFAULT_255_2_778
10
134.8626398
20
85.3311195
40
2.8049073
50
11.7946723
51
70.542501
0
ARC
8
DEFAULT_255_2_778
10
134.8541921
20
85.335661
40
2.8122552
50
359.969278
51
11.6689198
0
ARC
8
DEFAULT_255_2_778
10
134.8711072
20
85.3311098
40
2.7953414
50
340.624302
51
0.0623774
0
ARC
8
DEFAULT_255_2_778
10
134.8634204
20
85.3380325
40
2.8048924
50
281.7959826
51
340.5429938
0
ARC
8
DEFAULT_255_2_778
10
134.8680528
20
85.3462015
40
2.8119488
50
269.9693166
51
281.6695586
0
ARC
8
DEFAULT_255_2_778
10
134.8634981
20
85.3298583
40
2.7956069
50
250.6252326
51
270.062487
0
ARC
8
DEFAULT_255_2_778
10
134.870309
20
85.3372864
40
2.8048766
50
191.7961906
51
250.5443211
0
ARC
8
DEFAULT_255_2_778
10
134.8784764
20
85.3326462
40
2.8119298
50
179.9692966
51
191.6696183
0
LINE
8
DEFAULT_255_2_778
10
132.066547
20
85.334153
11
132.066547
21
85.334153
0
LINE
8
DEFAULT_255_2_778
10
135.927047
20
84.273453
11
133.805647
21
86.394953
0
LINE
8
DEFAULT_255_2_778
10
135.927047
20
86.394953
11
133.805647
21
84.273453
0
ARC
8
DEFAULT_255_2_778
10
131.0621257
20
94.3373042
40
2.7955804
50
160.6250898
51
180.0625339
0
ARC
8
DEFAULT_255_2_778
10
131.0695872
20
94.3304633
40
2.8048915
50
101.7948804
51
160.5438283
0
ARC
8
DEFAULT_255_2_778
10
131.0650381
20
94.3220172
40
2.8122362
50
89.9692581
51
101.6689794
0
ARC
8
DEFAULT_255_2_778
10
131.0695925
20
94.3389398
40
2.7953149
50
70.6241591
51
90.0624243
0
ARC
8
DEFAULT_255_2_778
10
131.0626398
20
94.3312195
40
2.8049073
50
11.7946723
51
70.542501
0
ARC
8
DEFAULT_255_2_778
10
131.0541921
20
94.335761
40
2.8122552
50
359.969278
51
11.6689198
0
ARC
8
DEFAULT_255_2_778
10
131.0711072
20
94.3312098
40
2.7953414
50
340.624302
51
0.0623774
0
ARC
8
DEFAULT_255_2_778
10
131.0634204
20
94.3381325
40
2.8048924
50
281.7959826
51
340.5429938
0
ARC
8
DEFAULT_255_2_778
10
131.0680528
20
94.3463015
40
2.8119488
50
269.9693166
51
281.6695586
0
ARC
8
DEFAULT_255_2_778
10
131.0634981
20
94.3299583
40
2.7956069
50
250.6252326
51
270.062487
0
ARC
8
DEFAULT_255_2_778
10
131.070309
20
94.3373864
40
2.8048766
50
191.7961906
51
250.5443211
0
ARC
8
DEFAULT_255_2_778
10
131.0784764
20
94.3327462
40
2.8119298
50
179.9692966
51
191.6696183
0
LINE
8
DEFAULT_255_2_778
10
128.266547
20
94.334253
11
128.266547
21
94.334253
0
LINE
8
DEFAULT_255_2_778
10
132.127047
20
93.273553
11
130.005647
21
95.395053
0
LINE
8
DEFAULT_255_2_778
10
132.127047
20
95.395053
11
130.005647
21
93.273553
0
ARC
8
DEFAULT_255_2_778
10
138.6620257
20
94.3373042
40
2.7955804
50
160.6250898
51
180.0625339
0
ARC
8
DEFAULT_255_2_778
10
138.6694872
20
94.3304633
40
2.8048915
50
101.7948804
51
160.5438283
0
ARC
8
DEFAULT_255_2_778
10
138.6649381
20
94.3220172
40
2.8122362
50
89.9692581
51
101.6689794
0
ARC
8
DEFAULT_255_2_778
10
138.6694925
20
94.3389398
40
2.7953149
50
70.6241591
51
90.0624243
0
ARC
8
DEFAULT_255_2_778
10
138.6625398
20
94.3312195
40
2.8049073
50
11.7946723
51
70.542501
0
ARC
8
DEFAULT_255_2_778
10
138.6540921
20
94.335761
40
2.8122552
50
359.969278
51
11.6689198
0
ARC
8
DEFAULT_255_2_778
10
138.6710072
20
94.3312098
40
2.7953414
50
340.624302
51
0.0623774
0
ARC
8
DEFAULT_255_2_778
10
138.6633204
20
94.3381325
40
2.8048924
50
281.7959826
51
340.5429938
0
ARC
8
DEFAULT_255_2_778
10
138.6679528
20
94.3463015
40
2.8119488
50
269.9693166
51
281.6695586
0
ARC
8
DEFAULT_255_2_778
10
138.6633981
20
94.3299583
40
2.7956069
50
250.6252326
51
270.062487
0
ARC
8
DEFAULT_255_2_778
10
138.670209
20
94.3373864
40
2.8048766
50
191.7961906
51
250.5443211
0
ARC
8
DEFAULT_255_2_778
10
138.6783764
20
94.3327462
40
2.8119298
50
179.9692966
51
191.6696183
0
LINE
8
DEFAULT_255_2_778
10
135.866447
20
94.334253
11
135.866447
21
94.334253
0
LINE
8
DEFAULT_255_2_778
10
139.726947
20
93.273553
11
137.605547
21
95.395053
0
LINE
8
DEFAULT_255_2_778
10
139.726947
20
95.395053
11
137.605547
21
93.273553
0
LINE
8
DEFAULT_255_2_778
10
12.1414439
20
9.8342943
11
12.1414439
21
3.8343943
0
LINE
8
DEFAULT_255_2_778
10
12.1414439
20
3.8343943
11
8.1414439
21
-0.1656057
0
LINE
8
DEFAULT_255_2_778
10
8.1414439
20
-0.1656057
11
0.1415439
21
-0.1656057
0
LINE
8
DEFAULT_255_2_778
10
0.1415439
20
-0.1656057
11
0.1415439
21
109.8343943
0
LINE
8
DEFAULT_255_2_778
10
0.1415439
20
109.8343943
11
8.1414439
21
109.8343943
0
LINE
8
DEFAULT_255_2_778
10
8.1414439
20
109.8343943
11
12.1414439
21
105.8343943
0
LINE
8
DEFAULT_255_2_778
10
12.1414439
20
105.8343943
11
12.1414439
21
100.3344943
0
LINE
8
DEFAULT_255_2_778
10
0.1415198
20
72.3344943
11
21.2415198
21
72.3344943
0
LINE
8
DEFAULT_255_2_778
10
21.2415198
20
72.3344943
11
21.2415198
21
37.3345943
0
LINE
8
DEFAULT_255_2_778
10
21.2415198
20
37.3345943
11
0.1415198
21
37.3345943
0
LINE
8
DEFAULT_255_2_778
10
138.1415198
20
99.8344943
11
138.1415198
21
105.8343943
0
LINE
8
DEFAULT_255_2_778
10
138.1415198
20
105.8343943
11
142.1415198
21
109.8343943
0
LINE
8
DEFAULT_255_2_778
10
142.1415198
20
109.8343943
11
150.1415198
21
109.8343943
0
LINE
8
DEFAULT_255_2_778
10
150.1415198
20
109.8343943
11
150.1415198
21
-0.1656057
0
LINE
8
DEFAULT_255_2_778
10
150.1415198
20
-0.1656057
11
142.1415198
21
-0.1656057
0
LINE
8
DEFAULT_255_2_778
10
142.1415198
20
-0.1656057
11
138.1415198
21
3.8343943
0
LINE
8
DEFAULT_255_2_778
10
138.1415198
20
3.8343943
11
138.1415198
21
9.8342943
0
LINE
8
DEFAULT_255_2_778
10
146.6416
20
72.3344381
11
146.6416
21
37.3345381
0
LINE
8
DEFAULT_255_2_778
10
150.1417355
20
72.3344381
11
140.6416355
21
72.3344381
0
LINE
8
DEFAULT_255_2_778
10
140.6416355
20
72.3344381
11
140.6416355
21
37.3345381
0
LINE
8
DEFAULT_255_2_778
10
140.6416355
20
37.3345381
11
150.1417355
21
37.3345381
0
LINE
8
DEFAULT_255_2_778
10
25.0915011
20
57.6344802
11
25.0915011
21
55.8344802
0
LINE
8
DEFAULT_255_2_778
10
25.0915011
20
55.8344802
11
27.1915011
21
55.8344802
0
LINE
8
DEFAULT_255_2_778
10
27.1915011
20
55.8344802
11
27.1915011
21
57.6344802
0
LINE
8
DEFAULT_255_2_778
10
27.1915011
20
57.6344802
11
25.0915011
21
57.6344802
0
LINE
8
DEFAULT_255_2_778
10
25.0915011
20
53.8342802
11
25.0915011
21
52.0342802
0
LINE
8
DEFAULT_255_2_778
10
25.0915011
20
52.0342802
11
27.1915011
21
52.0342802
0
LINE
8
DEFAULT_255_2_778
10
27.1915011
20
52.0342802
11
27.1915011
21
53.8342802
0
LINE
8
DEFAULT_255_2_778
10
27.1915011
20
53.8342802
11
25.0915011
21
53.8342802
0
LINE
8
DEFAULT_255_2_778
10
27.1915011
20
65.2343802
11
25.0915011
21
65.2343802
0
LINE
8
DEFAULT_255_2_778
10
25.0915011
20
65.2343802
11
25.0915011
21
63.4343802
0
LINE
8
DEFAULT_255_2_778
10
25.0915011
20
63.4343802
11
27.1915011
21
63.4343802
0
LINE
8
DEFAULT_255_2_778
10
27.1915011
20
63.4343802
11
27.1915011
21
65.2343802
0
LINE
8
DEFAULT_255_2_778
10
25.0915011
20
61.4343802
11
25.0915011
21
59.6343802
0
LINE
8
DEFAULT_255_2_778
10
25.0915011
20
59.6343802
11
27.1915011
21
59.6343802
0
LINE
8
DEFAULT_255_2_778
10
27.1915011
20
59.6343802
11
27.1915011
21
61.4343802
0
LINE
8
DEFAULT_255_2_778
10
27.1915011
20
61.4343802
11
25.0915011
21
61.4343802
0
LINE
8
DEFAULT_255_2_778
10
25.0915011
20
44.4343802
11
27.1915011
21
44.4343802
0
LINE
8
DEFAULT_255_2_778
10
27.1915011
20
44.4343802
11
27.1915011
21
46.2343802
0
LINE
8
DEFAULT_255_2_778
10
27.1915011
20
46.2343802
11
25.0915011
21
46.2343802
0
LINE
8
DEFAULT_255_2_778
10
25.0915011
20
46.2343802
11
25.0915011
21
44.4343802
0
LINE
8
DEFAULT_255_2_778
10
25.0915011
20
50.0342802
11
25.0915011
21
48.2342802
0
LINE
8
DEFAULT_255_2_778
10
25.0915011
20
48.2342802
11
27.1915011
21
48.2342802
0
LINE
8
DEFAULT_255_2_778
10
27.1915011
20
48.2342802
11
27.1915011
21
50.0342802
0
LINE
8
DEFAULT_255_2_778
10
27.1915011
20
50.0342802
11
25.0915011
21
50.0342802
0
LINE
8
DEFAULT_255_2_778
10
5.6414009
20
35.2843348
11
5.5414009
21
35.2843348
0
LINE
8
DEFAULT_255_2_778
10
5.5414009
20
33.3843348
11
5.6414009
21
33.3843348
0
LINE
8
DEFAULT_255_2_778
10
5.6414009
20
76.2844348
11
5.5414009
21
76.2844348
0
LINE
8
DEFAULT_255_2_778
10
5.5414009
20
74.3844348
11
5.6414009
21
74.3844348
0
LINE
8
DEFAULT_255_2_778
10
144.6416009
20
74.3844348
11
144.7416009
21
74.3844348
0
LINE
8
DEFAULT_255_2_778
10
144.7416009
20
76.2844348
11
144.6416009
21
76.2844348
0
LINE
8
DEFAULT_255_2_778
10
144.6416009
20
33.3843348
11
144.7416009
21
33.3843348
0
LINE
8
DEFAULT_255_2_778
10
144.7416009
20
35.2843348
11
144.6416009
21
35.2843348
0
ARC
8
DEFAULT_255_2_778
10
145.6444114
20
4.8281771
40
2.2436706
50
269.9271976
51
292.19754
0
ARC
8
DEFAULT_255_2_778
10
145.6389025
20
4.8363653
40
2.2533342
50
292.248575
51
349.7568595
0
ARC
8
DEFAULT_255_2_778
10
145.6276828
20
4.8335409
40
2.2638779
50
349.8776982
51
0.0244846
0
LINE
8
DEFAULT_255_2_778
10
145.1414605
20
2.5845083
11
145.6415605
21
2.5845083
0
ARC
8
DEFAULT_255_2_778
10
145.6444114
20
4.8408395
40
2.2436706
50
67.80246
51
90.0728024
0
ARC
8
DEFAULT_255_2_778
10
145.6389025
20
4.8326513
40
2.2533342
50
10.2431405
51
67.751425
0
ARC
8
DEFAULT_255_2_778
10
145.6276828
20
4.8354757
40
2.2638779
50
359.9755154
51
10.1223018
0
LINE
8
DEFAULT_255_2_778
10
145.1414605
20
7.0845083
11
145.6415605
21
7.0845083
0
ARC
8
DEFAULT_255_2_778
10
144.6387096
20
4.8281771
40
2.2436706
50
247.80246
51
270.0728024
0
ARC
8
DEFAULT_255_2_778
10
144.6442185
20
4.8363653
40
2.2533342
50
190.2431405
51
247.751425
0
ARC
8
DEFAULT_255_2_778
10
144.6554381
20
4.8335409
40
2.2638779
50
179.9755154
51
190.1223018
0
LINE
8
DEFAULT_255_2_778
10
145.1416605
20
2.5845083
11
144.6415605
21
2.5845083
0
ARC
8
DEFAULT_255_2_778
10
144.6387096
20
4.8408395
40
2.2436706
50
89.9271976
51
112.19754
0
ARC
8
DEFAULT_255_2_778
10
144.6442185
20
4.8326513
40
2.2533342
50
112.248575
51
169.7568595
0
ARC
8
DEFAULT_255_2_778
10
144.6554381
20
4.8354757
40
2.2638779
50
169.8776982
51
180.0244846
0
LINE
8
DEFAULT_255_2_778
10
145.1416605
20
7.0845083
11
144.6415605
21
7.0845083
0
ARC
8
DEFAULT_255_2_778
10
145.6444114
20
104.8279771
40
2.2436706
50
269.9271976
51
292.19754
0
ARC
8
DEFAULT_255_2_778
10
145.6389025
20
104.8361653
40
2.2533342
50
292.248575
51
349.7568595
0
ARC
8
DEFAULT_255_2_778
10
145.6276828
20
104.8333409
40
2.2638779
50
349.8776982
51
0.0244846
0
LINE
8
DEFAULT_255_2_778
10
145.1414605
20
102.5843083
11
145.6415605
21
102.5843083
0
ARC
8
DEFAULT_255_2_778
10
144.6387096
20
104.8406395
40
2.2436706
50
89.9271976
51
112.19754
0
ARC
8
DEFAULT_255_2_778
10
144.6442185
20
104.8324513
40
2.2533342
50
112.248575
51
169.7568595
0
ARC
8
DEFAULT_255_2_778
10
144.6554381
20
104.8352757
40
2.2638779
50
169.8776982
51
180.0244846
0
LINE
8
DEFAULT_255_2_778
10
145.1416605
20
107.0843083
11
144.6415605
21
107.0843083
0
ARC
8
DEFAULT_255_2_778
10
145.6444114
20
104.8406395
40
2.2436706
50
67.80246
51
90.0728024
0
ARC
8
DEFAULT_255_2_778
10
145.6389025
20
104.8324513
40
2.2533342
50
10.2431405
51
67.751425
0
ARC
8
DEFAULT_255_2_778
10
145.6276828
20
104.8352757
40
2.2638779
50
359.9755154
51
10.1223018
0
LINE
8
DEFAULT_255_2_778
10
145.1414605
20
107.0843083
11
145.6415605
21
107.0843083
0
ARC
8
DEFAULT_255_2_778
10
144.6387096
20
104.8279771
40
2.2436706
50
247.80246
51
270.0728024
0
ARC
8
DEFAULT_255_2_778
10
144.6442185
20
104.8361653
40
2.2533342
50
190.2431405
51
247.751425
0
ARC
8
DEFAULT_255_2_778
10
144.6554381
20
104.8333409
40
2.2638779
50
179.9755154
51
190.1223018
0
LINE
8
DEFAULT_255_2_778
10
145.1416605
20
102.5843083
11
144.6415605
21
102.5843083
0
ARC
8
DEFAULT_255_2_778
10
5.1459674
20
104.8378502
40
2.2543868
50
158.2386051
51
180.0898428
0
ARC
8
DEFAULT_255_2_778
10
5.1366453
20
104.8388322
40
2.2453665
50
100.4545112
51
158.173688
0
ARC
8
DEFAULT_255_2_778
10
5.1403947
20
104.8048033
40
2.2795122
50
89.9701221
51
100.3919857
0
ARC
8
DEFAULT_255_2_778
10
5.1370633
20
104.8378566
40
2.2545229
50
359.9100005
51
21.7598393
0
ARC
8
DEFAULT_255_2_778
10
5.1466172
20
104.8389378
40
2.2452504
50
21.8245969
51
79.53818
0
ARC
8
DEFAULT_255_2_778
10
5.1427748
20
104.8045488
40
2.2797667
50
79.6001523
51
90.0299435
0
ARC
8
DEFAULT_255_2_778
10
5.1369186
20
104.8307602
40
2.2546676
50
338.2408662
51
0.0903398
0
ARC
8
DEFAULT_255_2_778
10
5.1467067
20
104.8296035
40
2.2451496
50
280.4535565
51
338.1756829
0
ARC
8
DEFAULT_255_2_778
10
5.1427766
20
104.8642671
40
2.2799523
50
269.9700133
51
280.3926283
0
ARC
8
DEFAULT_255_2_778
10
5.1461121
20
104.8307666
40
2.2545315
50
179.9098168
51
201.7606893
0
ARC
8
DEFAULT_255_2_778
10
5.1365568
20
104.8297097
40
2.2452669
50
201.8260389
51
259.547316
0
ARC
8
DEFAULT_255_2_778
10
5.1403958
20
104.8640434
40
2.2797285
50
259.6089824
51
270.0298467
0
ARC
8
DEFAULT_255_2_778
10
5.1459674
20
4.8380502
40
2.2543868
50
158.2386051
51
180.0898428
0
ARC
8
DEFAULT_255_2_778
10
5.1366453
20
4.8390322
40
2.2453665
50
100.4545112
51
158.173688
0
ARC
8
DEFAULT_255_2_778
10
5.1403947
20
4.8050033
40
2.2795122
50
89.9701221
51
100.3919857
0
ARC
8
DEFAULT_255_2_778
10
5.1370633
20
4.8380566
40
2.2545229
50
359.9100005
51
21.7598393
0
ARC
8
DEFAULT_255_2_778
10
5.1466172
20
4.8391378
40
2.2452504
50
21.8245969
51
79.53818
0
ARC
8
DEFAULT_255_2_778
10
5.1427748
20
4.8047488
40
2.2797667
50
79.6001523
51
90.0299435
0
ARC
8
DEFAULT_255_2_778
10
5.1369186
20
4.8309602
40
2.2546676
50
338.2408662
51
0.0903398
0
ARC
8
DEFAULT_255_2_778
10
5.1467067
20
4.8298035
40
2.2451496
50
280.4535565
51
338.1756829
0
ARC
8
DEFAULT_255_2_778
10
5.1427766
20
4.8644671
40
2.2799523
50
269.9700133
51
280.3926283
0
ARC
8
DEFAULT_255_2_778
10
5.1461121
20
4.8309666
40
2.2545315
50
179.9098168
51
201.7606893
0
ARC
8
DEFAULT_255_2_778
10
5.1365568
20
4.8299097
40
2.2452669
50
201.8260389
51
259.547316
0
ARC
8
DEFAULT_255_2_778
10
5.1403958
20
4.8642434
40
2.2797285
50
259.6089824
51
270.0298467
0
ENDSEC
0
EOF