0
SECTION
2
HEADER
9
$MEASUREMENT
70
1
0
ENDSEC
0
SECTION
2
TABLES
0
TABLE
2
LTYPE
0
LTYPE
72
65
70
64
2
CONTINUOUS
3
______
73
0
40
0
0
ENDTAB
0
TABLE
2
LAYER
0
LAYER
2
DEFAULT_255_2_778
70
0
62
255
6
CONTINUOUS
0
LAYER
2
DEFAULT_255_1_388
70
0
62
255
6
CONTINUOUS
0
ENDTAB
0
ENDSEC
0
SECTION
2
ENTITIES
0
ARC
8
DEFAULT_255_2_778
10
3.7023693
20
163.1176518
40
0.7914215
50
129.1312896
51
180.1450914
0
ARC
8
DEFAULT_255_2_778
10
3.7026345
20
163.1181389
40
0.7912112
50
89.854026
51
129.1684493
0
ARC
8
DEFAULT_255_2_778
10
25.9316937
20
163.1178255
40
0.7915249
50
39.4792447
51
90.147911
0
ARC
8
DEFAULT_255_2_778
10
25.9322935
20
163.1176721
40
0.7911595
50
359.8533901
51
39.5154338
0
ARC
8
DEFAULT_255_2_778
10
25.9319693
20
-1.9864004
40
0.7914836
50
309.4761667
51
0.1482649
0
ARC
8
DEFAULT_255_2_778
10
25.931698
20
-1.9868315
40
0.7913235
50
269.8517415
51
309.511178
0
ARC
8
DEFAULT_255_2_778
10
3.702642
20
-1.9867734
40
0.7913815
50
219.1282118
51
270.1454017
0
ARC
8
DEFAULT_255_2_778
10
3.7023247
20
-1.9863909
40
0.7913769
50
179.8524075
51
219.1641908
0
LINE
8
DEFAULT_255_2_778
10
3.7046503
20
163.9093477
11
25.9296503
21
163.9093477
0
LINE
8
DEFAULT_255_2_778
10
26.7234503
20
163.1156477
11
26.7234503
21
-1.9843523
0
LINE
8
DEFAULT_255_2_778
10
25.9296503
20
-2.7781523
11
3.7046503
21
-2.7781523
0
LINE
8
DEFAULT_255_2_778
10
2.9109503
20
-1.9843523
11
2.9109503
21
163.1156477
0
LINE
8
DEFAULT_255_1_388
10
9.022532
20
-0.2223532
11
9.1969199
21
-0.2223532
0
LINE
8
DEFAULT_255_1_388
10
8.1840242
20
-0.0434475
11
8.1840242
21
0.0830516
0
LINE
8
DEFAULT_255_1_388
10
9.1969199
20
0.2529217
11
9.022532
21
0.2529217
0
LINE
8
DEFAULT_255_1_388
10
8.3584121
20
0.0785337
11
8.3584121
21
-0.0488688
0
ARC
8
DEFAULT_255_1_388
10
8.5803433
20
-0.1551671
40
0.6202263
50
340.1774904
51
353.7812217
0
ARC
8
DEFAULT_255_1_388
10
8.7571286
20
-0.2210107
40
0.4315926
50
311.4560052
51
340.4420756
0
ARC
8
DEFAULT_255_1_388
10
8.7533826
20
-0.2085335
40
0.4434573
50
282.4332229
51
310.7514507
0
ARC
8
DEFAULT_255_1_388
10
8.7039644
20
-0.0043297
40
0.6535262
50
269.9358869
51
282.8096729
0
ARC
8
DEFAULT_255_1_388
10
8.6981583
20
0.1469329
40
0.8048043
50
269.9995752
51
270.3612856
0
ARC
8
DEFAULT_255_1_388
10
8.6922073
20
-0.1329219
40
0.5249831
50
250.7885263
51
270.6488451
0
ARC
8
DEFAULT_255_1_388
10
8.6732898
20
-0.2046147
40
0.4510942
50
219.3628377
51
250.0611024
0
ARC
8
DEFAULT_255_1_388
10
8.7665772
20
-0.1253347
40
0.5735046
50
193.5480293
51
219.5755675
0
ARC
8
DEFAULT_255_1_388
10
9.0333981
20
-0.056048
40
0.849146
50
181.1220183
51
193.8754971
0
ARC
8
DEFAULT_255_1_388
10
9.2657214
20
-0.0436086
40
1.0816971
50
179.9914644
51
181.5398227
0
ARC
8
DEFAULT_255_1_388
10
9.0580525
20
0.0872586
40
0.8740384
50
169.5837606
51
180.275782
0
ARC
8
DEFAULT_255_1_388
10
8.8513873
20
0.1254439
40
0.6638751
50
155.0367033
51
169.6002779
0
ARC
8
DEFAULT_255_1_388
10
8.7236331
20
0.1870336
40
0.5220662
50
136.7831557
51
155.2472983
0
ARC
8
DEFAULT_255_1_388
10
8.6798122
20
0.2242577
40
0.4646502
50
121.7633063
51
136.4281161
0
ARC
8
DEFAULT_255_1_388
10
8.6949962
20
0.1962049
40
0.4964979
50
95.6460018
51
121.5489589
0
ARC
8
DEFAULT_255_1_388
10
8.7126936
20
0.0714704
40
0.6223912
50
89.9245727
51
96.1375919
0
ARC
8
DEFAULT_255_1_388
10
8.7183641
20
0.0848721
40
0.6090084
50
76.6779212
51
90.456405
0
ARC
8
DEFAULT_255_1_388
10
8.7626454
20
0.263806
40
0.42469
50
47.4858803
51
76.9287069
0
ARC
8
DEFAULT_255_1_388
10
8.7461068
20
0.2525623
40
0.4441778
50
16.5424081
51
46.8934505
0
ARC
8
DEFAULT_255_1_388
10
8.5652118
20
0.1931265
40
0.6345318
50
5.4072971
51
17.0363711
0
ARC
8
DEFAULT_255_1_388
10
8.4033843
20
0.1671304
40
0.6250632
50
7.8888693
51
15.9242022
0
ARC
8
DEFAULT_255_1_388
10
8.6268828
20
0.2320309
40
0.3923364
50
15.7650676
51
27.9410069
0
ARC
8
DEFAULT_255_1_388
10
8.7510997
20
0.2985317
40
0.2514401
50
27.8167196
51
46.4007942
0
ARC
8
DEFAULT_255_1_388
10
8.7566839
20
0.2978882
40
0.2480958
50
47.4372362
51
75.0695672
0
ARC
8
DEFAULT_255_1_388
10
8.7219675
20
0.1770277
40
0.3738281
50
74.7009379
51
87.8124314
0
ARC
8
DEFAULT_255_1_388
10
8.7137292
20
0.0586659
40
0.4924321
50
87.3802571
51
90.0251599
0
ARC
8
DEFAULT_255_1_388
10
8.7093939
20
0.1906997
40
0.3604218
50
89.3451886
51
108.5744412
0
ARC
8
DEFAULT_255_1_388
10
8.6939931
20
0.2484836
40
0.3007661
50
109.2998307
51
143.3037387
0
ARC
8
DEFAULT_255_1_388
10
8.7797221
20
0.1825584
40
0.4089031
50
143.075267
51
163.1918576
0
ARC
8
DEFAULT_255_1_388
10
8.9993055
20
0.1132652
40
0.6391492
50
162.9375929
51
174.6208776
0
ARC
8
DEFAULT_255_1_388
10
9.2947437
20
0.0808711
40
0.9363344
50
174.342123
51
180.1430283
0
ARC
8
DEFAULT_255_1_388
10
9.1899978
20
-0.0534883
40
0.8315986
50
179.6817261
51
189.150555
0
ARC
8
DEFAULT_255_1_388
10
8.9086727
20
-0.1003441
40
0.5464044
50
188.9911061
51
203.5772363
0
ARC
8
DEFAULT_255_1_388
10
8.7872019
20
-0.1507461
40
0.4149206
50
203.9075402
51
215.1312435
0
ARC
8
DEFAULT_255_1_388
10
8.6833817
20
-0.2312093
40
0.2837747
50
213.9071511
51
263.8848919
0
ARC
8
DEFAULT_255_1_388
10
8.697481
20
-0.1429481
40
0.3730641
50
263.1757928
51
270.1031044
0
ARC
8
DEFAULT_255_1_388
10
8.701089
20
-0.0026489
40
0.5133712
50
269.6722503
51
279.0606936
0
ARC
8
DEFAULT_255_1_388
10
8.7311045
20
-0.184085
40
0.3294739
50
278.8749101
51
293.6349581
0
ARC
8
DEFAULT_255_1_388
10
8.7671249
20
-0.2686749
40
0.2375405
50
293.8553806
51
310.0518171
0
ARC
8
DEFAULT_255_1_388
10
8.7676758
20
-0.2756979
40
0.2318463
50
311.0644687
51
332.0111037
0
ARC
8
DEFAULT_255_1_388
10
8.6335431
20
-0.2017298
40
0.3850112
50
331.6586806
51
343.2877423
0
ARC
8
DEFAULT_255_1_388
10
8.4014896
20
-0.1304194
40
0.6277712
50
343.1446576
51
351.0103568
0
ARC
8
DEFAULT_255_1_388
10
8.238222
20
-0.1004127
40
0.7937327
50
350.71248
51
351.1626997
0
LINE
8
DEFAULT_255_1_388
10
9.9170608
20
-0.1247683
11
9.6071382
21
-0.1247683
0
LINE
8
DEFAULT_255_1_388
10
9.6071382
20
-0.1247683
11
9.6071382
21
-0.6398
0
LINE
8
DEFAULT_255_1_388
10
9.6071382
20
-0.6398
11
9.4336538
21
-0.6398
0
LINE
8
DEFAULT_255_1_388
10
9.4336538
20
-0.6398
11
9.4336538
21
0.6757898
0
LINE
8
DEFAULT_255_1_388
10
9.4336538
20
0.6757898
11
9.9188679
21
0.6757898
0
LINE
8
DEFAULT_255_1_388
10
9.6071382
20
0.5330267
11
9.6071382
21
0.0170914
0
LINE
8
DEFAULT_255_1_388
10
9.6071382
20
0.0170914
11
9.9188679
21
0.0170914
0
LINE
8
DEFAULT_255_1_388
10
9.9288071
20
0.5330267
11
9.6071382
21
0.5330267
0
ARC
8
DEFAULT_255_1_388
10
9.9236053
20
-0.0058666
40
0.6816729
50
78.8380084
51
90.398184
0
ARC
8
DEFAULT_255_1_388
10
9.9704083
20
0.2214796
40
0.449571
50
58.9633273
51
79.0810717
0
ARC
8
DEFAULT_255_1_388
10
10.0043468
20
0.2844823
40
0.3781049
50
48.0194715
51
58.4475592
0
ARC
8
DEFAULT_255_1_388
10
10.0143287
20
0.2940818
40
0.3642936
50
3.3374546
51
48.1766642
0
ARC
8
DEFAULT_255_1_388
10
9.8758094
20
0.2741581
40
0.5038766
50
359.9483251
51
4.6822857
0
ARC
8
DEFAULT_255_1_388
10
9.8898017
20
0.2693779
40
0.4899031
50
346.1879032
51
0.5059221
0
ARC
8
DEFAULT_255_1_388
10
10.0426809
20
0.2296763
40
0.3319729
50
310.8832219
51
346.5426612
0
ARC
8
DEFAULT_255_1_388
10
10.0079657
20
0.2765853
40
0.3901853
50
286.6925305
51
310.228778
0
ARC
8
DEFAULT_255_1_388
10
9.9439387
20
0.4779585
40
0.6014737
50
274.6848219
51
287.0247342
0
ARC
8
DEFAULT_255_1_388
10
9.9185936
20
0.7264088
40
0.8511785
50
269.8968222
51
275.0192639
0
ARC
8
DEFAULT_255_1_388
10
9.9216929
20
0.4926144
40
0.4755314
50
269.6596206
51
279.4150542
0
ARC
8
DEFAULT_255_1_388
10
9.9506387
20
0.3248945
40
0.3053379
50
279.2050006
51
294.9901776
0
ARC
8
DEFAULT_255_1_388
10
9.9833022
20
0.2520353
40
0.2255036
50
295.2886769
51
311.2912669
0
ARC
8
DEFAULT_255_1_388
10
9.9912763
20
0.2401938
40
0.2113522
50
311.7853512
51
347.2860549
0
ARC
8
DEFAULT_255_1_388
10
9.8805925
20
0.268643
40
0.3256011
50
346.6891629
51
0.1057086
0
ARC
8
DEFAULT_255_1_388
10
9.7883384
20
0.2719247
40
0.417863
50
359.63239
51
359.9961329
0
ARC
8
DEFAULT_255_1_388
10
9.9047989
20
0.2746987
40
0.3014155
50
359.4673371
51
15.5931159
0
ARC
8
DEFAULT_255_1_388
10
9.9751052
20
0.2936937
40
0.2285918
50
15.7441779
51
46.620186
0
ARC
8
DEFAULT_255_1_388
10
9.9584812
20
0.2745361
40
0.2539359
50
46.8628482
51
75.6676625
0
ARC
8
DEFAULT_255_1_388
10
9.9253869
20
0.1554243
40
0.3775415
50
75.2763152
51
88.2916439
0
ARC
8
DEFAULT_255_1_388
10
9.9187868
20
0.0552097
40
0.4779221
50
87.8589087
51
88.7986197
0
LINE
8
DEFAULT_255_1_388
10
11.4196885
20
-0.5033618
11
11.4196885
21
-0.6398
0
LINE
8
DEFAULT_255_1_388
10
11.4196885
20
-0.6398
11
10.557688
21
-0.6398
0
LINE
8
DEFAULT_255_1_388
10
10.557688
20
-0.6398
11
10.557688
21
-0.5196259
0
LINE
8
DEFAULT_255_1_388
10
10.557688
20
-0.5196259
11
11.0130845
21
-0.0136298
0
LINE
8
DEFAULT_255_1_388
10
10.6995476
20
0.2881607
11
10.5323882
21
0.2881607
0
LINE
8
DEFAULT_255_1_388
10
11.111573
20
-0.121154
11
10.7591829
21
-0.5033618
0
LINE
8
DEFAULT_255_1_388
10
10.7591829
20
-0.5033618
11
11.4196885
21
-0.5033618
0
ARC
8
DEFAULT_255_1_388
10
9.4954904
20
1.3283983
40
2.0258655
50
318.5132526
51
320.7829045
0
ARC
8
DEFAULT_255_1_388
10
10.0902861
20
0.8442929
40
1.2589638
50
320.7372878
51
323.9739031
0
ARC
8
DEFAULT_255_1_388
10
10.5311793
20
0.5248554
40
0.7145141
50
323.8962701
51
328.64194
0
ARC
8
DEFAULT_255_1_388
10
10.761405
20
0.3828545
40
0.4440242
50
328.8294576
51
331.7891185
0
ARC
8
DEFAULT_255_1_388
10
10.8736371
20
0.3249374
40
0.3177517
50
331.4254512
51
352.9365785
0
ARC
8
DEFAULT_255_1_388
10
10.888937
20
0.321505
40
0.3021496
50
353.2257659
51
0.0166158
0
ARC
8
DEFAULT_255_1_388
10
10.9126131
20
0.3240894
40
0.2784847
50
359.486299
51
15.9343185
0
ARC
8
DEFAULT_255_1_388
10
10.9696398
20
0.3394269
40
0.2194403
50
16.1712913
51
43.5286088
0
ARC
8
DEFAULT_255_1_388
10
10.9783342
20
0.3481191
40
0.2071504
50
43.4417391
51
83.1661095
0
ARC
8
DEFAULT_255_1_388
10
10.9632504
20
0.2652316
40
0.2912888
50
82.160179
51
90.1505708
0
ARC
8
DEFAULT_255_1_388
10
10.9596985
20
0.2048279
40
0.3517025
50
89.5460741
51
102.5418361
0
ARC
8
DEFAULT_255_1_388
10
10.9323705
20
0.3207933
40
0.2325748
50
102.1738499
51
129.206123
0
ARC
8
DEFAULT_255_1_388
10
10.9235159
20
0.3347664
40
0.2161591
50
129.72865
51
135.753947
0
ARC
8
DEFAULT_255_1_388
10
10.9371641
20
0.3238728
40
0.2335433
50
136.1757367
51
166.3673339
0
ARC
8
DEFAULT_255_1_388
10
11.0504329
20
0.2935148
40
0.3507873
50
165.9090694
51
178.8684636
0
ARC
8
DEFAULT_255_1_388
10
11.1480101
20
0.2882263
40
0.4484624
50
178.4391136
51
180.0083808
0
ARC
8
DEFAULT_255_1_388
10
10.9900802
20
0.2926197
40
0.4577138
50
163.2878482
51
180.5581842
0
ARC
8
DEFAULT_255_1_388
10
10.8998843
20
0.3174393
40
0.3641968
50
133.4540601
51
162.947111
0
ARC
8
DEFAULT_255_1_388
10
10.9199725
20
0.2960789
40
0.3935189
50
100.7869829
51
133.4382499
0
ARC
8
DEFAULT_255_1_388
10
10.959097
20
0.1218399
40
0.5720313
50
89.660664
51
101.3702276
0
ARC
8
DEFAULT_255_1_388
10
10.9665579
20
0.1287263
40
0.5651495
50
78.2172678
51
90.412935
0
ARC
8
DEFAULT_255_1_388
10
11.0065045
20
0.3114511
40
0.378122
50
55.9269121
51
78.4888449
0
ARC
8
DEFAULT_255_1_388
10
11.028576
20
0.3495187
40
0.3342379
50
47.929771
51
55.4049217
0
ARC
8
DEFAULT_255_1_388
10
11.040029
20
0.3611618
40
0.3179217
50
4.334829
51
48.0560205
0
ARC
8
DEFAULT_255_1_388
10
10.9168092
20
0.3420487
40
0.442341
50
359.9251713
51
5.5971671
0
ARC
8
DEFAULT_255_1_388
10
10.9650247
20
0.3483728
40
0.3941854
50
337.8914027
51
358.9967534
0
ARC
8
DEFAULT_255_1_388
10
10.6597817
20
0.4661295
40
0.7213271
50
326.9132501
51
338.3508308
0
ARC
8
DEFAULT_255_1_388
10
10.2113929
20
0.7535105
40
1.2538973
50
319.6471833
51
327.0959558
0
ARC
8
DEFAULT_255_1_388
10
9.7800587
20
1.109305
40
1.8129975
50
317.2588228
51
319.9045804
0
LINE
8
DEFAULT_255_1_388
10
12.3837917
20
0.1101585
11
12.3837917
21
-0.0317011
0
LINE
8
DEFAULT_255_1_388
10
12.3837917
20
-0.0317011
11
11.8136426
21
-0.0317011
0
LINE
8
DEFAULT_255_1_388
10
11.8136426
20
-0.0317011
11
11.8136426
21
-0.4979404
0
LINE
8
DEFAULT_255_1_388
10
11.8136426
20
-0.4979404
11
12.4759553
21
-0.4979404
0
LINE
8
DEFAULT_255_1_388
10
12.4759553
20
-0.4979404
11
12.4759553
21
-0.6398
0
LINE
8
DEFAULT_255_1_388
10
12.4759553
20
-0.6398
11
11.6401582
21
-0.6398
0
LINE
8
DEFAULT_255_1_388
10
11.6401582
20
-0.6398
11
11.6401582
21
0.6757898
0
LINE
8
DEFAULT_255_1_388
10
11.6401582
20
0.6757898
11
12.4669197
21
0.6757898
0
LINE
8
DEFAULT_255_1_388
10
12.4669197
20
0.6757898
11
12.4669197
21
0.5330267
0
LINE
8
DEFAULT_255_1_388
10
12.4669197
20
0.5330267
11
11.8136426
21
0.5330267
0
LINE
8
DEFAULT_255_1_388
10
11.8136426
20
0.5330267
11
11.8136426
21
0.1101585
0
LINE
8
DEFAULT_255_1_388
10
11.8136426
20
0.1101585
11
12.3837917
21
0.1101585
0
LINE
8
DEFAULT_255_1_388
10
13.0135762
20
-0.0127263
11
13.0135762
21
-0.1491645
0
LINE
8
DEFAULT_255_1_388
10
13.0135762
20
-0.1491645
11
12.5726367
21
-0.1491645
0
LINE
8
DEFAULT_255_1_388
10
12.5726367
20
-0.1491645
11
12.5726367
21
-0.0127263
0
LINE
8
DEFAULT_255_1_388
10
12.5726367
20
-0.0127263
11
13.0135762
21
-0.0127263
0
LINE
8
DEFAULT_255_1_388
10
14.2135098
20
0.6757898
11
14.2135098
21
-0.6398
0
LINE
8
DEFAULT_255_1_388
10
14.2135098
20
-0.6398
11
14.0391218
21
-0.6398
0
LINE
8
DEFAULT_255_1_388
10
14.0391218
20
-0.6398
11
13.3768091
21
0.3739993
0
LINE
8
DEFAULT_255_1_388
10
13.3768091
20
0.3739993
11
13.3768091
21
-0.6398
0
LINE
8
DEFAULT_255_1_388
10
13.3768091
20
-0.6398
11
13.2024211
21
-0.6398
0
LINE
8
DEFAULT_255_1_388
10
13.2024211
20
-0.6398
11
13.2024211
21
0.6757898
0
LINE
8
DEFAULT_255_1_388
10
13.2024211
20
0.6757898
11
13.3768091
21
0.6757898
0
LINE
8
DEFAULT_255_1_388
10
13.3768091
20
0.6757898
11
14.040929
21
-0.3425273
0
LINE
8
DEFAULT_255_1_388
10
14.040929
20
-0.3425273
11
14.040929
21
0.6757898
0
LINE
8
DEFAULT_255_1_388
10
14.040929
20
0.6757898
11
14.2135098
21
0.6757898
0
LINE
8
DEFAULT_255_1_388
10
14.721313
20
-0.0371225
11
14.721313
21
0.0993157
0
LINE
8
DEFAULT_255_1_388
10
14.721313
20
0.0993157
11
14.8469084
21
0.0993157
0
LINE
8
DEFAULT_255_1_388
10
14.6327637
20
0.3306282
11
14.4656042
21
0.3306282
0
LINE
8
DEFAULT_255_1_388
10
14.4538579
20
-0.2928313
11
14.6219209
21
-0.2928313
0
LINE
8
DEFAULT_255_1_388
10
14.8469084
20
-0.0371225
11
14.721313
21
-0.0371225
0
ARC
8
DEFAULT_255_1_388
10
14.8436311
20
0.4809922
40
0.3816905
50
270.491971
51
281.8953028
0
ARC
8
DEFAULT_255_1_388
10
14.8707738
20
0.3570199
40
0.2547877
50
281.6690378
51
301.2943765
0
ARC
8
DEFAULT_255_1_388
10
14.8899189
20
0.3219926
40
0.2149197
50
301.7834992
51
311.754567
0
ARC
8
DEFAULT_255_1_388
10
14.9002231
20
0.310565
40
0.1995326
50
311.7325027
51
354.2803031
0
ARC
8
DEFAULT_255_1_388
10
14.8184647
20
0.324628
40
0.2823461
50
353.0941646
51
0.1174696
0
ARC
8
DEFAULT_255_1_388
10
14.7666204
20
0.3299874
40
0.3342238
50
359.1804452
51
15.0452323
0
ARC
8
DEFAULT_255_1_388
10
14.9180263
20
0.3741546
40
0.1765747
50
13.957816
51
77.6713812
0
ARC
8
DEFAULT_255_1_388
10
14.8745499
20
0.2183464
40
0.3381982
50
76.111571
51
90.7028736
0
ARC
8
DEFAULT_255_1_388
10
14.8678911
20
0.249125
40
0.3074046
50
89.5321574
51
103.5319393
0
ARC
8
DEFAULT_255_1_388
10
14.8453294
20
0.3390443
40
0.2147041
50
103.2930114
51
133.5619756
0
ARC
8
DEFAULT_255_1_388
10
14.8403236
20
0.3457351
40
0.2064084
50
133.8349761
51
173.5343225
0
ARC
8
DEFAULT_255_1_388
10
14.9216893
20
0.3313144
40
0.2889266
50
172.5097183
51
180.1360699
0
ARC
8
DEFAULT_255_1_388
10
14.8146657
20
0.335188
40
0.3490913
50
155.3483706
51
180.7484035
0
ARC
8
DEFAULT_255_1_388
10
14.8091633
20
0.3319519
40
0.3454798
50
131.5745177
51
154.4799474
0
ARC
8
DEFAULT_255_1_388
10
14.8443915
20
0.2963422
40
0.3955058
50
96.9874487
51
131.9690874
0
ARC
8
DEFAULT_255_1_388
10
14.8690808
20
0.1562407
40
0.537622
50
89.8592909
51
97.7827481
0
ARC
8
DEFAULT_255_1_388
10
14.8744917
20
0.126736
40
0.5671399
50
78.3654493
51
90.4132586
0
ARC
8
DEFAULT_255_1_388
10
14.9147558
20
0.3133918
40
0.3762034
50
56.6229818
51
78.6387103
0
ARC
8
DEFAULT_255_1_388
10
14.9389388
20
0.3556846
40
0.3275964
50
47.0254604
51
56.085558
0
ARC
8
DEFAULT_255_1_388
10
14.9411639
20
0.3601189
40
0.3228382
50
10.9207523
51
46.777927
0
ARC
8
DEFAULT_255_1_388
10
14.7877232
20
0.3246401
40
0.4802559
50
359.6364235
51
11.6087615
0
ARC
8
DEFAULT_255_1_388
10
14.9941398
20
0.3229404
40
0.273833
50
332.3549969
51
359.7179765
0
ARC
8
DEFAULT_255_1_388
10
14.9209799
20
0.3576285
40
0.3547505
50
325.2332381
51
332.8746682
0
ARC
8
DEFAULT_255_1_388
10
14.9381382
20
0.3456763
40
0.3338396
50
292.9803892
51
325.2391113
0
ARC
8
DEFAULT_255_1_388
10
14.9070577
20
0.4061679
40
0.4016959
50
292.542178
51
293.6931461
0
ARC
8
DEFAULT_255_1_388
10
14.9514149
20
-0.3203964
40
0.372079
50
57.643292
51
72.8626085
0
ARC
8
DEFAULT_255_1_388
10
14.9912984
20
-0.2557727
40
0.2961455
50
36.7246661
51
57.4701329
0
ARC
8
DEFAULT_255_1_388
10
14.9900141
20
-0.254353
40
0.2963321
50
8.054535
51
36.3561529
0
ARC
8
DEFAULT_255_1_388
10
14.8929813
20
-0.2717927
40
0.3948682
50
359.8316595
51
8.5873361
0
ARC
8
DEFAULT_255_1_388
10
14.8507288
20
-0.277203
40
0.4371398
50
343.9831631
51
0.557075
0
ARC
8
DEFAULT_255_1_388
10
14.9504337
20
-0.3045037
40
0.3337749
50
311.6358204
51
343.7652116
0
ARC
8
DEFAULT_255_1_388
10
14.9078591
20
-0.2565045
40
0.3979351
50
279.7829743
51
311.625622
0
ARC
8
DEFAULT_255_1_388
10
14.8739726
20
-0.0948358
40
0.5630417
50
269.7285092
51
280.3857694
0
ARC
8
DEFAULT_255_1_388
10
14.8670039
20
-0.0994759
40
0.5584119
50
256.6827433
51
270.4412869
0
ARC
8
DEFAULT_255_1_388
10
14.8289026
20
-0.2552302
40
0.3980715
50
229.4223821
51
256.8554507
0
ARC
8
DEFAULT_255_1_388
10
14.7822579
20
-0.3077317
40
0.3278564
50
181.8183354
51
229.6455015
0
ARC
8
DEFAULT_255_1_388
10
14.8992188
20
-0.2930175
40
0.4453611
50
179.9760419
51
183.2330638
0
ARC
8
DEFAULT_255_1_388
10
14.8798741
20
-0.2953219
40
0.2579652
50
179.4467996
51
196.2871626
0
ARC
8
DEFAULT_255_1_388
10
14.8250194
20
-0.3103291
40
0.2011057
50
196.5661293
51
227.7059371
0
ARC
8
DEFAULT_255_1_388
10
14.8434802
20
-0.2896845
40
0.2287994
50
227.7653015
51
257.8763321
0
ARC
8
DEFAULT_255_1_388
10
14.8687885
20
-0.1836039
40
0.3378385
50
257.4583525
51
270.4267406
0
ARC
8
DEFAULT_255_1_388
10
14.8739134
20
-0.150977
40
0.3704652
50
269.5965319
51
280.8788143
0
ARC
8
DEFAULT_255_1_388
10
14.8997362
20
-0.2799471
40
0.2389415
50
280.6347277
51
299.8594068
0
ARC
8
DEFAULT_255_1_388
10
14.9212132
20
-0.3207264
40
0.19289
50
300.3575552
51
314.5515667
0
ARC
8
DEFAULT_255_1_388
10
14.9118808
20
-0.3138975
40
0.204312
50
315.0730962
51
345.0429362
0
ARC
8
DEFAULT_255_1_388
10
14.8080315
20
-0.2836461
40
0.31246
50
344.598526
51
357.9270698
0
ARC
8
DEFAULT_255_1_388
10
14.707062
20
-0.2767295
40
0.4136265
50
357.4755098
51
0.0224936
0
ARC
8
DEFAULT_255_1_388
10
14.8223498
20
-0.2739901
40
0.2983498
50
359.5051035
51
13.4236939
0
ARC
8
DEFAULT_255_1_388
10
14.9198587
20
-0.2490363
40
0.1977186
50
12.9497905
51
48.7550905
0
ARC
8
DEFAULT_255_1_388
10
14.8993509
20
-0.2770627
40
0.2323321
50
49.509109
51
72.1832965
0
ARC
8
DEFAULT_255_1_388
10
14.8590978
20
-0.3965368
40
0.358397
50
71.9008458
51
84.3555134
0
ARC
8
DEFAULT_255_1_388
10
14.8409372
20
-0.5497288
40
0.512641
50
84.019632
51
89.3326067
0
LINE
8
DEFAULT_255_1_388
10
16.3423076
20
0.138169
11
16.3423076
21
-0.0786865
0
LINE
8
DEFAULT_255_1_388
10
15.5119319
20
-0.1012756
11
15.5119319
21
0.1219048
0
LINE
8
DEFAULT_255_1_388
10
16.1751482
20
-0.1238647
11
16.1751482
21
0.1499153
0
LINE
8
DEFAULT_255_1_388
10
15.6790913
20
0.1625652
11
15.6790913
21
-0.1048898
0
ARC
8
DEFAULT_255_1_388
10
14.964541
20
-0.0841882
40
1.3777776
50
353.8440855
51
0.2287917
0
ARC
8
DEFAULT_255_1_388
10
15.4864428
20
-0.1424586
40
0.852639
50
344.4934746
51
353.9763743
0
ARC
8
DEFAULT_255_1_388
10
15.8231235
20
-0.2381809
40
0.5026273
50
329.2803599
51
344.7473406
0
ARC
8
DEFAULT_255_1_388
10
15.934673
20
-0.2993962
40
0.3754848
50
324.9361395
51
328.6153007
0
ARC
8
DEFAULT_255_1_388
10
15.977238
20
-0.3291414
40
0.3235566
50
280.5801797
51
324.9173226
0
ARC
8
DEFAULT_255_1_388
10
15.9321009
20
-0.1411764
40
0.5167077
50
269.5979457
51
281.6732777
0
ARC
8
DEFAULT_255_1_388
10
15.9239912
20
-0.1546887
40
0.5032026
50
256.6228565
51
270.5105488
0
ARC
8
DEFAULT_255_1_388
10
15.8787655
20
-0.3288655
40
0.3233092
50
215.8618351
51
257.2787793
0
ARC
8
DEFAULT_255_1_388
10
15.9936362
20
-0.2517894
40
0.4615831
50
197.9695203
51
215.2622745
0
ARC
8
DEFAULT_255_1_388
10
16.2732038
20
-0.1574359
40
0.7566307
50
187.8816486
51
198.2346584
0
ARC
8
DEFAULT_255_1_388
10
16.7185276
20
-0.0931547
40
1.2065653
50
180.8977266
51
188.0054894
0
ARC
8
DEFAULT_255_1_388
10
17.023549
20
-0.08166
40
1.5117443
50
180.7434591
51
181.152202
0
ARC
8
DEFAULT_255_1_388
10
16.8560486
20
0.1273371
40
1.3441277
50
173.7674302
51
180.2315596
0
ARC
8
DEFAULT_255_1_388
10
16.3478355
20
0.1847779
40
0.8326847
50
164.3058537
51
173.9000553
0
ARC
8
DEFAULT_255_1_388
10
16.0202355
20
0.2791652
40
0.4917711
50
148.7922028
51
164.5682288
0
ARC
8
DEFAULT_255_1_388
10
15.9133092
20
0.3388457
40
0.3694204
50
144.5883979
51
148.1161588
0
ARC
8
DEFAULT_255_1_388
10
15.8745837
20
0.3658667
40
0.322202
50
101.6440149
51
144.5142619
0
ARC
8
DEFAULT_255_1_388
10
15.922403
20
0.1758337
40
0.5180451
50
89.528284
51
102.5820197
0
ARC
8
DEFAULT_255_1_388
10
15.9313021
20
0.1714376
40
0.5224441
50
77.0437914
51
90.508231
0
ARC
8
DEFAULT_255_1_388
10
15.9765275
20
0.3562272
40
0.3322297
50
48.2777708
51
77.4996087
0
ARC
8
DEFAULT_255_1_388
10
15.9847015
20
0.3707557
40
0.315966
50
36.3141586
51
47.6307332
0
ARC
8
DEFAULT_255_1_388
10
15.8869737
20
0.3049159
40
0.4337313
50
18.2931065
51
35.6770203
0
ARC
8
DEFAULT_255_1_388
10
15.6008578
20
0.2067107
40
0.7362203
50
8.0246996
51
18.5605636
0
ARC
8
DEFAULT_255_1_388
10
15.1324934
20
0.1375432
40
1.2096583
50
1.127539
51
8.1718423
0
ARC
8
DEFAULT_255_1_388
10
14.7676067
20
0.1232374
40
1.5747719
50
0.5432713
51
1.38669
0
ARC
8
DEFAULT_255_1_388
10
14.9733446
20
0.1539163
40
1.2018103
50
359.8092569
51
4.9408001
0
ARC
8
DEFAULT_255_1_388
10
15.4470027
20
0.19619
40
0.7262727
50
4.8364937
51
12.2906017
0
ARC
8
DEFAULT_255_1_388
10
15.7569492
20
0.2652485
40
0.4087324
50
12.0806994
51
23.8171225
0
ARC
8
DEFAULT_255_1_388
10
15.8889888
20
0.3211508
40
0.2653719
50
24.2874621
51
31.3934353
0
ARC
8
DEFAULT_255_1_388
10
15.9480324
20
0.3597822
40
0.1948607
50
30.7407708
51
82.4658033
0
ARC
8
DEFAULT_255_1_388
10
15.9277985
20
0.2604017
40
0.2961198
50
81.1057101
51
90.2187368
0
ARC
8
DEFAULT_255_1_388
10
15.9237796
20
0.2894421
40
0.2670929
50
89.380395
51
105.6763916
0
ARC
8
DEFAULT_255_1_388
10
15.9031518
20
0.364432
40
0.1893189
50
105.7980655
51
149.7387869
0
ARC
8
DEFAULT_255_1_388
10
16.0228658
20
0.2924719
40
0.3289892
50
149.4208441
51
163.628295
0
ARC
8
DEFAULT_255_1_388
10
16.2580888
20
0.2207345
40
0.5749004
50
163.3764549
51
172.141138
0
ARC
8
DEFAULT_255_1_388
10
16.629361
20
0.1675582
40
0.9499585
50
172.0258462
51
178.0705453
0
ARC
8
DEFAULT_255_1_388
10
16.9715162
20
0.1513682
40
1.2924734
50
177.8639301
51
179.5036263
0
ARC
8
DEFAULT_255_1_388
10
16.8496181
20
-0.1089849
40
1.170534
50
179.7995545
51
185.246089
0
ARC
8
DEFAULT_255_1_388
10
16.3947774
20
-0.1520596
40
0.7136613
50
185.1411911
51
193.0082205
0
ARC
8
DEFAULT_255_1_388
10
16.0974035
20
-0.2223559
40
0.4080987
50
192.7897338
51
205.2507384
0
ARC
8
DEFAULT_255_1_388
10
15.9796245
20
-0.2749462
40
0.2791522
50
205.8001921
51
211.2545876
0
ARC
8
DEFAULT_255_1_388
10
15.9207784
20
-0.3143868
40
0.2084074
50
210.3789935
51
238.4007996
0
ARC
8
DEFAULT_255_1_388
10
15.918587
20
-0.3091214
40
0.2117943
50
239.6521916
51
265.9793852
0
ARC
8
DEFAULT_255_1_388
10
15.9281719
20
-0.2334642
40
0.2879689
50
265.1324455
51
270.0603288
0
ARC
8
DEFAULT_255_1_388
10
15.9314096
20
-0.2699582
40
0.2514919
50
269.3314378
51
287.2180039
0
ARC
8
DEFAULT_255_1_388
10
15.9469178
20
-0.3265709
40
0.1928357
50
287.7957942
51
329.0808983
0
ARC
8
DEFAULT_255_1_388
10
15.8391935
20
-0.2593349
40
0.319808
50
328.6635261
51
343.3325043
0
ARC
8
DEFAULT_255_1_388
10
15.5947394
20
-0.1831805
40
0.5758408
50
343.0498092
51
351.9392499
0
ARC
8
DEFAULT_255_1_388
10
15.2046715
20
-0.1256795
40
0.9701202
50
351.8071632
51
357.7957897
0
ARC
8
DEFAULT_255_1_388
10
14.8412192
20
-0.1068276
40
1.3340376
50
357.5870923
51
359.2682493
0
LINE
8
DEFAULT_255_1_388
10
16.96396
20
-0.6398
11
16.5998235
21
-0.6398
0
LINE
8
DEFAULT_255_1_388
10
16.5998235
20
-0.6398
11
16.5998235
21
0.6757898
0
LINE
8
DEFAULT_255_1_388
10
16.5998235
20
0.6757898
11
16.9711885
21
0.6757898
0
LINE
8
DEFAULT_255_1_388
10
17.5512769
20
0.0622696
11
17.5512769
21
-0.0217619
0
LINE
8
DEFAULT_255_1_388
10
16.9757063
20
0.5330267
11
16.7733079
21
0.5330267
0
LINE
8
DEFAULT_255_1_388
10
16.7733079
20
0.5330267
11
16.7733079
21
-0.4979404
0
LINE
8
DEFAULT_255_1_388
10
16.7733079
20
-0.4979404
11
16.9558279
21
-0.4979404
0
LINE
8
DEFAULT_255_1_388
10
17.3795996
20
-0.0181477
11
17.3795996
21
0.0586553
0
ARC
8
DEFAULT_255_1_388
10
16.975568
20
0.0159436
40
0.6598608
50
75.4100343
51
90.3802731
0
ARC
8
DEFAULT_255_1_388
10
17.0013925
20
0.1235691
40
0.5492049
50
60.1455157
51
75.1889627
0
ARC
8
DEFAULT_255_1_388
10
17.0192516
20
0.1546914
40
0.5133226
50
26.525419
51
60.1451222
0
ARC
8
DEFAULT_255_1_388
10
16.8932303
20
0.0878642
40
0.6559324
50
7.4029944
51
26.832209
0
ARC
8
DEFAULT_255_1_388
10
16.71387
20
0.0599229
40
0.8374103
50
0.1605597
51
7.7176135
0
ARC
8
DEFAULT_255_1_388
10
16.73231
20
-0.0260679
40
0.8189782
50
348.7289744
51
0.30125
0
ARC
8
DEFAULT_255_1_388
10
16.9186564
20
-0.0630844
40
0.628991
50
333.0706936
51
348.7181455
0
ARC
8
DEFAULT_255_1_388
10
17.0274192
20
-0.1221551
40
0.5052808
50
299.2531435
51
333.4571133
0
ARC
8
DEFAULT_255_1_388
10
16.9868223
20
-0.0450371
40
0.5924066
50
278.1072193
51
299.0340218
0
ARC
8
DEFAULT_255_1_388
10
16.9580272
20
0.1245979
40
0.7644209
50
270.4446841
51
278.4508355
0
ARC
8
DEFAULT_255_1_388
10
16.9603755
20
0.02003
40
0.5179903
50
269.4969684
51
284.0204874
0
ARC
8
DEFAULT_255_1_388
10
17.0003474
20
-0.1335585
40
0.3592968
50
283.7699076
51
318.1557121
0
ARC
8
DEFAULT_255_1_388
10
16.9624019
20
-0.1051601
40
0.4065308
50
318.7417595
51
343.687252
0
ARC
8
DEFAULT_255_1_388
10
16.7594598
20
-0.0417725
40
0.6191194
50
343.3324891
51
355.8548594
0
ARC
8
DEFAULT_255_1_388
10
16.5233635
20
-0.0193281
40
0.856237
50
355.4988754
51
0.0789913
0
ARC
8
DEFAULT_255_1_388
10
16.6114435
20
0.063408
40
0.7681709
50
359.6455047
51
9.8607559
0
ARC
8
DEFAULT_255_1_388
10
16.8770158
20
0.1113664
40
0.498312
50
9.6573037
51
26.1931522
0
ARC
8
DEFAULT_255_1_388
10
16.9814233
20
0.1598587
40
0.3832303
50
26.5777895
51
40.1533752
0
ARC
8
DEFAULT_255_1_388
10
17.0101898
20
0.182302
40
0.3467742
50
40.3839958
51
80.1430923
0
ARC
8
DEFAULT_255_1_388
10
16.9734153
20
0.0192486
40
0.5137832
50
79.2153636
51
89.7445174
0
LINE
8
DEFAULT_255_1_388
10
18.5813403
20
-0.6398
11
18.295814
21
-0.1076005
0
LINE
8
DEFAULT_255_1_388
10
18.295814
20
-0.1076005
11
17.9867949
21
-0.1076005
0
LINE
8
DEFAULT_255_1_388
10
17.9867949
20
-0.1076005
11
17.9867949
21
-0.6398
0
LINE
8
DEFAULT_255_1_388
10
17.9867949
20
-0.6398
11
17.812407
21
-0.6398
0
LINE
8
DEFAULT_255_1_388
10
17.812407
20
-0.6398
11
17.812407
21
0.6757898
0
LINE
8
DEFAULT_255_1_388
10
17.812407
20
0.6757898
11
18.247925
21
0.6757898
0
LINE
8
DEFAULT_255_1_388
10
18.4584556
20
-0.0705544
11
18.7674746
21
-0.6289572
0
LINE
8
DEFAULT_255_1_388
10
18.7674746
20
-0.6289572
11
18.7674746
21
-0.6398
0
LINE
8
DEFAULT_255_1_388
10
18.7674746
20
-0.6398
11
18.5813403
21
-0.6398
0
LINE
8
DEFAULT_255_1_388
10
17.9867949
20
0.5330267
11
17.9867949
21
0.0342591
0
LINE
8
DEFAULT_255_1_388
10
17.9867949
20
0.0342591
11
18.2533464
21
0.0342591
0
LINE
8
DEFAULT_255_1_388
10
18.2524429
20
0.5330267
11
17.9867949
21
0.5330267
0
ARC
8
DEFAULT_255_1_388
10
18.2526096
20
-0.1073654
40
0.7831693
50
80.6535681
51
90.3427203
0
ARC
8
DEFAULT_255_1_388
10
18.2998007
20
0.1696722
40
0.5021479
50
65.6987674
51
80.8330164
0
ARC
8
DEFAULT_255_1_388
10
18.35353
20
0.2928479
40
0.3677787
50
50.0019152
51
65.4304412
0
ARC
8
DEFAULT_255_1_388
10
18.3781117
20
0.3260603
40
0.3265454
50
11.6284215
51
49.5603681
0
ARC
8
DEFAULT_255_1_388
10
18.2053603
20
0.2838524
40
0.5043009
50
359.5655533
51
12.3693319
0
ARC
8
DEFAULT_255_1_388
10
18.3264939
20
0.2768038
40
0.3831661
50
341.998418
51
0.4822212
0
ARC
8
DEFAULT_255_1_388
10
18.3709126
20
0.2647479
40
0.3372036
50
323.8610842
51
341.6141514
0
ARC
8
DEFAULT_255_1_388
10
18.3369672
20
0.2909615
40
0.3800784
50
296.7019299
51
323.6876213
0
ARC
8
DEFAULT_255_1_388
10
18.287363
20
0.3796532
40
0.4816219
50
290.808313
51
297.2325929
0
ARC
8
DEFAULT_255_1_388
10
18.2562423
20
0.4385377
40
0.404289
50
269.5895908
51
281.8058892
0
ARC
8
DEFAULT_255_1_388
10
18.284469
20
0.309436
40
0.2721459
50
281.5499321
51
303.9358954
0
ARC
8
DEFAULT_255_1_388
10
18.2999224
20
0.2826588
40
0.2413121
50
304.4410786
51
311.211123
0
ARC
8
DEFAULT_255_1_388
10
18.3147629
20
0.2670152
40
0.2197678
50
310.9874923
51
356.2715203
0
ARC
8
DEFAULT_255_1_388
10
18.2297376
20
0.2796992
40
0.3055212
50
354.9346315
51
0.0617816
0
ARC
8
DEFAULT_255_1_388
10
18.2086217
20
0.2827427
40
0.3266482
50
359.5239293
51
12.8808621
0
ARC
8
DEFAULT_255_1_388
10
18.3185979
20
0.3096638
40
0.2134449
50
12.417206
51
43.1023141
0
ARC
8
DEFAULT_255_1_388
10
18.3255309
20
0.3138253
40
0.2055463
50
43.575886
51
48.2047245
0
ARC
8
DEFAULT_255_1_388
10
18.306457
20
0.2889151
40
0.2368418
50
48.7809155
51
72.6968768
0
ARC
8
DEFAULT_255_1_388
10
18.2665934
20
0.1679385
40
0.364206
50
72.3699892
51
84.8793749
0
ARC
8
DEFAULT_255_1_388
10
18.249994
20
0.0169651
40
0.5160674
50
84.5398226
51
89.7281165
0
LINE
8
DEFAULT_255_1_388
10
19.2743743
20
-0.0127263
11
19.2743743
21
-0.1491645
0
LINE
8
DEFAULT_255_1_388
10
19.2743743
20
-0.1491645
11
18.8334348
21
-0.1491645
0
LINE
8
DEFAULT_255_1_388
10
18.8334348
20
-0.1491645
11
18.8334348
21
-0.0127263
0
LINE
8
DEFAULT_255_1_388
10
18.8334348
20
-0.0127263
11
19.2743743
21
-0.0127263
0
LINE
8
DEFAULT_255_1_388
10
20.3152805
20
-0.6398
11
20.1896851
21
-0.2964455
0
LINE
8
DEFAULT_255_1_388
10
20.1896851
20
-0.2964455
11
19.6385107
21
-0.2964455
0
LINE
8
DEFAULT_255_1_388
10
19.6385107
20
-0.2964455
11
19.5147224
21
-0.6398
0
LINE
8
DEFAULT_255_1_388
10
19.5147224
20
-0.6398
11
19.3358167
21
-0.6398
0
LINE
8
DEFAULT_255_1_388
10
19.3358167
20
-0.6398
11
19.8381985
21
0.6757898
0
LINE
8
DEFAULT_255_1_388
10
19.8381985
20
0.6757898
11
19.9899973
21
0.6757898
0
LINE
8
DEFAULT_255_1_388
10
19.9899973
20
0.6757898
11
20.4932827
21
-0.6398
0
LINE
8
DEFAULT_255_1_388
10
20.4932827
20
-0.6398
11
20.3152805
21
-0.6398
0
LINE
8
DEFAULT_255_1_388
10
19.9140979
20
0.4616451
11
19.6909175
21
-0.1536823
0
LINE
8
DEFAULT_255_1_388
10
19.6909175
20
-0.1536823
11
20.1381819
21
-0.1536823
0
LINE
8
DEFAULT_255_1_388
10
20.1381819
20
-0.1536823
11
19.9140979
21
0.4616451
0
ARC
8
DEFAULT_255_2_778
10
15.4041323
20
161.674189
40
0.3782009
50
0.4397807
51
91.3045231
0
ARC
8
DEFAULT_255_2_778
10
15.4019879
20
161.6719064
40
0.3803695
50
269.0259909
51
0.7811192
0
ARC
8
DEFAULT_255_2_778
10
15.5611293
20
161.6594643
40
0.7639615
50
290.7362057
51
357.8000295
0
ARC
8
DEFAULT_255_2_778
10
15.4759031
20
161.6770235
40
0.8499188
50
356.8376875
51
0.0046095
0
ARC
8
DEFAULT_255_2_778
10
15.4745443
20
161.6770748
40
0.8512778
50
0.0011515
51
85.3589632
0
ARC
8
DEFAULT_255_2_778
10
15.4745371
20
161.6580092
40
0.8702827
50
85.4600549
51
90.0075769
0
ARC
8
DEFAULT_255_2_778
10
20.305685
20
161.6677426
40
0.3845507
50
1.3931151
51
90.158378
0
ARC
8
DEFAULT_255_2_778
10
20.3652096
20
161.6613635
40
0.8684198
50
359.7643557
51
42.1181505
0
ARC
8
DEFAULT_255_2_778
10
20.3676156
20
161.6617931
40
0.866348
50
42.2037872
51
87.9292218
0
ARC
8
DEFAULT_255_2_778
10
20.3628626
20
161.6205097
40
0.9077821
50
87.7235759
51
90.0025578
0
ARC
8
DEFAULT_255_2_778
10
13.0587947
20
161.6746344
40
0.3777354
50
0.3727528
51
91.1638813
0
ARC
8
DEFAULT_255_2_778
10
13.1128692
20
161.6613595
40
0.8684602
50
359.7646302
51
42.1161032
0
ARC
8
DEFAULT_255_2_778
10
13.1153774
20
161.6619127
40
0.8662296
50
42.2002176
51
87.9268901
0
ARC
8
DEFAULT_255_2_778
10
13.1106626
20
161.6208749
40
0.9074169
50
87.7231194
51
90.002558
0
ARC
8
DEFAULT_255_2_778
10
17.691342
20
161.2695858
40
1.2841942
50
233.3100129
51
270.0348017
0
ARC
8
DEFAULT_255_2_778
10
17.7034133
20
161.2899622
40
1.3077482
50
187.7860459
51
233.4193197
0
ARC
8
DEFAULT_255_2_778
10
17.7216588
20
161.2915185
40
1.3260368
50
179.9838663
51
187.7458681
0
ARC
8
DEFAULT_255_2_778
10
17.6801523
20
161.2921375
40
1.2845303
50
143.7084173
51
180.0109545
0
ARC
8
DEFAULT_255_2_778
10
17.6952238
20
161.2870899
40
1.2996747
50
94.9692901
51
143.9223324
0
ARC
8
DEFAULT_255_2_778
10
17.6920032
20
161.2877347
40
1.2987573
50
89.9947559
51
94.8302073
0
ARC
8
DEFAULT_255_2_778
10
17.6942339
20
161.2819304
40
1.3045632
50
58.1407344
51
90.0927508
0
ARC
8
DEFAULT_255_2_778
10
17.7023831
20
161.2875662
40
1.2954809
50
3.5056409
51
58.315291
0
ARC
8
DEFAULT_255_2_778
10
17.7034163
20
161.2916563
40
1.2942058
50
359.9971467
51
3.3277024
0
ARC
8
DEFAULT_255_2_778
10
17.5149088
20
161.2895483
40
1.4827147
50
0.006083
51
0.0789681
0
ARC
8
DEFAULT_255_2_778
10
17.6927187
20
161.2897022
40
1.3049047
50
315.0308293
51
0.0001529
0
ARC
8
DEFAULT_255_2_778
10
17.6932377
20
161.2894521
40
1.3043608
50
270.000667
51
315.0224921
0
LINE
8
DEFAULT_255_2_778
10
17.6932529
20
159.9850914
11
17.6921221
21
159.9850919
0
ARC
8
DEFAULT_255_2_778
10
17.6963812
20
161.2879112
40
0.7580313
50
269.6780691
51
315.5292436
0
ARC
8
DEFAULT_255_2_778
10
17.6933107
20
161.2871878
40
0.7597205
50
315.7303962
51
0.2857903
0
ARC
8
DEFAULT_255_2_778
10
17.9810376
20
161.2914382
40
0.4719845
50
359.944048
51
0.0186519
0
ARC
8
DEFAULT_255_2_778
10
17.7010772
20
161.2904605
40
0.7519457
50
0.086204
51
85.4319233
0
ARC
8
DEFAULT_255_2_778
10
17.6922609
20
161.2480338
40
0.7949581
50
85.0420495
51
90.0100075
0
ARC
8
DEFAULT_255_2_778
10
17.6902396
20
161.3047519
40
0.7382424
50
89.8538973
51
89.9999976
0
ARC
8
DEFAULT_255_2_778
10
17.690377
20
161.2918044
40
0.7511899
50
90.01048
51
134.9443097
0
ARC
8
DEFAULT_255_2_778
10
17.6905947
20
161.2916222
40
0.7514726
50
134.9462486
51
180.0023145
0
ARC
8
DEFAULT_255_2_778
10
17.7031624
20
161.2876875
40
0.7640503
50
179.7072119
51
222.5790813
0
ARC
8
DEFAULT_255_2_778
10
17.6902296
20
161.2766475
40
0.7470579
50
222.6267201
51
270.1451401
0
ARC
8
DEFAULT_255_2_778
10
9.696742
20
161.2695858
40
1.2841942
50
233.3100129
51
270.0348017
0
ARC
8
DEFAULT_255_2_778
10
9.7088133
20
161.2899622
40
1.3077482
50
187.7860459
51
233.4193197
0
ARC
8
DEFAULT_255_2_778
10
9.7270588
20
161.2915185
40
1.3260368
50
179.9838663
51
187.7458681
0
ARC
8
DEFAULT_255_2_778
10
9.6858129
20
161.2919961
40
1.2847909
50
143.1940819
51
180.0046489
0
ARC
8
DEFAULT_255_2_778
10
9.7006078
20
161.2873006
40
1.2994598
50
94.9233187
51
143.4191345
0
ARC
8
DEFAULT_255_2_778
10
9.6974008
20
161.288012
40
1.2984798
50
89.9946509
51
94.7850278
0
ARC
8
DEFAULT_255_2_778
10
9.6996902
20
161.2818441
40
1.3046496
50
58.1428905
51
90.0952196
0
ARC
8
DEFAULT_255_2_778
10
9.7081177
20
161.2879453
40
1.2950254
50
3.2656058
51
58.3171105
0
ARC
8
DEFAULT_255_2_778
10
9.7086693
20
161.2919485
40
1.2942527
50
359.997494
51
3.0900664
0
ARC
8
DEFAULT_255_2_778
10
9.7259718
20
161.2897448
40
1.276952
50
359.9949307
51
0.0963391
0
ARC
8
DEFAULT_255_2_778
10
9.6986093
20
161.2897585
40
1.3043147
50
315.0200668
51
359.994431
0
ARC
8
DEFAULT_255_2_778
10
9.6986338
20
161.28952
40
1.3041287
50
270.0008363
51
315.026719
0
LINE
8
DEFAULT_255_2_778
10
9.6986529
20
159.9853914
11
9.6975221
21
159.9853919
0
ARC
8
DEFAULT_255_2_778
10
9.7017412
20
161.2879135
40
0.7580334
50
269.6810953
51
315.6152252
0
ARC
8
DEFAULT_255_2_778
10
9.6986839
20
161.2872381
40
0.7597504
50
315.8129036
51
0.3254485
0
ARC
8
DEFAULT_255_2_778
10
9.7061176
20
161.2901565
40
0.7523058
50
0.1093155
51
85.7820321
0
ARC
8
DEFAULT_255_2_778
10
9.6976381
20
161.2486263
40
0.7943655
50
85.3923987
51
90.0083732
0
ARC
8
DEFAULT_255_2_778
10
9.6956385
20
161.3038348
40
0.7391595
50
89.8539942
51
89.9999859
0
ARC
8
DEFAULT_255_2_778
10
9.695705
20
161.2919783
40
0.7510159
50
90.0050654
51
134.9497993
0
ARC
8
DEFAULT_255_2_778
10
9.6955746
20
161.2917963
40
0.7510526
50
134.9329452
51
180.0155944
0
ARC
8
DEFAULT_255_2_778
10
9.7085945
20
161.2876612
40
0.7640826
50
179.7052536
51
222.5741919
0
ARC
8
DEFAULT_255_2_778
10
9.6955805
20
161.2766163
40
0.7470269
50
222.6256588
51
270.1489141
0
LINE
8
DEFAULT_255_2_778
10
14.2091221
20
162.5076919
11
14.2091221
21
160.0448919
0
LINE
8
DEFAULT_255_2_778
10
14.2091221
20
160.0448919
11
14.7526221
21
160.0448919
0
LINE
8
DEFAULT_255_2_778
10
14.7526221
20
160.0448919
11
14.7526221
21
162.0522919
0
LINE
8
DEFAULT_255_2_778
10
14.7526221
20
162.0522919
11
15.3955221
21
162.0522919
0
LINE
8
DEFAULT_255_2_778
10
15.3955221
20
161.2915919
11
14.9309221
21
161.2915919
0
LINE
8
DEFAULT_255_2_778
10
14.9309221
20
161.2915919
11
15.7720221
21
160.0445919
0
LINE
8
DEFAULT_255_2_778
10
15.7720221
20
160.0445919
11
16.4449221
21
160.0445919
0
LINE
8
DEFAULT_255_2_778
10
16.4449221
20
160.0445919
11
15.8316221
21
160.9449919
0
LINE
8
DEFAULT_255_2_778
10
15.4744221
20
162.5282919
11
14.7523221
21
162.5282919
0
LINE
8
DEFAULT_255_2_778
10
14.7523221
20
162.5282919
11
14.2089221
21
162.5076919
0
LINE
8
DEFAULT_255_2_778
10
14.2089221
20
162.5076919
11
14.2091221
21
162.5076919
0
LINE
8
DEFAULT_255_2_778
10
19.1465221
20
162.5076919
11
19.1465221
21
160.0448919
0
LINE
8
DEFAULT_255_2_778
10
19.1465221
20
160.0448919
11
19.6900221
21
160.0448919
0
LINE
8
DEFAULT_255_2_778
10
19.6900221
20
160.0448919
11
19.6900221
21
162.0522919
0
LINE
8
DEFAULT_255_2_778
10
19.6900221
20
162.0522919
11
20.3046221
21
162.0522919
0
LINE
8
DEFAULT_255_2_778
10
20.6901221
20
161.6770919
11
20.6901221
21
160.0448919
0
LINE
8
DEFAULT_255_2_778
10
20.6901221
20
160.0448919
11
21.2336221
21
160.0448919
0
LINE
8
DEFAULT_255_2_778
10
21.2336221
20
160.0448919
11
21.2336221
21
161.6577919
0
LINE
8
DEFAULT_255_2_778
10
20.3628221
20
162.5282919
11
19.6900221
21
162.5282919
0
LINE
8
DEFAULT_255_2_778
10
19.6900221
20
162.5282919
11
19.1465221
21
162.5076919
0
LINE
8
DEFAULT_255_2_778
10
19.1465221
20
162.5076919
11
19.1465221
21
162.5076919
0
LINE
8
DEFAULT_255_2_778
10
11.1519221
20
162.5076919
11
11.1519221
21
160.0448919
0
LINE
8
DEFAULT_255_2_778
10
11.1519221
20
160.0448919
11
11.6951221
21
160.0448919
0
LINE
8
DEFAULT_255_2_778
10
11.6951221
20
160.0448919
11
11.6951221
21
162.0522919
0
LINE
8
DEFAULT_255_2_778
10
11.6951221
20
162.0522919
11
12.2994221
21
162.0522919
0
LINE
8
DEFAULT_255_2_778
10
12.2994221
20
162.0522919
11
12.2994221
21
160.0448919
0
LINE
8
DEFAULT_255_2_778
10
12.2994221
20
160.0448919
11
12.8428221
21
160.0448919
0
LINE
8
DEFAULT_255_2_778
10
12.8428221
20
160.0448919
11
12.8428221
21
162.0522919
0
LINE
8
DEFAULT_255_2_778
10
12.8428221
20
162.0522919
11
13.0511221
21
162.0522919
0
LINE
8
DEFAULT_255_2_778
10
13.4365221
20
161.6770919
11
13.4365221
21
160.0448919
0
LINE
8
DEFAULT_255_2_778
10
13.4365221
20
160.0448919
11
13.9813221
21
160.0448919
0
LINE
8
DEFAULT_255_2_778
10
13.9813221
20
160.0448919
11
13.9813221
21
161.6577919
0
LINE
8
DEFAULT_255_2_778
10
13.1106221
20
162.5282919
11
11.7054221
21
162.5282919
0
LINE
8
DEFAULT_255_2_778
10
11.7054221
20
162.5282919
11
11.1516221
21
162.5076919
0
LINE
8
DEFAULT_255_2_778
10
11.1516221
20
162.5076919
11
11.1519221
21
162.5076919
0
LINE
8
DEFAULT_255_2_778
10
17.6921221
20
159.9850919
11
17.6921221
21
159.9853919
0
LINE
8
DEFAULT_255_2_778
10
9.6975221
20
159.9853919
11
9.6975221
21
159.9853919
0
LINE
8
DEFAULT_255_1_388
10
11.254932
20
157.8662468
11
11.4293199
21
157.8662468
0
LINE
8
DEFAULT_255_1_388
10
10.4164242
20
158.0451525
11
10.4164242
21
158.1716516
0
LINE
8
DEFAULT_255_1_388
10
11.4293199
20
158.3415217
11
11.254932
21
158.3415217
0
LINE
8
DEFAULT_255_1_388
10
10.5908121
20
158.1671337
11
10.5908121
21
158.0397312
0
ARC
8
DEFAULT_255_1_388
10
10.8127433
20
157.9334329
40
0.6202263
50
340.1774904
51
353.7812217
0
ARC
8
DEFAULT_255_1_388
10
10.9895286
20
157.8675893
40
0.4315926
50
311.4560052
51
340.4420756
0
ARC
8
DEFAULT_255_1_388
10
10.9857826
20
157.8800665
40
0.4434573
50
282.4332229
51
310.7514507
0
ARC
8
DEFAULT_255_1_388
10
10.9363644
20
158.0842703
40
0.6535262
50
269.9358869
51
282.8096729
0
ARC
8
DEFAULT_255_1_388
10
10.9305583
20
158.2355329
40
0.8048043
50
269.9995752
51
270.3612856
0
ARC
8
DEFAULT_255_1_388
10
10.9246073
20
157.9556781
40
0.5249831
50
250.7885263
51
270.6488451
0
ARC
8
DEFAULT_255_1_388
10
10.9056898
20
157.8839853
40
0.4510942
50
219.3628377
51
250.0611024
0
ARC
8
DEFAULT_255_1_388
10
10.9989772
20
157.9632653
40
0.5735046
50
193.5480293
51
219.5755675
0
ARC
8
DEFAULT_255_1_388
10
11.2657981
20
158.032552
40
0.849146
50
181.1220183
51
193.8754971
0
ARC
8
DEFAULT_255_1_388
10
11.4981214
20
158.0449914
40
1.0816971
50
179.9914644
51
181.5398227
0
ARC
8
DEFAULT_255_1_388
10
11.2904525
20
158.1758586
40
0.8740384
50
169.5837606
51
180.275782
0
ARC
8
DEFAULT_255_1_388
10
11.0837873
20
158.2140439
40
0.6638751
50
155.0367033
51
169.6002779
0
ARC
8
DEFAULT_255_1_388
10
10.9560331
20
158.2756336
40
0.5220662
50
136.7831557
51
155.2472983
0
ARC
8
DEFAULT_255_1_388
10
10.9122122
20
158.3128577
40
0.4646502
50
121.7633063
51
136.4281161
0
ARC
8
DEFAULT_255_1_388
10
10.9273962
20
158.2848049
40
0.4964979
50
95.6460018
51
121.5489589
0
ARC
8
DEFAULT_255_1_388
10
10.9450936
20
158.1600704
40
0.6223912
50
89.9245727
51
96.1375919
0
ARC
8
DEFAULT_255_1_388
10
10.9507641
20
158.1734721
40
0.6090084
50
76.6779212
51
90.456405
0
ARC
8
DEFAULT_255_1_388
10
10.9950454
20
158.352406
40
0.42469
50
47.4858803
51
76.9287069
0
ARC
8
DEFAULT_255_1_388
10
10.9785068
20
158.3411623
40
0.4441778
50
16.5424081
51
46.8934505
0
ARC
8
DEFAULT_255_1_388
10
10.7976118
20
158.2817265
40
0.6345318
50
5.4072971
51
17.0363711
0
ARC
8
DEFAULT_255_1_388
10
10.6357843
20
158.2557304
40
0.6250632
50
7.8888693
51
15.9242022
0
ARC
8
DEFAULT_255_1_388
10
10.8592828
20
158.3206309
40
0.3923364
50
15.7650676
51
27.9410069
0
ARC
8
DEFAULT_255_1_388
10
10.9834997
20
158.3871317
40
0.2514401
50
27.8167196
51
46.4007942
0
ARC
8
DEFAULT_255_1_388
10
10.9890839
20
158.3864882
40
0.2480958
50
47.4372362
51
75.0695672
0
ARC
8
DEFAULT_255_1_388
10
10.9543675
20
158.2656277
40
0.3738281
50
74.7009379
51
87.8124314
0
ARC
8
DEFAULT_255_1_388
10
10.9461292
20
158.1472659
40
0.4924321
50
87.3802571
51
90.0251599
0
ARC
8
DEFAULT_255_1_388
10
10.9417939
20
158.2792997
40
0.3604218
50
89.3451886
51
108.5744412
0
ARC
8
DEFAULT_255_1_388
10
10.9263931
20
158.3370836
40
0.3007661
50
109.2998307
51
143.3037387
0
ARC
8
DEFAULT_255_1_388
10
11.0121221
20
158.2711584
40
0.4089031
50
143.075267
51
163.1918576
0
ARC
8
DEFAULT_255_1_388
10
11.2317055
20
158.2018652
40
0.6391492
50
162.9375929
51
174.6208776
0
ARC
8
DEFAULT_255_1_388
10
11.5271437
20
158.1694711
40
0.9363344
50
174.342123
51
180.1430283
0
ARC
8
DEFAULT_255_1_388
10
11.4223978
20
158.0351117
40
0.8315986
50
179.6817261
51
189.150555
0
ARC
8
DEFAULT_255_1_388
10
11.1410727
20
157.9882559
40
0.5464044
50
188.9911061
51
203.5772363
0
ARC
8
DEFAULT_255_1_388
10
11.0196019
20
157.9378539
40
0.4149206
50
203.9075402
51
215.1312435
0
ARC
8
DEFAULT_255_1_388
10
10.9157817
20
157.8573907
40
0.2837747
50
213.9071511
51
263.8848919
0
ARC
8
DEFAULT_255_1_388
10
10.929881
20
157.9456519
40
0.3730641
50
263.1757928
51
270.1031044
0
ARC
8
DEFAULT_255_1_388
10
10.933489
20
158.0859511
40
0.5133712
50
269.6722503
51
279.0606936
0
ARC
8
DEFAULT_255_1_388
10
10.9635045
20
157.904515
40
0.3294739
50
278.8749101
51
293.6349581
0
ARC
8
DEFAULT_255_1_388
10
10.9995249
20
157.8199251
40
0.2375405
50
293.8553806
51
310.0518171
0
ARC
8
DEFAULT_255_1_388
10
11.0000758
20
157.8129021
40
0.2318463
50
311.0644687
51
332.0111037
0
ARC
8
DEFAULT_255_1_388
10
10.8659431
20
157.8868702
40
0.3850112
50
331.6586806
51
343.2877423
0
ARC
8
DEFAULT_255_1_388
10
10.6338896
20
157.9581806
40
0.6277712
50
343.1446576
51
351.0103568
0
ARC
8
DEFAULT_255_1_388
10
10.470622
20
157.9881873
40
0.7937327
50
350.71248
51
351.1626997
0
LINE
8
DEFAULT_255_1_388
10
12.1494608
20
157.9638317
11
11.8395382
21
157.9638317
0
LINE
8
DEFAULT_255_1_388
10
11.8395382
20
157.9638317
11
11.8395382
21
157.4488
0
LINE
8
DEFAULT_255_1_388
10
11.8395382
20
157.4488
11
11.6660538
21
157.4488
0
LINE
8
DEFAULT_255_1_388
10
11.6660538
20
157.4488
11
11.6660538
21
158.7643898
0
LINE
8
DEFAULT_255_1_388
10
11.6660538
20
158.7643898
11
12.1512679
21
158.7643898
0
LINE
8
DEFAULT_255_1_388
10
11.8395382
20
158.6216267
11
11.8395382
21
158.1056914
0
LINE
8
DEFAULT_255_1_388
10
11.8395382
20
158.1056914
11
12.1512679
21
158.1056914
0
LINE
8
DEFAULT_255_1_388
10
12.1612071
20
158.6216267
11
11.8395382
21
158.6216267
0
ARC
8
DEFAULT_255_1_388
10
12.1560053
20
158.0827334
40
0.6816729
50
78.8380084
51
90.398184
0
ARC
8
DEFAULT_255_1_388
10
12.2028083
20
158.3100796
40
0.449571
50
58.9633273
51
79.0810717
0
ARC
8
DEFAULT_255_1_388
10
12.2367468
20
158.3730823
40
0.3781049
50
48.0194715
51
58.4475592
0
ARC
8
DEFAULT_255_1_388
10
12.2467287
20
158.3826818
40
0.3642936
50
3.3374546
51
48.1766642
0
ARC
8
DEFAULT_255_1_388
10
12.1082094
20
158.3627581
40
0.5038766
50
359.9483251
51
4.6822857
0
ARC
8
DEFAULT_255_1_388
10
12.1222017
20
158.3579779
40
0.4899031
50
346.1879032
51
0.5059221
0
ARC
8
DEFAULT_255_1_388
10
12.2750809
20
158.3182763
40
0.3319729
50
310.8832219
51
346.5426612
0
ARC
8
DEFAULT_255_1_388
10
12.2403657
20
158.3651853
40
0.3901853
50
286.6925305
51
310.228778
0
ARC
8
DEFAULT_255_1_388
10
12.1763387
20
158.5665585
40
0.6014737
50
274.6848219
51
287.0247342
0
ARC
8
DEFAULT_255_1_388
10
12.1509936
20
158.8150088
40
0.8511785
50
269.8968222
51
275.0192639
0
ARC
8
DEFAULT_255_1_388
10
12.1540929
20
158.5812144
40
0.4755314
50
269.6596206
51
279.4150542
0
ARC
8
DEFAULT_255_1_388
10
12.1830387
20
158.4134945
40
0.3053379
50
279.2050006
51
294.9901776
0
ARC
8
DEFAULT_255_1_388
10
12.2157022
20
158.3406353
40
0.2255036
50
295.2886769
51
311.2912669
0
ARC
8
DEFAULT_255_1_388
10
12.2236763
20
158.3287938
40
0.2113522
50
311.7853512
51
347.2860549
0
ARC
8
DEFAULT_255_1_388
10
12.1129925
20
158.357243
40
0.3256011
50
346.6891629
51
0.1057086
0
ARC
8
DEFAULT_255_1_388
10
12.0207384
20
158.3605247
40
0.417863
50
359.63239
51
359.9961329
0
ARC
8
DEFAULT_255_1_388
10
12.1371989
20
158.3632987
40
0.3014155
50
359.4673371
51
15.5931159
0
ARC
8
DEFAULT_255_1_388
10
12.2075052
20
158.3822937
40
0.2285918
50
15.7441779
51
46.620186
0
ARC
8
DEFAULT_255_1_388
10
12.1908812
20
158.3631361
40
0.2539359
50
46.8628482
51
75.6676625
0
ARC
8
DEFAULT_255_1_388
10
12.1577869
20
158.2440243
40
0.3775415
50
75.2763152
51
88.2916439
0
ARC
8
DEFAULT_255_1_388
10
12.1511868
20
158.1438097
40
0.4779221
50
87.8589087
51
88.7986197
0
LINE
8
DEFAULT_255_1_388
10
13.155128
20
158.0758737
11
13.155128
21
157.9394355
0
LINE
8
DEFAULT_255_1_388
10
13.155128
20
157.9394355
11
12.7141886
21
157.9394355
0
LINE
8
DEFAULT_255_1_388
10
12.7141886
20
157.9394355
11
12.7141886
21
158.0758737
0
LINE
8
DEFAULT_255_1_388
10
12.7141886
20
158.0758737
11
13.155128
21
158.0758737
0
LINE
8
DEFAULT_255_1_388
10
14.2168163
20
158.3839892
11
14.0424283
21
158.3839892
0
LINE
8
DEFAULT_255_1_388
10
13.2635558
20
157.8301042
11
13.4379437
21
157.8301042
0
ARC
8
DEFAULT_255_1_388
10
14.116501
20
159.3903821
40
1.4087688
50
248.9196578
51
254.1442424
0
ARC
8
DEFAULT_255_1_388
10
13.927489
20
158.9037805
40
0.8867498
50
241.6337352
51
249.0064643
0
ARC
8
DEFAULT_255_1_388
10
13.7555204
20
158.5886764
40
0.5277799
50
230.4982261
51
241.8087583
0
ARC
8
DEFAULT_255_1_388
10
13.6672975
20
158.4762686
40
0.3849419
50
227.4062979
51
229.9877433
0
ARC
8
DEFAULT_255_1_388
10
13.6124321
20
158.4227155
40
0.3084129
50
200.6782127
51
228.1765252
0
ARC
8
DEFAULT_255_1_388
10
13.620569
20
158.4210277
40
0.315461
50
179.506278
51
199.8695278
0
ARC
8
DEFAULT_255_1_388
10
13.6195279
20
158.4293671
40
0.3144584
50
132.4834401
51
181.0242352
0
ARC
8
DEFAULT_255_1_388
10
13.6864483
20
158.3661788
40
0.4063094
50
129.2526113
51
133.4249077
0
ARC
8
DEFAULT_255_1_388
10
13.7030076
20
158.3413619
40
0.436014
50
101.9878945
51
128.8741833
0
ARC
8
DEFAULT_255_1_388
10
13.7478491
20
158.147736
40
0.6347415
50
89.5906376
51
102.3170567
0
ARC
8
DEFAULT_255_1_388
10
13.7557803
20
158.1835586
40
0.5989122
50
77.2359491
51
90.3248968
0
ARC
8
DEFAULT_255_1_388
10
13.7790734
20
158.2923554
40
0.4876594
50
63.8379856
51
77.0808925
0
ARC
8
DEFAULT_255_1_388
10
13.8103267
20
158.3505882
40
0.4216191
50
45.9863127
51
64.1608798
0
ARC
8
DEFAULT_255_1_388
10
13.8396661
20
158.384099
40
0.3771394
50
32.2747934
51
45.6544796
0
ARC
8
DEFAULT_255_1_388
10
13.8471467
20
158.3862426
40
0.3696765
50
359.6507495
51
32.6129943
0
ARC
8
DEFAULT_255_1_388
10
13.741065
20
158.3867788
40
0.3013762
50
359.469654
51
14.983205
0
ARC
8
DEFAULT_255_1_388
10
13.8203902
20
158.4080288
40
0.2192542
50
14.9781954
51
48.2004799
0
ARC
8
DEFAULT_255_1_388
10
13.8019013
20
158.3847937
40
0.2489048
50
48.5926661
51
74.1242559
0
ARC
8
DEFAULT_255_1_388
10
13.7643815
20
158.2609607
40
0.3782845
50
73.7889321
51
86.6653996
0
ARC
8
DEFAULT_255_1_388
10
13.752863
20
158.1251955
40
0.5145025
50
86.2642725
51
90.0533288
0
ARC
8
DEFAULT_255_1_388
10
13.7496723
20
158.1696376
40
0.4700681
50
89.669455
51
99.2313411
0
ARC
8
DEFAULT_255_1_388
10
13.7223883
20
158.3321401
40
0.3052945
50
99.0695987
51
113.7659242
0
ARC
8
DEFAULT_255_1_388
10
13.6915877
20
158.4047772
40
0.226407
50
114.0402885
51
127.9848946
0
ARC
8
DEFAULT_255_1_388
10
13.6645353
20
158.4380884
40
0.1835045
50
127.7287217
51
176.7106493
0
ARC
8
DEFAULT_255_1_388
10
13.7409018
20
158.426721
40
0.2604907
50
175.1780759
51
180.0581213
0
ARC
8
DEFAULT_255_1_388
10
13.6460362
20
158.4253411
40
0.1656287
50
179.6140658
51
228.124674
0
ARC
8
DEFAULT_255_1_388
10
13.6957719
20
158.471394
40
0.2332038
50
226.5785315
51
230.8792476
0
ARC
8
DEFAULT_255_1_388
10
13.7487206
20
158.5416908
40
0.3211664
50
231.4636401
51
241.9261664
0
ARC
8
DEFAULT_255_1_388
10
13.8833989
20
158.7895349
40
0.6032345
50
241.7177136
51
248.3259138
0
ARC
8
DEFAULT_255_1_388
10
14.0392584
20
159.1756771
40
1.0196417
50
248.2007377
51
252.4527713
0
ARC
8
DEFAULT_255_1_388
10
14.1746111
20
159.5941092
40
1.4594143
50
252.3388938
51
254.347037
0
ARC
8
DEFAULT_255_1_388
10
13.3261411
20
156.5593095
40
1.6917621
50
71.0197462
51
74.4085467
0
ARC
8
DEFAULT_255_1_388
10
13.5168499
20
157.1098144
40
1.1091618
50
66.1845203
51
71.086519
0
ARC
8
DEFAULT_255_1_388
10
13.6919048
20
157.5039439
40
0.6779073
50
59.3537334
51
66.269255
0
ARC
8
DEFAULT_255_1_388
10
13.7918774
20
157.6730777
40
0.4814366
50
49.1021732
51
59.3294421
0
ARC
8
DEFAULT_255_1_388
10
13.8839762
20
157.7780575
40
0.3417875
50
32.7924183
51
49.2503526
0
ARC
8
DEFAULT_255_1_388
10
13.9189376
20
157.8030311
40
0.2988789
50
31.121225
51
32.3977355
0
ARC
8
DEFAULT_255_1_388
10
13.9101554
20
157.7997728
40
0.3080861
50
8.1116803
51
30.7958224
0
ARC
8
DEFAULT_255_1_388
10
13.81899
20
157.7842437
40
0.4005385
50
359.8390945
51
8.4707348
0
ARC
8
DEFAULT_255_1_388
10
13.8893948
20
157.7787751
40
0.3301608
50
337.4732479
51
0.7538283
0
ARC
8
DEFAULT_255_1_388
10
13.9094973
20
157.7765554
40
0.3107929
50
307.5917028
51
336.4313755
0
ARC
8
DEFAULT_255_1_388
10
13.8584031
20
157.8333509
40
0.3870096
50
307.6560665
51
308.4561779
0
ARC
8
DEFAULT_255_1_388
10
13.8318247
20
157.8741832
40
0.435591
50
284.3733666
51
307.1426212
0
ARC
8
DEFAULT_255_1_388
10
13.7761141
20
158.0791391
40
0.6479685
50
272.4384566
51
284.6464689
0
ARC
8
DEFAULT_255_1_388
10
13.7618526
20
158.2815434
40
0.8508149
50
269.9708517
51
272.8180721
0
ARC
8
DEFAULT_255_1_388
10
13.7570209
20
158.0523283
40
0.6216151
50
248.2707343
51
270.4054609
0
ARC
8
DEFAULT_255_1_388
10
13.750908
20
158.0308673
40
0.5994203
50
246.1380358
51
248.054058
0
ARC
8
DEFAULT_255_1_388
10
13.7038223
20
157.9319705
40
0.4899388
50
233.1671897
51
246.4951656
0
ARC
8
DEFAULT_255_1_388
10
13.6414858
20
157.8478137
40
0.3852115
50
215.3403381
51
233.084328
0
ARC
8
DEFAULT_255_1_388
10
13.6108222
20
157.8255093
40
0.3472969
50
179.2419235
51
215.2648426
0
ARC
8
DEFAULT_255_1_388
10
13.6971773
20
157.8270979
40
0.259251
50
179.3355796
51
199.1045873
0
ARC
8
DEFAULT_255_1_388
10
13.6597915
20
157.8173223
40
0.2207454
50
199.8830064
51
232.7061328
0
ARC
8
DEFAULT_255_1_388
10
13.7129189
20
157.8841456
40
0.306101
50
232.3736206
51
255.5136621
0
ARC
8
DEFAULT_255_1_388
10
13.7512695
20
158.0241177
40
0.4512213
50
255.2447928
51
267.5318292
0
ARC
8
DEFAULT_255_1_388
10
13.7611162
20
158.1627709
40
0.5901825
50
267.1564563
51
270.0294721
0
ARC
8
DEFAULT_255_1_388
10
13.7642487
20
158.1128623
40
0.5402814
50
269.6999944
51
278.1662446
0
ARC
8
DEFAULT_255_1_388
10
13.7930515
20
157.9181974
40
0.3435003
50
278.0229022
51
290.6255326
0
ARC
8
DEFAULT_255_1_388
10
13.8321681
20
157.8138547
40
0.2320666
50
290.6616368
51
307.0374127
0
ARC
8
DEFAULT_255_1_388
10
13.8659581
20
157.772404
40
0.1786372
50
306.3942078
51
355.303191
0
ARC
8
DEFAULT_255_1_388
10
13.8083874
20
157.7810186
40
0.2367516
50
354.3662092
51
0.0709489
0
ARC
8
DEFAULT_255_1_388
10
13.8243743
20
157.7835561
40
0.2207761
50
359.4175379
51
16.1975911
0
ARC
8
DEFAULT_255_1_388
10
13.8755861
20
157.7975954
40
0.1676828
50
16.4721294
51
52.6261798
0
ARC
8
DEFAULT_255_1_388
10
13.7832368
20
157.6756606
40
0.3206412
50
52.7381828
51
62.4979144
0
ARC
8
DEFAULT_255_1_388
10
13.6274121
20
157.3824236
40
0.6527035
50
62.2517425
51
68.1219454
0
ARC
8
DEFAULT_255_1_388
10
13.4339609
20
156.9069951
40
1.1659797
50
68.006043
51
71.8055127
0
ARC
8
DEFAULT_255_1_388
10
13.2319517
20
156.3011723
40
1.8045908
50
71.718361
51
73.9260743
0
LINE
8
DEFAULT_255_1_388
10
14.3731329
20
157.9105214
11
14.3731329
21
157.9412426
0
LINE
8
DEFAULT_255_1_388
10
15.2026051
20
157.9593139
11
15.2026051
21
157.8897395
0
LINE
8
DEFAULT_255_1_388
10
15.2026051
20
157.8897395
11
14.5402923
21
157.8897395
0
LINE
8
DEFAULT_255_1_388
10
15.0878524
20
157.6990874
11
15.1899552
21
157.6195737
0
LINE
8
DEFAULT_255_1_388
10
14.5457137
20
158.0270813
11
15.0354457
21
158.0270813
0
LINE
8
DEFAULT_255_1_388
10
15.0354457
20
158.0270813
11
15.0354457
21
158.0397312
0
ARC
8
DEFAULT_255_1_388
10
14.816309
20
157.923021
40
0.4923176
50
252.326534
51
270.5809615
0
ARC
8
DEFAULT_255_1_388
10
14.7932555
20
157.839694
40
0.4059384
50
223.3000488
51
251.8562489
0
ARC
8
DEFAULT_255_1_388
10
14.8170335
20
157.8627898
40
0.4390832
50
190.9374369
51
223.3654369
0
ARC
8
DEFAULT_255_1_388
10
15.0111012
20
157.9066598
40
0.63798
50
179.6531919
51
191.4988561
0
ARC
8
DEFAULT_255_1_388
10
15.0248039
20
157.9448571
40
0.6516811
50
167.4005523
51
180.3177836
0
ARC
8
DEFAULT_255_1_388
10
14.9064711
20
157.9698853
40
0.5307402
50
154.1835149
51
167.2508278
0
ARC
8
DEFAULT_255_1_388
10
14.8354302
20
158.0072925
40
0.4505076
50
134.3150225
51
154.5315008
0
ARC
8
DEFAULT_255_1_388
10
14.8109637
20
158.028755
40
0.4180662
50
122.8617482
51
133.9707159
0
ARC
8
DEFAULT_255_1_388
10
14.7993244
20
158.0537882
40
0.3907416
50
89.8248474
51
123.4199325
0
ARC
8
DEFAULT_255_1_388
10
14.8049542
20
157.9810352
40
0.4635141
50
74.7874349
51
90.5482648
0
ARC
8
DEFAULT_255_1_388
10
14.8380006
20
158.1030987
40
0.3370565
50
39.8178888
51
74.7634383
0
ARC
8
DEFAULT_255_1_388
10
14.7803248
20
158.0581356
40
0.4101553
50
16.8990848
51
39.4830125
0
ARC
8
DEFAULT_255_1_388
10
14.5671862
20
157.9898711
40
0.6339427
50
4.9634768
51
17.2027767
0
ARC
8
DEFAULT_255_1_388
10
14.2951267
20
157.96116
40
0.9074803
50
359.8834402
51
5.2832409
0
ARC
8
DEFAULT_255_1_388
10
14.9743625
20
157.8971981
40
0.4341343
50
180.9844233
51
194.9402766
0
ARC
8
DEFAULT_255_1_388
10
14.8562791
20
157.864917
40
0.3117211
50
194.8030557
51
222.0412897
0
ARC
8
DEFAULT_255_1_388
10
14.8220663
20
157.8309715
40
0.2635903
50
221.541578
51
268.8616004
0
ARC
8
DEFAULT_255_1_388
10
14.8302783
20
157.907028
40
0.3398611
50
267.7321071
51
270.009808
0
ARC
8
DEFAULT_255_1_388
10
14.8322847
20
157.9297178
40
0.3625561
50
269.6921218
51
280.4122297
0
ARC
8
DEFAULT_255_1_388
10
14.8521258
20
157.8263767
40
0.2573323
50
280.2257165
51
298.633539
0
ARC
8
DEFAULT_255_1_388
10
14.8646672
20
157.7999578
40
0.2281403
50
299.0485543
51
300.4624141
0
ARC
8
DEFAULT_255_1_388
10
14.7887652
20
157.9264796
40
0.3756797
50
300.6578578
51
322.037749
0
ARC
8
DEFAULT_255_1_388
10
14.7517174
20
157.9588266
40
0.4247956
50
321.671786
51
322.3059078
0
ARC
8
DEFAULT_255_1_388
10
14.8540737
20
157.8294267
40
0.3960488
50
276.9729088
51
328.0035579
0
ARC
8
DEFAULT_255_1_388
10
14.8229207
20
157.9959609
40
0.5652345
50
269.8358003
51
278.0581296
0
ARC
8
DEFAULT_255_1_388
10
14.7973506
20
158.079782
40
0.2274263
50
89.2017936
51
117.2852353
0
ARC
8
DEFAULT_255_1_388
10
14.8033257
20
158.0750637
40
0.2343798
50
118.0546404
51
137.4544511
0
ARC
8
DEFAULT_255_1_388
10
14.8454901
20
158.0367556
40
0.2913471
50
137.5109688
51
158.8516701
0
ARC
8
DEFAULT_255_1_388
10
14.9735001
20
157.9850902
40
0.4293804
50
158.5845496
51
170.1719753
0
ARC
8
DEFAULT_255_1_388
10
15.1051337
20
157.9589519
40
0.5635533
50
169.8378964
51
173.0563877
0
ARC
8
DEFAULT_255_1_388
10
14.5766621
20
158.0164187
40
0.4593755
50
2.9089079
51
12.88469
0
ARC
8
DEFAULT_255_1_388
10
14.730854
20
158.0527082
40
0.3009753
50
12.6957404
51
28.6405841
0
ARC
8
DEFAULT_255_1_388
10
14.7918037
20
158.0842577
40
0.232366
50
29.016559
51
41.1492981
0
ARC
8
DEFAULT_255_1_388
10
14.8146016
20
158.104108
40
0.2021373
50
41.1646967
51
85.001362
0
ARC
8
DEFAULT_255_1_388
10
14.801002
20
158.0214775
40
0.2857091
50
83.728216
51
90.0968824
0
LINE
8
DEFAULT_255_1_388
10
15.8685321
20
158.4318781
11
15.8685321
21
158.276465
0
LINE
8
DEFAULT_255_1_388
10
15.5631273
20
158.1427375
11
15.5631273
21
157.4488
0
LINE
8
DEFAULT_255_1_388
10
15.5631273
20
157.4488
11
15.3959679
21
157.4488
0
LINE
8
DEFAULT_255_1_388
10
15.3959679
20
157.4488
11
15.3959679
21
158.4264567
0
LINE
8
DEFAULT_255_1_388
10
15.3959679
20
158.4264567
11
15.5586095
21
158.4264567
0
LINE
8
DEFAULT_255_1_388
10
15.5586095
20
158.4264567
11
15.5613202
21
158.3135112
0
ARC
8
DEFAULT_255_1_388
10
15.7935481
20
157.8198068
40
0.4627735
50
80.6751522
51
86.893806
0
ARC
8
DEFAULT_255_1_388
10
15.786731
20
157.7106103
40
0.5721798
50
86.8046851
51
90.0423898
0
ARC
8
DEFAULT_255_1_388
10
15.782573
20
157.9873197
40
0.2954939
50
89.2758283
51
106.6212906
0
ARC
8
DEFAULT_255_1_388
10
15.7595755
20
158.0709009
40
0.2088351
50
107.1347109
51
157.6456887
0
ARC
8
DEFAULT_255_1_388
10
15.8363817
20
158.0281908
40
0.296292
50
155.6557383
51
157.256838
0
ARC
8
DEFAULT_255_1_388
10
15.8143431
20
158.1592472
40
0.296341
50
127.8167201
51
148.6300223
0
ARC
8
DEFAULT_255_1_388
10
15.7858178
20
158.1885066
40
0.2557782
50
91.3329934
51
126.7875218
0
ARC
8
DEFAULT_255_1_388
10
15.7943566
20
158.1081718
40
0.3363561
50
89.9858247
51
92.4688453
0
ARC
8
DEFAULT_255_1_388
10
15.7953059
20
158.1390114
40
0.3055179
50
85.3587643
51
90.1624243
0
ARC
8
DEFAULT_255_1_388
10
15.8048124
20
158.2519458
40
0.1921848
50
78.4019195
51
85.4592653
0
ARC
8
DEFAULT_255_1_388
10
15.8211185
20
158.3297142
40
0.1127267
50
67.7849217
51
78.573798
0
ARC
8
DEFAULT_255_1_388
10
15.8332819
20
158.3612374
40
0.0789473
50
63.4805074
51
67.3074739
0
LINE
8
DEFAULT_255_1_388
10
16.2037545
20
158.4264567
11
16.2037545
21
157.4488
0
LINE
8
DEFAULT_255_1_388
10
16.2037545
20
157.4488
11
16.0365951
21
157.4488
0
LINE
8
DEFAULT_255_1_388
10
16.0365951
20
157.4488
11
16.0365951
21
158.4264567
0
LINE
8
DEFAULT_255_1_388
10
16.0365951
20
158.4264567
11
16.2037545
21
158.4264567
0
ARC
8
DEFAULT_255_1_388
10
16.1331313
20
158.6868428
40
0.1100948
50
161.4148232
51
180.5532607
0
ARC
8
DEFAULT_255_1_388
10
16.1191623
20
158.6906875
40
0.0956324
50
138.1830164
51
160.9307633
0
ARC
8
DEFAULT_255_1_388
10
16.106781
20
158.7014313
40
0.0792417
50
104.6371663
51
138.0036136
0
ARC
8
DEFAULT_255_1_388
10
16.1188349
20
158.6601963
40
0.1221906
50
92.0601206
51
105.2198859
0
ARC
8
DEFAULT_255_1_388
10
16.1214713
20
158.6213583
40
0.161103
50
89.9790681
51
92.5006086
0
ARC
8
DEFAULT_255_1_388
10
16.1225889
20
158.6469998
40
0.1354654
50
78.0234649
51
90.4478111
0
ARC
8
DEFAULT_255_1_388
10
16.1329473
20
158.6935203
40
0.0878096
50
55.0521508
51
78.336297
0
ARC
8
DEFAULT_255_1_388
10
16.1386008
20
158.7030168
40
0.0767913
50
42.0506198
51
54.4508489
0
ARC
8
DEFAULT_255_1_388
10
16.123404
20
158.6890821
40
0.0974091
50
1.7493657
51
42.1498724
0
ARC
8
DEFAULT_255_1_388
10
16.0947946
20
158.6858166
40
0.1261276
50
359.9832635
51
2.8353994
0
ARC
8
DEFAULT_255_1_388
10
16.1134356
20
158.6847412
40
0.1074916
50
342.1062453
51
0.5535864
0
ARC
8
DEFAULT_255_1_388
10
16.129478
20
158.6803197
40
0.0908695
50
316.7110111
51
341.6513114
0
ARC
8
DEFAULT_255_1_388
10
16.1370212
20
158.6735607
40
0.0807447
50
285.4398289
51
316.5320129
0
ARC
8
DEFAULT_255_1_388
10
16.1246383
20
158.7147023
40
0.1237022
50
272.3543902
51
285.8951677
0
ARC
8
DEFAULT_255_1_388
10
16.1216093
20
158.7562742
40
0.1653687
50
269.9725761
51
272.8112722
0
ARC
8
DEFAULT_255_1_388
10
16.1205145
20
158.7311727
40
0.1402709
50
258.8433431
51
270.4148607
0
ARC
8
DEFAULT_255_1_388
10
16.1103925
20
158.6821739
40
0.0902407
50
238.54281
51
259.1289544
0
ARC
8
DEFAULT_255_1_388
10
16.1027246
20
158.6682694
40
0.0743817
50
222.5056676
51
237.9918132
0
ARC
8
DEFAULT_255_1_388
10
16.117084
20
158.6813295
40
0.0937918
50
184.1070774
51
222.4604165
0
ARC
8
DEFAULT_255_1_388
10
16.1473253
20
158.6856538
40
0.1242838
50
179.9419581
51
185.0970785
0
LINE
8
DEFAULT_255_1_388
10
16.428742
20
157.9105214
11
16.428742
21
157.9412426
0
LINE
8
DEFAULT_255_1_388
10
17.2582142
20
157.9593139
11
17.2582142
21
157.8897395
0
LINE
8
DEFAULT_255_1_388
10
17.2582142
20
157.8897395
11
16.5959015
21
157.8897395
0
LINE
8
DEFAULT_255_1_388
10
17.1434615
20
157.6990874
11
17.2455643
21
157.6195737
0
LINE
8
DEFAULT_255_1_388
10
16.6013229
20
158.0270813
11
17.0910548
21
158.0270813
0
LINE
8
DEFAULT_255_1_388
10
17.0910548
20
158.0270813
11
17.0910548
21
158.0397312
0
ARC
8
DEFAULT_255_1_388
10
16.8719181
20
157.923021
40
0.4923176
50
252.326534
51
270.5809615
0
ARC
8
DEFAULT_255_1_388
10
16.8488646
20
157.839694
40
0.4059384
50
223.3000488
51
251.8562489
0
ARC
8
DEFAULT_255_1_388
10
16.8726426
20
157.8627898
40
0.4390832
50
190.9374369
51
223.3654369
0
ARC
8
DEFAULT_255_1_388
10
17.0667104
20
157.9066598
40
0.63798
50
179.6531919
51
191.4988561
0
ARC
8
DEFAULT_255_1_388
10
17.0804131
20
157.9448571
40
0.6516811
50
167.4005523
51
180.3177836
0
ARC
8
DEFAULT_255_1_388
10
16.9620802
20
157.9698853
40
0.5307402
50
154.1835149
51
167.2508278
0
ARC
8
DEFAULT_255_1_388
10
16.8910393
20
158.0072925
40
0.4505076
50
134.3150225
51
154.5315008
0
ARC
8
DEFAULT_255_1_388
10
16.8665728
20
158.028755
40
0.4180662
50
122.8617482
51
133.9707159
0
ARC
8
DEFAULT_255_1_388
10
16.8549335
20
158.0537882
40
0.3907416
50
89.8248474
51
123.4199325
0
ARC
8
DEFAULT_255_1_388
10
16.8605633
20
157.9810352
40
0.4635141
50
74.7874349
51
90.5482648
0
ARC
8
DEFAULT_255_1_388
10
16.8936097
20
158.1030987
40
0.3370565
50
39.8178888
51
74.7634383
0
ARC
8
DEFAULT_255_1_388
10
16.8359339
20
158.0581356
40
0.4101553
50
16.8990848
51
39.4830125
0
ARC
8
DEFAULT_255_1_388
10
16.6227954
20
157.9898711
40
0.6339427
50
4.9634768
51
17.2027767
0
ARC
8
DEFAULT_255_1_388
10
16.3507359
20
157.96116
40
0.9074803
50
359.8834402
51
5.2832409
0
ARC
8
DEFAULT_255_1_388
10
17.0299716
20
157.8971981
40
0.4341343
50
180.9844233
51
194.9402766
0
ARC
8
DEFAULT_255_1_388
10
16.9118882
20
157.864917
40
0.3117211
50
194.8030557
51
222.0412897
0
ARC
8
DEFAULT_255_1_388
10
16.8776754
20
157.8309715
40
0.2635903
50
221.541578
51
268.8616004
0
ARC
8
DEFAULT_255_1_388
10
16.8858875
20
157.907028
40
0.3398611
50
267.7321071
51
270.009808
0
ARC
8
DEFAULT_255_1_388
10
16.8878938
20
157.9297178
40
0.3625561
50
269.6921218
51
280.4122297
0
ARC
8
DEFAULT_255_1_388
10
16.907735
20
157.8263767
40
0.2573323
50
280.2257165
51
298.633539
0
ARC
8
DEFAULT_255_1_388
10
16.9202764
20
157.7999578
40
0.2281403
50
299.0485543
51
300.4624141
0
ARC
8
DEFAULT_255_1_388
10
16.8443744
20
157.9264796
40
0.3756797
50
300.6578578
51
322.037749
0
ARC
8
DEFAULT_255_1_388
10
16.8073265
20
157.9588266
40
0.4247956
50
321.671786
51
322.3059078
0
ARC
8
DEFAULT_255_1_388
10
16.9096828
20
157.8294267
40
0.3960488
50
276.9729088
51
328.0035579
0
ARC
8
DEFAULT_255_1_388
10
16.8785299
20
157.9959609
40
0.5652345
50
269.8358003
51
278.0581296
0
ARC
8
DEFAULT_255_1_388
10
16.8529598
20
158.079782
40
0.2274263
50
89.2017936
51
117.2852353
0
ARC
8
DEFAULT_255_1_388
10
16.8589348
20
158.0750637
40
0.2343798
50
118.0546404
51
137.4544511
0
ARC
8
DEFAULT_255_1_388
10
16.9010992
20
158.0367556
40
0.2913471
50
137.5109688
51
158.8516701
0
ARC
8
DEFAULT_255_1_388
10
17.0291093
20
157.9850902
40
0.4293804
50
158.5845496
51
170.1719753
0
ARC
8
DEFAULT_255_1_388
10
17.1607428
20
157.9589519
40
0.5635533
50
169.8378964
51
173.0563877
0
ARC
8
DEFAULT_255_1_388
10
16.6322712
20
158.0164187
40
0.4593755
50
2.9089079
51
12.88469
0
ARC
8
DEFAULT_255_1_388
10
16.7864631
20
158.0527082
40
0.3009753
50
12.6957404
51
28.6405841
0
ARC
8
DEFAULT_255_1_388
10
16.8474128
20
158.0842577
40
0.232366
50
29.016559
51
41.1492981
0
ARC
8
DEFAULT_255_1_388
10
16.8702107
20
158.104108
40
0.2021373
50
41.1646967
51
85.001362
0
ARC
8
DEFAULT_255_1_388
10
16.8566111
20
158.0214775
40
0.2857091
50
83.728216
51
90.0968824
0
LINE
8
DEFAULT_255_1_388
10
18.1789464
20
158.1391232
11
18.0108834
21
158.1391232
0
LINE
8
DEFAULT_255_1_388
10
17.4109166
20
157.749687
11
17.578076
21
157.749687
0
ARC
8
DEFAULT_255_1_388
10
17.8772125
20
157.7097935
40
0.1436198
50
359.3335374
51
18.5869869
0
ARC
8
DEFAULT_255_1_388
10
17.9006864
20
157.7160015
40
0.1194022
50
19.3538149
51
54.6486387
0
ARC
8
DEFAULT_255_1_388
10
17.8439852
20
157.6378077
40
0.2159877
50
54.3821575
51
65.0627557
0
ARC
8
DEFAULT_255_1_388
10
17.7575199
20
157.4559032
40
0.4173927
50
64.8282172
51
71.4204388
0
ARC
8
DEFAULT_255_1_388
10
17.6560094
20
157.1580782
40
0.7320403
50
71.3166092
51
75.8005927
0
ARC
8
DEFAULT_255_1_388
10
17.561398
20
156.7935881
40
1.108605
50
75.6810806
51
78.0063886
0
ARC
8
DEFAULT_255_1_388
10
18.0618569
20
159.153753
40
1.3040363
50
254.69024
51
258.0465557
0
ARC
8
DEFAULT_255_1_388
10
17.9450438
20
158.7307742
40
0.8652254
50
249.9010634
51
254.7555005
0
ARC
8
DEFAULT_255_1_388
10
17.832149
20
158.424168
40
0.5384962
50
243.3097375
51
249.970939
0
ARC
8
DEFAULT_255_1_388
10
17.7613904
20
158.2830721
40
0.380652
50
234.4047808
51
243.2861752
0
ARC
8
DEFAULT_255_1_388
10
17.691354
20
158.1863645
40
0.2612502
50
220.8665526
51
234.5497192
0
ARC
8
DEFAULT_255_1_388
10
17.6528538
20
158.1513203
40
0.2092097
50
214.3063391
51
220.5075055
0
ARC
8
DEFAULT_255_1_388
10
17.6499652
20
158.1478577
40
0.2048755
50
186.9131438
51
213.9617385
0
ARC
8
DEFAULT_255_1_388
10
17.7098042
20
158.1575431
40
0.2654563
50
179.8802037
51
187.4338578
0
ARC
8
DEFAULT_255_1_388
10
17.6924007
20
158.1598049
40
0.2480581
50
132.0053393
51
180.3942351
0
ARC
8
DEFAULT_255_1_388
10
17.766292
20
158.0915997
40
0.3483116
50
129.2317021
51
133.5294826
0
ARC
8
DEFAULT_255_1_388
10
17.7722889
20
158.0810383
40
0.360291
50
100.440976
51
128.9081567
0
ARC
8
DEFAULT_255_1_388
10
17.8031006
20
157.9364357
40
0.5080996
50
89.6985063
51
100.9029043
0
ARC
8
DEFAULT_255_1_388
10
17.8095161
20
157.9183739
40
0.5261675
50
77.6967144
51
90.4074623
0
ARC
8
DEFAULT_255_1_388
10
17.8467513
20
158.0789503
40
0.3613511
50
50.7278431
51
78.0397473
0
ARC
8
DEFAULT_255_1_388
10
17.8967556
20
158.1372173
40
0.2845966
50
25.754382
51
51.0957456
0
ARC
8
DEFAULT_255_1_388
10
17.8968923
20
158.1428311
40
0.2820785
50
359.2468358
51
24.7393861
0
ARC
8
DEFAULT_255_1_388
10
17.8648811
20
158.1396204
40
0.1460032
50
359.8048924
51
45.1543866
0
ARC
8
DEFAULT_255_1_388
10
17.8190544
20
158.1004291
40
0.2061641
50
43.8053172
51
49.625485
0
ARC
8
DEFAULT_255_1_388
10
17.8199987
20
158.1005849
40
0.2054344
50
49.7979696
51
82.121802
0
ARC
8
DEFAULT_255_1_388
10
17.806607
20
158.0278473
40
0.2793404
50
81.4458692
51
90.1707936
0
ARC
8
DEFAULT_255_1_388
10
17.8038646
20
157.9686478
40
0.3385438
50
89.6768097
51
99.1267111
0
ARC
8
DEFAULT_255_1_388
10
17.7845628
20
158.0849405
40
0.2206627
50
98.9679878
51
113.4573418
0
ARC
8
DEFAULT_255_1_388
10
17.7625309
20
158.1376193
40
0.1635691
50
113.7230234
51
127.4758155
0
ARC
8
DEFAULT_255_1_388
10
17.7435891
20
158.1601433
40
0.1341757
50
126.9086647
51
150.3160891
0
ARC
8
DEFAULT_255_1_388
10
17.7382222
20
158.165868
40
0.1266992
50
151.363328
51
180.0701537
0
ARC
8
DEFAULT_255_1_388
10
17.7692443
20
158.163523
40
0.1577364
50
179.2045432
51
180.0012892
0
ARC
8
DEFAULT_255_1_388
10
17.7323554
20
158.1620515
40
0.1208564
50
179.3040542
51
198.4225767
0
ARC
8
DEFAULT_255_1_388
10
17.7107696
20
158.1564337
40
0.0986126
50
199.2893055
51
238.6036855
0
ARC
8
DEFAULT_255_1_388
10
17.7785789
20
158.2628752
40
0.2248082
50
237.9844191
51
246.8751643
0
ARC
8
DEFAULT_255_1_388
10
17.8750649
20
158.4835861
40
0.4656832
50
246.6226408
51
251.8174794
0
ARC
8
DEFAULT_255_1_388
10
17.9911116
20
158.8320909
40
0.8329993
50
251.7140983
51
255.0775146
0
ARC
8
DEFAULT_255_1_388
10
18.126064
20
159.3347708
40
1.3534786
50
255.0370864
51
257.4701577
0
ARC
8
DEFAULT_255_1_388
10
17.5513185
20
156.7453535
40
1.298957
50
73.6835762
51
77.5015749
0
ARC
8
DEFAULT_255_1_388
10
17.6738099
20
157.1615699
40
0.8650912
50
68.7042835
51
73.7249997
0
ARC
8
DEFAULT_255_1_388
10
17.7753663
20
157.4232853
40
0.584363
50
63.5907059
51
68.6622978
0
ARC
8
DEFAULT_255_1_388
10
17.8621405
20
157.5963157
40
0.3907955
50
54.7106507
51
63.7018033
0
ARC
8
DEFAULT_255_1_388
10
17.9323792
20
157.6944287
40
0.2701345
50
41.0624597
51
54.8488532
0
ARC
8
DEFAULT_255_1_388
10
17.9707571
20
157.7296439
40
0.2180695
50
34.4952722
51
40.7097584
0
ARC
8
DEFAULT_255_1_388
10
17.9760536
20
157.7351204
40
0.2106083
50
9.3761233
51
34.0834046
0
ARC
8
DEFAULT_255_1_388
10
17.9025664
20
157.7210174
40
0.2854177
50
359.7695264
51
9.7660556
0
ARC
8
DEFAULT_255_1_388
10
17.9247958
20
157.7161841
40
0.2632121
50
335.8653103
51
0.8022272
0
ARC
8
DEFAULT_255_1_388
10
17.9332363
20
157.7176951
40
0.2561728
50
307.7357819
51
334.7849324
0
ARC
8
DEFAULT_255_1_388
10
17.8887004
20
157.7676553
40
0.3229737
50
307.0217048
51
308.5596894
0
ARC
8
DEFAULT_255_1_388
10
17.8591588
20
157.8118063
40
0.3760237
50
282.9361285
51
306.5649033
0
ARC
8
DEFAULT_255_1_388
10
17.818465
20
157.9768871
40
0.5460314
50
271.1026197
51
283.2199962
0
ARC
8
DEFAULT_255_1_388
10
17.8112839
20
158.1169744
40
0.6862456
50
269.9926344
51
271.4770056
0
ARC
8
DEFAULT_255_1_388
10
17.8083409
20
157.9952633
40
0.5645418
50
259.0723633
51
270.2897324
0
ARC
8
DEFAULT_255_1_388
10
17.7844633
20
157.8695887
40
0.4366198
50
245.4965026
51
259.0225745
0
ARC
8
DEFAULT_255_1_388
10
17.753185
20
157.8041491
40
0.3641037
50
228.9686619
51
245.7042678
0
ARC
8
DEFAULT_255_1_388
10
17.7233125
20
157.7673573
40
0.3167435
50
214.4015391
51
228.6759028
0
ARC
8
DEFAULT_255_1_388
10
17.6907622
20
157.7495429
40
0.2798456
50
179.9704983
51
215.1574389
0
ARC
8
DEFAULT_255_1_388
10
17.7695834
20
157.7578148
40
0.1916798
50
182.430239
51
203.0329751
0
ARC
8
DEFAULT_255_1_388
10
17.748843
20
157.7514675
40
0.1701248
50
203.7987464
51
232.5483345
0
ARC
8
DEFAULT_255_1_388
10
17.7799515
20
157.7910049
40
0.2204299
50
232.3784541
51
256.3934343
0
ARC
8
DEFAULT_255_1_388
10
17.8058662
20
157.8911359
40
0.3238512
50
256.1048329
51
268.4627478
0
ARC
8
DEFAULT_255_1_388
10
17.8111081
20
157.9815297
40
0.4143627
50
268.0734924
51
270.0121004
0
ARC
8
DEFAULT_255_1_388
10
17.81318
20
157.9501191
40
0.3829573
50
269.7031202
51
278.8338867
0
ARC
8
DEFAULT_255_1_388
10
17.8336664
20
157.8229553
40
0.2541568
50
278.6727378
51
292.82331
0
ARC
8
DEFAULT_255_1_388
10
17.856221
20
157.7665546
40
0.1934264
50
293.1457581
51
303.6656964
0
ARC
8
DEFAULT_255_1_388
10
17.8860284
20
157.7242159
40
0.1416713
50
303.1245849
51
321.7434683
0
ARC
8
DEFAULT_255_1_388
10
17.9069365
20
157.705878
40
0.1139081
50
322.4747616
51
1.1293039
0
LINE
8
DEFAULT_255_2_778
10
9.5254834
20
75.2739333
11
12.1712834
21
75.2739333
0
LINE
8
DEFAULT_255_2_778
10
12.1712834
20
75.2739333
11
12.1712834
21
69.9822333
0
LINE
8
DEFAULT_255_2_778
10
12.1712834
20
69.9822333
11
9.5254834
21
69.9822333
0
LINE
8
DEFAULT_255_2_778
10
9.5254834
20
69.9822333
11
9.5254834
21
75.2739333
0
LINE
8
DEFAULT_255_2_778
10
10.3193
20
74.4801833
11
10.3193
21
70.7759833
0
ARC
8
DEFAULT_255_2_778
10
11.2444335
20
74.0841666
40
0.3960095
50
89.8710075
51
180.1289967
0
ARC
8
DEFAULT_255_2_778
10
11.246138
20
74.0841878
40
0.395988
50
359.8679252
51
90.1176342
0
ARC
8
DEFAULT_255_2_778
10
11.2461595
20
74.0824405
40
0.3959664
50
269.8792548
51
0.1207452
0
ARC
8
DEFAULT_255_2_778
10
11.2444123
20
74.0824621
40
0.3959881
50
179.8823802
51
270.1320647
0
LINE
8
DEFAULT_255_2_778
10
10.848425
20
74.083275
11
10.848425
21
74.083275
0
ARC
8
DEFAULT_255_2_778
10
11.2444335
20
71.1737666
40
0.3960095
50
89.8710075
51
180.1289967
0
ARC
8
DEFAULT_255_2_778
10
11.246138
20
71.1737878
40
0.395988
50
359.8679252
51
90.1176342
0
ARC
8
DEFAULT_255_2_778
10
11.2461595
20
71.1720405
40
0.3959664
50
269.8792548
51
0.1207452
0
ARC
8
DEFAULT_255_2_778
10
11.2444123
20
71.1720621
40
0.3959881
50
179.8823802
51
270.1320647
0
LINE
8
DEFAULT_255_2_778
10
10.848425
20
71.172875
11
10.848425
21
71.172875
0
LINE
8
DEFAULT_255_2_778
10
9.5255417
20
140.0968481
11
10.8484417
21
140.0968481
0
LINE
8
DEFAULT_255_2_778
10
10.8484417
20
140.0968481
11
10.8484417
21
75.2739481
0
LINE
8
DEFAULT_255_2_778
10
10.8484417
20
69.9822481
11
10.8484417
21
5.1593481
0
LINE
8
DEFAULT_255_2_778
10
10.8484417
20
5.1593481
11
9.5255417
21
5.1593481
0
LINE
8
DEFAULT_255_2_778
10
17.4629834
20
107.0239333
11
20.1087834
21
107.0239333
0
LINE
8
DEFAULT_255_2_778
10
20.1087834
20
107.0239333
11
20.1087834
21
101.7322333
0
LINE
8
DEFAULT_255_2_778
10
20.1087834
20
101.7322333
11
17.4629834
21
101.7322333
0
LINE
8
DEFAULT_255_2_778
10
17.4629834
20
101.7322333
11
17.4629834
21
107.0239333
0
LINE
8
DEFAULT_255_2_778
10
18.2568
20
106.2301833
11
18.2568
21
102.5259833
0
ARC
8
DEFAULT_255_2_778
10
19.1819335
20
105.8341666
40
0.3960095
50
89.8710075
51
180.1289967
0
ARC
8
DEFAULT_255_2_778
10
19.183638
20
105.8341878
40
0.395988
50
359.8679252
51
90.1176342
0
ARC
8
DEFAULT_255_2_778
10
19.1836595
20
105.8324405
40
0.3959664
50
269.8792548
51
0.1207452
0
ARC
8
DEFAULT_255_2_778
10
19.1819123
20
105.8324621
40
0.3959881
50
179.8823802
51
270.1320647
0
LINE
8
DEFAULT_255_2_778
10
18.785925
20
105.833275
11
18.785925
21
105.833275
0
ARC
8
DEFAULT_255_2_778
10
19.1819335
20
102.9237666
40
0.3960095
50
89.8710075
51
180.1289967
0
ARC
8
DEFAULT_255_2_778
10
19.183638
20
102.9237878
40
0.395988
50
359.8679252
51
90.1176342
0
ARC
8
DEFAULT_255_2_778
10
19.1836595
20
102.9220405
40
0.3959664
50
269.8792548
51
0.1207452
0
ARC
8
DEFAULT_255_2_778
10
19.1819123
20
102.9220621
40
0.3959881
50
179.8823802
51
270.1320647
0
LINE
8
DEFAULT_255_2_778
10
18.785925
20
102.922875
11
18.785925
21
102.922875
0
LINE
8
DEFAULT_255_2_778
10
20.1088417
20
148.0343488
11
18.7859417
21
148.0343488
0
LINE
8
DEFAULT_255_2_778
10
18.7859417
20
148.0343488
11
18.7859417
21
107.0239488
0
LINE
8
DEFAULT_255_2_778
10
18.7859417
20
101.7322488
11
18.7859417
21
60.7218488
0
LINE
8
DEFAULT_255_2_778
10
18.7859417
20
60.7218488
11
20.1088417
21
60.7218488
0
LINE
8
DEFAULT_255_1_388
10
4.2980903
20
156.7799898
11
4.2980903
21
155.6062596
0
LINE
8
DEFAULT_255_1_388
10
4.2980903
20
155.6062596
11
4.9215498
21
155.6062596
0
LINE
8
DEFAULT_255_1_388
10
4.9215498
20
155.6062596
11
4.9215498
21
155.4644
0
LINE
8
DEFAULT_255_1_388
10
4.9215498
20
155.4644
11
4.1237024
21
155.4644
0
LINE
8
DEFAULT_255_1_388
10
4.1237024
20
155.4644
11
4.1237024
21
156.7799898
0
LINE
8
DEFAULT_255_1_388
10
4.1237024
20
156.7799898
11
4.2980903
21
156.7799898
0
LINE
8
DEFAULT_255_1_388
10
5.6254265
20
156.7863148
11
5.6254265
21
155.4644
0
LINE
8
DEFAULT_255_1_388
10
5.6254265
20
155.4644
11
5.4573635
21
155.4644
0
LINE
8
DEFAULT_255_1_388
10
5.4573635
20
155.4644
11
5.4573635
21
156.578495
0
LINE
8
DEFAULT_255_1_388
10
5.4573635
20
156.578495
11
5.120334
21
156.4547066
0
LINE
8
DEFAULT_255_1_388
10
5.120334
20
156.4547066
11
5.120334
21
156.6065055
0
LINE
8
DEFAULT_255_1_388
10
5.120334
20
156.6065055
11
5.5992231
21
156.7863148
0
LINE
8
DEFAULT_255_1_388
10
5.5992231
20
156.7863148
11
5.6254265
21
156.7863148
0
LINE
8
DEFAULT_255_1_388
10
4.6356985
20
5.9738148
11
4.6356985
21
4.6519
0
LINE
8
DEFAULT_255_1_388
10
4.6356985
20
4.6519
11
4.4676355
21
4.6519
0
LINE
8
DEFAULT_255_1_388
10
4.4676355
20
4.6519
11
4.4676355
21
5.765995
0
LINE
8
DEFAULT_255_1_388
10
4.4676355
20
5.765995
11
4.130606
21
5.6422066
0
LINE
8
DEFAULT_255_1_388
10
4.130606
20
5.6422066
11
4.130606
21
5.7940055
0
LINE
8
DEFAULT_255_1_388
10
4.130606
20
5.7940055
11
4.6094951
21
5.9738148
0
LINE
8
DEFAULT_255_1_388
10
4.6094951
20
5.9738148
11
4.6356985
21
5.9738148
0
LINE
8
DEFAULT_255_1_388
10
5.974781
20
5.9674898
11
5.974781
21
5.8735191
0
LINE
8
DEFAULT_255_1_388
10
5.974781
20
5.8735191
11
5.4299316
21
4.6519
0
LINE
8
DEFAULT_255_1_388
10
5.4299316
20
4.6519
11
5.2546401
21
4.6519
0
LINE
8
DEFAULT_255_1_388
10
5.2546401
20
4.6519
11
5.7976824
21
5.830148
0
LINE
8
DEFAULT_255_1_388
10
5.7976824
20
5.830148
11
5.0856736
21
5.830148
0
LINE
8
DEFAULT_255_1_388
10
5.0856736
20
5.830148
11
5.0856736
21
5.9674898
0
LINE
8
DEFAULT_255_1_388
10
5.0856736
20
5.9674898
11
5.974781
21
5.9674898
0
LINE
8
DEFAULT_255_1_388
10
4.6356985
20
13.9113148
11
4.6356985
21
12.5894
0
LINE
8
DEFAULT_255_1_388
10
4.6356985
20
12.5894
11
4.4676355
21
12.5894
0
LINE
8
DEFAULT_255_1_388
10
4.4676355
20
12.5894
11
4.4676355
21
13.703495
0
LINE
8
DEFAULT_255_1_388
10
4.4676355
20
13.703495
11
4.130606
21
13.5797066
0
LINE
8
DEFAULT_255_1_388
10
4.130606
20
13.5797066
11
4.130606
21
13.7315055
0
LINE
8
DEFAULT_255_1_388
10
4.130606
20
13.7315055
11
4.6094951
21
13.9113148
0
LINE
8
DEFAULT_255_1_388
10
4.6094951
20
13.9113148
11
4.6356985
21
13.9113148
0
LINE
8
DEFAULT_255_1_388
10
5.7516006
20
13.9058934
11
5.7814182
21
13.9058934
0
LINE
8
DEFAULT_255_1_388
10
5.7814182
20
13.9058934
11
5.7814182
21
13.7640338
0
LINE
8
DEFAULT_255_1_388
10
5.7814182
20
13.7640338
11
5.750697
21
13.7640338
0
LINE
8
DEFAULT_255_1_388
10
5.1353696
20
13.0899747
11
5.1353696
21
13.1541278
0
LINE
8
DEFAULT_255_1_388
10
5.3034326
20
13.1324422
11
5.3034326
21
13.0709999
0
ARC
8
DEFAULT_255_1_388
10
5.7565862
20
13.2017826
40
0.562282
50
90.6001079
51
104.5146616
0
ARC
8
DEFAULT_255_1_388
10
5.7128821
20
13.36431
40
0.3939917
50
104.2855758
51
133.8630124
0
ARC
8
DEFAULT_255_1_388
10
5.7313074
20
13.3521243
40
0.4155734
50
134.5304124
51
161.6210222
0
ARC
8
DEFAULT_255_1_388
10
5.9173006
20
13.2865421
40
0.6127682
50
161.2850533
51
174.2074364
0
ARC
8
DEFAULT_255_1_388
10
6.0762573
20
13.2646437
40
0.7731446
50
173.7817938
51
174.9251711
0
ARC
8
DEFAULT_255_1_388
10
5.5636767
20
13.109127
40
0.3412588
50
95.8332067
51
138.995412
0
ARC
8
DEFAULT_255_1_388
10
5.5888047
20
12.9652695
40
0.4870358
50
89.8755506
51
97.0540979
0
ARC
8
DEFAULT_255_1_388
10
5.5941436
20
13.0592841
40
0.3930432
50
71.6407016
51
90.6240821
0
ARC
8
DEFAULT_255_1_388
10
5.6110829
20
13.1216433
40
0.3285421
50
39.6368051
51
71.0190743
0
ARC
8
DEFAULT_255_1_388
10
5.5394737
20
13.0597586
40
0.4231706
50
10.6588054
51
39.9044509
0
ARC
8
DEFAULT_255_1_388
10
5.3653283
20
13.0219223
40
0.60133
50
359.6827842
51
11.1326896
0
ARC
8
DEFAULT_255_1_388
10
5.3608618
20
13.0139715
40
0.6058047
50
347.2485908
51
0.4371098
0
ARC
8
DEFAULT_255_1_388
10
5.5484404
20
12.9688379
40
0.4128987
50
318.1408565
51
347.6118497
0
ARC
8
DEFAULT_255_1_388
10
5.5850001
20
12.9387903
40
0.3656244
50
275.6342406
51
317.824739
0
ARC
8
DEFAULT_255_1_388
10
5.5601521
20
13.0849827
40
0.513655
50
269.8872513
51
276.7916069
0
ARC
8
DEFAULT_255_1_388
10
5.5539714
20
12.9696181
40
0.398323
50
246.9139443
51
270.7436787
0
ARC
8
DEFAULT_255_1_388
10
5.554691
20
12.9536044
40
0.3839368
50
218.1665534
51
245.8780431
0
ARC
8
DEFAULT_255_1_388
10
5.6536282
20
13.0363903
40
0.5128958
50
191.4115343
51
218.6077624
0
ARC
8
DEFAULT_255_1_388
10
5.8716598
20
13.0852777
40
0.7363054
50
179.6344971
51
191.7836758
0
ARC
8
DEFAULT_255_1_388
10
6.4996473
20
13.1616495
40
1.3642984
50
171.4523743
51
180.3158856
0
ARC
8
DEFAULT_255_1_388
10
6.00522
20
13.2385895
40
0.8639311
50
157.9802296
51
171.6246761
0
ARC
8
DEFAULT_255_1_388
10
5.756155
20
13.3379038
40
0.5958004
50
141.4299236
51
157.8541251
0
ARC
8
DEFAULT_255_1_388
10
5.6839634
20
13.3889746
40
0.5075416
50
102.871586
51
140.8564533
0
ARC
8
DEFAULT_255_1_388
10
5.7568187
20
13.1144943
40
0.7914163
50
90.377773
51
103.5868422
0
ARC
8
DEFAULT_255_1_388
10
5.5612708
20
13.0464543
40
0.2667015
50
89.8751238
51
126.2072139
0
ARC
8
DEFAULT_255_1_388
10
5.5664179
20
13.0290847
40
0.2838229
50
124.9742447
51
144.8960197
0
ARC
8
DEFAULT_255_1_388
10
5.5466424
20
13.0451981
40
0.2583845
50
145.2974778
51
160.2660922
0
ARC
8
DEFAULT_255_1_388
10
5.8922912
20
13.0674151
40
0.5888695
50
179.6512124
51
190.285571
0
ARC
8
DEFAULT_255_1_388
10
5.7017392
20
13.0314968
40
0.3949683
50
190.0944895
51
207.5099647
0
ARC
8
DEFAULT_255_1_388
10
5.6380973
20
13.0012177
40
0.3245464
50
207.9585471
51
216.325377
0
ARC
8
DEFAULT_255_1_388
10
5.5998611
20
12.9697712
40
0.2751259
50
215.7661336
51
232.5457193
0
ARC
8
DEFAULT_255_1_388
10
5.5567726
20
12.9150273
40
0.2054668
50
232.8005815
51
270.6605497
0
ARC
8
DEFAULT_255_1_388
10
5.5619151
20
12.9559853
40
0.2464268
50
269.3550767
51
288.474612
0
ARC
8
DEFAULT_255_1_388
10
5.5723658
20
12.9166721
40
0.2058436
50
289.1831976
51
322.9685307
0
ARC
8
DEFAULT_255_1_388
10
5.5035759
20
12.9709279
40
0.2934408
50
322.6007085
51
346.5183319
0
ARC
8
DEFAULT_255_1_388
10
5.3733516
20
13.0041434
40
0.4278249
50
346.2584622
51
358.7739592
0
ARC
8
DEFAULT_255_1_388
10
5.2582091
20
13.0103829
40
0.5430876
50
358.3757628
51
0.0082477
0
ARC
8
DEFAULT_255_1_388
10
5.3438909
20
13.0134856
40
0.4574157
50
359.6211417
51
11.28403
0
ARC
8
DEFAULT_255_1_388
10
5.4875516
20
13.0434535
40
0.3106708
50
11.0483152
51
31.8145585
0
ARC
8
DEFAULT_255_1_388
10
5.5223221
20
13.0623045
40
0.2711963
50
32.3028554
51
38.0820598
0
ARC
8
DEFAULT_255_1_388
10
5.5696454
20
13.1051717
40
0.2075566
50
36.8249851
51
85.741667
0
ARC
8
DEFAULT_255_1_388
10
5.5620866
20
13.0488065
40
0.2643487
50
85.0150021
51
90.050843
0
LINE
8
DEFAULT_255_1_388
10
4.6356985
20
21.8488148
11
4.6356985
21
20.5269
0
LINE
8
DEFAULT_255_1_388
10
4.6356985
20
20.5269
11
4.4676355
21
20.5269
0
LINE
8
DEFAULT_255_1_388
10
4.4676355
20
20.5269
11
4.4676355
21
21.640995
0
LINE
8
DEFAULT_255_1_388
10
4.4676355
20
21.640995
11
4.130606
21
21.5172066
0
LINE
8
DEFAULT_255_1_388
10
4.130606
20
21.5172066
11
4.130606
21
21.6690055
0
LINE
8
DEFAULT_255_1_388
10
4.130606
20
21.6690055
11
4.6094951
21
21.8488148
0
LINE
8
DEFAULT_255_1_388
10
4.6094951
20
21.8488148
11
4.6356985
21
21.8488148
0
LINE
8
DEFAULT_255_1_388
10
5.3359609
20
21.1521666
11
5.2022334
21
21.1865021
0
LINE
8
DEFAULT_255_1_388
10
5.2022334
20
21.1865021
11
5.2690972
21
21.8424898
0
LINE
8
DEFAULT_255_1_388
10
5.2690972
20
21.8424898
11
5.9431562
21
21.8424898
0
LINE
8
DEFAULT_255_1_388
10
5.9431562
20
21.8424898
11
5.9431562
21
21.6879803
0
LINE
8
DEFAULT_255_1_388
10
5.9431562
20
21.6879803
11
5.4109568
21
21.6879803
0
LINE
8
DEFAULT_255_1_388
10
5.4109568
20
21.6879803
11
5.3712
21
21.3292652
0
LINE
8
DEFAULT_255_1_388
10
5.155248
20
20.8729652
11
5.3133718
21
20.8729652
0
LINE
8
DEFAULT_255_1_388
10
5.3802356
20
21.1883092
11
5.3359609
21
21.1521666
0
ARC
8
DEFAULT_255_1_388
10
5.5798613
20
20.9715241
40
0.4141476
50
93.7181681
51
120.253934
0
ARC
8
DEFAULT_255_1_388
10
5.5904665
20
20.8806284
40
0.5055616
50
89.9660471
51
94.2495185
0
ARC
8
DEFAULT_255_1_388
10
5.5950487
20
20.9469154
40
0.4392953
50
73.8045384
51
90.5585736
0
ARC
8
DEFAULT_255_1_388
10
5.6214745
20
21.043452
40
0.3392225
50
41.3071072
51
73.543002
0
ARC
8
DEFAULT_255_1_388
10
5.5746565
20
21.0031461
40
0.4009977
50
13.5075837
51
41.2174839
0
ARC
8
DEFAULT_255_1_388
10
5.3899662
20
20.9547907
40
0.5918864
50
1.1330171
51
13.8830737
0
ARC
8
DEFAULT_255_1_388
10
5.2303308
20
20.9462522
40
0.7516787
50
359.9925091
51
1.5431298
0
ARC
8
DEFAULT_255_1_388
10
5.3747923
20
20.9416027
40
0.6072343
50
347.8572712
51
0.4294349
0
ARC
8
DEFAULT_255_1_388
10
5.5717058
20
20.8969898
40
0.4053482
50
323.6727442
51
348.1674594
0
ARC
8
DEFAULT_255_1_388
10
5.6048022
20
20.8768175
40
0.3667495
50
316.8171818
51
323.1486802
0
ARC
8
DEFAULT_255_1_388
10
5.6117146
20
20.8726612
40
0.358869
50
281.839603
51
316.5458142
0
ARC
8
DEFAULT_255_1_388
10
5.5694434
20
21.0476363
40
0.5388223
50
269.5770964
51
282.4214641
0
ARC
8
DEFAULT_255_1_388
10
5.5614354
20
21.023593
40
0.5147801
50
256.2425863
51
270.4486481
0
ARC
8
DEFAULT_255_1_388
10
5.5277882
20
20.8886124
40
0.3756708
50
228.9024379
51
256.33135
0
ARC
8
DEFAULT_255_1_388
10
5.5194862
20
20.8755054
40
0.360344
50
193.7536029
51
228.5272638
0
ARC
8
DEFAULT_255_1_388
10
5.6587427
20
20.9163463
40
0.5053599
50
184.9244437
51
194.4976052
0
ARC
8
DEFAULT_255_1_388
10
5.6804068
20
20.9203722
40
0.3700839
50
187.3596909
51
198.6733728
0
ARC
8
DEFAULT_255_1_388
10
5.5623312
20
20.8794373
40
0.2451195
50
198.4453795
51
217.7945479
0
ARC
8
DEFAULT_255_1_388
10
5.5290484
20
20.8558563
40
0.2043754
50
218.2887146
51
228.5613203
0
ARC
8
DEFAULT_255_1_388
10
5.5400491
20
20.8706902
40
0.2227819
50
228.9652423
51
258.1237049
0
ARC
8
DEFAULT_255_1_388
10
5.5631929
20
20.9697964
40
0.3245374
50
257.7260585
51
270.4013717
0
ARC
8
DEFAULT_255_1_388
10
5.5682427
20
20.9197255
40
0.2744726
50
269.4204315
51
286.420998
0
ARC
8
DEFAULT_255_1_388
10
5.5849482
20
20.8590705
40
0.2115721
50
286.7250065
51
320.6004665
0
ARC
8
DEFAULT_255_1_388
10
5.5418398
20
20.8940527
40
0.2670878
50
320.6712228
51
344.5440474
0
ARC
8
DEFAULT_255_1_388
10
5.4117112
20
20.9322394
40
0.4026927
50
344.241448
51
356.735803
0
ARC
8
DEFAULT_255_1_388
10
5.2713419
20
20.9438656
40
0.5435085
50
356.3547471
51
0.0507222
0
ARC
8
DEFAULT_255_1_388
10
5.4215684
20
20.9473812
40
0.3932934
50
359.5579289
51
12.9534322
0
ARC
8
DEFAULT_255_1_388
10
5.5402524
20
20.9761586
40
0.2711827
50
12.6489751
51
41.608121
0
ARC
8
DEFAULT_255_1_388
10
5.5661684
20
20.9981946
40
0.2371737
50
41.7851122
51
85.9892156
0
ARC
8
DEFAULT_255_1_388
10
5.5522994
20
20.9066738
40
0.3295244
50
84.6965848
51
90.0672125
0
ARC
8
DEFAULT_255_1_388
10
5.5496561
20
20.8315118
40
0.4046926
50
89.6804991
51
99.161352
0
ARC
8
DEFAULT_255_1_388
10
5.5265571
20
20.9695848
40
0.2647044
50
98.9836248
51
113.8905702
0
ARC
8
DEFAULT_255_1_388
10
5.5007246
20
21.0305118
40
0.1985386
50
114.195234
51
127.3641866
0
LINE
8
DEFAULT_255_1_388
10
4.7678985
20
29.7863148
11
4.7678985
21
28.4644
0
LINE
8
DEFAULT_255_1_388
10
4.7678985
20
28.4644
11
4.5998355
21
28.4644
0
LINE
8
DEFAULT_255_1_388
10
4.5998355
20
28.4644
11
4.5998355
21
29.578495
0
LINE
8
DEFAULT_255_1_388
10
4.5998355
20
29.578495
11
4.262806
21
29.4547066
0
LINE
8
DEFAULT_255_1_388
10
4.262806
20
29.4547066
11
4.262806
21
29.6065055
0
LINE
8
DEFAULT_255_1_388
10
4.262806
20
29.6065055
11
4.7416951
21
29.7863148
0
LINE
8
DEFAULT_255_1_388
10
4.7416951
20
29.7863148
11
4.7678985
21
29.7863148
0
LINE
8
DEFAULT_255_1_388
10
5.9633143
20
29.7799898
11
5.9633143
21
28.906243
0
LINE
8
DEFAULT_255_1_388
10
5.9633143
20
28.906243
11
6.1458343
21
28.906243
0
LINE
8
DEFAULT_255_1_388
10
6.1458343
20
28.906243
11
6.1458343
21
28.7698048
0
LINE
8
DEFAULT_255_1_388
10
6.1458343
20
28.7698048
11
5.9633143
21
28.7698048
0
LINE
8
DEFAULT_255_1_388
10
5.9633143
20
28.7698048
11
5.9633143
21
28.4644
0
LINE
8
DEFAULT_255_1_388
10
5.9633143
20
28.4644
11
5.7952513
21
28.4644
0
LINE
8
DEFAULT_255_1_388
10
5.7952513
20
28.4644
11
5.7952513
21
28.7698048
0
LINE
8
DEFAULT_255_1_388
10
5.7952513
20
28.7698048
11
5.196188
21
28.7698048
0
LINE
8
DEFAULT_255_1_388
10
5.196188
20
28.7698048
11
5.196188
21
28.8682933
0
LINE
8
DEFAULT_255_1_388
10
5.196188
20
28.8682933
11
5.7853121
21
29.7799898
0
LINE
8
DEFAULT_255_1_388
10
5.7853121
20
29.7799898
11
5.9633143
21
29.7799898
0
LINE
8
DEFAULT_255_1_388
10
5.7753729
20
29.5152455
11
5.3859366
21
28.906243
0
LINE
8
DEFAULT_255_1_388
10
5.3859366
20
28.906243
11
5.7952513
21
28.906243
0
LINE
8
DEFAULT_255_1_388
10
5.7952513
20
28.906243
11
5.7952513
21
29.551388
0
LINE
8
DEFAULT_255_1_388
10
5.7952513
20
29.551388
11
5.7753729
21
29.5152455
0
LINE
8
DEFAULT_255_1_388
10
4.6356985
20
37.7238148
11
4.6356985
21
36.4019
0
LINE
8
DEFAULT_255_1_388
10
4.6356985
20
36.4019
11
4.4676355
21
36.4019
0
LINE
8
DEFAULT_255_1_388
10
4.4676355
20
36.4019
11
4.4676355
21
37.515995
0
LINE
8
DEFAULT_255_1_388
10
4.4676355
20
37.515995
11
4.130606
21
37.3922066
0
LINE
8
DEFAULT_255_1_388
10
4.130606
20
37.3922066
11
4.130606
21
37.5440055
0
LINE
8
DEFAULT_255_1_388
10
4.130606
20
37.5440055
11
4.6094951
21
37.7238148
0
LINE
8
DEFAULT_255_1_388
10
4.6094951
20
37.7238148
11
4.6356985
21
37.7238148
0
LINE
8
DEFAULT_255_1_388
10
5.3684893
20
37.0045775
11
5.3684893
21
37.1410157
0
LINE
8
DEFAULT_255_1_388
10
5.3684893
20
37.1410157
11
5.4940847
21
37.1410157
0
LINE
8
DEFAULT_255_1_388
10
5.2799399
20
37.3723282
11
5.1127805
21
37.3723282
0
LINE
8
DEFAULT_255_1_388
10
5.1010342
20
36.7488688
11
5.2690972
21
36.7488688
0
LINE
8
DEFAULT_255_1_388
10
5.4940847
20
37.0045775
11
5.3684893
21
37.0045775
0
ARC
8
DEFAULT_255_1_388
10
5.4908074
20
37.5226922
40
0.3816905
50
270.491971
51
281.8953028
0
ARC
8
DEFAULT_255_1_388
10
5.5179501
20
37.3987199
40
0.2547877
50
281.6690378
51
301.2943765
0
ARC
8
DEFAULT_255_1_388
10
5.5370952
20
37.3636926
40
0.2149197
50
301.7834992
51
311.754567
0
ARC
8
DEFAULT_255_1_388
10
5.5473993
20
37.352265
40
0.1995326
50
311.7325027
51
354.2803031
0
ARC
8
DEFAULT_255_1_388
10
5.4656409
20
37.366328
40
0.2823461
50
353.0941646
51
0.1174696
0
ARC
8
DEFAULT_255_1_388
10
5.4137967
20
37.3716874
40
0.3342238
50
359.1804452
51
15.0452323
0
ARC
8
DEFAULT_255_1_388
10
5.5652026
20
37.4158546
40
0.1765747
50
13.957816
51
77.6713812
0
ARC
8
DEFAULT_255_1_388
10
5.5217261
20
37.2600464
40
0.3381982
50
76.111571
51
90.7028736
0
ARC
8
DEFAULT_255_1_388
10
5.5150673
20
37.290825
40
0.3074046
50
89.5321574
51
103.5319393
0
ARC
8
DEFAULT_255_1_388
10
5.4925057
20
37.3807443
40
0.2147041
50
103.2930114
51
133.5619756
0
ARC
8
DEFAULT_255_1_388
10
5.4874999
20
37.3874351
40
0.2064084
50
133.8349761
51
173.5343225
0
ARC
8
DEFAULT_255_1_388
10
5.5688656
20
37.3730144
40
0.2889266
50
172.5097183
51
180.1360699
0
ARC
8
DEFAULT_255_1_388
10
5.461842
20
37.376888
40
0.3490913
50
155.3483706
51
180.7484035
0
ARC
8
DEFAULT_255_1_388
10
5.4563396
20
37.3736519
40
0.3454798
50
131.5745177
51
154.4799474
0
ARC
8
DEFAULT_255_1_388
10
5.4915678
20
37.3380422
40
0.3955058
50
96.9874487
51
131.9690874
0
ARC
8
DEFAULT_255_1_388
10
5.5162571
20
37.1979407
40
0.537622
50
89.8592909
51
97.7827481
0
ARC
8
DEFAULT_255_1_388
10
5.521668
20
37.168436
40
0.5671399
50
78.3654493
51
90.4132586
0
ARC
8
DEFAULT_255_1_388
10
5.5619321
20
37.3550918
40
0.3762034
50
56.6229818
51
78.6387103
0
ARC
8
DEFAULT_255_1_388
10
5.586115
20
37.3973846
40
0.3275964
50
47.0254604
51
56.085558
0
ARC
8
DEFAULT_255_1_388
10
5.5883401
20
37.4018189
40
0.3228382
50
10.9207523
51
46.777927
0
ARC
8
DEFAULT_255_1_388
10
5.4348995
20
37.3663401
40
0.4802559
50
359.6364235
51
11.6087615
0
ARC
8
DEFAULT_255_1_388
10
5.6413161
20
37.3646404
40
0.273833
50
332.3549969
51
359.7179765
0
ARC
8
DEFAULT_255_1_388
10
5.5681562
20
37.3993285
40
0.3547505
50
325.2332381
51
332.8746682
0
ARC
8
DEFAULT_255_1_388
10
5.5853144
20
37.3873763
40
0.3338396
50
292.9803892
51
325.2391113
0
ARC
8
DEFAULT_255_1_388
10
5.554234
20
37.4478679
40
0.4016959
50
292.542178
51
293.6931461
0
ARC
8
DEFAULT_255_1_388
10
5.5985912
20
36.7213036
40
0.372079
50
57.643292
51
72.8626085
0
ARC
8
DEFAULT_255_1_388
10
5.6384747
20
36.7859273
40
0.2961455
50
36.7246661
51
57.4701329
0
ARC
8
DEFAULT_255_1_388
10
5.6371903
20
36.787347
40
0.2963321
50
8.054535
51
36.3561529
0
ARC
8
DEFAULT_255_1_388
10
5.5401576
20
36.7699073
40
0.3948682
50
359.8316595
51
8.5873361
0
ARC
8
DEFAULT_255_1_388
10
5.497905
20
36.764497
40
0.4371398
50
343.9831631
51
0.557075
0
ARC
8
DEFAULT_255_1_388
10
5.59761
20
36.7371963
40
0.3337749
50
311.6358204
51
343.7652116
0
ARC
8
DEFAULT_255_1_388
10
5.5550353
20
36.7851955
40
0.3979351
50
279.7829743
51
311.625622
0
ARC
8
DEFAULT_255_1_388
10
5.5211489
20
36.9468642
40
0.5630417
50
269.7285092
51
280.3857694
0
ARC
8
DEFAULT_255_1_388
10
5.5141802
20
36.9422241
40
0.5584119
50
256.6827433
51
270.4412869
0
ARC
8
DEFAULT_255_1_388
10
5.4760788
20
36.7864698
40
0.3980715
50
229.4223821
51
256.8554507
0
ARC
8
DEFAULT_255_1_388
10
5.4294342
20
36.7339683
40
0.3278564
50
181.8183354
51
229.6455015
0
ARC
8
DEFAULT_255_1_388
10
5.5463951
20
36.7486825
40
0.4453611
50
179.9760419
51
183.2330638
0
ARC
8
DEFAULT_255_1_388
10
5.5270503
20
36.7463781
40
0.2579652
50
179.4467996
51
196.2871626
0
ARC
8
DEFAULT_255_1_388
10
5.4721957
20
36.7313709
40
0.2011057
50
196.5661293
51
227.7059371
0
ARC
8
DEFAULT_255_1_388
10
5.4906564
20
36.7520155
40
0.2287994
50
227.7653015
51
257.8763321
0
ARC
8
DEFAULT_255_1_388
10
5.5159647
20
36.8580961
40
0.3378385
50
257.4583525
51
270.4267406
0
ARC
8
DEFAULT_255_1_388
10
5.5210897
20
36.890723
40
0.3704652
50
269.5965319
51
280.8788143
0
ARC
8
DEFAULT_255_1_388
10
5.5469125
20
36.7617529
40
0.2389415
50
280.6347277
51
299.8594068
0
ARC
8
DEFAULT_255_1_388
10
5.5683895
20
36.7209736
40
0.19289
50
300.3575552
51
314.5515667
0
ARC
8
DEFAULT_255_1_388
10
5.559057
20
36.7278025
40
0.204312
50
315.0730962
51
345.0429362
0
ARC
8
DEFAULT_255_1_388
10
5.4552078
20
36.7580539
40
0.31246
50
344.598526
51
357.9270698
0
ARC
8
DEFAULT_255_1_388
10
5.3542383
20
36.7649705
40
0.4136265
50
357.4755098
51
0.0224936
0
ARC
8
DEFAULT_255_1_388
10
5.469526
20
36.7677099
40
0.2983498
50
359.5051035
51
13.4236939
0
ARC
8
DEFAULT_255_1_388
10
5.567035
20
36.7926637
40
0.1977186
50
12.9497905
51
48.7550905
0
ARC
8
DEFAULT_255_1_388
10
5.5465272
20
36.7646373
40
0.2323321
50
49.509109
51
72.1832965
0
ARC
8
DEFAULT_255_1_388
10
5.506274
20
36.6451632
40
0.358397
50
71.9008458
51
84.3555134
0
ARC
8
DEFAULT_255_1_388
10
5.4881135
20
36.4919712
40
0.512641
50
84.019632
51
89.3326067
0
LINE
8
DEFAULT_255_1_388
10
4.6356985
20
45.6613148
11
4.6356985
21
44.3394
0
LINE
8
DEFAULT_255_1_388
10
4.6356985
20
44.3394
11
4.4676355
21
44.3394
0
LINE
8
DEFAULT_255_1_388
10
4.4676355
20
44.3394
11
4.4676355
21
45.453495
0
LINE
8
DEFAULT_255_1_388
10
4.4676355
20
45.453495
11
4.130606
21
45.3297066
0
LINE
8
DEFAULT_255_1_388
10
4.130606
20
45.3297066
11
4.130606
21
45.4815055
0
LINE
8
DEFAULT_255_1_388
10
4.130606
20
45.4815055
11
4.6094951
21
45.6613148
0
LINE
8
DEFAULT_255_1_388
10
4.6094951
20
45.6613148
11
4.6356985
21
45.6613148
0
LINE
8
DEFAULT_255_1_388
10
5.9874309
20
44.4758382
11
5.9874309
21
44.3394
0
LINE
8
DEFAULT_255_1_388
10
5.9874309
20
44.3394
11
5.1254304
21
44.3394
0
LINE
8
DEFAULT_255_1_388
10
5.1254304
20
44.3394
11
5.1254304
21
44.4595741
0
LINE
8
DEFAULT_255_1_388
10
5.1254304
20
44.4595741
11
5.5808269
21
44.9655702
0
LINE
8
DEFAULT_255_1_388
10
5.26729
20
45.2673607
11
5.1001306
21
45.2673607
0
LINE
8
DEFAULT_255_1_388
10
5.6793154
20
44.858046
11
5.3269253
21
44.4758382
0
LINE
8
DEFAULT_255_1_388
10
5.3269253
20
44.4758382
11
5.9874309
21
44.4758382
0
ARC
8
DEFAULT_255_1_388
10
4.0632329
20
46.3075983
40
2.0258655
50
318.5132526
51
320.7829045
0
ARC
8
DEFAULT_255_1_388
10
4.6580286
20
45.8234929
40
1.2589638
50
320.7372878
51
323.9739031
0
ARC
8
DEFAULT_255_1_388
10
5.0989217
20
45.5040554
40
0.7145141
50
323.8962701
51
328.64194
0
ARC
8
DEFAULT_255_1_388
10
5.3291475
20
45.3620545
40
0.4440242
50
328.8294576
51
331.7891185
0
ARC
8
DEFAULT_255_1_388
10
5.4413795
20
45.3041374
40
0.3177517
50
331.4254512
51
352.9365785
0
ARC
8
DEFAULT_255_1_388
10
5.4566795
20
45.300705
40
0.3021496
50
353.2257659
51
0.0166158
0
ARC
8
DEFAULT_255_1_388
10
5.4803555
20
45.3032894
40
0.2784847
50
359.486299
51
15.9343185
0
ARC
8
DEFAULT_255_1_388
10
5.5373822
20
45.3186269
40
0.2194403
50
16.1712913
51
43.5286088
0
ARC
8
DEFAULT_255_1_388
10
5.5460767
20
45.3273191
40
0.2071504
50
43.4417391
51
83.1661095
0
ARC
8
DEFAULT_255_1_388
10
5.5309928
20
45.2444316
40
0.2912888
50
82.160179
51
90.1505708
0
ARC
8
DEFAULT_255_1_388
10
5.527441
20
45.1840279
40
0.3517025
50
89.5460741
51
102.5418361
0
ARC
8
DEFAULT_255_1_388
10
5.500113
20
45.2999933
40
0.2325748
50
102.1738499
51
129.206123
0
ARC
8
DEFAULT_255_1_388
10
5.4912583
20
45.3139664
40
0.2161591
50
129.72865
51
135.753947
0
ARC
8
DEFAULT_255_1_388
10
5.5049065
20
45.3030728
40
0.2335433
50
136.1757367
51
166.3673339
0
ARC
8
DEFAULT_255_1_388
10
5.6181754
20
45.2727148
40
0.3507873
50
165.9090694
51
178.8684636
0
ARC
8
DEFAULT_255_1_388
10
5.7157525
20
45.2674263
40
0.4484624
50
178.4391136
51
180.0083808
0
ARC
8
DEFAULT_255_1_388
10
5.5578227
20
45.2718197
40
0.4577138
50
163.2878482
51
180.5581842
0
ARC
8
DEFAULT_255_1_388
10
5.4676268
20
45.2966393
40
0.3641968
50
133.4540601
51
162.947111
0
ARC
8
DEFAULT_255_1_388
10
5.4877149
20
45.2752789
40
0.3935189
50
100.7869829
51
133.4382499
0
ARC
8
DEFAULT_255_1_388
10
5.5268394
20
45.1010399
40
0.5720313
50
89.660664
51
101.3702276
0
ARC
8
DEFAULT_255_1_388
10
5.5343003
20
45.1079263
40
0.5651495
50
78.2172678
51
90.412935
0
ARC
8
DEFAULT_255_1_388
10
5.5742469
20
45.2906511
40
0.378122
50
55.9269121
51
78.4888449
0
ARC
8
DEFAULT_255_1_388
10
5.5963184
20
45.3287187
40
0.3342379
50
47.929771
51
55.4049217
0
ARC
8
DEFAULT_255_1_388
10
5.6077715
20
45.3403618
40
0.3179217
50
4.334829
51
48.0560205
0
ARC
8
DEFAULT_255_1_388
10
5.4845516
20
45.3212487
40
0.442341
50
359.9251713
51
5.5971671
0
ARC
8
DEFAULT_255_1_388
10
5.5327671
20
45.3275728
40
0.3941854
50
337.8914027
51
358.9967534
0
ARC
8
DEFAULT_255_1_388
10
5.2275241
20
45.4453295
40
0.7213271
50
326.9132501
51
338.3508308
0
ARC
8
DEFAULT_255_1_388
10
4.7791353
20
45.7327105
40
1.2538973
50
319.6471833
51
327.0959558
0
ARC
8
DEFAULT_255_1_388
10
4.3478011
20
46.088505
40
1.8129975
50
317.2588228
51
319.9045804
0
LINE
8
DEFAULT_255_1_388
10
4.6282985
20
53.5988148
11
4.6282985
21
52.2769
0
LINE
8
DEFAULT_255_1_388
10
4.6282985
20
52.2769
11
4.4602355
21
52.2769
0
LINE
8
DEFAULT_255_1_388
10
4.4602355
20
52.2769
11
4.4602355
21
53.390995
0
LINE
8
DEFAULT_255_1_388
10
4.4602355
20
53.390995
11
4.123206
21
53.2672066
0
LINE
8
DEFAULT_255_1_388
10
4.123206
20
53.2672066
11
4.123206
21
53.4190055
0
LINE
8
DEFAULT_255_1_388
10
4.123206
20
53.4190055
11
4.6020951
21
53.5988148
0
LINE
8
DEFAULT_255_1_388
10
4.6020951
20
53.5988148
11
4.6282985
21
53.5988148
0
LINE
8
DEFAULT_255_1_388
10
5.6673976
20
53.5988148
11
5.6673976
21
52.2769
0
LINE
8
DEFAULT_255_1_388
10
5.6673976
20
52.2769
11
5.4993346
21
52.2769
0
LINE
8
DEFAULT_255_1_388
10
5.4993346
20
52.2769
11
5.4993346
21
53.390995
0
LINE
8
DEFAULT_255_1_388
10
5.4993346
20
53.390995
11
5.1623051
21
53.2672066
0
LINE
8
DEFAULT_255_1_388
10
5.1623051
20
53.2672066
11
5.1623051
21
53.4190055
0
LINE
8
DEFAULT_255_1_388
10
5.1623051
20
53.4190055
11
5.6411942
21
53.5988148
0
LINE
8
DEFAULT_255_1_388
10
5.6411942
20
53.5988148
11
5.6673976
21
53.5988148
0
LINE
8
DEFAULT_255_1_388
10
4.6356985
20
61.5363148
11
4.6356985
21
60.2144
0
LINE
8
DEFAULT_255_1_388
10
4.6356985
20
60.2144
11
4.4676355
21
60.2144
0
LINE
8
DEFAULT_255_1_388
10
4.4676355
20
60.2144
11
4.4676355
21
61.328495
0
LINE
8
DEFAULT_255_1_388
10
4.4676355
20
61.328495
11
4.130606
21
61.2047066
0
LINE
8
DEFAULT_255_1_388
10
4.130606
20
61.2047066
11
4.130606
21
61.3565055
0
LINE
8
DEFAULT_255_1_388
10
4.130606
20
61.3565055
11
4.6094951
21
61.5363148
0
LINE
8
DEFAULT_255_1_388
10
4.6094951
20
61.5363148
11
4.6356985
21
61.5363148
0
LINE
8
DEFAULT_255_1_388
10
5.9503848
20
60.992369
11
5.9503848
21
60.7755135
0
LINE
8
DEFAULT_255_1_388
10
5.120009
20
60.7529244
11
5.120009
21
60.9761048
0
LINE
8
DEFAULT_255_1_388
10
5.7832253
20
60.7303353
11
5.7832253
21
61.0041153
0
LINE
8
DEFAULT_255_1_388
10
5.2871685
20
61.0167652
11
5.2871685
21
60.7493102
0
ARC
8
DEFAULT_255_1_388
10
4.5726182
20
60.7700118
40
1.3777776
50
353.8440855
51
0.2287917
0
ARC
8
DEFAULT_255_1_388
10
5.0945199
20
60.7117414
40
0.852639
50
344.4934746
51
353.9763743
0
ARC
8
DEFAULT_255_1_388
10
5.4312006
20
60.6160191
40
0.5026273
50
329.2803599
51
344.7473406
0
ARC
8
DEFAULT_255_1_388
10
5.5427502
20
60.5548038
40
0.3754848
50
324.9361395
51
328.6153007
0
ARC
8
DEFAULT_255_1_388
10
5.5853152
20
60.5250586
40
0.3235566
50
280.5801797
51
324.9173226
0
ARC
8
DEFAULT_255_1_388
10
5.540178
20
60.7130236
40
0.5167077
50
269.5979457
51
281.6732777
0
ARC
8
DEFAULT_255_1_388
10
5.5320684
20
60.6995113
40
0.5032026
50
256.6228565
51
270.5105488
0
ARC
8
DEFAULT_255_1_388
10
5.4868427
20
60.5253345
40
0.3233092
50
215.8618351
51
257.2787793
0
ARC
8
DEFAULT_255_1_388
10
5.6017134
20
60.6024106
40
0.4615831
50
197.9695203
51
215.2622745
0
ARC
8
DEFAULT_255_1_388
10
5.8812809
20
60.6967641
40
0.7566307
50
187.8816486
51
198.2346584
0
ARC
8
DEFAULT_255_1_388
10
6.3266048
20
60.7610453
40
1.2065653
50
180.8977266
51
188.0054894
0
ARC
8
DEFAULT_255_1_388
10
6.6316261
20
60.77254
40
1.5117443
50
180.7434591
51
181.152202
0
ARC
8
DEFAULT_255_1_388
10
6.4641257
20
60.9815371
40
1.3441277
50
173.7674302
51
180.2315596
0
ARC
8
DEFAULT_255_1_388
10
5.9559126
20
61.0389779
40
0.8326847
50
164.3058537
51
173.9000553
0
ARC
8
DEFAULT_255_1_388
10
5.6283126
20
61.1333652
40
0.4917711
50
148.7922028
51
164.5682288
0
ARC
8
DEFAULT_255_1_388
10
5.5213864
20
61.1930457
40
0.3694204
50
144.5883979
51
148.1161588
0
ARC
8
DEFAULT_255_1_388
10
5.4826609
20
61.2200667
40
0.322202
50
101.6440149
51
144.5142619
0
ARC
8
DEFAULT_255_1_388
10
5.5304801
20
61.0300337
40
0.5180451
50
89.528284
51
102.5820197
0
ARC
8
DEFAULT_255_1_388
10
5.5393793
20
61.0256376
40
0.5224441
50
77.0437914
51
90.508231
0
ARC
8
DEFAULT_255_1_388
10
5.5846047
20
61.2104272
40
0.3322297
50
48.2777708
51
77.4996087
0
ARC
8
DEFAULT_255_1_388
10
5.5927787
20
61.2249557
40
0.315966
50
36.3141586
51
47.6307332
0
ARC
8
DEFAULT_255_1_388
10
5.4950509
20
61.1591159
40
0.4337313
50
18.2931065
51
35.6770203
0
ARC
8
DEFAULT_255_1_388
10
5.208935
20
61.0609107
40
0.7362203
50
8.0246996
51
18.5605636
0
ARC
8
DEFAULT_255_1_388
10
4.7405705
20
60.9917432
40
1.2096583
50
1.127539
51
8.1718423
0
ARC
8
DEFAULT_255_1_388
10
4.3756839
20
60.9774374
40
1.5747719
50
0.5432713
51
1.38669
0
ARC
8
DEFAULT_255_1_388
10
4.5814217
20
61.0081163
40
1.2018103
50
359.8092569
51
4.9408001
0
ARC
8
DEFAULT_255_1_388
10
5.0550799
20
61.05039
40
0.7262727
50
4.8364937
51
12.2906017
0
ARC
8
DEFAULT_255_1_388
10
5.3650263
20
61.1194485
40
0.4087324
50
12.0806994
51
23.8171225
0
ARC
8
DEFAULT_255_1_388
10
5.4970659
20
61.1753508
40
0.2653719
50
24.2874621
51
31.3934353
0
ARC
8
DEFAULT_255_1_388
10
5.5561095
20
61.2139822
40
0.1948607
50
30.7407708
51
82.4658033
0
ARC
8
DEFAULT_255_1_388
10
5.5358756
20
61.1146017
40
0.2961198
50
81.1057101
51
90.2187368
0
ARC
8
DEFAULT_255_1_388
10
5.5318568
20
61.1436421
40
0.2670929
50
89.380395
51
105.6763916
0
ARC
8
DEFAULT_255_1_388
10
5.511229
20
61.218632
40
0.1893189
50
105.7980655
51
149.7387869
0
ARC
8
DEFAULT_255_1_388
10
5.630943
20
61.1466719
40
0.3289892
50
149.4208441
51
163.628295
0
ARC
8
DEFAULT_255_1_388
10
5.866166
20
61.0749345
40
0.5749004
50
163.3764549
51
172.141138
0
ARC
8
DEFAULT_255_1_388
10
6.2374381
20
61.0217582
40
0.9499585
50
172.0258462
51
178.0705453
0
ARC
8
DEFAULT_255_1_388
10
6.5795934
20
61.0055682
40
1.2924734
50
177.8639301
51
179.5036263
0
ARC
8
DEFAULT_255_1_388
10
6.4576953
20
60.7452151
40
1.170534
50
179.7995545
51
185.246089
0
ARC
8
DEFAULT_255_1_388
10
6.0028546
20
60.7021404
40
0.7136613
50
185.1411911
51
193.0082205
0
ARC
8
DEFAULT_255_1_388
10
5.7054806
20
60.6318441
40
0.4080987
50
192.7897338
51
205.2507384
0
ARC
8
DEFAULT_255_1_388
10
5.5877016
20
60.5792538
40
0.2791522
50
205.8001921
51
211.2545876
0
ARC
8
DEFAULT_255_1_388
10
5.5288555
20
60.5398132
40
0.2084074
50
210.3789935
51
238.4007996
0
ARC
8
DEFAULT_255_1_388
10
5.5266641
20
60.5450786
40
0.2117943
50
239.6521916
51
265.9793852
0
ARC
8
DEFAULT_255_1_388
10
5.536249
20
60.6207358
40
0.2879689
50
265.1324455
51
270.0603288
0
ARC
8
DEFAULT_255_1_388
10
5.5394867
20
60.5842418
40
0.2514919
50
269.3314378
51
287.2180039
0
ARC
8
DEFAULT_255_1_388
10
5.554995
20
60.5276291
40
0.1928357
50
287.7957942
51
329.0808983
0
ARC
8
DEFAULT_255_1_388
10
5.4472707
20
60.5948651
40
0.319808
50
328.6635261
51
343.3325043
0
ARC
8
DEFAULT_255_1_388
10
5.2028165
20
60.6710195
40
0.5758408
50
343.0498092
51
351.9392499
0
ARC
8
DEFAULT_255_1_388
10
4.8127487
20
60.7285205
40
0.9701202
50
351.8071632
51
357.7957897
0
ARC
8
DEFAULT_255_1_388
10
4.4492964
20
60.7473724
40
1.3340376
50
357.5870923
51
359.2682493
0
LINE
8
DEFAULT_255_1_388
10
4.8952215
20
68.9416153
11
4.8952215
21
68.8928229
0
LINE
8
DEFAULT_255_1_388
10
4.2853155
20
68.1509964
11
4.2527872
21
68.1509964
0
LINE
8
DEFAULT_255_1_388
10
4.2527872
20
68.1509964
11
4.2527872
21
68.2919525
0
LINE
8
DEFAULT_255_1_388
10
4.2527872
20
68.2919525
11
4.2880262
21
68.2919525
0
LINE
8
DEFAULT_255_1_388
10
4.7280621
20
68.909087
11
4.7280621
21
68.9759508
0
ARC
8
DEFAULT_255_1_388
10
4.4137713
20
68.9929877
40
0.4089973
50
297.4036461
51
320.0168133
0
ARC
8
DEFAULT_255_1_388
10
4.4463893
20
68.9303072
40
0.3383378
50
270.2631886
51
297.3852322
0
ARC
8
DEFAULT_255_1_388
10
4.4425569
20
68.9840343
40
0.3920983
50
269.9969069
51
270.7871389
0
ARC
8
DEFAULT_255_1_388
10
4.4396892
20
68.9822737
40
0.3903482
50
254.5997295
51
270.4178147
0
ARC
8
DEFAULT_255_1_388
10
4.4236424
20
68.9187693
40
0.3248657
50
236.4717231
51
254.3539376
0
ARC
8
DEFAULT_255_1_388
10
4.4412155
20
68.9423999
40
0.3542746
50
208.4727261
51
236.2134628
0
ARC
8
DEFAULT_255_1_388
10
4.5130919
20
68.9863676
40
0.4384402
50
204.3450776
51
209.0455365
0
ARC
8
DEFAULT_255_1_388
10
4.5895295
20
69.01878
40
0.5214459
50
183.9375459
51
204.1275509
0
ARC
8
DEFAULT_255_1_388
10
4.6917601
20
69.0297863
40
0.6242037
50
179.9652726
51
184.3010611
0
ARC
8
DEFAULT_255_1_388
10
4.6647146
20
69.0335004
40
0.5971675
50
166.7585952
51
180.3200491
0
ARC
8
DEFAULT_255_1_388
10
4.5694954
20
69.0541979
40
0.4997418
50
154.6954866
51
166.5679151
0
ARC
8
DEFAULT_255_1_388
10
4.4735194
20
69.1025411
40
0.3923208
50
136.3325251
51
155.0871367
0
ARC
8
DEFAULT_255_1_388
10
4.4419114
20
69.1296271
40
0.3507618
50
121.2365985
51
135.9680081
0
ARC
8
DEFAULT_255_1_388
10
4.4577178
20
69.1003541
40
0.3839917
50
96.8454764
51
120.9881329
0
ARC
8
DEFAULT_255_1_388
10
4.4740984
20
68.9950942
40
0.4904679
50
89.887204
51
97.2797758
0
ARC
8
DEFAULT_255_1_388
10
4.4799957
20
69.0668652
40
0.418725
50
70.6505767
51
90.6748382
0
ARC
8
DEFAULT_255_1_388
10
4.4947654
20
69.1246091
40
0.3593866
50
36.7493297
51
69.8220487
0
ARC
8
DEFAULT_255_1_388
10
4.3824001
20
69.0370446
40
0.5018201
50
15.3958155
51
37.0841102
0
ARC
8
DEFAULT_255_1_388
10
4.1428286
20
68.9672111
40
0.7513436
50
3.9487796
51
15.6798517
0
ARC
8
DEFAULT_255_1_388
10
3.8726928
20
68.942881
40
1.0225293
50
359.9290791
51
4.266464
0
ARC
8
DEFAULT_255_1_388
10
3.3545845
20
68.8853372
40
1.5406551
50
352.8365702
51
0.2783851
0
ARC
8
DEFAULT_255_1_388
10
3.9494076
20
68.8080664
40
0.9408425
50
341.8359339
51
352.9884057
0
ARC
8
DEFAULT_255_1_388
10
4.3115063
20
68.6860144
40
0.5587481
50
322.8579243
51
342.1527461
0
ARC
8
DEFAULT_255_1_388
10
4.4086755
20
68.619735
40
0.4413099
50
319.3348471
51
322.100194
0
ARC
8
DEFAULT_255_1_388
10
4.3738687
20
68.6546814
40
0.4904992
50
285.954114
51
318.8878716
0
ARC
8
DEFAULT_255_1_388
10
4.2921124
20
68.9145865
40
0.7628991
50
272.9280841
51
286.4924389
0
ARC
8
DEFAULT_255_1_388
10
4.2707428
20
69.168024
40
1.017132
50
270.8209173
51
273.4010121
0
ARC
8
DEFAULT_255_1_388
10
4.2807451
20
68.9632073
40
0.6712943
50
270.6214576
51
281.4062333
0
ARC
8
DEFAULT_255_1_388
10
4.3291176
20
68.731925
40
0.4350167
50
281.1852583
51
299.0622058
0
ARC
8
DEFAULT_255_1_388
10
4.3711421
20
68.6508138
40
0.3437146
50
299.5068171
51
313.1200142
0
ARC
8
DEFAULT_255_1_388
10
4.3736158
20
68.6418959
40
0.3355418
50
313.8525725
51
338.5989631
0
ARC
8
DEFAULT_255_1_388
10
4.1909286
20
68.7169576
40
0.5330317
50
338.2523315
51
351.2431701
0
ARC
8
DEFAULT_255_1_388
10
3.9197037
20
68.7630494
40
0.8081235
50
350.940933
51
357.6690137
0
ARC
8
DEFAULT_255_1_388
10
4.4698917
20
68.9883048
40
0.2581236
50
269.9447107
51
306.8249644
0
ARC
8
DEFAULT_255_1_388
10
4.4432219
20
69.035906
40
0.3122948
50
305.5071046
51
327.0773808
0
ARC
8
DEFAULT_255_1_388
10
4.4565271
20
69.0252445
40
0.2953369
50
327.4106457
51
336.8396801
0
ARC
8
DEFAULT_255_1_388
10
4.1084984
20
68.9795932
40
0.6195743
50
359.663158
51
10.1176387
0
ARC
8
DEFAULT_255_1_388
10
4.3057747
20
69.0160922
40
0.4189561
50
9.9431549
51
26.7699242
0
ARC
8
DEFAULT_255_1_388
10
4.3729733
20
69.0470796
40
0.3450125
50
27.2018067
51
34.6833639
0
ARC
8
DEFAULT_255_1_388
10
4.4280346
20
69.088456
40
0.2762035
50
34.124913
51
50.30709
0
ARC
8
DEFAULT_255_1_388
10
4.4782829
20
69.1485741
40
0.1978518
50
50.3850304
51
90.6705051
0
ARC
8
DEFAULT_255_1_388
10
4.4730223
20
69.1143074
40
0.2321235
50
89.2729817
51
111.9140267
0
ARC
8
DEFAULT_255_1_388
10
4.470831
20
69.1301308
40
0.2166604
50
112.9381864
51
142.5320936
0
ARC
8
DEFAULT_255_1_388
10
4.5322799
20
69.0802392
40
0.2957902
50
142.1024021
51
166.3835244
0
ARC
8
DEFAULT_255_1_388
10
4.6651769
20
69.0459213
40
0.4330361
50
166.1100968
51
178.6653563
0
ARC
8
DEFAULT_255_1_388
10
4.7833695
20
69.0393061
40
0.5513642
50
178.2641888
51
180.010994
0
ARC
8
DEFAULT_255_1_388
10
4.6928196
20
69.0361136
40
0.4608248
50
179.6162225
51
191.8786013
0
ARC
8
DEFAULT_255_1_388
10
4.5555506
20
69.005759
40
0.3202502
50
191.6192934
51
215.2970746
0
ARC
8
DEFAULT_255_1_388
10
4.5316161
20
68.9914963
40
0.2924827
50
215.7258926
51
216.5355437
0
ARC
8
DEFAULT_255_1_388
10
4.4727782
20
68.9441919
40
0.2170661
50
215.7486606
51
239.9728403
0
ARC
8
DEFAULT_255_1_388
10
4.4648947
20
68.9384838
40
0.208217
50
241.065081
51
269.280972
0
ARC
8
DEFAULT_255_1_388
10
4.4696106
20
68.9940327
40
0.2638514
50
268.4083352
51
270.0069622
0
ARC
8
DEFAULT_255_1_388
10
4.5668818
20
77.058772
40
0.3175098
50
338.8762533
51
0.5167111
0
ARC
8
DEFAULT_255_1_388
10
4.5858412
20
77.05366
40
0.2979894
50
325.8415285
51
338.4793574
0
ARC
8
DEFAULT_255_1_388
10
4.5419046
20
77.0841242
40
0.351452
50
296.7587686
51
325.7536481
0
ARC
8
DEFAULT_255_1_388
10
4.5090673
20
77.1395363
40
0.4157374
50
296.0927901
51
297.3613472
0
ARC
8
DEFAULT_255_1_388
10
4.5384869
20
76.4012593
40
0.395855
50
47.9007294
51
67.1948823
0
ARC
8
DEFAULT_255_1_388
10
4.5605511
20
76.4289599
40
0.360516
50
35.2363914
51
47.551141
0
ARC
8
DEFAULT_255_1_388
10
4.5899915
20
76.4486093
40
0.3251343
50
359.2759765
51
35.4014143
0
ARC
8
DEFAULT_255_1_388
10
4.5061841
20
76.4403787
40
0.4089365
50
343.1293083
51
0.5775513
0
ARC
8
DEFAULT_255_1_388
10
4.5876955
20
76.4179336
40
0.3244269
50
310.8496669
51
342.7449331
0
ARC
8
DEFAULT_255_1_388
10
4.5406829
20
76.4715913
40
0.3957651
50
281.5472888
51
310.9170406
0
ARC
8
DEFAULT_255_1_388
10
4.5005704
20
76.6462814
40
0.5749654
50
269.619248
51
281.9789564
0
ARC
8
DEFAULT_255_1_388
10
4.4924482
20
76.6463776
40
0.5750649
50
257.4585678
51
270.4285689
0
ARC
8
DEFAULT_255_1_388
10
4.4496002
20
76.4659741
40
0.389671
50
228.7554326
51
257.8484789
0
ARC
8
DEFAULT_255_1_388
10
4.4147487
20
76.4240228
40
0.335154
50
184.0104975
51
228.5071184
0
ARC
8
DEFAULT_255_1_388
10
4.545588
20
76.443943
40
0.4671891
50
179.9315832
51
185.3253753
0
ARC
8
DEFAULT_255_1_388
10
4.4132392
20
76.4481592
40
0.33486
50
145.6796023
51
180.6259786
0
ARC
8
DEFAULT_255_1_388
10
4.4316158
20
76.4353271
40
0.3572723
50
115.5537685
51
145.6415986
0
ARC
8
DEFAULT_255_1_388
10
4.4699202
20
76.3667087
40
0.4357296
50
113.243307
51
116.2057839
0
ARC
8
DEFAULT_255_1_388
10
4.4527854
20
77.0864379
40
0.3549126
50
222.9549744
51
244.1370481
0
ARC
8
DEFAULT_255_1_388
10
4.4390497
20
77.0710378
40
0.3343711
50
213.3436887
51
222.6274467
0
ARC
8
DEFAULT_255_1_388
10
4.4174566
20
77.0563653
40
0.3082678
50
180.431584
51
213.271499
0
ARC
8
DEFAULT_255_1_388
10
4.4809565
20
77.0616296
40
0.3718363
50
179.9991191
51
181.1690594
0
ARC
8
DEFAULT_255_1_388
10
4.5282021
20
77.0655072
40
0.4190996
50
164.6186169
51
180.529336
0
ARC
8
DEFAULT_255_1_388
10
4.427167
20
77.092678
40
0.3144772
50
132.2455553
51
164.5090724
0
ARC
8
DEFAULT_255_1_388
10
4.4594649
20
77.056107
40
0.3632644
50
100.7053914
51
132.1386381
0
ARC
8
DEFAULT_255_1_388
10
4.493771
20
76.9011118
40
0.5219578
50
89.6730358
51
101.2451698
0
ARC
8
DEFAULT_255_1_388
10
4.5007701
20
76.9207648
40
0.5023124
50
76.287748
51
90.4586006
0
ARC
8
DEFAULT_255_1_388
10
4.5352203
20
77.0582671
40
0.3605639
50
47.8240511
51
76.4266241
0
ARC
8
DEFAULT_255_1_388
10
4.5602587
20
77.0875599
40
0.3220463
50
6.9168387
51
47.6262497
0
ARC
8
DEFAULT_255_1_388
10
4.426804
20
77.0629004
40
0.4575765
50
359.8415968
51
7.9697453
0
ARC
8
DEFAULT_255_1_388
10
4.465231
20
76.4508519
40
0.2827228
50
359.445363
51
16.9256873
0
ARC
8
DEFAULT_255_1_388
10
4.5179744
20
76.4653781
40
0.2280396
50
17.2920767
51
45.4630727
0
ARC
8
DEFAULT_255_1_388
10
4.5118879
20
76.4601324
40
0.2360485
50
45.30305
51
83.1920945
0
ARC
8
DEFAULT_255_1_388
10
4.4957624
20
76.3699473
40
0.3275527
50
82.2612665
51
90.1434275
0
ARC
8
DEFAULT_255_1_388
10
4.49229
20
76.3961869
40
0.3013237
50
89.4956434
51
104.8580688
0
ARC
8
DEFAULT_255_1_388
10
4.472409
20
76.4715455
40
0.2233867
50
104.8856641
51
135.244616
0
ARC
8
DEFAULT_255_1_388
10
4.4780079
20
76.4665352
40
0.2308906
50
135.3399546
51
172.1044062
0
ARC
8
DEFAULT_255_1_388
10
4.5687603
20
76.4491667
40
0.3232034
50
171.2645637
51
180.186429
0
ARC
8
DEFAULT_255_1_388
10
4.5497608
20
76.4455426
40
0.304213
50
179.5154935
51
193.6464289
0
ARC
8
DEFAULT_255_1_388
10
4.4579284
20
76.4221473
40
0.209456
50
193.3540274
51
225.8258581
0
ARC
8
DEFAULT_255_1_388
10
4.4625156
20
76.4301076
40
0.2183738
50
226.4180634
51
255.8552336
0
ARC
8
DEFAULT_255_1_388
10
4.4913623
20
76.5354521
40
0.3275812
50
255.4654104
51
268.7987425
0
ARC
8
DEFAULT_255_1_388
10
4.4966799
20
76.6296545
40
0.4218877
50
268.3449238
51
270.0094605
0
ARC
8
DEFAULT_255_1_388
10
4.4993032
20
76.5528094
40
0.3450519
50
269.5759586
51
282.0820163
0
ARC
8
DEFAULT_255_1_388
10
4.5246069
20
76.4409363
40
0.2303642
50
281.752014
51
306.6056188
0
ARC
8
DEFAULT_255_1_388
10
4.5356877
20
76.4227802
40
0.2091906
50
307.1346085
51
314.027845
0
ARC
8
DEFAULT_255_1_388
10
4.5316389
20
76.4257459
40
0.2141385
50
314.2552483
51
350.1694025
0
ARC
8
DEFAULT_255_1_388
10
4.4358626
20
76.4465175
40
0.312082
50
349.4140529
51
0.2933014
0
ARC
8
DEFAULT_255_1_388
10
4.4943903
20
77.0268924
40
0.2588377
50
89.477747
51
105.729729
0
ARC
8
DEFAULT_255_1_388
10
4.4790823
20
77.0837367
40
0.1999733
50
105.9233417
51
135.1660906
0
ARC
8
DEFAULT_255_1_388
10
4.4813854
20
77.0821412
40
0.2027322
50
135.3052302
51
168.9883645
0
ARC
8
DEFAULT_255_1_388
10
4.574487
20
77.0607996
40
0.2982129
50
168.3801673
51
180.3602268
0
ARC
8
DEFAULT_255_1_388
10
4.5487987
20
77.0565622
40
0.2725291
50
179.5033122
51
194.9125571
0
ARC
8
DEFAULT_255_1_388
10
4.4829394
20
77.0392427
40
0.204431
50
194.9720816
51
224.194444
0
ARC
8
DEFAULT_255_1_388
10
4.4797759
20
77.0366635
40
0.2003651
50
224.2962453
51
262.015664
0
ARC
8
DEFAULT_255_1_388
10
4.4957763
20
77.1189315
40
0.2840925
50
261.1245923
51
270.1962896
0
ARC
8
DEFAULT_255_1_388
10
4.4991244
20
77.0978859
40
0.2630559
50
269.4827276
51
285.0987215
0
ARC
8
DEFAULT_255_1_388
10
4.516468
20
77.0328175
40
0.1957162
50
285.1585357
51
315.9484501
0
ARC
8
DEFAULT_255_1_388
10
4.5064554
20
77.0420315
40
0.2093195
50
316.0413965
51
351.916092
0
ARC
8
DEFAULT_255_1_388
10
4.4239928
20
77.0579323
40
0.2932279
50
351.105835
51
0.1939062
0
ARC
8
DEFAULT_255_1_388
10
4.4535562
20
77.0613224
40
0.2636739
50
359.4789618
51
16.0678224
0
ARC
8
DEFAULT_255_1_388
10
4.5071034
20
77.0757721
40
0.2082215
50
16.3252067
51
44.7913869
0
ARC
8
DEFAULT_255_1_388
10
4.5051096
20
77.075832
40
0.2095992
50
44.3957814
51
88.2499162
0
ARC
8
DEFAULT_255_1_388
10
4.4968431
20
77.0070006
40
0.2787189
50
86.9833854
51
90.0192215
0
LINE
8
DEFAULT_255_1_388
10
4.9358819
20
85.3424898
11
4.9358819
21
85.2485191
0
LINE
8
DEFAULT_255_1_388
10
4.9358819
20
85.2485191
11
4.3910325
21
84.0269
0
LINE
8
DEFAULT_255_1_388
10
4.3910325
20
84.0269
11
4.215741
21
84.0269
0
LINE
8
DEFAULT_255_1_388
10
4.215741
20
84.0269
11
4.7587833
21
85.205148
0
LINE
8
DEFAULT_255_1_388
10
4.7587833
20
85.205148
11
4.0467745
21
85.205148
0
LINE
8
DEFAULT_255_1_388
10
4.0467745
20
85.205148
11
4.0467745
21
85.3424898
0
LINE
8
DEFAULT_255_1_388
10
4.0467745
20
85.3424898
11
4.9358819
21
85.3424898
0
LINE
8
DEFAULT_255_1_388
10
4.7127015
20
93.2808934
11
4.7425191
21
93.2808934
0
LINE
8
DEFAULT_255_1_388
10
4.7425191
20
93.2808934
11
4.7425191
21
93.1390338
0
LINE
8
DEFAULT_255_1_388
10
4.7425191
20
93.1390338
11
4.7117979
21
93.1390338
0
LINE
8
DEFAULT_255_1_388
10
4.0964705
20
92.4649747
11
4.0964705
21
92.5291278
0
LINE
8
DEFAULT_255_1_388
10
4.2645335
20
92.5074422
11
4.2645335
21
92.4459999
0
ARC
8
DEFAULT_255_1_388
10
4.7176871
20
92.5767826
40
0.562282
50
90.6001079
51
104.5146616
0
ARC
8
DEFAULT_255_1_388
10
4.673983
20
92.73931
40
0.3939917
50
104.2855758
51
133.8630124
0
ARC
8
DEFAULT_255_1_388
10
4.6924083
20
92.7271243
40
0.4155734
50
134.5304124
51
161.6210222
0
ARC
8
DEFAULT_255_1_388
10
4.8784015
20
92.6615421
40
0.6127682
50
161.2850533
51
174.2074364
0
ARC
8
DEFAULT_255_1_388
10
5.0373582
20
92.6396437
40
0.7731446
50
173.7817938
51
174.9251711
0
ARC
8
DEFAULT_255_1_388
10
4.5247775
20
92.484127
40
0.3412588
50
95.8332067
51
138.995412
0
ARC
8
DEFAULT_255_1_388
10
4.5499056
20
92.3402695
40
0.4870358
50
89.8755506
51
97.0540979
0
ARC
8
DEFAULT_255_1_388
10
4.5552445
20
92.4342841
40
0.3930432
50
71.6407016
51
90.6240821
0
ARC
8
DEFAULT_255_1_388
10
4.5721838
20
92.4966433
40
0.3285421
50
39.6368051
51
71.0190743
0
ARC
8
DEFAULT_255_1_388
10
4.5005746
20
92.4347586
40
0.4231706
50
10.6588054
51
39.9044509
0
ARC
8
DEFAULT_255_1_388
10
4.3264291
20
92.3969223
40
0.60133
50
359.6827842
51
11.1326896
0
ARC
8
DEFAULT_255_1_388
10
4.3219627
20
92.3889715
40
0.6058047
50
347.2485908
51
0.4371098
0
ARC
8
DEFAULT_255_1_388
10
4.5095413
20
92.3438379
40
0.4128987
50
318.1408565
51
347.6118497
0
ARC
8
DEFAULT_255_1_388
10
4.5461009
20
92.3137903
40
0.3656244
50
275.6342406
51
317.824739
0
ARC
8
DEFAULT_255_1_388
10
4.521253
20
92.4599827
40
0.513655
50
269.8872513
51
276.7916069
0
ARC
8
DEFAULT_255_1_388
10
4.5150723
20
92.3446181
40
0.398323
50
246.9139443
51
270.7436787
0
ARC
8
DEFAULT_255_1_388
10
4.5157919
20
92.3286044
40
0.3839368
50
218.1665534
51
245.8780431
0
ARC
8
DEFAULT_255_1_388
10
4.6147291
20
92.4113903
40
0.5128958
50
191.4115343
51
218.6077624
0
ARC
8
DEFAULT_255_1_388
10
4.8327607
20
92.4602777
40
0.7363054
50
179.6344971
51
191.7836758
0
ARC
8
DEFAULT_255_1_388
10
5.4607482
20
92.5366495
40
1.3642984
50
171.4523743
51
180.3158856
0
ARC
8
DEFAULT_255_1_388
10
4.9663209
20
92.6135895
40
0.8639311
50
157.9802296
51
171.6246761
0
ARC
8
DEFAULT_255_1_388
10
4.7172559
20
92.7129038
40
0.5958004
50
141.4299236
51
157.8541251
0
ARC
8
DEFAULT_255_1_388
10
4.6450643
20
92.7639746
40
0.5075416
50
102.871586
51
140.8564533
0
ARC
8
DEFAULT_255_1_388
10
4.7179195
20
92.4894943
40
0.7914163
50
90.377773
51
103.5868422
0
ARC
8
DEFAULT_255_1_388
10
4.5223717
20
92.4214543
40
0.2667015
50
89.8751238
51
126.2072139
0
ARC
8
DEFAULT_255_1_388
10
4.5275188
20
92.4040847
40
0.2838229
50
124.9742447
51
144.8960197
0
ARC
8
DEFAULT_255_1_388
10
4.5077433
20
92.4201981
40
0.2583845
50
145.2974778
51
160.2660922
0
ARC
8
DEFAULT_255_1_388
10
4.8533921
20
92.4424151
40
0.5888695
50
179.6512124
51
190.285571
0
ARC
8
DEFAULT_255_1_388
10
4.6628401
20
92.4064968
40
0.3949683
50
190.0944895
51
207.5099647
0
ARC
8
DEFAULT_255_1_388
10
4.5991982
20
92.3762177
40
0.3245464
50
207.9585471
51
216.325377
0
ARC
8
DEFAULT_255_1_388
10
4.5609619
20
92.3447712
40
0.2751259
50
215.7661336
51
232.5457193
0
ARC
8
DEFAULT_255_1_388
10
4.5178735
20
92.2900273
40
0.2054668
50
232.8005815
51
270.6605497
0
ARC
8
DEFAULT_255_1_388
10
4.523016
20
92.3309853
40
0.2464268
50
269.3550767
51
288.474612
0
ARC
8
DEFAULT_255_1_388
10
4.5334667
20
92.2916721
40
0.2058436
50
289.1831976
51
322.9685307
0
ARC
8
DEFAULT_255_1_388
10
4.4646768
20
92.3459279
40
0.2934408
50
322.6007085
51
346.5183319
0
ARC
8
DEFAULT_255_1_388
10
4.3344524
20
92.3791434
40
0.4278249
50
346.2584622
51
358.7739592
0
ARC
8
DEFAULT_255_1_388
10
4.21931
20
92.3853829
40
0.5430876
50
358.3757628
51
0.0082477
0
ARC
8
DEFAULT_255_1_388
10
4.3049918
20
92.3884856
40
0.4574157
50
359.6211417
51
11.28403
0
ARC
8
DEFAULT_255_1_388
10
4.4486524
20
92.4184535
40
0.3106708
50
11.0483152
51
31.8145585
0
ARC
8
DEFAULT_255_1_388
10
4.4834229
20
92.4373045
40
0.2711963
50
32.3028554
51
38.0820598
0
ARC
8
DEFAULT_255_1_388
10
4.5307462
20
92.4801717
40
0.2075566
50
36.8249851
51
85.741667
0
ARC
8
DEFAULT_255_1_388
10
4.5231875
20
92.4238065
40
0.2643487
50
85.0150021
51
90.050843
0
LINE
8
DEFAULT_255_1_388
10
4.2970618
20
100.5271666
11
4.1633343
21
100.5615021
0
LINE
8
DEFAULT_255_1_388
10
4.1633343
20
100.5615021
11
4.230198
21
101.2174898
0
LINE
8
DEFAULT_255_1_388
10
4.230198
20
101.2174898
11
4.9042571
21
101.2174898
0
LINE
8
DEFAULT_255_1_388
10
4.9042571
20
101.2174898
11
4.9042571
21
101.0629803
0
LINE
8
DEFAULT_255_1_388
10
4.9042571
20
101.0629803
11
4.3720577
21
101.0629803
0
LINE
8
DEFAULT_255_1_388
10
4.3720577
20
101.0629803
11
4.3323008
21
100.7042652
0
LINE
8
DEFAULT_255_1_388
10
4.1163489
20
100.2479652
11
4.2744727
21
100.2479652
0
LINE
8
DEFAULT_255_1_388
10
4.3413365
20
100.5633092
11
4.2970618
21
100.5271666
0
ARC
8
DEFAULT_255_1_388
10
4.5409622
20
100.3465241
40
0.4141476
50
93.7181681
51
120.253934
0
ARC
8
DEFAULT_255_1_388
10
4.5515674
20
100.2556284
40
0.5055616
50
89.9660471
51
94.2495185
0
ARC
8
DEFAULT_255_1_388
10
4.5561496
20
100.3219154
40
0.4392953
50
73.8045384
51
90.5585736
0
ARC
8
DEFAULT_255_1_388
10
4.5825754
20
100.418452
40
0.3392225
50
41.3071072
51
73.543002
0
ARC
8
DEFAULT_255_1_388
10
4.5357574
20
100.3781461
40
0.4009977
50
13.5075837
51
41.2174839
0
ARC
8
DEFAULT_255_1_388
10
4.3510671
20
100.3297907
40
0.5918864
50
1.1330171
51
13.8830737
0
ARC
8
DEFAULT_255_1_388
10
4.1914317
20
100.3212522
40
0.7516787
50
359.9925091
51
1.5431298
0
ARC
8
DEFAULT_255_1_388
10
4.3358932
20
100.3166027
40
0.6072343
50
347.8572712
51
0.4294349
0
ARC
8
DEFAULT_255_1_388
10
4.5328066
20
100.2719898
40
0.4053482
50
323.6727442
51
348.1674594
0
ARC
8
DEFAULT_255_1_388
10
4.5659031
20
100.2518175
40
0.3667495
50
316.8171818
51
323.1486802
0
ARC
8
DEFAULT_255_1_388
10
4.5728155
20
100.2476612
40
0.358869
50
281.839603
51
316.5458142
0
ARC
8
DEFAULT_255_1_388
10
4.5305442
20
100.4226363
40
0.5388223
50
269.5770964
51
282.4214641
0
ARC
8
DEFAULT_255_1_388
10
4.5225363
20
100.398593
40
0.5147801
50
256.2425863
51
270.4486481
0
ARC
8
DEFAULT_255_1_388
10
4.4888891
20
100.2636124
40
0.3756708
50
228.9024379
51
256.33135
0
ARC
8
DEFAULT_255_1_388
10
4.4805871
20
100.2505054
40
0.360344
50
193.7536029
51
228.5272638
0
ARC
8
DEFAULT_255_1_388
10
4.6198436
20
100.2913463
40
0.5053599
50
184.9244437
51
194.4976052
0
ARC
8
DEFAULT_255_1_388
10
4.6415077
20
100.2953722
40
0.3700839
50
187.3596909
51
198.6733728
0
ARC
8
DEFAULT_255_1_388
10
4.5234321
20
100.2544373
40
0.2451195
50
198.4453795
51
217.7945479
0
ARC
8
DEFAULT_255_1_388
10
4.4901493
20
100.2308563
40
0.2043754
50
218.2887146
51
228.5613203
0
ARC
8
DEFAULT_255_1_388
10
4.50115
20
100.2456902
40
0.2227819
50
228.9652423
51
258.1237049
0
ARC
8
DEFAULT_255_1_388
10
4.5242937
20
100.3447964
40
0.3245374
50
257.7260585
51
270.4013717
0
ARC
8
DEFAULT_255_1_388
10
4.5293435
20
100.2947255
40
0.2744726
50
269.4204315
51
286.420998
0
ARC
8
DEFAULT_255_1_388
10
4.5460491
20
100.2340705
40
0.2115721
50
286.7250065
51
320.6004665
0
ARC
8
DEFAULT_255_1_388
10
4.5029407
20
100.2690527
40
0.2670878
50
320.6712228
51
344.5440474
0
ARC
8
DEFAULT_255_1_388
10
4.372812
20
100.3072394
40
0.4026927
50
344.241448
51
356.735803
0
ARC
8
DEFAULT_255_1_388
10
4.2324428
20
100.3188656
40
0.5435085
50
356.3547471
51
0.0507222
0
ARC
8
DEFAULT_255_1_388
10
4.3826693
20
100.3223812
40
0.3932934
50
359.5579289
51
12.9534322
0
ARC
8
DEFAULT_255_1_388
10
4.5013533
20
100.3511586
40
0.2711827
50
12.6489751
51
41.608121
0
ARC
8
DEFAULT_255_1_388
10
4.5272693
20
100.3731946
40
0.2371737
50
41.7851122
51
85.9892156
0
ARC
8
DEFAULT_255_1_388
10
4.5134003
20
100.2816738
40
0.3295244
50
84.6965848
51
90.0672125
0
ARC
8
DEFAULT_255_1_388
10
4.510757
20
100.2065118
40
0.4046926
50
89.6804991
51
99.161352
0
ARC
8
DEFAULT_255_1_388
10
4.4876579
20
100.3445848
40
0.2647044
50
98.9836248
51
113.8905702
0
ARC
8
DEFAULT_255_1_388
10
4.4618254
20
100.4055118
40
0.1985386
50
114.195234
51
127.3641866
0
LINE
8
DEFAULT_255_1_388
10
5.0568151
20
109.1549898
11
5.0568151
21
108.281243
0
LINE
8
DEFAULT_255_1_388
10
5.0568151
20
108.281243
11
5.2393352
21
108.281243
0
LINE
8
DEFAULT_255_1_388
10
5.2393352
20
108.281243
11
5.2393352
21
108.1448048
0
LINE
8
DEFAULT_255_1_388
10
5.2393352
20
108.1448048
11
5.0568151
21
108.1448048
0
LINE
8
DEFAULT_255_1_388
10
5.0568151
20
108.1448048
11
5.0568151
21
107.8394
0
LINE
8
DEFAULT_255_1_388
10
5.0568151
20
107.8394
11
4.8887521
21
107.8394
0
LINE
8
DEFAULT_255_1_388
10
4.8887521
20
107.8394
11
4.8887521
21
108.1448048
0
LINE
8
DEFAULT_255_1_388
10
4.8887521
20
108.1448048
11
4.2896889
21
108.1448048
0
LINE
8
DEFAULT_255_1_388
10
4.2896889
20
108.1448048
11
4.2896889
21
108.2432933
0
LINE
8
DEFAULT_255_1_388
10
4.2896889
20
108.2432933
11
4.8788129
21
109.1549898
0
LINE
8
DEFAULT_255_1_388
10
4.8788129
20
109.1549898
11
5.0568151
21
109.1549898
0
LINE
8
DEFAULT_255_1_388
10
4.8688737
20
108.8902455
11
4.4794375
21
108.281243
0
LINE
8
DEFAULT_255_1_388
10
4.4794375
20
108.281243
11
4.8887521
21
108.281243
0
LINE
8
DEFAULT_255_1_388
10
4.8887521
20
108.281243
11
4.8887521
21
108.926388
0
LINE
8
DEFAULT_255_1_388
10
4.8887521
20
108.926388
11
4.8688737
21
108.8902455
0
LINE
8
DEFAULT_255_1_388
10
4.3295901
20
116.3795775
11
4.3295901
21
116.5160157
0
LINE
8
DEFAULT_255_1_388
10
4.3295901
20
116.5160157
11
4.4551856
21
116.5160157
0
LINE
8
DEFAULT_255_1_388
10
4.2410408
20
116.7473282
11
4.0738814
21
116.7473282
0
LINE
8
DEFAULT_255_1_388
10
4.0621351
20
116.1238688
11
4.230198
21
116.1238688
0
LINE
8
DEFAULT_255_1_388
10
4.4551856
20
116.3795775
11
4.3295901
21
116.3795775
0
ARC
8
DEFAULT_255_1_388
10
4.4519082
20
116.8976922
40
0.3816905
50
270.491971
51
281.8953028
0
ARC
8
DEFAULT_255_1_388
10
4.4790509
20
116.7737199
40
0.2547877
50
281.6690378
51
301.2943765
0
ARC
8
DEFAULT_255_1_388
10
4.4981961
20
116.7386926
40
0.2149197
50
301.7834992
51
311.754567
0
ARC
8
DEFAULT_255_1_388
10
4.5085002
20
116.727265
40
0.1995326
50
311.7325027
51
354.2803031
0
ARC
8
DEFAULT_255_1_388
10
4.4267418
20
116.741328
40
0.2823461
50
353.0941646
51
0.1174696
0
ARC
8
DEFAULT_255_1_388
10
4.3748976
20
116.7466874
40
0.3342238
50
359.1804452
51
15.0452323
0
ARC
8
DEFAULT_255_1_388
10
4.5263034
20
116.7908546
40
0.1765747
50
13.957816
51
77.6713812
0
ARC
8
DEFAULT_255_1_388
10
4.482827
20
116.6350464
40
0.3381982
50
76.111571
51
90.7028736
0
ARC
8
DEFAULT_255_1_388
10
4.4761682
20
116.665825
40
0.3074046
50
89.5321574
51
103.5319393
0
ARC
8
DEFAULT_255_1_388
10
4.4536066
20
116.7557443
40
0.2147041
50
103.2930114
51
133.5619756
0
ARC
8
DEFAULT_255_1_388
10
4.4486007
20
116.7624351
40
0.2064084
50
133.8349761
51
173.5343225
0
ARC
8
DEFAULT_255_1_388
10
4.5299665
20
116.7480144
40
0.2889266
50
172.5097183
51
180.1360699
0
ARC
8
DEFAULT_255_1_388
10
4.4229429
20
116.751888
40
0.3490913
50
155.3483706
51
180.7484035
0
ARC
8
DEFAULT_255_1_388
10
4.4174404
20
116.7486519
40
0.3454798
50
131.5745177
51
154.4799474
0
ARC
8
DEFAULT_255_1_388
10
4.4526687
20
116.7130422
40
0.3955058
50
96.9874487
51
131.9690874
0
ARC
8
DEFAULT_255_1_388
10
4.477358
20
116.5729407
40
0.537622
50
89.8592909
51
97.7827481
0
ARC
8
DEFAULT_255_1_388
10
4.4827689
20
116.543436
40
0.5671399
50
78.3654493
51
90.4132586
0
ARC
8
DEFAULT_255_1_388
10
4.523033
20
116.7300918
40
0.3762034
50
56.6229818
51
78.6387103
0
ARC
8
DEFAULT_255_1_388
10
4.5472159
20
116.7723846
40
0.3275964
50
47.0254604
51
56.085558
0
ARC
8
DEFAULT_255_1_388
10
4.549441
20
116.7768189
40
0.3228382
50
10.9207523
51
46.777927
0
ARC
8
DEFAULT_255_1_388
10
4.3960004
20
116.7413401
40
0.4802559
50
359.6364235
51
11.6087615
0
ARC
8
DEFAULT_255_1_388
10
4.602417
20
116.7396404
40
0.273833
50
332.3549969
51
359.7179765
0
ARC
8
DEFAULT_255_1_388
10
4.529257
20
116.7743285
40
0.3547505
50
325.2332381
51
332.8746682
0
ARC
8
DEFAULT_255_1_388
10
4.5464153
20
116.7623763
40
0.3338396
50
292.9803892
51
325.2391113
0
ARC
8
DEFAULT_255_1_388
10
4.5153349
20
116.8228679
40
0.4016959
50
292.542178
51
293.6931461
0
ARC
8
DEFAULT_255_1_388
10
4.5596921
20
116.0963036
40
0.372079
50
57.643292
51
72.8626085
0
ARC
8
DEFAULT_255_1_388
10
4.5995755
20
116.1609273
40
0.2961455
50
36.7246661
51
57.4701329
0
ARC
8
DEFAULT_255_1_388
10
4.5982912
20
116.162347
40
0.2963321
50
8.054535
51
36.3561529
0
ARC
8
DEFAULT_255_1_388
10
4.5012585
20
116.1449073
40
0.3948682
50
359.8316595
51
8.5873361
0
ARC
8
DEFAULT_255_1_388
10
4.4590059
20
116.139497
40
0.4371398
50
343.9831631
51
0.557075
0
ARC
8
DEFAULT_255_1_388
10
4.5587108
20
116.1121963
40
0.3337749
50
311.6358204
51
343.7652116
0
ARC
8
DEFAULT_255_1_388
10
4.5161362
20
116.1601955
40
0.3979351
50
279.7829743
51
311.625622
0
ARC
8
DEFAULT_255_1_388
10
4.4822497
20
116.3218642
40
0.5630417
50
269.7285092
51
280.3857694
0
ARC
8
DEFAULT_255_1_388
10
4.475281
20
116.3172241
40
0.5584119
50
256.6827433
51
270.4412869
0
ARC
8
DEFAULT_255_1_388
10
4.4371797
20
116.1614698
40
0.3980715
50
229.4223821
51
256.8554507
0
ARC
8
DEFAULT_255_1_388
10
4.390535
20
116.1089683
40
0.3278564
50
181.8183354
51
229.6455015
0
ARC
8
DEFAULT_255_1_388
10
4.507496
20
116.1236825
40
0.4453611
50
179.9760419
51
183.2330638
0
ARC
8
DEFAULT_255_1_388
10
4.4881512
20
116.1213781
40
0.2579652
50
179.4467996
51
196.2871626
0
ARC
8
DEFAULT_255_1_388
10
4.4332966
20
116.1063709
40
0.2011057
50
196.5661293
51
227.7059371
0
ARC
8
DEFAULT_255_1_388
10
4.4517573
20
116.1270155
40
0.2287994
50
227.7653015
51
257.8763321
0
ARC
8
DEFAULT_255_1_388
10
4.4770656
20
116.2330961
40
0.3378385
50
257.4583525
51
270.4267406
0
ARC
8
DEFAULT_255_1_388
10
4.4821906
20
116.265723
40
0.3704652
50
269.5965319
51
280.8788143
0
ARC
8
DEFAULT_255_1_388
10
4.5080134
20
116.1367529
40
0.2389415
50
280.6347277
51
299.8594068
0
ARC
8
DEFAULT_255_1_388
10
4.5294903
20
116.0959736
40
0.19289
50
300.3575552
51
314.5515667
0
ARC
8
DEFAULT_255_1_388
10
4.5201579
20
116.1028025
40
0.204312
50
315.0730962
51
345.0429362
0
ARC
8
DEFAULT_255_1_388
10
4.4163087
20
116.1330539
40
0.31246
50
344.598526
51
357.9270698
0
ARC
8
DEFAULT_255_1_388
10
4.3153391
20
116.1399705
40
0.4136265
50
357.4755098
51
0.0224936
0
ARC
8
DEFAULT_255_1_388
10
4.4306269
20
116.1427099
40
0.2983498
50
359.5051035
51
13.4236939
0
ARC
8
DEFAULT_255_1_388
10
4.5281359
20
116.1676637
40
0.1977186
50
12.9497905
51
48.7550905
0
ARC
8
DEFAULT_255_1_388
10
4.5076281
20
116.1396373
40
0.2323321
50
49.509109
51
72.1832965
0
ARC
8
DEFAULT_255_1_388
10
4.4673749
20
116.0201632
40
0.358397
50
71.9008458
51
84.3555134
0
ARC
8
DEFAULT_255_1_388
10
4.4492144
20
115.8669712
40
0.512641
50
84.019632
51
89.3326067
0
LINE
8
DEFAULT_255_1_388
10
4.9485318
20
123.8508382
11
4.9485318
21
123.7144
0
LINE
8
DEFAULT_255_1_388
10
4.9485318
20
123.7144
11
4.0865313
21
123.7144
0
LINE
8
DEFAULT_255_1_388
10
4.0865313
20
123.7144
11
4.0865313
21
123.8345741
0
LINE
8
DEFAULT_255_1_388
10
4.0865313
20
123.8345741
11
4.5419278
21
124.3405702
0
LINE
8
DEFAULT_255_1_388
10
4.2283909
20
124.6423607
11
4.0612315
21
124.6423607
0
LINE
8
DEFAULT_255_1_388
10
4.6404163
20
124.233046
11
4.2880262
21
123.8508382
0
LINE
8
DEFAULT_255_1_388
10
4.2880262
20
123.8508382
11
4.9485318
21
123.8508382
0
ARC
8
DEFAULT_255_1_388
10
3.0243337
20
125.6825983
40
2.0258655
50
318.5132526
51
320.7829045
0
ARC
8
DEFAULT_255_1_388
10
3.6191294
20
125.1984929
40
1.2589638
50
320.7372878
51
323.9739031
0
ARC
8
DEFAULT_255_1_388
10
4.0600226
20
124.8790554
40
0.7145141
50
323.8962701
51
328.64194
0
ARC
8
DEFAULT_255_1_388
10
4.2902484
20
124.7370545
40
0.4440242
50
328.8294576
51
331.7891185
0
ARC
8
DEFAULT_255_1_388
10
4.4024804
20
124.6791374
40
0.3177517
50
331.4254512
51
352.9365785
0
ARC
8
DEFAULT_255_1_388
10
4.4177804
20
124.675705
40
0.3021496
50
353.2257659
51
0.0166158
0
ARC
8
DEFAULT_255_1_388
10
4.4414564
20
124.6782894
40
0.2784847
50
359.486299
51
15.9343185
0
ARC
8
DEFAULT_255_1_388
10
4.4984831
20
124.6936269
40
0.2194403
50
16.1712913
51
43.5286088
0
ARC
8
DEFAULT_255_1_388
10
4.5071776
20
124.7023191
40
0.2071504
50
43.4417391
51
83.1661095
0
ARC
8
DEFAULT_255_1_388
10
4.4920937
20
124.6194316
40
0.2912888
50
82.160179
51
90.1505708
0
ARC
8
DEFAULT_255_1_388
10
4.4885418
20
124.5590279
40
0.3517025
50
89.5460741
51
102.5418361
0
ARC
8
DEFAULT_255_1_388
10
4.4612138
20
124.6749933
40
0.2325748
50
102.1738499
51
129.206123
0
ARC
8
DEFAULT_255_1_388
10
4.4523592
20
124.6889664
40
0.2161591
50
129.72865
51
135.753947
0
ARC
8
DEFAULT_255_1_388
10
4.4660074
20
124.6780728
40
0.2335433
50
136.1757367
51
166.3673339
0
ARC
8
DEFAULT_255_1_388
10
4.5792762
20
124.6477148
40
0.3507873
50
165.9090694
51
178.8684636
0
ARC
8
DEFAULT_255_1_388
10
4.6768534
20
124.6424263
40
0.4484624
50
178.4391136
51
180.0083808
0
ARC
8
DEFAULT_255_1_388
10
4.5189235
20
124.6468197
40
0.4577138
50
163.2878482
51
180.5581842
0
ARC
8
DEFAULT_255_1_388
10
4.4287276
20
124.6716393
40
0.3641968
50
133.4540601
51
162.947111
0
ARC
8
DEFAULT_255_1_388
10
4.4488158
20
124.6502789
40
0.3935189
50
100.7869829
51
133.4382499
0
ARC
8
DEFAULT_255_1_388
10
4.4879403
20
124.4760399
40
0.5720313
50
89.660664
51
101.3702276
0
ARC
8
DEFAULT_255_1_388
10
4.4954012
20
124.4829263
40
0.5651495
50
78.2172678
51
90.412935
0
ARC
8
DEFAULT_255_1_388
10
4.5353478
20
124.6656511
40
0.378122
50
55.9269121
51
78.4888449
0
ARC
8
DEFAULT_255_1_388
10
4.5574193
20
124.7037187
40
0.3342379
50
47.929771
51
55.4049217
0
ARC
8
DEFAULT_255_1_388
10
4.5688723
20
124.7153618
40
0.3179217
50
4.334829
51
48.0560205
0
ARC
8
DEFAULT_255_1_388
10
4.4456525
20
124.6962487
40
0.442341
50
359.9251713
51
5.5971671
0
ARC
8
DEFAULT_255_1_388
10
4.493868
20
124.7025728
40
0.3941854
50
337.8914027
51
358.9967534
0
ARC
8
DEFAULT_255_1_388
10
4.188625
20
124.8203295
40
0.7213271
50
326.9132501
51
338.3508308
0
ARC
8
DEFAULT_255_1_388
10
3.7402362
20
125.1077105
40
1.2538973
50
319.6471833
51
327.0959558
0
ARC
8
DEFAULT_255_1_388
10
3.308902
20
125.463505
40
1.8129975
50
317.2588228
51
319.9045804
0
LINE
8
DEFAULT_255_1_388
10
4.6275985
20
132.9738148
11
4.6275985
21
131.6519
0
LINE
8
DEFAULT_255_1_388
10
4.6275985
20
131.6519
11
4.4595355
21
131.6519
0
LINE
8
DEFAULT_255_1_388
10
4.4595355
20
131.6519
11
4.4595355
21
132.765995
0
LINE
8
DEFAULT_255_1_388
10
4.4595355
20
132.765995
11
4.122506
21
132.6422066
0
LINE
8
DEFAULT_255_1_388
10
4.122506
20
132.6422066
11
4.122506
21
132.7940055
0
LINE
8
DEFAULT_255_1_388
10
4.122506
20
132.7940055
11
4.6013951
21
132.9738148
0
LINE
8
DEFAULT_255_1_388
10
4.6013951
20
132.9738148
11
4.6275985
21
132.9738148
0
LINE
8
DEFAULT_255_1_388
10
4.9114856
20
140.367369
11
4.9114856
21
140.1505135
0
LINE
8
DEFAULT_255_1_388
10
4.0811099
20
140.1279244
11
4.0811099
21
140.3511048
0
LINE
8
DEFAULT_255_1_388
10
4.7443262
20
140.1053353
11
4.7443262
21
140.3791153
0
LINE
8
DEFAULT_255_1_388
10
4.2482693
20
140.3917652
11
4.2482693
21
140.1243102
0
ARC
8
DEFAULT_255_1_388
10
3.533719
20
140.1450118
40
1.3777776
50
353.8440855
51
0.2287917
0
ARC
8
DEFAULT_255_1_388
10
4.0556208
20
140.0867414
40
0.852639
50
344.4934746
51
353.9763743
0
ARC
8
DEFAULT_255_1_388
10
4.3923015
20
139.9910191
40
0.5026273
50
329.2803599
51
344.7473406
0
ARC
8
DEFAULT_255_1_388
10
4.5038511
20
139.9298038
40
0.3754848
50
324.9361395
51
328.6153007
0
ARC
8
DEFAULT_255_1_388
10
4.5464161
20
139.9000586
40
0.3235566
50
280.5801797
51
324.9173226
0
ARC
8
DEFAULT_255_1_388
10
4.5012789
20
140.0880236
40
0.5167077
50
269.5979457
51
281.6732777
0
ARC
8
DEFAULT_255_1_388
10
4.4931693
20
140.0745113
40
0.5032026
50
256.6228565
51
270.5105488
0
ARC
8
DEFAULT_255_1_388
10
4.4479435
20
139.9003345
40
0.3233092
50
215.8618351
51
257.2787793
0
ARC
8
DEFAULT_255_1_388
10
4.5628142
20
139.9774106
40
0.4615831
50
197.9695203
51
215.2622745
0
ARC
8
DEFAULT_255_1_388
10
4.8423818
20
140.0717641
40
0.7566307
50
187.8816486
51
198.2346584
0
ARC
8
DEFAULT_255_1_388
10
5.2877056
20
140.1360453
40
1.2065653
50
180.8977266
51
188.0054894
0
ARC
8
DEFAULT_255_1_388
10
5.592727
20
140.14754
40
1.5117443
50
180.7434591
51
181.152202
0
ARC
8
DEFAULT_255_1_388
10
5.4252266
20
140.3565371
40
1.3441277
50
173.7674302
51
180.2315596
0
ARC
8
DEFAULT_255_1_388
10
4.9170135
20
140.4139779
40
0.8326847
50
164.3058537
51
173.9000553
0
ARC
8
DEFAULT_255_1_388
10
4.5894135
20
140.5083652
40
0.4917711
50
148.7922028
51
164.5682288
0
ARC
8
DEFAULT_255_1_388
10
4.4824872
20
140.5680457
40
0.3694204
50
144.5883979
51
148.1161588
0
ARC
8
DEFAULT_255_1_388
10
4.4437618
20
140.5950667
40
0.322202
50
101.6440149
51
144.5142619
0
ARC
8
DEFAULT_255_1_388
10
4.491581
20
140.4050337
40
0.5180451
50
89.528284
51
102.5820197
0
ARC
8
DEFAULT_255_1_388
10
4.5004802
20
140.4006376
40
0.5224441
50
77.0437914
51
90.508231
0
ARC
8
DEFAULT_255_1_388
10
4.5457055
20
140.5854272
40
0.3322297
50
48.2777708
51
77.4996087
0
ARC
8
DEFAULT_255_1_388
10
4.5538795
20
140.5999557
40
0.315966
50
36.3141586
51
47.6307332
0
ARC
8
DEFAULT_255_1_388
10
4.4561518
20
140.5341159
40
0.4337313
50
18.2931065
51
35.6770203
0
ARC
8
DEFAULT_255_1_388
10
4.1700358
20
140.4359107
40
0.7362203
50
8.0246996
51
18.5605636
0
ARC
8
DEFAULT_255_1_388
10
3.7016714
20
140.3667432
40
1.2096583
50
1.127539
51
8.1718423
0
ARC
8
DEFAULT_255_1_388
10
3.3367847
20
140.3524374
40
1.5747719
50
0.5432713
51
1.38669
0
ARC
8
DEFAULT_255_1_388
10
3.5425226
20
140.3831163
40
1.2018103
50
359.8092569
51
4.9408001
0
ARC
8
DEFAULT_255_1_388
10
4.0161807
20
140.42539
40
0.7262727
50
4.8364937
51
12.2906017
0
ARC
8
DEFAULT_255_1_388
10
4.3261272
20
140.4944485
40
0.4087324
50
12.0806994
51
23.8171225
0
ARC
8
DEFAULT_255_1_388
10
4.4581668
20
140.5503508
40
0.2653719
50
24.2874621
51
31.3934353
0
ARC
8
DEFAULT_255_1_388
10
4.5172104
20
140.5889822
40
0.1948607
50
30.7407708
51
82.4658033
0
ARC
8
DEFAULT_255_1_388
10
4.4969765
20
140.4896017
40
0.2961198
50
81.1057101
51
90.2187368
0
ARC
8
DEFAULT_255_1_388
10
4.4929577
20
140.5186421
40
0.2670929
50
89.380395
51
105.6763916
0
ARC
8
DEFAULT_255_1_388
10
4.4723299
20
140.593632
40
0.1893189
50
105.7980655
51
149.7387869
0
ARC
8
DEFAULT_255_1_388
10
4.5920439
20
140.5216719
40
0.3289892
50
149.4208441
51
163.628295
0
ARC
8
DEFAULT_255_1_388
10
4.8272668
20
140.4499345
40
0.5749004
50
163.3764549
51
172.141138
0
ARC
8
DEFAULT_255_1_388
10
5.198539
20
140.3967582
40
0.9499585
50
172.0258462
51
178.0705453
0
ARC
8
DEFAULT_255_1_388
10
5.5406943
20
140.3805682
40
1.2924734
50
177.8639301
51
179.5036263
0
ARC
8
DEFAULT_255_1_388
10
5.4187961
20
140.1202151
40
1.170534
50
179.7995545
51
185.246089
0
ARC
8
DEFAULT_255_1_388
10
4.9639554
20
140.0771404
40
0.7136613
50
185.1411911
51
193.0082205
0
ARC
8
DEFAULT_255_1_388
10
4.6665815
20
140.0068441
40
0.4080987
50
192.7897338
51
205.2507384
0
ARC
8
DEFAULT_255_1_388
10
4.5488025
20
139.9542538
40
0.2791522
50
205.8001921
51
211.2545876
0
ARC
8
DEFAULT_255_1_388
10
4.4899564
20
139.9148132
40
0.2084074
50
210.3789935
51
238.4007996
0
ARC
8
DEFAULT_255_1_388
10
4.487765
20
139.9200786
40
0.2117943
50
239.6521916
51
265.9793852
0
ARC
8
DEFAULT_255_1_388
10
4.4973499
20
139.9957358
40
0.2879689
50
265.1324455
51
270.0603288
0
ARC
8
DEFAULT_255_1_388
10
4.5005876
20
139.9592418
40
0.2514919
50
269.3314378
51
287.2180039
0
ARC
8
DEFAULT_255_1_388
10
4.5160958
20
139.9026291
40
0.1928357
50
287.7957942
51
329.0808983
0
ARC
8
DEFAULT_255_1_388
10
4.4083715
20
139.9698651
40
0.319808
50
328.6635261
51
343.3325043
0
ARC
8
DEFAULT_255_1_388
10
4.1639174
20
140.0460195
40
0.5758408
50
343.0498092
51
351.9392499
0
ARC
8
DEFAULT_255_1_388
10
3.7738496
20
140.1035205
40
0.9701202
50
351.8071632
51
357.7957897
0
ARC
8
DEFAULT_255_1_388
10
3.4103973
20
140.1223724
40
1.3340376
50
357.5870923
51
359.2682493
0
LINE
8
DEFAULT_255_1_388
10
4.2999903
20
148.8424898
11
4.2999903
21
147.6687596
0
LINE
8
DEFAULT_255_1_388
10
4.2999903
20
147.6687596
11
4.9234498
21
147.6687596
0
LINE
8
DEFAULT_255_1_388
10
4.9234498
20
147.6687596
11
4.9234498
21
147.5269
0
LINE
8
DEFAULT_255_1_388
10
4.9234498
20
147.5269
11
4.1256024
21
147.5269
0
LINE
8
DEFAULT_255_1_388
10
4.1256024
20
147.5269
11
4.1256024
21
148.8424898
0
LINE
8
DEFAULT_255_1_388
10
4.1256024
20
148.8424898
11
4.2999903
21
148.8424898
0
LINE
8
DEFAULT_255_1_388
10
5.9399598
20
147.6633382
11
5.9399598
21
147.5269
0
LINE
8
DEFAULT_255_1_388
10
5.9399598
20
147.5269
11
5.0779593
21
147.5269
0
LINE
8
DEFAULT_255_1_388
10
5.0779593
20
147.5269
11
5.0779593
21
147.6470741
0
LINE
8
DEFAULT_255_1_388
10
5.0779593
20
147.6470741
11
5.5333558
21
148.1530702
0
LINE
8
DEFAULT_255_1_388
10
5.2198189
20
148.4548607
11
5.0526595
21
148.4548607
0
LINE
8
DEFAULT_255_1_388
10
5.6318443
20
148.045546
11
5.2794542
21
147.6633382
0
LINE
8
DEFAULT_255_1_388
10
5.2794542
20
147.6633382
11
5.9399598
21
147.6633382
0
ARC
8
DEFAULT_255_1_388
10
4.0157618
20
149.4950983
40
2.0258655
50
318.5132526
51
320.7829045
0
ARC
8
DEFAULT_255_1_388
10
4.6105575
20
149.0109929
40
1.2589638
50
320.7372878
51
323.9739031
0
ARC
8
DEFAULT_255_1_388
10
5.0514506
20
148.6915554
40
0.7145141
50
323.8962701
51
328.64194
0
ARC
8
DEFAULT_255_1_388
10
5.2816764
20
148.5495545
40
0.4440242
50
328.8294576
51
331.7891185
0
ARC
8
DEFAULT_255_1_388
10
5.3939084
20
148.4916374
40
0.3177517
50
331.4254512
51
352.9365785
0
ARC
8
DEFAULT_255_1_388
10
5.4092084
20
148.488205
40
0.3021496
50
353.2257659
51
0.0166158
0
ARC
8
DEFAULT_255_1_388
10
5.4328845
20
148.4907894
40
0.2784847
50
359.486299
51
15.9343185
0
ARC
8
DEFAULT_255_1_388
10
5.4899111
20
148.5061269
40
0.2194403
50
16.1712913
51
43.5286088
0
ARC
8
DEFAULT_255_1_388
10
5.4986056
20
148.5148191
40
0.2071504
50
43.4417391
51
83.1661095
0
ARC
8
DEFAULT_255_1_388
10
5.4835217
20
148.4319316
40
0.2912888
50
82.160179
51
90.1505708
0
ARC
8
DEFAULT_255_1_388
10
5.4799699
20
148.3715279
40
0.3517025
50
89.5460741
51
102.5418361
0
ARC
8
DEFAULT_255_1_388
10
5.4526419
20
148.4874933
40
0.2325748
50
102.1738499
51
129.206123
0
ARC
8
DEFAULT_255_1_388
10
5.4437872
20
148.5014664
40
0.2161591
50
129.72865
51
135.753947
0
ARC
8
DEFAULT_255_1_388
10
5.4574354
20
148.4905728
40
0.2335433
50
136.1757367
51
166.3673339
0
ARC
8
DEFAULT_255_1_388
10
5.5707043
20
148.4602148
40
0.3507873
50
165.9090694
51
178.8684636
0
ARC
8
DEFAULT_255_1_388
10
5.6682814
20
148.4549263
40
0.4484624
50
178.4391136
51
180.0083808
0
ARC
8
DEFAULT_255_1_388
10
5.5103516
20
148.4593197
40
0.4577138
50
163.2878482
51
180.5581842
0
ARC
8
DEFAULT_255_1_388
10
5.4201557
20
148.4841393
40
0.3641968
50
133.4540601
51
162.947111
0
ARC
8
DEFAULT_255_1_388
10
5.4402438
20
148.4627789
40
0.3935189
50
100.7869829
51
133.4382499
0
ARC
8
DEFAULT_255_1_388
10
5.4793683
20
148.2885399
40
0.5720313
50
89.660664
51
101.3702276
0
ARC
8
DEFAULT_255_1_388
10
5.4868292
20
148.2954263
40
0.5651495
50
78.2172678
51
90.412935
0
ARC
8
DEFAULT_255_1_388
10
5.5267758
20
148.4781511
40
0.378122
50
55.9269121
51
78.4888449
0
ARC
8
DEFAULT_255_1_388
10
5.5488473
20
148.5162187
40
0.3342379
50
47.929771
51
55.4049217
0
ARC
8
DEFAULT_255_1_388
10
5.5603004
20
148.5278618
40
0.3179217
50
4.334829
51
48.0560205
0
ARC
8
DEFAULT_255_1_388
10
5.4370805
20
148.5087487
40
0.442341
50
359.9251713
51
5.5971671
0
ARC
8
DEFAULT_255_1_388
10
5.485296
20
148.5150728
40
0.3941854
50
337.8914027
51
358.9967534
0
ARC
8
DEFAULT_255_1_388
10
5.180053
20
148.6328295
40
0.7213271
50
326.9132501
51
338.3508308
0
ARC
8
DEFAULT_255_1_388
10
4.7316642
20
148.9202105
40
1.2538973
50
319.6471833
51
327.0959558
0
ARC
8
DEFAULT_255_1_388
10
4.30033
20
149.276005
40
1.8129975
50
317.2588228
51
319.9045804
0
LINE
8
DEFAULT_255_1_388
10
6.7161217
20
148.8424898
11
6.1676581
21
147.4139544
0
LINE
8
DEFAULT_255_1_388
10
6.1676581
20
147.4139544
11
6.0239913
21
147.4139544
0
LINE
8
DEFAULT_255_1_388
10
6.0239913
20
147.4139544
11
6.5733585
21
148.8424898
0
LINE
8
DEFAULT_255_1_388
10
6.5733585
20
148.8424898
11
6.7161217
21
148.8424898
0
LINE
8
DEFAULT_255_1_388
10
7.9341266
20
148.8424898
11
7.9341266
21
147.5269
0
LINE
8
DEFAULT_255_1_388
10
7.9341266
20
147.5269
11
7.7597386
21
147.5269
0
LINE
8
DEFAULT_255_1_388
10
7.7597386
20
147.5269
11
7.0974259
21
148.5406993
0
LINE
8
DEFAULT_255_1_388
10
7.0974259
20
148.5406993
11
7.0974259
21
147.5269
0
LINE
8
DEFAULT_255_1_388
10
7.0974259
20
147.5269
11
6.9230379
21
147.5269
0
LINE
8
DEFAULT_255_1_388
10
6.9230379
20
147.5269
11
6.9230379
21
148.8424898
0
LINE
8
DEFAULT_255_1_388
10
6.9230379
20
148.8424898
11
7.0974259
21
148.8424898
0
LINE
8
DEFAULT_255_1_388
10
7.0974259
20
148.8424898
11
7.7615458
21
147.8241727
0
LINE
8
DEFAULT_255_1_388
10
7.7615458
20
147.8241727
11
7.7615458
21
148.8424898
0
LINE
8
DEFAULT_255_1_388
10
7.7615458
20
148.8424898
11
7.9341266
21
148.8424898
0
LINE
8
DEFAULT_255_1_388
10
21.8846342
20
156.1194842
11
21.8846342
21
155.6369808
0
LINE
8
DEFAULT_255_1_388
10
20.8708349
20
156.0589454
11
20.8708349
21
156.1736981
0
LINE
8
DEFAULT_255_1_388
10
21.8846342
20
156.3941678
11
21.7111498
21
156.3941678
0
LINE
8
DEFAULT_255_1_388
10
21.0452228
20
156.1782159
11
21.0452228
21
156.0706917
0
LINE
8
DEFAULT_255_1_388
10
21.7120534
20
155.6830626
11
21.7120534
21
155.9785282
0
LINE
8
DEFAULT_255_1_388
10
21.7120534
20
155.9785282
11
21.4075521
21
155.9785282
0
LINE
8
DEFAULT_255_1_388
10
21.4075521
20
155.9785282
11
21.4075521
21
156.1194842
0
LINE
8
DEFAULT_255_1_388
10
21.4075521
20
156.1194842
11
21.8846342
21
156.1194842
0
ARC
8
DEFAULT_255_1_388
10
21.5660942
20
155.8612284
40
0.3895571
50
295.8437277
51
324.8549962
0
ARC
8
DEFAULT_255_1_388
10
21.5193325
20
155.9458619
40
0.4861381
50
291.5691164
51
296.4556269
0
ARC
8
DEFAULT_255_1_388
10
21.4618327
20
156.0994801
40
0.6501442
50
278.6622213
51
291.3047061
0
ARC
8
DEFAULT_255_1_388
10
21.4236359
20
156.3411557
40
0.8948168
50
270.0200506
51
278.7494673
0
ARC
8
DEFAULT_255_1_388
10
21.4192563
20
156.5257453
40
1.0794166
50
270.0022372
51
270.2490917
0
ARC
8
DEFAULT_255_1_388
10
21.4150456
20
156.0298827
40
0.5835695
50
253.5785313
51
270.4175629
0
ARC
8
DEFAULT_255_1_388
10
21.3955452
20
155.9543625
40
0.5056241
50
238.8203954
51
253.2788387
0
ARC
8
DEFAULT_255_1_388
10
21.3933367
20
155.9486224
40
0.4995712
50
206.7883476
51
238.696262
0
ARC
8
DEFAULT_255_1_388
10
21.4808763
20
156.0010847
40
0.6014056
50
206.1137778
51
207.4912776
0
ARC
8
DEFAULT_255_1_388
10
21.5475599
20
156.0294284
40
0.6737692
50
188.6922336
51
205.782076
0
ARC
8
DEFAULT_255_1_388
10
21.7563958
20
156.0649455
40
0.8855812
50
180.3881972
51
188.9218085
0
ARC
8
DEFAULT_255_1_388
10
21.8945116
20
156.1800622
40
1.0236965
50
170.2024645
51
180.3561986
0
ARC
8
DEFAULT_255_1_388
10
21.5386266
20
156.2437101
40
0.6621746
50
154.2856519
51
170.3893388
0
ARC
8
DEFAULT_255_1_388
10
21.394423
20
156.3097192
40
0.5036209
50
139.8400879
51
153.9334639
0
ARC
8
DEFAULT_255_1_388
10
21.3540133
20
156.3420716
40
0.4518751
50
98.4190017
51
139.6707015
0
ARC
8
DEFAULT_255_1_388
10
21.3967101
20
156.1344755
40
0.6635912
50
89.7660128
51
99.4415389
0
ARC
8
DEFAULT_255_1_388
10
21.4040497
20
156.1418517
40
0.6562258
50
78.0552044
51
90.4042252
0
ARC
8
DEFAULT_255_1_388
10
21.4495561
20
156.3464661
40
0.4466287
50
54.6380186
51
78.3338577
0
ARC
8
DEFAULT_255_1_388
10
21.4709859
20
156.3825444
40
0.4048184
50
50.0313964
51
54.1562739
0
ARC
8
DEFAULT_255_1_388
10
21.4588753
20
156.3716798
40
0.4209308
50
18.1092229
51
49.7179911
0
ARC
8
DEFAULT_255_1_388
10
21.2949833
20
156.3116399
40
0.5953982
50
7.967396
51
18.698492
0
ARC
8
DEFAULT_255_1_388
10
21.3119094
20
156.3255236
40
0.4050986
50
9.7558763
51
27.3214087
0
ARC
8
DEFAULT_255_1_388
10
21.4387559
20
156.3889087
40
0.2633168
50
27.736147
51
84.5257861
0
ARC
8
DEFAULT_255_1_388
10
21.4018968
20
156.2039988
40
0.4513019
50
82.1064239
51
90.1997295
0
ARC
8
DEFAULT_255_1_388
10
21.3962985
20
156.2611501
40
0.3941684
50
89.4148952
51
105.5824837
0
ARC
8
DEFAULT_255_1_388
10
21.3673865
20
156.3664043
40
0.2850167
50
105.6678541
51
144.2649156
0
ARC
8
DEFAULT_255_1_388
10
21.4678758
20
156.2949024
40
0.4083468
50
144.3560675
51
162.8564185
0
ARC
8
DEFAULT_255_1_388
10
21.70232
20
156.2196083
40
0.6545749
50
162.6076338
51
173.6779811
0
ARC
8
DEFAULT_255_1_388
10
22.0467315
20
156.1777422
40
1.0015089
50
173.4670996
51
179.9729015
0
ARC
8
DEFAULT_255_1_388
10
21.8320186
20
156.0659636
40
0.78681
50
179.6556955
51
190.007958
0
ARC
8
DEFAULT_255_1_388
10
21.5714468
20
156.018166
40
0.5218997
50
189.8117884
51
206.6795375
0
ARC
8
DEFAULT_255_1_388
10
21.4763914
20
155.9738514
40
0.4170788
50
207.1031171
51
217.7074698
0
ARC
8
DEFAULT_255_1_388
10
21.4050344
20
155.9117596
40
0.3226945
50
216.7345117
51
265.6812141
0
ARC
8
DEFAULT_255_1_388
10
21.4197486
20
156.013503
40
0.4253149
50
264.7367524
51
270.0610826
0
ARC
8
DEFAULT_255_1_388
10
21.4223672
20
156.3330173
40
0.7448321
50
269.8334494
51
276.0538364
0
ARC
8
DEFAULT_255_1_388
10
21.4456534
20
156.1190924
40
0.5296446
50
275.9894423
51
284.4615914
0
ARC
8
DEFAULT_255_1_388
10
21.4678047
20
156.025857
40
0.4338353
50
284.7038488
51
286.4938196
0
ARC
8
DEFAULT_255_1_388
10
21.5137196
20
155.8779371
40
0.2789738
50
286.0770429
51
304.2629628
0
ARC
8
DEFAULT_255_1_388
10
21.5287354
20
155.853368
40
0.2502188
50
304.5886247
51
317.1074126
0
LINE
8
DEFAULT_255_1_388
10
23.1848634
20
156.7799898
11
23.1848634
21
155.4644
0
LINE
8
DEFAULT_255_1_388
10
23.1848634
20
155.4644
11
23.0104755
21
155.4644
0
LINE
8
DEFAULT_255_1_388
10
23.0104755
20
155.4644
11
22.3481627
21
156.4781993
0
LINE
8
DEFAULT_255_1_388
10
22.3481627
20
156.4781993
11
22.3481627
21
155.4644
0
LINE
8
DEFAULT_255_1_388
10
22.3481627
20
155.4644
11
22.1737748
21
155.4644
0
LINE
8
DEFAULT_255_1_388
10
22.1737748
20
155.4644
11
22.1737748
21
156.7799898
0
LINE
8
DEFAULT_255_1_388
10
22.1737748
20
156.7799898
11
22.3481627
21
156.7799898
0
LINE
8
DEFAULT_255_1_388
10
22.3481627
20
156.7799898
11
23.0122826
21
155.7616727
0
LINE
8
DEFAULT_255_1_388
10
23.0122826
20
155.7616727
11
23.0122826
21
156.7799898
0
LINE
8
DEFAULT_255_1_388
10
23.0122826
20
156.7799898
11
23.1848634
21
156.7799898
0
LINE
8
DEFAULT_255_1_388
10
23.8571154
20
155.4644
11
23.4929789
21
155.4644
0
LINE
8
DEFAULT_255_1_388
10
23.4929789
20
155.4644
11
23.4929789
21
156.7799898
0
LINE
8
DEFAULT_255_1_388
10
23.4929789
20
156.7799898
11
23.8643439
21
156.7799898
0
LINE
8
DEFAULT_255_1_388
10
24.4444323
20
156.1664696
11
24.4444323
21
156.0824381
0
LINE
8
DEFAULT_255_1_388
10
23.8688617
20
156.6372267
11
23.6664633
21
156.6372267
0
LINE
8
DEFAULT_255_1_388
10
23.6664633
20
156.6372267
11
23.6664633
21
155.6062596
0
LINE
8
DEFAULT_255_1_388
10
23.6664633
20
155.6062596
11
23.8489833
21
155.6062596
0
LINE
8
DEFAULT_255_1_388
10
24.272755
20
156.0860523
11
24.272755
21
156.1628553
0
ARC
8
DEFAULT_255_1_388
10
23.8687234
20
156.1201436
40
0.6598608
50
75.4100343
51
90.3802731
0
ARC
8
DEFAULT_255_1_388
10
23.8945479
20
156.2277691
40
0.5492049
50
60.1455157
51
75.1889627
0
ARC
8
DEFAULT_255_1_388
10
23.9124071
20
156.2588914
40
0.5133226
50
26.525419
51
60.1451222
0
ARC
8
DEFAULT_255_1_388
10
23.7863857
20
156.1920642
40
0.6559324
50
7.4029944
51
26.832209
0
ARC
8
DEFAULT_255_1_388
10
23.6070254
20
156.1641229
40
0.8374103
50
0.1605597
51
7.7176135
0
ARC
8
DEFAULT_255_1_388
10
23.6254654
20
156.0781321
40
0.8189782
50
348.7289744
51
0.30125
0
ARC
8
DEFAULT_255_1_388
10
23.8118118
20
156.0411156
40
0.628991
50
333.0706936
51
348.7181455
0
ARC
8
DEFAULT_255_1_388
10
23.9205747
20
155.9820449
40
0.5052808
50
299.2531435
51
333.4571133
0
ARC
8
DEFAULT_255_1_388
10
23.8799777
20
156.0591629
40
0.5924066
50
278.1072193
51
299.0340218
0
ARC
8
DEFAULT_255_1_388
10
23.8511826
20
156.2287979
40
0.7644209
50
270.4446841
51
278.4508355
0
ARC
8
DEFAULT_255_1_388
10
23.853531
20
156.12423
40
0.5179903
50
269.4969684
51
284.0204874
0
ARC
8
DEFAULT_255_1_388
10
23.8935028
20
155.9706415
40
0.3592968
50
283.7699076
51
318.1557121
0
ARC
8
DEFAULT_255_1_388
10
23.8555573
20
155.9990399
40
0.4065308
50
318.7417595
51
343.687252
0
ARC
8
DEFAULT_255_1_388
10
23.6526152
20
156.0624275
40
0.6191194
50
343.3324891
51
355.8548594
0
ARC
8
DEFAULT_255_1_388
10
23.416519
20
156.0848719
40
0.856237
50
355.4988754
51
0.0789913
0
ARC
8
DEFAULT_255_1_388
10
23.5045989
20
156.167608
40
0.7681709
50
359.6455047
51
9.8607559
0
ARC
8
DEFAULT_255_1_388
10
23.7701712
20
156.2155664
40
0.498312
50
9.6573037
51
26.1931522
0
ARC
8
DEFAULT_255_1_388
10
23.8745787
20
156.2640587
40
0.3832303
50
26.5777895
51
40.1533752
0
ARC
8
DEFAULT_255_1_388
10
23.9033452
20
156.286502
40
0.3467742
50
40.3839958
51
80.1430923
0
ARC
8
DEFAULT_255_1_388
10
23.8665708
20
156.1234486
40
0.5137832
50
79.2153636
51
89.7445174
0
LINE
8
DEFAULT_255_1_388
10
23.1842985
20
61.5363148
11
23.1842985
21
60.2144
0
LINE
8
DEFAULT_255_1_388
10
23.1842985
20
60.2144
11
23.0162355
21
60.2144
0
LINE
8
DEFAULT_255_1_388
10
23.0162355
20
60.2144
11
23.0162355
21
61.328495
0
LINE
8
DEFAULT_255_1_388
10
23.0162355
20
61.328495
11
22.679206
21
61.2047066
0
LINE
8
DEFAULT_255_1_388
10
22.679206
20
61.2047066
11
22.679206
21
61.3565055
0
LINE
8
DEFAULT_255_1_388
10
22.679206
20
61.3565055
11
23.1580951
21
61.5363148
0
LINE
8
DEFAULT_255_1_388
10
23.1580951
20
61.5363148
11
23.1842985
21
61.5363148
0
LINE
8
DEFAULT_255_1_388
10
24.2233976
20
61.5363148
11
24.2233976
21
60.2144
0
LINE
8
DEFAULT_255_1_388
10
24.2233976
20
60.2144
11
24.0553346
21
60.2144
0
LINE
8
DEFAULT_255_1_388
10
24.0553346
20
60.2144
11
24.0553346
21
61.328495
0
LINE
8
DEFAULT_255_1_388
10
24.0553346
20
61.328495
11
23.7183051
21
61.2047066
0
LINE
8
DEFAULT_255_1_388
10
23.7183051
20
61.2047066
11
23.7183051
21
61.3565055
0
LINE
8
DEFAULT_255_1_388
10
23.7183051
20
61.3565055
11
24.1971942
21
61.5363148
0
LINE
8
DEFAULT_255_1_388
10
24.1971942
20
61.5363148
11
24.2233976
21
61.5363148
0
LINE
8
DEFAULT_255_1_388
10
23.1768985
20
69.4738148
11
23.1768985
21
68.1519
0
LINE
8
DEFAULT_255_1_388
10
23.1768985
20
68.1519
11
23.0088355
21
68.1519
0
LINE
8
DEFAULT_255_1_388
10
23.0088355
20
68.1519
11
23.0088355
21
69.265995
0
LINE
8
DEFAULT_255_1_388
10
23.0088355
20
69.265995
11
22.671806
21
69.1422066
0
LINE
8
DEFAULT_255_1_388
10
22.671806
20
69.1422066
11
22.671806
21
69.2940055
0
LINE
8
DEFAULT_255_1_388
10
22.671806
20
69.2940055
11
23.1506951
21
69.4738148
0
LINE
8
DEFAULT_255_1_388
10
23.1506951
20
69.4738148
11
23.1768985
21
69.4738148
0
LINE
8
DEFAULT_255_1_388
10
24.4915848
20
68.929869
11
24.4915848
21
68.7130135
0
LINE
8
DEFAULT_255_1_388
10
23.661209
20
68.6904244
11
23.661209
21
68.9136048
0
LINE
8
DEFAULT_255_1_388
10
24.3244253
20
68.6678353
11
24.3244253
21
68.9416153
0
LINE
8
DEFAULT_255_1_388
10
23.8283685
20
68.9542652
11
23.8283685
21
68.6868102
0
ARC
8
DEFAULT_255_1_388
10
23.1138182
20
68.7075118
40
1.3777776
50
353.8440855
51
0.2287917
0
ARC
8
DEFAULT_255_1_388
10
23.6357199
20
68.6492414
40
0.852639
50
344.4934746
51
353.9763743
0
ARC
8
DEFAULT_255_1_388
10
23.9724006
20
68.5535191
40
0.5026273
50
329.2803599
51
344.7473406
0
ARC
8
DEFAULT_255_1_388
10
24.0839502
20
68.4923038
40
0.3754848
50
324.9361395
51
328.6153007
0
ARC
8
DEFAULT_255_1_388
10
24.1265152
20
68.4625586
40
0.3235566
50
280.5801797
51
324.9173226
0
ARC
8
DEFAULT_255_1_388
10
24.081378
20
68.6505236
40
0.5167077
50
269.5979457
51
281.6732777
0
ARC
8
DEFAULT_255_1_388
10
24.0732684
20
68.6370113
40
0.5032026
50
256.6228565
51
270.5105488
0
ARC
8
DEFAULT_255_1_388
10
24.0280427
20
68.4628345
40
0.3233092
50
215.8618351
51
257.2787793
0
ARC
8
DEFAULT_255_1_388
10
24.1429134
20
68.5399106
40
0.4615831
50
197.9695203
51
215.2622745
0
ARC
8
DEFAULT_255_1_388
10
24.4224809
20
68.6342641
40
0.7566307
50
187.8816486
51
198.2346584
0
ARC
8
DEFAULT_255_1_388
10
24.8678048
20
68.6985453
40
1.2065653
50
180.8977266
51
188.0054894
0
ARC
8
DEFAULT_255_1_388
10
25.1728261
20
68.71004
40
1.5117443
50
180.7434591
51
181.152202
0
ARC
8
DEFAULT_255_1_388
10
25.0053257
20
68.9190371
40
1.3441277
50
173.7674302
51
180.2315596
0
ARC
8
DEFAULT_255_1_388
10
24.4971126
20
68.9764779
40
0.8326847
50
164.3058537
51
173.9000553
0
ARC
8
DEFAULT_255_1_388
10
24.1695126
20
69.0708652
40
0.4917711
50
148.7922028
51
164.5682288
0
ARC
8
DEFAULT_255_1_388
10
24.0625864
20
69.1305457
40
0.3694204
50
144.5883979
51
148.1161588
0
ARC
8
DEFAULT_255_1_388
10
24.0238609
20
69.1575667
40
0.322202
50
101.6440149
51
144.5142619
0
ARC
8
DEFAULT_255_1_388
10
24.0716801
20
68.9675337
40
0.5180451
50
89.528284
51
102.5820197
0
ARC
8
DEFAULT_255_1_388
10
24.0805793
20
68.9631376
40
0.5224441
50
77.0437914
51
90.508231
0
ARC
8
DEFAULT_255_1_388
10
24.1258047
20
69.1479272
40
0.3322297
50
48.2777708
51
77.4996087
0
ARC
8
DEFAULT_255_1_388
10
24.1339787
20
69.1624557
40
0.315966
50
36.3141586
51
47.6307332
0
ARC
8
DEFAULT_255_1_388
10
24.0362509
20
69.0966159
40
0.4337313
50
18.2931065
51
35.6770203
0
ARC
8
DEFAULT_255_1_388
10
23.750135
20
68.9984107
40
0.7362203
50
8.0246996
51
18.5605636
0
ARC
8
DEFAULT_255_1_388
10
23.2817705
20
68.9292432
40
1.2096583
50
1.127539
51
8.1718423
0
ARC
8
DEFAULT_255_1_388
10
22.9168839
20
68.9149374
40
1.5747719
50
0.5432713
51
1.38669
0
ARC
8
DEFAULT_255_1_388
10
23.1226217
20
68.9456163
40
1.2018103
50
359.8092569
51
4.9408001
0
ARC
8
DEFAULT_255_1_388
10
23.5962799
20
68.98789
40
0.7262727
50
4.8364937
51
12.2906017
0
ARC
8
DEFAULT_255_1_388
10
23.9062263
20
69.0569485
40
0.4087324
50
12.0806994
51
23.8171225
0
ARC
8
DEFAULT_255_1_388
10
24.0382659
20
69.1128508
40
0.2653719
50
24.2874621
51
31.3934353
0
ARC
8
DEFAULT_255_1_388
10
24.0973095
20
69.1514822
40
0.1948607
50
30.7407708
51
82.4658033
0
ARC
8
DEFAULT_255_1_388
10
24.0770756
20
69.0521017
40
0.2961198
50
81.1057101
51
90.2187368
0
ARC
8
DEFAULT_255_1_388
10
24.0730568
20
69.0811421
40
0.2670929
50
89.380395
51
105.6763916
0
ARC
8
DEFAULT_255_1_388
10
24.052429
20
69.156132
40
0.1893189
50
105.7980655
51
149.7387869
0
ARC
8
DEFAULT_255_1_388
10
24.172143
20
69.0841719
40
0.3289892
50
149.4208441
51
163.628295
0
ARC
8
DEFAULT_255_1_388
10
24.407366
20
69.0124345
40
0.5749004
50
163.3764549
51
172.141138
0
ARC
8
DEFAULT_255_1_388
10
24.7786381
20
68.9592582
40
0.9499585
50
172.0258462
51
178.0705453
0
ARC
8
DEFAULT_255_1_388
10
25.1207934
20
68.9430682
40
1.2924734
50
177.8639301
51
179.5036263
0
ARC
8
DEFAULT_255_1_388
10
24.9988953
20
68.6827151
40
1.170534
50
179.7995545
51
185.246089
0
ARC
8
DEFAULT_255_1_388
10
24.5440546
20
68.6396404
40
0.7136613
50
185.1411911
51
193.0082205
0
ARC
8
DEFAULT_255_1_388
10
24.2466806
20
68.5693441
40
0.4080987
50
192.7897338
51
205.2507384
0
ARC
8
DEFAULT_255_1_388
10
24.1289016
20
68.5167538
40
0.2791522
50
205.8001921
51
211.2545876
0
ARC
8
DEFAULT_255_1_388
10
24.0700555
20
68.4773132
40
0.2084074
50
210.3789935
51
238.4007996
0
ARC
8
DEFAULT_255_1_388
10
24.0678641
20
68.4825786
40
0.2117943
50
239.6521916
51
265.9793852
0
ARC
8
DEFAULT_255_1_388
10
24.077449
20
68.5582358
40
0.2879689
50
265.1324455
51
270.0603288
0
ARC
8
DEFAULT_255_1_388
10
24.0806867
20
68.5217418
40
0.2514919
50
269.3314378
51
287.2180039
0
ARC
8
DEFAULT_255_1_388
10
24.096195
20
68.4651291
40
0.1928357
50
287.7957942
51
329.0808983
0
ARC
8
DEFAULT_255_1_388
10
23.9884707
20
68.5323651
40
0.319808
50
328.6635261
51
343.3325043
0
ARC
8
DEFAULT_255_1_388
10
23.7440165
20
68.6085195
40
0.5758408
50
343.0498092
51
351.9392499
0
ARC
8
DEFAULT_255_1_388
10
23.3539487
20
68.6660205
40
0.9701202
50
351.8071632
51
357.7957897
0
ARC
8
DEFAULT_255_1_388
10
22.9904964
20
68.6848724
40
1.3340376
50
357.5870923
51
359.2682493
0
LINE
8
DEFAULT_255_1_388
10
24.4765215
20
76.8791153
11
24.4765215
21
76.8303229
0
LINE
8
DEFAULT_255_1_388
10
23.8666155
20
76.0884964
11
23.8340872
21
76.0884964
0
LINE
8
DEFAULT_255_1_388
10
23.8340872
20
76.0884964
11
23.8340872
21
76.2294525
0
LINE
8
DEFAULT_255_1_388
10
23.8340872
20
76.2294525
11
23.8693262
21
76.2294525
0
LINE
8
DEFAULT_255_1_388
10
24.3093621
20
76.846587
11
24.3093621
21
76.9134508
0
ARC
8
DEFAULT_255_1_388
10
23.9950713
20
76.9304877
40
0.4089973
50
297.4036461
51
320.0168133
0
ARC
8
DEFAULT_255_1_388
10
24.0276893
20
76.8678072
40
0.3383378
50
270.2631886
51
297.3852322
0
ARC
8
DEFAULT_255_1_388
10
24.0238569
20
76.9215343
40
0.3920983
50
269.9969069
51
270.7871389
0
ARC
8
DEFAULT_255_1_388
10
24.0209892
20
76.9197737
40
0.3903482
50
254.5997295
51
270.4178147
0
ARC
8
DEFAULT_255_1_388
10
24.0049424
20
76.8562693
40
0.3248657
50
236.4717231
51
254.3539376
0
ARC
8
DEFAULT_255_1_388
10
24.0225155
20
76.8798999
40
0.3542746
50
208.4727261
51
236.2134628
0
ARC
8
DEFAULT_255_1_388
10
24.0943919
20
76.9238676
40
0.4384402
50
204.3450776
51
209.0455365
0
ARC
8
DEFAULT_255_1_388
10
24.1708295
20
76.95628
40
0.5214459
50
183.9375459
51
204.1275509
0
ARC
8
DEFAULT_255_1_388
10
24.2730601
20
76.9672863
40
0.6242037
50
179.9652726
51
184.3010611
0
ARC
8
DEFAULT_255_1_388
10
24.2460146
20
76.9710004
40
0.5971675
50
166.7585952
51
180.3200491
0
ARC
8
DEFAULT_255_1_388
10
24.1507954
20
76.9916979
40
0.4997418
50
154.6954866
51
166.5679151
0
ARC
8
DEFAULT_255_1_388
10
24.0548194
20
77.0400411
40
0.3923208
50
136.3325251
51
155.0871367
0
ARC
8
DEFAULT_255_1_388
10
24.0232114
20
77.0671271
40
0.3507618
50
121.2365985
51
135.9680081
0
ARC
8
DEFAULT_255_1_388
10
24.0390178
20
77.0378541
40
0.3839917
50
96.8454764
51
120.9881329
0
ARC
8
DEFAULT_255_1_388
10
24.0553984
20
76.9325942
40
0.4904679
50
89.887204
51
97.2797758
0
ARC
8
DEFAULT_255_1_388
10
24.0612957
20
77.0043652
40
0.418725
50
70.6505767
51
90.6748382
0
ARC
8
DEFAULT_255_1_388
10
24.0760654
20
77.0621091
40
0.3593866
50
36.7493297
51
69.8220487
0
ARC
8
DEFAULT_255_1_388
10
23.9637001
20
76.9745446
40
0.5018201
50
15.3958155
51
37.0841102
0
ARC
8
DEFAULT_255_1_388
10
23.7241286
20
76.9047111
40
0.7513436
50
3.9487796
51
15.6798517
0
ARC
8
DEFAULT_255_1_388
10
23.4539928
20
76.880381
40
1.0225293
50
359.9290791
51
4.266464
0
ARC
8
DEFAULT_255_1_388
10
22.9358845
20
76.8228372
40
1.5406551
50
352.8365702
51
0.2783851
0
ARC
8
DEFAULT_255_1_388
10
23.5307076
20
76.7455664
40
0.9408425
50
341.8359339
51
352.9884057
0
ARC
8
DEFAULT_255_1_388
10
23.8928063
20
76.6235144
40
0.5587481
50
322.8579243
51
342.1527461
0
ARC
8
DEFAULT_255_1_388
10
23.9899755
20
76.557235
40
0.4413099
50
319.3348471
51
322.100194
0
ARC
8
DEFAULT_255_1_388
10
23.9551687
20
76.5921814
40
0.4904992
50
285.954114
51
318.8878716
0
ARC
8
DEFAULT_255_1_388
10
23.8734124
20
76.8520865
40
0.7628991
50
272.9280841
51
286.4924389
0
ARC
8
DEFAULT_255_1_388
10
23.8520428
20
77.105524
40
1.017132
50
270.8209173
51
273.4010121
0
ARC
8
DEFAULT_255_1_388
10
23.8620451
20
76.9007073
40
0.6712943
50
270.6214576
51
281.4062333
0
ARC
8
DEFAULT_255_1_388
10
23.9104176
20
76.669425
40
0.4350167
50
281.1852583
51
299.0622058
0
ARC
8
DEFAULT_255_1_388
10
23.9524421
20
76.5883138
40
0.3437146
50
299.5068171
51
313.1200142
0
ARC
8
DEFAULT_255_1_388
10
23.9549158
20
76.5793959
40
0.3355418
50
313.8525725
51
338.5989631
0
ARC
8
DEFAULT_255_1_388
10
23.7722286
20
76.6544576
40
0.5330317
50
338.2523315
51
351.2431701
0
ARC
8
DEFAULT_255_1_388
10
23.5010037
20
76.7005494
40
0.8081235
50
350.940933
51
357.6690137
0
ARC
8
DEFAULT_255_1_388
10
24.0511917
20
76.9258048
40
0.2581236
50
269.9447107
51
306.8249644
0
ARC
8
DEFAULT_255_1_388
10
24.0245219
20
76.973406
40
0.3122948
50
305.5071046
51
327.0773808
0
ARC
8
DEFAULT_255_1_388
10
24.0378271
20
76.9627445
40
0.2953369
50
327.4106457
51
336.8396801
0
ARC
8
DEFAULT_255_1_388
10
23.6897984
20
76.9170932
40
0.6195743
50
359.663158
51
10.1176387
0
ARC
8
DEFAULT_255_1_388
10
23.8870747
20
76.9535922
40
0.4189561
50
9.9431549
51
26.7699242
0
ARC
8
DEFAULT_255_1_388
10
23.9542733
20
76.9845796
40
0.3450125
50
27.2018067
51
34.6833639
0
ARC
8
DEFAULT_255_1_388
10
24.0093346
20
77.025956
40
0.2762035
50
34.124913
51
50.30709
0
ARC
8
DEFAULT_255_1_388
10
24.0595829
20
77.0860741
40
0.1978518
50
50.3850304
51
90.6705051
0
ARC
8
DEFAULT_255_1_388
10
24.0543223
20
77.0518074
40
0.2321235
50
89.2729817
51
111.9140267
0
ARC
8
DEFAULT_255_1_388
10
24.052131
20
77.0676308
40
0.2166604
50
112.9381864
51
142.5320936
0
ARC
8
DEFAULT_255_1_388
10
24.1135799
20
77.0177392
40
0.2957902
50
142.1024021
51
166.3835244
0
ARC
8
DEFAULT_255_1_388
10
24.2464769
20
76.9834213
40
0.4330361
50
166.1100968
51
178.6653563
0
ARC
8
DEFAULT_255_1_388
10
24.3646695
20
76.9768061
40
0.5513642
50
178.2641888
51
180.010994
0
ARC
8
DEFAULT_255_1_388
10
24.2741196
20
76.9736136
40
0.4608248
50
179.6162225
51
191.8786013
0
ARC
8
DEFAULT_255_1_388
10
24.1368506
20
76.943259
40
0.3202502
50
191.6192934
51
215.2970746
0
ARC
8
DEFAULT_255_1_388
10
24.1129161
20
76.9289963
40
0.2924827
50
215.7258926
51
216.5355437
0
ARC
8
DEFAULT_255_1_388
10
24.0540782
20
76.8816919
40
0.2170661
50
215.7486606
51
239.9728403
0
ARC
8
DEFAULT_255_1_388
10
24.0461947
20
76.8759838
40
0.208217
50
241.065081
51
269.280972
0
ARC
8
DEFAULT_255_1_388
10
24.0509106
20
76.9315327
40
0.2638514
50
268.4083352
51
270.0069622
0
ARC
8
DEFAULT_255_1_388
10
24.1481818
20
84.996272
40
0.3175098
50
338.8762533
51
0.5167111
0
ARC
8
DEFAULT_255_1_388
10
24.1671412
20
84.99116
40
0.2979894
50
325.8415285
51
338.4793574
0
ARC
8
DEFAULT_255_1_388
10
24.1232046
20
85.0216242
40
0.351452
50
296.7587686
51
325.7536481
0
ARC
8
DEFAULT_255_1_388
10
24.0903673
20
85.0770363
40
0.4157374
50
296.0927901
51
297.3613472
0
ARC
8
DEFAULT_255_1_388
10
24.1197869
20
84.3387593
40
0.395855
50
47.9007294
51
67.1948823
0
ARC
8
DEFAULT_255_1_388
10
24.1418511
20
84.3664599
40
0.360516
50
35.2363914
51
47.551141
0
ARC
8
DEFAULT_255_1_388
10
24.1712915
20
84.3861093
40
0.3251343
50
359.2759765
51
35.4014143
0
ARC
8
DEFAULT_255_1_388
10
24.0874841
20
84.3778787
40
0.4089365
50
343.1293083
51
0.5775513
0
ARC
8
DEFAULT_255_1_388
10
24.1689955
20
84.3554336
40
0.3244269
50
310.8496669
51
342.7449331
0
ARC
8
DEFAULT_255_1_388
10
24.1219829
20
84.4090913
40
0.3957651
50
281.5472888
51
310.9170406
0
ARC
8
DEFAULT_255_1_388
10
24.0818704
20
84.5837814
40
0.5749654
50
269.619248
51
281.9789564
0
ARC
8
DEFAULT_255_1_388
10
24.0737482
20
84.5838776
40
0.5750649
50
257.4585678
51
270.4285689
0
ARC
8
DEFAULT_255_1_388
10
24.0309002
20
84.4034741
40
0.389671
50
228.7554326
51
257.8484789
0
ARC
8
DEFAULT_255_1_388
10
23.9960487
20
84.3615228
40
0.335154
50
184.0104975
51
228.5071184
0
ARC
8
DEFAULT_255_1_388
10
24.126888
20
84.381443
40
0.4671891
50
179.9315832
51
185.3253753
0
ARC
8
DEFAULT_255_1_388
10
23.9945392
20
84.3856592
40
0.33486
50
145.6796023
51
180.6259786
0
ARC
8
DEFAULT_255_1_388
10
24.0129158
20
84.3728271
40
0.3572723
50
115.5537685
51
145.6415986
0
ARC
8
DEFAULT_255_1_388
10
24.0512202
20
84.3042087
40
0.4357296
50
113.243307
51
116.2057839
0
ARC
8
DEFAULT_255_1_388
10
24.0340854
20
85.0239379
40
0.3549126
50
222.9549744
51
244.1370481
0
ARC
8
DEFAULT_255_1_388
10
24.0203497
20
85.0085378
40
0.3343711
50
213.3436887
51
222.6274467
0
ARC
8
DEFAULT_255_1_388
10
23.9987566
20
84.9938653
40
0.3082678
50
180.431584
51
213.271499
0
ARC
8
DEFAULT_255_1_388
10
24.0622565
20
84.9991296
40
0.3718363
50
179.9991191
51
181.1690594
0
ARC
8
DEFAULT_255_1_388
10
24.1095021
20
85.0030072
40
0.4190996
50
164.6186169
51
180.529336
0
ARC
8
DEFAULT_255_1_388
10
24.008467
20
85.030178
40
0.3144772
50
132.2455553
51
164.5090724
0
ARC
8
DEFAULT_255_1_388
10
24.0407649
20
84.993607
40
0.3632644
50
100.7053914
51
132.1386381
0
ARC
8
DEFAULT_255_1_388
10
24.075071
20
84.8386118
40
0.5219578
50
89.6730358
51
101.2451698
0
ARC
8
DEFAULT_255_1_388
10
24.0820701
20
84.8582648
40
0.5023124
50
76.287748
51
90.4586006
0
ARC
8
DEFAULT_255_1_388
10
24.1165203
20
84.9957671
40
0.3605639
50
47.8240511
51
76.4266241
0
ARC
8
DEFAULT_255_1_388
10
24.1415587
20
85.0250599
40
0.3220463
50
6.9168387
51
47.6262497
0
ARC
8
DEFAULT_255_1_388
10
24.008104
20
85.0004004
40
0.4575765
50
359.8415968
51
7.9697453
0
ARC
8
DEFAULT_255_1_388
10
24.046531
20
84.3883519
40
0.2827228
50
359.445363
51
16.9256873
0
ARC
8
DEFAULT_255_1_388
10
24.0992744
20
84.4028781
40
0.2280396
50
17.2920767
51
45.4630727
0
ARC
8
DEFAULT_255_1_388
10
24.0931879
20
84.3976324
40
0.2360485
50
45.30305
51
83.1920945
0
ARC
8
DEFAULT_255_1_388
10
24.0770624
20
84.3074473
40
0.3275527
50
82.2612665
51
90.1434275
0
ARC
8
DEFAULT_255_1_388
10
24.07359
20
84.3336869
40
0.3013237
50
89.4956434
51
104.8580688
0
ARC
8
DEFAULT_255_1_388
10
24.053709
20
84.4090455
40
0.2233867
50
104.8856641
51
135.244616
0
ARC
8
DEFAULT_255_1_388
10
24.0593079
20
84.4040352
40
0.2308906
50
135.3399546
51
172.1044062
0
ARC
8
DEFAULT_255_1_388
10
24.1500603
20
84.3866667
40
0.3232034
50
171.2645637
51
180.186429
0
ARC
8
DEFAULT_255_1_388
10
24.1310608
20
84.3830426
40
0.304213
50
179.5154935
51
193.6464289
0
ARC
8
DEFAULT_255_1_388
10
24.0392284
20
84.3596473
40
0.209456
50
193.3540274
51
225.8258581
0
ARC
8
DEFAULT_255_1_388
10
24.0438156
20
84.3676076
40
0.2183738
50
226.4180634
51
255.8552336
0
ARC
8
DEFAULT_255_1_388
10
24.0726623
20
84.4729521
40
0.3275812
50
255.4654104
51
268.7987425
0
ARC
8
DEFAULT_255_1_388
10
24.0779799
20
84.5671545
40
0.4218877
50
268.3449238
51
270.0094605
0
ARC
8
DEFAULT_255_1_388
10
24.0806032
20
84.4903094
40
0.3450519
50
269.5759586
51
282.0820163
0
ARC
8
DEFAULT_255_1_388
10
24.1059069
20
84.3784363
40
0.2303642
50
281.752014
51
306.6056188
0
ARC
8
DEFAULT_255_1_388
10
24.1169877
20
84.3602802
40
0.2091906
50
307.1346085
51
314.027845
0
ARC
8
DEFAULT_255_1_388
10
24.1129389
20
84.3632459
40
0.2141385
50
314.2552483
51
350.1694025
0
ARC
8
DEFAULT_255_1_388
10
24.0171626
20
84.3840175
40
0.312082
50
349.4140529
51
0.2933014
0
ARC
8
DEFAULT_255_1_388
10
24.0756903
20
84.9643924
40
0.2588377
50
89.477747
51
105.729729
0
ARC
8
DEFAULT_255_1_388
10
24.0603823
20
85.0212367
40
0.1999733
50
105.9233417
51
135.1660906
0
ARC
8
DEFAULT_255_1_388
10
24.0626854
20
85.0196412
40
0.2027322
50
135.3052302
51
168.9883645
0
ARC
8
DEFAULT_255_1_388
10
24.155787
20
84.9982996
40
0.2982129
50
168.3801673
51
180.3602268
0
ARC
8
DEFAULT_255_1_388
10
24.1300987
20
84.9940622
40
0.2725291
50
179.5033122
51
194.9125571
0
ARC
8
DEFAULT_255_1_388
10
24.0642394
20
84.9767427
40
0.204431
50
194.9720816
51
224.194444
0
ARC
8
DEFAULT_255_1_388
10
24.0610759
20
84.9741635
40
0.2003651
50
224.2962453
51
262.015664
0
ARC
8
DEFAULT_255_1_388
10
24.0770763
20
85.0564315
40
0.2840925
50
261.1245923
51
270.1962896
0
ARC
8
DEFAULT_255_1_388
10
24.0804244
20
85.0353859
40
0.2630559
50
269.4827276
51
285.0987215
0
ARC
8
DEFAULT_255_1_388
10
24.097768
20
84.9703175
40
0.1957162
50
285.1585357
51
315.9484501
0
ARC
8
DEFAULT_255_1_388
10
24.0877554
20
84.9795315
40
0.2093195
50
316.0413965
51
351.916092
0
ARC
8
DEFAULT_255_1_388
10
24.0052928
20
84.9954323
40
0.2932279
50
351.105835
51
0.1939062
0
ARC
8
DEFAULT_255_1_388
10
24.0348562
20
84.9988224
40
0.2636739
50
359.4789618
51
16.0678224
0
ARC
8
DEFAULT_255_1_388
10
24.0884034
20
85.0132721
40
0.2082215
50
16.3252067
51
44.7913869
0
ARC
8
DEFAULT_255_1_388
10
24.0864096
20
85.013332
40
0.2095992
50
44.3957814
51
88.2499162
0
ARC
8
DEFAULT_255_1_388
10
24.0781431
20
84.9445006
40
0.2787189
50
86.9833854
51
90.0192215
0
LINE
8
DEFAULT_255_1_388
10
24.5171819
20
93.2799898
11
24.5171819
21
93.1860191
0
LINE
8
DEFAULT_255_1_388
10
24.5171819
20
93.1860191
11
23.9723325
21
91.9644
0
LINE
8
DEFAULT_255_1_388
10
23.9723325
20
91.9644
11
23.797041
21
91.9644
0
LINE
8
DEFAULT_255_1_388
10
23.797041
20
91.9644
11
24.3400833
21
93.142648
0
LINE
8
DEFAULT_255_1_388
10
24.3400833
20
93.142648
11
23.6280745
21
93.142648
0
LINE
8
DEFAULT_255_1_388
10
23.6280745
20
93.142648
11
23.6280745
21
93.2799898
0
LINE
8
DEFAULT_255_1_388
10
23.6280745
20
93.2799898
11
24.5171819
21
93.2799898
0
LINE
8
DEFAULT_255_1_388
10
24.2940015
20
101.2183934
11
24.3238191
21
101.2183934
0
LINE
8
DEFAULT_255_1_388
10
24.3238191
20
101.2183934
11
24.3238191
21
101.0765338
0
LINE
8
DEFAULT_255_1_388
10
24.3238191
20
101.0765338
11
24.2930979
21
101.0765338
0
LINE
8
DEFAULT_255_1_388
10
23.6777705
20
100.4024747
11
23.6777705
21
100.4666278
0
LINE
8
DEFAULT_255_1_388
10
23.8458335
20
100.4449422
11
23.8458335
21
100.3834999
0
ARC
8
DEFAULT_255_1_388
10
24.2989871
20
100.5142826
40
0.562282
50
90.6001079
51
104.5146616
0
ARC
8
DEFAULT_255_1_388
10
24.255283
20
100.67681
40
0.3939917
50
104.2855758
51
133.8630124
0
ARC
8
DEFAULT_255_1_388
10
24.2737083
20
100.6646243
40
0.4155734
50
134.5304124
51
161.6210222
0
ARC
8
DEFAULT_255_1_388
10
24.4597015
20
100.5990421
40
0.6127682
50
161.2850533
51
174.2074364
0
ARC
8
DEFAULT_255_1_388
10
24.6186582
20
100.5771437
40
0.7731446
50
173.7817938
51
174.9251711
0
ARC
8
DEFAULT_255_1_388
10
24.1060775
20
100.421627
40
0.3412588
50
95.8332067
51
138.995412
0
ARC
8
DEFAULT_255_1_388
10
24.1312056
20
100.2777695
40
0.4870358
50
89.8755506
51
97.0540979
0
ARC
8
DEFAULT_255_1_388
10
24.1365445
20
100.3717841
40
0.3930432
50
71.6407016
51
90.6240821
0
ARC
8
DEFAULT_255_1_388
10
24.1534838
20
100.4341433
40
0.3285421
50
39.6368051
51
71.0190743
0
ARC
8
DEFAULT_255_1_388
10
24.0818746
20
100.3722586
40
0.4231706
50
10.6588054
51
39.9044509
0
ARC
8
DEFAULT_255_1_388
10
23.9077291
20
100.3344223
40
0.60133
50
359.6827842
51
11.1326896
0
ARC
8
DEFAULT_255_1_388
10
23.9032627
20
100.3264715
40
0.6058047
50
347.2485908
51
0.4371098
0
ARC
8
DEFAULT_255_1_388
10
24.0908413
20
100.2813379
40
0.4128987
50
318.1408565
51
347.6118497
0
ARC
8
DEFAULT_255_1_388
10
24.1274009
20
100.2512903
40
0.3656244
50
275.6342406
51
317.824739
0
ARC
8
DEFAULT_255_1_388
10
24.102553
20
100.3974827
40
0.513655
50
269.8872513
51
276.7916069
0
ARC
8
DEFAULT_255_1_388
10
24.0963723
20
100.2821181
40
0.398323
50
246.9139443
51
270.7436787
0
ARC
8
DEFAULT_255_1_388
10
24.0970919
20
100.2661044
40
0.3839368
50
218.1665534
51
245.8780431
0
ARC
8
DEFAULT_255_1_388
10
24.1960291
20
100.3488903
40
0.5128958
50
191.4115343
51
218.6077624
0
ARC
8
DEFAULT_255_1_388
10
24.4140607
20
100.3977777
40
0.7363054
50
179.6344971
51
191.7836758
0
ARC
8
DEFAULT_255_1_388
10
25.0420482
20
100.4741495
40
1.3642984
50
171.4523743
51
180.3158856
0
ARC
8
DEFAULT_255_1_388
10
24.5476209
20
100.5510895
40
0.8639311
50
157.9802296
51
171.6246761
0
ARC
8
DEFAULT_255_1_388
10
24.2985559
20
100.6504038
40
0.5958004
50
141.4299236
51
157.8541251
0
ARC
8
DEFAULT_255_1_388
10
24.2263643
20
100.7014746
40
0.5075416
50
102.871586
51
140.8564533
0
ARC
8
DEFAULT_255_1_388
10
24.2992195
20
100.4269943
40
0.7914163
50
90.377773
51
103.5868422
0
ARC
8
DEFAULT_255_1_388
10
24.1036717
20
100.3589543
40
0.2667015
50
89.8751238
51
126.2072139
0
ARC
8
DEFAULT_255_1_388
10
24.1088188
20
100.3415847
40
0.2838229
50
124.9742447
51
144.8960197
0
ARC
8
DEFAULT_255_1_388
10
24.0890433
20
100.3576981
40
0.2583845
50
145.2974778
51
160.2660922
0
ARC
8
DEFAULT_255_1_388
10
24.4346921
20
100.3799151
40
0.5888695
50
179.6512124
51
190.285571
0
ARC
8
DEFAULT_255_1_388
10
24.2441401
20
100.3439968
40
0.3949683
50
190.0944895
51
207.5099647
0
ARC
8
DEFAULT_255_1_388
10
24.1804982
20
100.3137177
40
0.3245464
50
207.9585471
51
216.325377
0
ARC
8
DEFAULT_255_1_388
10
24.1422619
20
100.2822712
40
0.2751259
50
215.7661336
51
232.5457193
0
ARC
8
DEFAULT_255_1_388
10
24.0991735
20
100.2275273
40
0.2054668
50
232.8005815
51
270.6605497
0
ARC
8
DEFAULT_255_1_388
10
24.104316
20
100.2684853
40
0.2464268
50
269.3550767
51
288.474612
0
ARC
8
DEFAULT_255_1_388
10
24.1147667
20
100.2291721
40
0.2058436
50
289.1831976
51
322.9685307
0
ARC
8
DEFAULT_255_1_388
10
24.0459768
20
100.2834279
40
0.2934408
50
322.6007085
51
346.5183319
0
ARC
8
DEFAULT_255_1_388
10
23.9157524
20
100.3166434
40
0.4278249
50
346.2584622
51
358.7739592
0
ARC
8
DEFAULT_255_1_388
10
23.80061
20
100.3228829
40
0.5430876
50
358.3757628
51
0.0082477
0
ARC
8
DEFAULT_255_1_388
10
23.8862918
20
100.3259856
40
0.4574157
50
359.6211417
51
11.28403
0
ARC
8
DEFAULT_255_1_388
10
24.0299524
20
100.3559535
40
0.3106708
50
11.0483152
51
31.8145585
0
ARC
8
DEFAULT_255_1_388
10
24.0647229
20
100.3748045
40
0.2711963
50
32.3028554
51
38.0820598
0
ARC
8
DEFAULT_255_1_388
10
24.1120462
20
100.4176717
40
0.2075566
50
36.8249851
51
85.741667
0
ARC
8
DEFAULT_255_1_388
10
24.1044875
20
100.3613065
40
0.2643487
50
85.0150021
51
90.050843
0
LINE
8
DEFAULT_255_1_388
10
23.8783618
20
108.4646666
11
23.7446343
21
108.4990021
0
LINE
8
DEFAULT_255_1_388
10
23.7446343
20
108.4990021
11
23.811498
21
109.1549898
0
LINE
8
DEFAULT_255_1_388
10
23.811498
20
109.1549898
11
24.4855571
21
109.1549898
0
LINE
8
DEFAULT_255_1_388
10
24.4855571
20
109.1549898
11
24.4855571
21
109.0004803
0
LINE
8
DEFAULT_255_1_388
10
24.4855571
20
109.0004803
11
23.9533577
21
109.0004803
0
LINE
8
DEFAULT_255_1_388
10
23.9533577
20
109.0004803
11
23.9136008
21
108.6417652
0
LINE
8
DEFAULT_255_1_388
10
23.6976489
20
108.1854652
11
23.8557727
21
108.1854652
0
LINE
8
DEFAULT_255_1_388
10
23.9226365
20
108.5008092
11
23.8783618
21
108.4646666
0
ARC
8
DEFAULT_255_1_388
10
24.1222622
20
108.2840241
40
0.4141476
50
93.7181681
51
120.253934
0
ARC
8
DEFAULT_255_1_388
10
24.1328674
20
108.1931284
40
0.5055616
50
89.9660471
51
94.2495185
0
ARC
8
DEFAULT_255_1_388
10
24.1374496
20
108.2594154
40
0.4392953
50
73.8045384
51
90.5585736
0
ARC
8
DEFAULT_255_1_388
10
24.1638754
20
108.355952
40
0.3392225
50
41.3071072
51
73.543002
0
ARC
8
DEFAULT_255_1_388
10
24.1170574
20
108.3156461
40
0.4009977
50
13.5075837
51
41.2174839
0
ARC
8
DEFAULT_255_1_388
10
23.9323671
20
108.2672907
40
0.5918864
50
1.1330171
51
13.8830737
0
ARC
8
DEFAULT_255_1_388
10
23.7727317
20
108.2587522
40
0.7516787
50
359.9925091
51
1.5431298
0
ARC
8
DEFAULT_255_1_388
10
23.9171932
20
108.2541027
40
0.6072343
50
347.8572712
51
0.4294349
0
ARC
8
DEFAULT_255_1_388
10
24.1141066
20
108.2094898
40
0.4053482
50
323.6727442
51
348.1674594
0
ARC
8
DEFAULT_255_1_388
10
24.1472031
20
108.1893175
40
0.3667495
50
316.8171818
51
323.1486802
0
ARC
8
DEFAULT_255_1_388
10
24.1541155
20
108.1851612
40
0.358869
50
281.839603
51
316.5458142
0
ARC
8
DEFAULT_255_1_388
10
24.1118442
20
108.3601363
40
0.5388223
50
269.5770964
51
282.4214641
0
ARC
8
DEFAULT_255_1_388
10
24.1038363
20
108.336093
40
0.5147801
50
256.2425863
51
270.4486481
0
ARC
8
DEFAULT_255_1_388
10
24.0701891
20
108.2011124
40
0.3756708
50
228.9024379
51
256.33135
0
ARC
8
DEFAULT_255_1_388
10
24.0618871
20
108.1880054
40
0.360344
50
193.7536029
51
228.5272638
0
ARC
8
DEFAULT_255_1_388
10
24.2011436
20
108.2288463
40
0.5053599
50
184.9244437
51
194.4976052
0
ARC
8
DEFAULT_255_1_388
10
24.2228077
20
108.2328722
40
0.3700839
50
187.3596909
51
198.6733728
0
ARC
8
DEFAULT_255_1_388
10
24.1047321
20
108.1919373
40
0.2451195
50
198.4453795
51
217.7945479
0
ARC
8
DEFAULT_255_1_388
10
24.0714493
20
108.1683563
40
0.2043754
50
218.2887146
51
228.5613203
0
ARC
8
DEFAULT_255_1_388
10
24.08245
20
108.1831902
40
0.2227819
50
228.9652423
51
258.1237049
0
ARC
8
DEFAULT_255_1_388
10
24.1055937
20
108.2822964
40
0.3245374
50
257.7260585
51
270.4013717
0
ARC
8
DEFAULT_255_1_388
10
24.1106435
20
108.2322255
40
0.2744726
50
269.4204315
51
286.420998
0
ARC
8
DEFAULT_255_1_388
10
24.1273491
20
108.1715705
40
0.2115721
50
286.7250065
51
320.6004665
0
ARC
8
DEFAULT_255_1_388
10
24.0842407
20
108.2065527
40
0.2670878
50
320.6712228
51
344.5440474
0
ARC
8
DEFAULT_255_1_388
10
23.954112
20
108.2447394
40
0.4026927
50
344.241448
51
356.735803
0
ARC
8
DEFAULT_255_1_388
10
23.8137428
20
108.2563656
40
0.5435085
50
356.3547471
51
0.0507222
0
ARC
8
DEFAULT_255_1_388
10
23.9639693
20
108.2598812
40
0.3932934
50
359.5579289
51
12.9534322
0
ARC
8
DEFAULT_255_1_388
10
24.0826533
20
108.2886586
40
0.2711827
50
12.6489751
51
41.608121
0
ARC
8
DEFAULT_255_1_388
10
24.1085693
20
108.3106946
40
0.2371737
50
41.7851122
51
85.9892156
0
ARC
8
DEFAULT_255_1_388
10
24.0947003
20
108.2191738
40
0.3295244
50
84.6965848
51
90.0672125
0
ARC
8
DEFAULT_255_1_388
10
24.092057
20
108.1440118
40
0.4046926
50
89.6804991
51
99.161352
0
ARC
8
DEFAULT_255_1_388
10
24.0689579
20
108.2820848
40
0.2647044
50
98.9836248
51
113.8905702
0
ARC
8
DEFAULT_255_1_388
10
24.0431254
20
108.3430118
40
0.1985386
50
114.195234
51
127.3641866
0
LINE
8
DEFAULT_255_1_388
10
24.1089151
20
117.0924898
11
24.1089151
21
116.218743
0
LINE
8
DEFAULT_255_1_388
10
24.1089151
20
116.218743
11
24.2914352
21
116.218743
0
LINE
8
DEFAULT_255_1_388
10
24.2914352
20
116.218743
11
24.2914352
21
116.0823048
0
LINE
8
DEFAULT_255_1_388
10
24.2914352
20
116.0823048
11
24.1089151
21
116.0823048
0
LINE
8
DEFAULT_255_1_388
10
24.1089151
20
116.0823048
11
24.1089151
21
115.7769
0
LINE
8
DEFAULT_255_1_388
10
24.1089151
20
115.7769
11
23.9408521
21
115.7769
0
LINE
8
DEFAULT_255_1_388
10
23.9408521
20
115.7769
11
23.9408521
21
116.0823048
0
LINE
8
DEFAULT_255_1_388
10
23.9408521
20
116.0823048
11
23.3417889
21
116.0823048
0
LINE
8
DEFAULT_255_1_388
10
23.3417889
20
116.0823048
11
23.3417889
21
116.1807933
0
LINE
8
DEFAULT_255_1_388
10
23.3417889
20
116.1807933
11
23.9309129
21
117.0924898
0
LINE
8
DEFAULT_255_1_388
10
23.9309129
20
117.0924898
11
24.1089151
21
117.0924898
0
LINE
8
DEFAULT_255_1_388
10
23.9209737
20
116.8277455
11
23.5315375
21
116.218743
0
LINE
8
DEFAULT_255_1_388
10
23.5315375
20
116.218743
11
23.9408521
21
116.218743
0
LINE
8
DEFAULT_255_1_388
10
23.9408521
20
116.218743
11
23.9408521
21
116.863888
0
LINE
8
DEFAULT_255_1_388
10
23.9408521
20
116.863888
11
23.9209737
21
116.8277455
0
LINE
8
DEFAULT_255_1_388
10
23.9108901
20
124.3170775
11
23.9108901
21
124.4535157
0
LINE
8
DEFAULT_255_1_388
10
23.9108901
20
124.4535157
11
24.0364856
21
124.4535157
0
LINE
8
DEFAULT_255_1_388
10
23.8223408
20
124.6848282
11
23.6551814
21
124.6848282
0
LINE
8
DEFAULT_255_1_388
10
23.6434351
20
124.0613688
11
23.811498
21
124.0613688
0
LINE
8
DEFAULT_255_1_388
10
24.0364856
20
124.3170775
11
23.9108901
21
124.3170775
0
ARC
8
DEFAULT_255_1_388
10
24.0332082
20
124.8351922
40
0.3816905
50
270.491971
51
281.8953028
0
ARC
8
DEFAULT_255_1_388
10
24.0603509
20
124.7112199
40
0.2547877
50
281.6690378
51
301.2943765
0
ARC
8
DEFAULT_255_1_388
10
24.0794961
20
124.6761926
40
0.2149197
50
301.7834992
51
311.754567
0
ARC
8
DEFAULT_255_1_388
10
24.0898002
20
124.664765
40
0.1995326
50
311.7325027
51
354.2803031
0
ARC
8
DEFAULT_255_1_388
10
24.0080418
20
124.678828
40
0.2823461
50
353.0941646
51
0.1174696
0
ARC
8
DEFAULT_255_1_388
10
23.9561976
20
124.6841874
40
0.3342238
50
359.1804452
51
15.0452323
0
ARC
8
DEFAULT_255_1_388
10
24.1076034
20
124.7283546
40
0.1765747
50
13.957816
51
77.6713812
0
ARC
8
DEFAULT_255_1_388
10
24.064127
20
124.5725464
40
0.3381982
50
76.111571
51
90.7028736
0
ARC
8
DEFAULT_255_1_388
10
24.0574682
20
124.603325
40
0.3074046
50
89.5321574
51
103.5319393
0
ARC
8
DEFAULT_255_1_388
10
24.0349066
20
124.6932443
40
0.2147041
50
103.2930114
51
133.5619756
0
ARC
8
DEFAULT_255_1_388
10
24.0299007
20
124.6999351
40
0.2064084
50
133.8349761
51
173.5343225
0
ARC
8
DEFAULT_255_1_388
10
24.1112665
20
124.6855144
40
0.2889266
50
172.5097183
51
180.1360699
0
ARC
8
DEFAULT_255_1_388
10
24.0042429
20
124.689388
40
0.3490913
50
155.3483706
51
180.7484035
0
ARC
8
DEFAULT_255_1_388
10
23.9987404
20
124.6861519
40
0.3454798
50
131.5745177
51
154.4799474
0
ARC
8
DEFAULT_255_1_388
10
24.0339687
20
124.6505422
40
0.3955058
50
96.9874487
51
131.9690874
0
ARC
8
DEFAULT_255_1_388
10
24.058658
20
124.5104407
40
0.537622
50
89.8592909
51
97.7827481
0
ARC
8
DEFAULT_255_1_388
10
24.0640689
20
124.480936
40
0.5671399
50
78.3654493
51
90.4132586
0
ARC
8
DEFAULT_255_1_388
10
24.104333
20
124.6675918
40
0.3762034
50
56.6229818
51
78.6387103
0
ARC
8
DEFAULT_255_1_388
10
24.1285159
20
124.7098846
40
0.3275964
50
47.0254604
51
56.085558
0
ARC
8
DEFAULT_255_1_388
10
24.130741
20
124.7143189
40
0.3228382
50
10.9207523
51
46.777927
0
ARC
8
DEFAULT_255_1_388
10
23.9773004
20
124.6788401
40
0.4802559
50
359.6364235
51
11.6087615
0
ARC
8
DEFAULT_255_1_388
10
24.183717
20
124.6771404
40
0.273833
50
332.3549969
51
359.7179765
0
ARC
8
DEFAULT_255_1_388
10
24.110557
20
124.7118285
40
0.3547505
50
325.2332381
51
332.8746682
0
ARC
8
DEFAULT_255_1_388
10
24.1277153
20
124.6998763
40
0.3338396
50
292.9803892
51
325.2391113
0
ARC
8
DEFAULT_255_1_388
10
24.0966349
20
124.7603679
40
0.4016959
50
292.542178
51
293.6931461
0
ARC
8
DEFAULT_255_1_388
10
24.1409921
20
124.0338036
40
0.372079
50
57.643292
51
72.8626085
0
ARC
8
DEFAULT_255_1_388
10
24.1808755
20
124.0984273
40
0.2961455
50
36.7246661
51
57.4701329
0
ARC
8
DEFAULT_255_1_388
10
24.1795912
20
124.099847
40
0.2963321
50
8.054535
51
36.3561529
0
ARC
8
DEFAULT_255_1_388
10
24.0825585
20
124.0824073
40
0.3948682
50
359.8316595
51
8.5873361
0
ARC
8
DEFAULT_255_1_388
10
24.0403059
20
124.076997
40
0.4371398
50
343.9831631
51
0.557075
0
ARC
8
DEFAULT_255_1_388
10
24.1400108
20
124.0496963
40
0.3337749
50
311.6358204
51
343.7652116
0
ARC
8
DEFAULT_255_1_388
10
24.0974362
20
124.0976955
40
0.3979351
50
279.7829743
51
311.625622
0
ARC
8
DEFAULT_255_1_388
10
24.0635497
20
124.2593642
40
0.5630417
50
269.7285092
51
280.3857694
0
ARC
8
DEFAULT_255_1_388
10
24.056581
20
124.2547241
40
0.5584119
50
256.6827433
51
270.4412869
0
ARC
8
DEFAULT_255_1_388
10
24.0184797
20
124.0989698
40
0.3980715
50
229.4223821
51
256.8554507
0
ARC
8
DEFAULT_255_1_388
10
23.971835
20
124.0464683
40
0.3278564
50
181.8183354
51
229.6455015
0
ARC
8
DEFAULT_255_1_388
10
24.088796
20
124.0611825
40
0.4453611
50
179.9760419
51
183.2330638
0
ARC
8
DEFAULT_255_1_388
10
24.0694512
20
124.0588781
40
0.2579652
50
179.4467996
51
196.2871626
0
ARC
8
DEFAULT_255_1_388
10
24.0145966
20
124.0438709
40
0.2011057
50
196.5661293
51
227.7059371
0
ARC
8
DEFAULT_255_1_388
10
24.0330573
20
124.0645155
40
0.2287994
50
227.7653015
51
257.8763321
0
ARC
8
DEFAULT_255_1_388
10
24.0583656
20
124.1705961
40
0.3378385
50
257.4583525
51
270.4267406
0
ARC
8
DEFAULT_255_1_388
10
24.0634906
20
124.203223
40
0.3704652
50
269.5965319
51
280.8788143
0
ARC
8
DEFAULT_255_1_388
10
24.0893134
20
124.0742529
40
0.2389415
50
280.6347277
51
299.8594068
0
ARC
8
DEFAULT_255_1_388
10
24.1107903
20
124.0334736
40
0.19289
50
300.3575552
51
314.5515667
0
ARC
8
DEFAULT_255_1_388
10
24.1014579
20
124.0403025
40
0.204312
50
315.0730962
51
345.0429362
0
ARC
8
DEFAULT_255_1_388
10
23.9976087
20
124.0705539
40
0.31246
50
344.598526
51
357.9270698
0
ARC
8
DEFAULT_255_1_388
10
23.8966391
20
124.0774705
40
0.4136265
50
357.4755098
51
0.0224936
0
ARC
8
DEFAULT_255_1_388
10
24.0119269
20
124.0802099
40
0.2983498
50
359.5051035
51
13.4236939
0
ARC
8
DEFAULT_255_1_388
10
24.1094359
20
124.1051637
40
0.1977186
50
12.9497905
51
48.7550905
0
ARC
8
DEFAULT_255_1_388
10
24.0889281
20
124.0771373
40
0.2323321
50
49.509109
51
72.1832965
0
ARC
8
DEFAULT_255_1_388
10
24.0486749
20
123.9576632
40
0.358397
50
71.9008458
51
84.3555134
0
ARC
8
DEFAULT_255_1_388
10
24.0305144
20
123.8044712
40
0.512641
50
84.019632
51
89.3326067
0
LINE
8
DEFAULT_255_1_388
10
24.5298318
20
131.7883382
11
24.5298318
21
131.6519
0
LINE
8
DEFAULT_255_1_388
10
24.5298318
20
131.6519
11
23.6678313
21
131.6519
0
LINE
8
DEFAULT_255_1_388
10
23.6678313
20
131.6519
11
23.6678313
21
131.7720741
0
LINE
8
DEFAULT_255_1_388
10
23.6678313
20
131.7720741
11
24.1232278
21
132.2780702
0
LINE
8
DEFAULT_255_1_388
10
23.8096909
20
132.5798607
11
23.6425315
21
132.5798607
0
LINE
8
DEFAULT_255_1_388
10
24.2217163
20
132.170546
11
23.8693262
21
131.7883382
0
LINE
8
DEFAULT_255_1_388
10
23.8693262
20
131.7883382
11
24.5298318
21
131.7883382
0
ARC
8
DEFAULT_255_1_388
10
22.6056337
20
133.6200983
40
2.0258655
50
318.5132526
51
320.7829045
0
ARC
8
DEFAULT_255_1_388
10
23.2004294
20
133.1359929
40
1.2589638
50
320.7372878
51
323.9739031
0
ARC
8
DEFAULT_255_1_388
10
23.6413226
20
132.8165554
40
0.7145141
50
323.8962701
51
328.64194
0
ARC
8
DEFAULT_255_1_388
10
23.8715484
20
132.6745545
40
0.4440242
50
328.8294576
51
331.7891185
0
ARC
8
DEFAULT_255_1_388
10
23.9837804
20
132.6166374
40
0.3177517
50
331.4254512
51
352.9365785
0
ARC
8
DEFAULT_255_1_388
10
23.9990804
20
132.613205
40
0.3021496
50
353.2257659
51
0.0166158
0
ARC
8
DEFAULT_255_1_388
10
24.0227564
20
132.6157894
40
0.2784847
50
359.486299
51
15.9343185
0
ARC
8
DEFAULT_255_1_388
10
24.0797831
20
132.6311269
40
0.2194403
50
16.1712913
51
43.5286088
0
ARC
8
DEFAULT_255_1_388
10
24.0884776
20
132.6398191
40
0.2071504
50
43.4417391
51
83.1661095
0
ARC
8
DEFAULT_255_1_388
10
24.0733937
20
132.5569316
40
0.2912888
50
82.160179
51
90.1505708
0
ARC
8
DEFAULT_255_1_388
10
24.0698418
20
132.4965279
40
0.3517025
50
89.5460741
51
102.5418361
0
ARC
8
DEFAULT_255_1_388
10
24.0425138
20
132.6124933
40
0.2325748
50
102.1738499
51
129.206123
0
ARC
8
DEFAULT_255_1_388
10
24.0336592
20
132.6264664
40
0.2161591
50
129.72865
51
135.753947
0
ARC
8
DEFAULT_255_1_388
10
24.0473074
20
132.6155728
40
0.2335433
50
136.1757367
51
166.3673339
0
ARC
8
DEFAULT_255_1_388
10
24.1605762
20
132.5852148
40
0.3507873
50
165.9090694
51
178.8684636
0
ARC
8
DEFAULT_255_1_388
10
24.2581534
20
132.5799263
40
0.4484624
50
178.4391136
51
180.0083808
0
ARC
8
DEFAULT_255_1_388
10
24.1002235
20
132.5843197
40
0.4577138
50
163.2878482
51
180.5581842
0
ARC
8
DEFAULT_255_1_388
10
24.0100276
20
132.6091393
40
0.3641968
50
133.4540601
51
162.947111
0
ARC
8
DEFAULT_255_1_388
10
24.0301158
20
132.5877789
40
0.3935189
50
100.7869829
51
133.4382499
0
ARC
8
DEFAULT_255_1_388
10
24.0692403
20
132.4135399
40
0.5720313
50
89.660664
51
101.3702276
0
ARC
8
DEFAULT_255_1_388
10
24.0767012
20
132.4204263
40
0.5651495
50
78.2172678
51
90.412935
0
ARC
8
DEFAULT_255_1_388
10
24.1166478
20
132.6031511
40
0.378122
50
55.9269121
51
78.4888449
0
ARC
8
DEFAULT_255_1_388
10
24.1387193
20
132.6412187
40
0.3342379
50
47.929771
51
55.4049217
0
ARC
8
DEFAULT_255_1_388
10
24.1501723
20
132.6528618
40
0.3179217
50
4.334829
51
48.0560205
0
ARC
8
DEFAULT_255_1_388
10
24.0269525
20
132.6337487
40
0.442341
50
359.9251713
51
5.5971671
0
ARC
8
DEFAULT_255_1_388
10
24.075168
20
132.6400728
40
0.3941854
50
337.8914027
51
358.9967534
0
ARC
8
DEFAULT_255_1_388
10
23.769925
20
132.7578295
40
0.7213271
50
326.9132501
51
338.3508308
0
ARC
8
DEFAULT_255_1_388
10
23.3215362
20
133.0452105
40
1.2538973
50
319.6471833
51
327.0959558
0
ARC
8
DEFAULT_255_1_388
10
22.890202
20
133.401005
40
1.8129975
50
317.2588228
51
319.9045804
0
LINE
8
DEFAULT_255_1_388
10
24.2253985
20
140.9113148
11
24.2253985
21
139.5894
0
LINE
8
DEFAULT_255_1_388
10
24.2253985
20
139.5894
11
24.0573355
21
139.5894
0
LINE
8
DEFAULT_255_1_388
10
24.0573355
20
139.5894
11
24.0573355
21
140.703495
0
LINE
8
DEFAULT_255_1_388
10
24.0573355
20
140.703495
11
23.720306
21
140.5797066
0
LINE
8
DEFAULT_255_1_388
10
23.720306
20
140.5797066
11
23.720306
21
140.7315055
0
LINE
8
DEFAULT_255_1_388
10
23.720306
20
140.7315055
11
24.1991951
21
140.9113148
0
LINE
8
DEFAULT_255_1_388
10
24.1991951
20
140.9113148
11
24.2253985
21
140.9113148
0
LINE
8
DEFAULT_255_1_388
10
24.4927856
20
148.304869
11
24.4927856
21
148.0880135
0
LINE
8
DEFAULT_255_1_388
10
23.6624099
20
148.0654244
11
23.6624099
21
148.2886048
0
LINE
8
DEFAULT_255_1_388
10
24.3256262
20
148.0428353
11
24.3256262
21
148.3166153
0
LINE
8
DEFAULT_255_1_388
10
23.8295693
20
148.3292652
11
23.8295693
21
148.0618102
0
ARC
8
DEFAULT_255_1_388
10
23.115019
20
148.0825118
40
1.3777776
50
353.8440855
51
0.2287917
0
ARC
8
DEFAULT_255_1_388
10
23.6369208
20
148.0242414
40
0.852639
50
344.4934746
51
353.9763743
0
ARC
8
DEFAULT_255_1_388
10
23.9736015
20
147.9285191
40
0.5026273
50
329.2803599
51
344.7473406
0
ARC
8
DEFAULT_255_1_388
10
24.0851511
20
147.8673038
40
0.3754848
50
324.9361395
51
328.6153007
0
ARC
8
DEFAULT_255_1_388
10
24.1277161
20
147.8375586
40
0.3235566
50
280.5801797
51
324.9173226
0
ARC
8
DEFAULT_255_1_388
10
24.0825789
20
148.0255236
40
0.5167077
50
269.5979457
51
281.6732777
0
ARC
8
DEFAULT_255_1_388
10
24.0744693
20
148.0120113
40
0.5032026
50
256.6228565
51
270.5105488
0
ARC
8
DEFAULT_255_1_388
10
24.0292435
20
147.8378345
40
0.3233092
50
215.8618351
51
257.2787793
0
ARC
8
DEFAULT_255_1_388
10
24.1441142
20
147.9149106
40
0.4615831
50
197.9695203
51
215.2622745
0
ARC
8
DEFAULT_255_1_388
10
24.4236818
20
148.0092641
40
0.7566307
50
187.8816486
51
198.2346584
0
ARC
8
DEFAULT_255_1_388
10
24.8690056
20
148.0735453
40
1.2065653
50
180.8977266
51
188.0054894
0
ARC
8
DEFAULT_255_1_388
10
25.174027
20
148.08504
40
1.5117443
50
180.7434591
51
181.152202
0
ARC
8
DEFAULT_255_1_388
10
25.0065266
20
148.2940371
40
1.3441277
50
173.7674302
51
180.2315596
0
ARC
8
DEFAULT_255_1_388
10
24.4983135
20
148.3514779
40
0.8326847
50
164.3058537
51
173.9000553
0
ARC
8
DEFAULT_255_1_388
10
24.1707135
20
148.4458652
40
0.4917711
50
148.7922028
51
164.5682288
0
ARC
8
DEFAULT_255_1_388
10
24.0637872
20
148.5055457
40
0.3694204
50
144.5883979
51
148.1161588
0
ARC
8
DEFAULT_255_1_388
10
24.0250618
20
148.5325667
40
0.322202
50
101.6440149
51
144.5142619
0
ARC
8
DEFAULT_255_1_388
10
24.072881
20
148.3425337
40
0.5180451
50
89.528284
51
102.5820197
0
ARC
8
DEFAULT_255_1_388
10
24.0817802
20
148.3381376
40
0.5224441
50
77.0437914
51
90.508231
0
ARC
8
DEFAULT_255_1_388
10
24.1270055
20
148.5229272
40
0.3322297
50
48.2777708
51
77.4996087
0
ARC
8
DEFAULT_255_1_388
10
24.1351795
20
148.5374557
40
0.315966
50
36.3141586
51
47.6307332
0
ARC
8
DEFAULT_255_1_388
10
24.0374518
20
148.4716159
40
0.4337313
50
18.2931065
51
35.6770203
0
ARC
8
DEFAULT_255_1_388
10
23.7513358
20
148.3734107
40
0.7362203
50
8.0246996
51
18.5605636
0
ARC
8
DEFAULT_255_1_388
10
23.2829714
20
148.3042432
40
1.2096583
50
1.127539
51
8.1718423
0
ARC
8
DEFAULT_255_1_388
10
22.9180847
20
148.2899374
40
1.5747719
50
0.5432713
51
1.38669
0
ARC
8
DEFAULT_255_1_388
10
23.1238226
20
148.3206163
40
1.2018103
50
359.8092569
51
4.9408001
0
ARC
8
DEFAULT_255_1_388
10
23.5974807
20
148.36289
40
0.7262727
50
4.8364937
51
12.2906017
0
ARC
8
DEFAULT_255_1_388
10
23.9074272
20
148.4319485
40
0.4087324
50
12.0806994
51
23.8171225
0
ARC
8
DEFAULT_255_1_388
10
24.0394668
20
148.4878508
40
0.2653719
50
24.2874621
51
31.3934353
0
ARC
8
DEFAULT_255_1_388
10
24.0985104
20
148.5264822
40
0.1948607
50
30.7407708
51
82.4658033
0
ARC
8
DEFAULT_255_1_388
10
24.0782765
20
148.4271017
40
0.2961198
50
81.1057101
51
90.2187368
0
ARC
8
DEFAULT_255_1_388
10
24.0742577
20
148.4561421
40
0.2670929
50
89.380395
51
105.6763916
0
ARC
8
DEFAULT_255_1_388
10
24.0536299
20
148.531132
40
0.1893189
50
105.7980655
51
149.7387869
0
ARC
8
DEFAULT_255_1_388
10
24.1733439
20
148.4591719
40
0.3289892
50
149.4208441
51
163.628295
0
ARC
8
DEFAULT_255_1_388
10
24.4085668
20
148.3874345
40
0.5749004
50
163.3764549
51
172.141138
0
ARC
8
DEFAULT_255_1_388
10
24.779839
20
148.3342582
40
0.9499585
50
172.0258462
51
178.0705453
0
ARC
8
DEFAULT_255_1_388
10
25.1219943
20
148.3180682
40
1.2924734
50
177.8639301
51
179.5036263
0
ARC
8
DEFAULT_255_1_388
10
25.0000961
20
148.0577151
40
1.170534
50
179.7995545
51
185.246089
0
ARC
8
DEFAULT_255_1_388
10
24.5452554
20
148.0146404
40
0.7136613
50
185.1411911
51
193.0082205
0
ARC
8
DEFAULT_255_1_388
10
24.2478815
20
147.9443441
40
0.4080987
50
192.7897338
51
205.2507384
0
ARC
8
DEFAULT_255_1_388
10
24.1301025
20
147.8917538
40
0.2791522
50
205.8001921
51
211.2545876
0
ARC
8
DEFAULT_255_1_388
10
24.0712564
20
147.8523132
40
0.2084074
50
210.3789935
51
238.4007996
0
ARC
8
DEFAULT_255_1_388
10
24.069065
20
147.8575786
40
0.2117943
50
239.6521916
51
265.9793852
0
ARC
8
DEFAULT_255_1_388
10
24.0786499
20
147.9332358
40
0.2879689
50
265.1324455
51
270.0603288
0
ARC
8
DEFAULT_255_1_388
10
24.0818876
20
147.8967418
40
0.2514919
50
269.3314378
51
287.2180039
0
ARC
8
DEFAULT_255_1_388
10
24.0973958
20
147.8401291
40
0.1928357
50
287.7957942
51
329.0808983
0
ARC
8
DEFAULT_255_1_388
10
23.9896715
20
147.9073651
40
0.319808
50
328.6635261
51
343.3325043
0
ARC
8
DEFAULT_255_1_388
10
23.7452174
20
147.9835195
40
0.5758408
50
343.0498092
51
351.9392499
0
ARC
8
DEFAULT_255_1_388
10
23.3551496
20
148.0410205
40
0.9701202
50
351.8071632
51
357.7957897
0
ARC
8
DEFAULT_255_1_388
10
22.9916973
20
148.0598724
40
1.3340376
50
357.5870923
51
359.2682493
0
ENDSEC
0
EOF