0
SECTION
2
HEADER
9
$MEASUREMENT
70
1
0
ENDSEC
0
SECTION
2
TABLES
0
TABLE
2
LTYPE
0
LTYPE
72
65
70
64
2
CONTINUOUS
3
______
73
0
40
0
0
ENDTAB
0
TABLE
2
LAYER
0
LAYER
2
DEFAULT_255_2_778
70
0
62
255
6
CONTINUOUS
0
LAYER
2
DEFAULT_255_1_234
70
0
62
255
6
CONTINUOUS
0
ENDTAB
0
ENDSEC
0
SECTION
2
ENTITIES
0
ARC
8
DEFAULT_255_2_778
10
3.7023693
20
83.7426529
40
0.7914215
50
129.1312896
51
180.1450914
0
ARC
8
DEFAULT_255_2_778
10
3.7026345
20
83.74314
40
0.7912112
50
89.854026
51
129.1684493
0
ARC
8
DEFAULT_255_2_778
10
25.9316937
20
83.7428266
40
0.7915249
50
39.4792447
51
90.147911
0
ARC
8
DEFAULT_255_2_778
10
25.9322935
20
83.7426732
40
0.7911595
50
359.8533901
51
39.5154338
0
ARC
8
DEFAULT_255_2_778
10
25.9319693
20
-1.9863993
40
0.7914836
50
309.4761667
51
0.1482649
0
ARC
8
DEFAULT_255_2_778
10
25.931698
20
-1.9868304
40
0.7913235
50
269.8517415
51
309.511178
0
ARC
8
DEFAULT_255_2_778
10
3.702642
20
-1.9867723
40
0.7913815
50
219.1282118
51
270.1454017
0
ARC
8
DEFAULT_255_2_778
10
3.7023247
20
-1.9863898
40
0.7913769
50
179.8524075
51
219.1641908
0
LINE
8
DEFAULT_255_2_778
10
3.7046503
20
84.5343488
11
25.9296503
21
84.5343488
0
LINE
8
DEFAULT_255_2_778
10
26.7234503
20
83.7406488
11
26.7234503
21
-1.9843512
0
LINE
8
DEFAULT_255_2_778
10
25.9296503
20
-2.7781512
11
3.7046503
21
-2.7781512
0
LINE
8
DEFAULT_255_2_778
10
2.9109503
20
-1.9843512
11
2.9109503
21
83.7406488
0
LINE
8
DEFAULT_255_1_234
10
9.720123
20
-0.2802337
11
9.8751355
21
-0.2802337
0
LINE
8
DEFAULT_255_1_234
10
8.9747777
20
-0.1212053
11
8.9747777
21
-0.0087609
0
LINE
8
DEFAULT_255_1_234
10
9.8751355
20
0.1422357
11
9.720123
21
0.1422357
0
LINE
8
DEFAULT_255_1_234
10
9.1297902
20
-0.0127768
11
9.1297902
21
-0.1260243
0
ARC
8
DEFAULT_255_1_234
10
9.3270742
20
-0.2205154
40
0.5513052
50
340.1774281
51
353.7814284
0
ARC
8
DEFAULT_255_1_234
10
9.4842095
20
-0.2790418
40
0.3836379
50
311.4558989
51
340.4421614
0
ARC
8
DEFAULT_255_1_234
10
9.4808763
20
-0.2679472
40
0.3941894
50
282.4333181
51
310.7513653
0
ARC
8
DEFAULT_255_1_234
10
9.4369502
20
-0.0864321
40
0.5809175
50
269.9358511
51
282.809604
0
ARC
8
DEFAULT_255_1_234
10
9.4317568
20
0.0593212
40
0.7266847
50
270.0021091
51
270.3581957
0
ARC
8
DEFAULT_255_1_234
10
9.4264985
20
-0.2007415
40
0.4666519
50
250.7884749
51
270.6489167
0
ARC
8
DEFAULT_255_1_234
10
9.409682
20
-0.2644681
40
0.4009729
50
219.3627325
51
250.0611886
0
ARC
8
DEFAULT_255_1_234
10
9.4926031
20
-0.1939958
40
0.5097822
50
193.5479632
51
219.5756669
0
ARC
8
DEFAULT_255_1_234
10
9.7297652
20
-0.1324081
40
0.7547848
50
181.1218675
51
193.87563
0
ARC
8
DEFAULT_255_1_234
10
9.9367833
20
-0.121342
40
0.9620055
50
179.9918545
51
181.5394234
0
ARC
8
DEFAULT_255_1_234
10
9.7516935
20
-0.0050212
40
0.7769248
50
169.5837241
51
180.2757934
0
ARC
8
DEFAULT_255_1_234
10
9.5679873
20
0.0289229
40
0.590109
50
155.0365899
51
169.6003176
0
ARC
8
DEFAULT_255_1_234
10
9.4544337
20
0.0836677
40
0.4640625
50
136.783148
51
155.2472683
0
ARC
8
DEFAULT_255_1_234
10
9.4154814
20
0.1167562
40
0.4130255
50
121.7633186
51
136.428115
0
ARC
8
DEFAULT_255_1_234
10
9.4289776
20
0.0918227
40
0.4413323
50
95.6459699
51
121.5490577
0
ARC
8
DEFAULT_255_1_234
10
9.4447058
20
-0.0190051
40
0.55319
50
89.924208
51
96.1377933
0
ARC
8
DEFAULT_255_1_234
10
9.4497491
20
-0.0071458
40
0.5413475
50
76.6779277
51
90.4563316
0
ARC
8
DEFAULT_255_1_234
10
9.4891114
20
0.1519114
40
0.3775041
50
47.485847
51
76.9287264
0
ARC
8
DEFAULT_255_1_234
10
9.4744087
20
0.1419159
40
0.3948286
50
16.5424086
51
46.8933463
0
ARC
8
DEFAULT_255_1_234
10
9.3136244
20
0.0890861
40
0.564021
50
5.4072051
51
17.0365086
0
ARC
8
DEFAULT_255_1_234
10
9.1697261
20
0.0659679
40
0.5556559
50
7.8891745
51
15.9239216
0
ARC
8
DEFAULT_255_1_234
10
9.3684274
20
0.1236631
40
0.3487515
50
15.7653144
51
27.9410532
0
ARC
8
DEFAULT_255_1_234
10
9.4788492
20
0.182779
40
0.2235026
50
27.8166557
51
46.4008329
0
ARC
8
DEFAULT_255_1_234
10
9.4838135
20
0.1822082
40
0.2205286
50
47.4371857
51
75.0698205
0
ARC
8
DEFAULT_255_1_234
10
9.4529529
20
0.0747765
40
0.3322915
50
74.7008593
51
87.8124495
0
ARC
8
DEFAULT_255_1_234
10
9.4456217
20
-0.0308156
40
0.4380987
50
87.3814673
51
90.0240855
0
ARC
8
DEFAULT_255_1_234
10
9.441776
20
0.0869291
40
0.3203749
50
89.3451631
51
108.5745436
0
ARC
8
DEFAULT_255_1_234
10
9.4280865
20
0.1382908
40
0.2673494
50
109.2998449
51
143.3037509
0
ARC
8
DEFAULT_255_1_234
10
9.5042938
20
0.0796881
40
0.3634757
50
143.0753173
51
163.1916937
0
ARC
8
DEFAULT_255_1_234
10
9.6994666
20
0.0180967
40
0.5681262
50
162.9373603
51
174.6208611
0
ARC
8
DEFAULT_255_1_234
10
9.9620708
20
-0.010699
40
0.8322832
50
174.3419979
51
180.1430411
0
ARC
8
DEFAULT_255_1_234
10
9.8689864
20
-0.1301302
40
0.7392076
50
179.6817502
51
189.150529
0
ARC
8
DEFAULT_255_1_234
10
9.6189112
20
-0.171781
40
0.4856932
50
188.9910863
51
203.5773039
0
ARC
8
DEFAULT_255_1_234
10
9.5109445
20
-0.2165789
40
0.3688271
50
203.9077269
51
215.1312379
0
ARC
8
DEFAULT_255_1_234
10
9.4186539
20
-0.2881059
40
0.2522457
50
213.9071664
51
263.8849284
0
ARC
8
DEFAULT_255_1_234
10
9.4311868
20
-0.2096482
40
0.3316174
50
263.1758525
51
270.1031083
0
ARC
8
DEFAULT_255_1_234
10
9.434396
20
-0.0849635
40
0.4563091
50
269.6719807
51
279.0609165
0
ARC
8
DEFAULT_255_1_234
10
9.4610728
20
-0.2462093
40
0.2928759
50
278.8750225
51
293.6346586
0
ARC
8
DEFAULT_255_1_234
10
9.4930936
20
-0.32141
40
0.2111472
50
293.8553404
51
310.0518804
0
ARC
8
DEFAULT_255_1_234
10
9.493579
20
-0.3276484
40
0.2060917
50
311.0646779
51
332.0108348
0
ARC
8
DEFAULT_255_1_234
10
9.3743517
20
-0.2619022
40
0.3422352
50
331.6588543
51
343.2878891
0
ARC
8
DEFAULT_255_1_234
10
9.1681032
20
-0.1985202
40
0.5580003
50
343.1446044
51
351.010618
0
ARC
8
DEFAULT_255_1_234
10
9.0139678
20
-0.1704129
40
0.7146438
50
350.7157277
51
351.1602153
0
LINE
8
DEFAULT_255_1_234
10
10.5152651
20
-0.1934909
11
10.2397765
21
-0.1934909
0
LINE
8
DEFAULT_255_1_234
10
10.2397765
20
-0.1934909
11
10.2397765
21
-0.6513
0
LINE
8
DEFAULT_255_1_234
10
10.2397765
20
-0.6513
11
10.0855671
21
-0.6513
0
LINE
8
DEFAULT_255_1_234
10
10.0855671
20
-0.6513
11
10.0855671
21
0.5181211
0
LINE
8
DEFAULT_255_1_234
10
10.0855671
20
0.5181211
11
10.5168714
21
0.5181211
0
LINE
8
DEFAULT_255_1_234
10
10.2397765
20
0.3912196
11
10.2397765
21
-0.0673926
0
LINE
8
DEFAULT_255_1_234
10
10.2397765
20
-0.0673926
11
10.5168714
21
-0.0673926
0
LINE
8
DEFAULT_255_1_234
10
10.5257063
20
0.3912196
11
10.2397765
21
0.3912196
0
ARC
8
DEFAULT_255_1_234
10
10.5210841
20
-0.0877805
40
0.6059162
50
78.8378113
51
90.3983573
0
ARC
8
DEFAULT_255_1_234
10
10.5626855
20
0.1142879
40
0.3996205
50
58.9632738
51
79.0810598
0
ARC
8
DEFAULT_255_1_234
10
10.5928397
20
0.1702721
40
0.3361177
50
48.0197965
51
58.447194
0
ARC
8
DEFAULT_255_1_234
10
10.6017258
20
0.1788225
40
0.3238191
50
3.3375044
51
48.1766626
0
ARC
8
DEFAULT_255_1_234
10
10.4787098
20
0.1611171
40
0.4477806
50
359.9477528
51
4.6829065
0
ARC
8
DEFAULT_255_1_234
10
10.4910414
20
0.1568628
40
0.4354656
50
346.1877825
51
0.5060252
0
ARC
8
DEFAULT_255_1_234
10
10.6269282
20
0.1215731
40
0.295089
50
310.8831995
51
346.5426355
0
ARC
8
DEFAULT_255_1_234
10
10.5960702
20
0.1632695
40
0.3468331
50
286.6925341
51
310.2288297
0
ARC
8
DEFAULT_255_1_234
10
10.5391533
20
0.3422882
40
0.5346654
50
274.6850312
51
287.0245141
0
ARC
8
DEFAULT_255_1_234
10
10.5166256
20
0.5631932
40
0.7566852
50
269.8969846
51
275.018904
0
ARC
8
DEFAULT_255_1_234
10
10.5193847
20
0.3552707
40
0.4226708
50
269.6593078
51
279.4153575
0
ARC
8
DEFAULT_255_1_234
10
10.5451122
20
0.2062133
40
0.2714146
50
279.2049762
51
294.9900808
0
ARC
8
DEFAULT_255_1_234
10
10.5741448
20
0.1414508
40
0.2004525
50
295.2888114
51
311.2911209
0
ARC
8
DEFAULT_255_1_234
10
10.5812342
20
0.130922
40
0.1878703
50
311.7854996
51
347.2861051
0
ARC
8
DEFAULT_255_1_234
10
10.4828501
20
0.1562092
40
0.2894234
50
346.6893224
51
0.1059443
0
ARC
8
DEFAULT_255_1_234
10
10.4073396
20
0.1590685
40
0.3649409
50
359.6350983
51
0.0053152
0
ARC
8
DEFAULT_255_1_234
10
10.5043724
20
0.1615937
40
0.2679199
50
359.4672059
51
15.5933957
0
ARC
8
DEFAULT_255_1_234
10
10.5668613
20
0.1784779
40
0.2031932
50
15.7442113
51
46.6203375
0
ARC
8
DEFAULT_255_1_234
10
10.5520834
20
0.1614484
40
0.2257226
50
46.8628658
51
75.6676503
0
ARC
8
DEFAULT_255_1_234
10
10.5226654
20
0.0555718
40
0.3355939
50
75.276167
51
88.2915297
0
ARC
8
DEFAULT_255_1_234
10
10.5168361
20
-0.0322476
40
0.4235602
50
87.8575022
51
88.8000139
0
LINE
8
DEFAULT_255_1_234
10
11.8509432
20
-0.5300208
11
11.8509432
21
-0.6513
0
LINE
8
DEFAULT_255_1_234
10
11.8509432
20
-0.6513
11
11.0847153
21
-0.6513
0
LINE
8
DEFAULT_255_1_234
10
11.0847153
20
-0.6513
11
11.0847153
21
-0.5444779
0
LINE
8
DEFAULT_255_1_234
10
11.0847153
20
-0.5444779
11
11.4895149
21
-0.0947005
0
LINE
8
DEFAULT_255_1_234
10
11.2108136
20
0.1735595
11
11.0622265
21
0.1735595
0
LINE
8
DEFAULT_255_1_234
10
11.5770609
20
-0.1902782
11
11.2638231
21
-0.5300208
0
LINE
8
DEFAULT_255_1_234
10
11.2638231
20
-0.5300208
11
11.8509432
21
-0.5300208
0
ARC
8
DEFAULT_255_1_234
10
10.1404983
20
1.0982527
40
1.8008286
50
318.5132453
51
320.7828378
0
ARC
8
DEFAULT_255_1_234
10
10.6691957
20
0.6679426
40
1.1191493
50
320.7372736
51
323.9737074
0
ARC
8
DEFAULT_255_1_234
10
11.0611814
20
0.3839361
40
0.6350923
50
323.8961724
51
328.6421089
0
ARC
8
DEFAULT_255_1_234
10
11.2658409
20
0.2577031
40
0.3946393
50
328.8299013
51
331.789948
0
ARC
8
DEFAULT_255_1_234
10
11.3655587
20
0.2062509
40
0.2824501
50
331.4255242
51
352.9364833
0
ARC
8
DEFAULT_255_1_234
10
11.3792088
20
0.2031976
40
0.2685315
50
353.2248685
51
0.0169286
0
ARC
8
DEFAULT_255_1_234
10
11.4001965
20
0.205495
40
0.2475536
50
359.4866256
51
15.9339782
0
ARC
8
DEFAULT_255_1_234
10
11.450895
20
0.2191286
40
0.1950618
50
16.1714718
51
43.5284424
0
ARC
8
DEFAULT_255_1_234
10
11.4586259
20
0.2268573
40
0.184134
50
43.4415429
51
83.1661404
0
ARC
8
DEFAULT_255_1_234
10
11.4452177
20
0.1531771
40
0.258926
50
82.160215
51
90.1505798
0
ARC
8
DEFAULT_255_1_234
10
11.4420604
20
0.0994865
40
0.3126255
50
89.5460705
51
102.5418777
0
ARC
8
DEFAULT_255_1_234
10
11.417769
20
0.2025665
40
0.2067346
50
102.1739365
51
129.2061916
0
ARC
8
DEFAULT_255_1_234
10
11.4098762
20
0.2150094
40
0.1921118
50
129.7279328
51
135.7542026
0
ARC
8
DEFAULT_255_1_234
10
11.422029
20
0.2053045
40
0.2075944
50
136.175737
51
166.3674722
0
ARC
8
DEFAULT_255_1_234
10
11.5227209
20
0.1783182
40
0.3118201
50
165.9092917
51
178.8683903
0
ARC
8
DEFAULT_255_1_234
10
11.609207
20
0.1736179
40
0.3983935
50
178.438168
51
180.0083905
0
ARC
8
DEFAULT_255_1_234
10
11.4690672
20
0.1775231
40
0.4068601
50
163.2878735
51
180.5581814
0
ARC
8
DEFAULT_255_1_234
10
11.3888934
20
0.199584
40
0.3237344
50
133.454115
51
162.9470031
0
ARC
8
DEFAULT_255_1_234
10
11.4067475
20
0.1806
40
0.349795
50
100.7869394
51
133.4384016
0
ARC
8
DEFAULT_255_1_234
10
11.4415247
20
0.0257319
40
0.5084616
50
89.6605301
51
101.3704185
0
ARC
8
DEFAULT_255_1_234
10
11.4481586
20
0.0318496
40
0.502348
50
78.2171172
51
90.4130393
0
ARC
8
DEFAULT_255_1_234
10
11.4836664
20
0.1942637
40
0.3361092
50
55.9268222
51
78.4888551
0
ARC
8
DEFAULT_255_1_234
10
11.5033104
20
0.2281324
40
0.2970617
50
47.9292255
51
55.4054003
0
ARC
8
DEFAULT_255_1_234
10
11.5134665
20
0.2384502
40
0.2825983
50
4.3347696
51
48.0560701
0
ARC
8
DEFAULT_255_1_234
10
11.4039058
20
0.2214601
40
0.393225
50
359.925209
51
5.5967654
0
ARC
8
DEFAULT_255_1_234
10
11.446795
20
0.2270816
40
0.3503892
50
337.8914096
51
358.9967724
0
ARC
8
DEFAULT_255_1_234
10
11.1754362
20
0.3317706
40
0.6412172
50
326.9135351
51
338.3505194
0
ARC
8
DEFAULT_255_1_234
10
10.7768666
20
0.5872284
40
1.1146189
50
319.6472867
51
327.095818
0
ARC
8
DEFAULT_255_1_234
10
10.3935669
20
0.9034
40
1.6114559
50
317.2586784
51
319.9046139
0
LINE
8
DEFAULT_255_1_234
10
12.7079296
20
0.0153343
11
12.7079296
21
-0.110764
0
LINE
8
DEFAULT_255_1_234
10
12.7079296
20
-0.110764
11
12.201127
21
-0.110764
0
LINE
8
DEFAULT_255_1_234
10
12.201127
20
-0.110764
11
12.201127
21
-0.5252017
0
LINE
8
DEFAULT_255_1_234
10
12.201127
20
-0.5252017
11
12.7898534
21
-0.5252017
0
LINE
8
DEFAULT_255_1_234
10
12.7898534
20
-0.5252017
11
12.7898534
21
-0.6513
0
LINE
8
DEFAULT_255_1_234
10
12.7898534
20
-0.6513
11
12.0469176
21
-0.6513
0
LINE
8
DEFAULT_255_1_234
10
12.0469176
20
-0.6513
11
12.0469176
21
0.5181211
0
LINE
8
DEFAULT_255_1_234
10
12.0469176
20
0.5181211
11
12.7818216
21
0.5181211
0
LINE
8
DEFAULT_255_1_234
10
12.7818216
20
0.5181211
11
12.7818216
21
0.3912196
0
LINE
8
DEFAULT_255_1_234
10
12.7818216
20
0.3912196
11
12.201127
21
0.3912196
0
LINE
8
DEFAULT_255_1_234
10
12.201127
20
0.3912196
11
12.201127
21
0.0153343
0
LINE
8
DEFAULT_255_1_234
10
12.201127
20
0.0153343
11
12.7079296
21
0.0153343
0
LINE
8
DEFAULT_255_1_234
10
13.2677418
20
-0.0938974
11
13.2677418
21
-0.2151766
0
LINE
8
DEFAULT_255_1_234
10
13.2677418
20
-0.2151766
11
12.875793
21
-0.2151766
0
LINE
8
DEFAULT_255_1_234
10
12.875793
20
-0.2151766
11
12.875793
21
-0.0938974
0
LINE
8
DEFAULT_255_1_234
10
12.875793
20
-0.0938974
11
13.2677418
21
-0.0938974
0
LINE
8
DEFAULT_255_1_234
10
14.0966172
20
0.0153343
11
14.0966172
21
-0.110764
0
LINE
8
DEFAULT_255_1_234
10
14.0966172
20
-0.110764
11
13.5898145
21
-0.110764
0
LINE
8
DEFAULT_255_1_234
10
13.5898145
20
-0.110764
11
13.5898145
21
-0.5252017
0
LINE
8
DEFAULT_255_1_234
10
13.5898145
20
-0.5252017
11
14.1785409
21
-0.5252017
0
LINE
8
DEFAULT_255_1_234
10
14.1785409
20
-0.5252017
11
14.1785409
21
-0.6513
0
LINE
8
DEFAULT_255_1_234
10
14.1785409
20
-0.6513
11
13.4356051
21
-0.6513
0
LINE
8
DEFAULT_255_1_234
10
13.4356051
20
-0.6513
11
13.4356051
21
0.5181211
0
LINE
8
DEFAULT_255_1_234
10
13.4356051
20
0.5181211
11
14.1705092
21
0.5181211
0
LINE
8
DEFAULT_255_1_234
10
14.1705092
20
0.5181211
11
14.1705092
21
0.3912196
0
LINE
8
DEFAULT_255_1_234
10
14.1705092
20
0.3912196
11
13.5898145
21
0.3912196
0
LINE
8
DEFAULT_255_1_234
10
13.5898145
20
0.3912196
11
13.5898145
21
0.0153343
0
LINE
8
DEFAULT_255_1_234
10
13.5898145
20
0.0153343
11
14.0966172
21
0.0153343
0
LINE
8
DEFAULT_255_1_234
10
14.8202768
20
0.5237433
11
14.8202768
21
-0.6513
0
LINE
8
DEFAULT_255_1_234
10
14.8202768
20
-0.6513
11
14.6708865
21
-0.6513
0
LINE
8
DEFAULT_255_1_234
10
14.6708865
20
-0.6513
11
14.6708865
21
0.3390133
0
LINE
8
DEFAULT_255_1_234
10
14.6708865
20
0.3390133
11
14.3713026
21
0.2289785
0
LINE
8
DEFAULT_255_1_234
10
14.3713026
20
0.2289785
11
14.3713026
21
0.3639117
0
LINE
8
DEFAULT_255_1_234
10
14.3713026
20
0.3639117
11
14.7969848
21
0.5237433
0
LINE
8
DEFAULT_255_1_234
10
14.7969848
20
0.5237433
11
14.8202768
21
0.5237433
0
LINE
8
DEFAULT_255_1_234
10
15.8828758
20
0.5181211
11
15.8828758
21
-0.258548
0
LINE
8
DEFAULT_255_1_234
10
15.8828758
20
-0.258548
11
16.0451169
21
-0.258548
0
LINE
8
DEFAULT_255_1_234
10
16.0451169
20
-0.258548
11
16.0451169
21
-0.3798272
0
LINE
8
DEFAULT_255_1_234
10
16.0451169
20
-0.3798272
11
15.8828758
21
-0.3798272
0
LINE
8
DEFAULT_255_1_234
10
15.8828758
20
-0.3798272
11
15.8828758
21
-0.6513
0
LINE
8
DEFAULT_255_1_234
10
15.8828758
20
-0.6513
11
15.7334854
21
-0.6513
0
LINE
8
DEFAULT_255_1_234
10
15.7334854
20
-0.6513
11
15.7334854
21
-0.3798272
0
LINE
8
DEFAULT_255_1_234
10
15.7334854
20
-0.3798272
11
15.2009812
21
-0.3798272
0
LINE
8
DEFAULT_255_1_234
10
15.2009812
20
-0.3798272
11
15.2009812
21
-0.2922813
0
LINE
8
DEFAULT_255_1_234
10
15.2009812
20
-0.2922813
11
15.7246505
21
0.5181211
0
LINE
8
DEFAULT_255_1_234
10
15.7246505
20
0.5181211
11
15.8828758
21
0.5181211
0
LINE
8
DEFAULT_255_1_234
10
15.7158156
20
0.2827912
11
15.3696477
21
-0.258548
0
LINE
8
DEFAULT_255_1_234
10
15.3696477
20
-0.258548
11
15.7334854
21
-0.258548
0
LINE
8
DEFAULT_255_1_234
10
15.7334854
20
-0.258548
11
15.7334854
21
0.3149181
0
LINE
8
DEFAULT_255_1_234
10
15.7334854
20
0.3149181
11
15.7158156
21
0.2827912
0
LINE
8
DEFAULT_255_1_234
10
16.5414783
20
-0.6513
11
16.2177993
21
-0.6513
0
LINE
8
DEFAULT_255_1_234
10
16.2177993
20
-0.6513
11
16.2177993
21
0.5181211
0
LINE
8
DEFAULT_255_1_234
10
16.2177993
20
0.5181211
11
16.5479037
21
0.5181211
0
LINE
8
DEFAULT_255_1_234
10
17.0635413
20
-0.0272339
11
17.0635413
21
-0.1019291
0
LINE
8
DEFAULT_255_1_234
10
16.5519196
20
0.3912196
11
16.3720086
21
0.3912196
0
LINE
8
DEFAULT_255_1_234
10
16.3720086
20
0.3912196
11
16.3720086
21
-0.5252017
0
LINE
8
DEFAULT_255_1_234
10
16.3720086
20
-0.5252017
11
16.5342498
21
-0.5252017
0
LINE
8
DEFAULT_255_1_234
10
16.9109383
20
-0.0987164
11
16.9109383
21
-0.0304466
0
ARC
8
DEFAULT_255_1_234
10
16.551798
20
-0.0684106
40
0.5865446
50
75.4101064
51
90.3804066
0
ARC
8
DEFAULT_255_1_234
10
16.5747493
20
0.0272492
40
0.4881916
50
60.145586
51
75.1888407
0
ARC
8
DEFAULT_255_1_234
10
16.5906269
20
0.0549199
40
0.4562893
50
26.5253612
51
60.1450928
0
ARC
8
DEFAULT_255_1_234
10
16.4786018
20
-0.0044842
40
0.5830602
50
7.4030428
51
26.8320788
0
ARC
8
DEFAULT_255_1_234
10
16.3191775
20
-0.0293196
40
0.7443669
50
0.1605367
51
7.7176192
0
ARC
8
DEFAULT_255_1_234
10
16.3355679
20
-0.1057566
40
0.7279835
50
348.7289388
51
0.3012466
0
ARC
8
DEFAULT_255_1_234
10
16.501211
20
-0.1386614
40
0.559104
50
333.0706509
51
348.7181832
0
ARC
8
DEFAULT_255_1_234
10
16.5978867
20
-0.1911681
40
0.4491417
50
299.2531685
51
333.4571258
0
ARC
8
DEFAULT_255_1_234
10
16.5618007
20
-0.1226172
40
0.5265881
50
278.107187
51
299.0339503
0
ARC
8
DEFAULT_255_1_234
10
16.5362086
20
0.0281216
40
0.679442
50
270.4443897
51
278.4511052
0
ARC
8
DEFAULT_255_1_234
10
16.5382916
20
-0.0647787
40
0.4604407
50
269.4970433
51
284.0205042
0
ARC
8
DEFAULT_255_1_234
10
16.5738217
20
-0.2013022
40
0.3193797
50
283.7700273
51
318.1555492
0
ARC
8
DEFAULT_255_1_234
10
16.5400975
20
-0.1760633
40
0.3613588
50
318.7415601
51
343.6873628
0
ARC
8
DEFAULT_255_1_234
10
16.3596998
20
-0.1197168
40
0.5503313
50
343.3325091
51
355.8548958
0
ARC
8
DEFAULT_255_1_234
10
16.1498682
20
-0.0997681
40
0.7610708
50
355.4988528
51
0.0791727
0
ARC
8
DEFAULT_255_1_234
10
16.2281305
20
-0.026222
40
0.6828208
50
359.6455037
51
9.8607896
0
ARC
8
DEFAULT_255_1_234
10
16.4642003
20
0.0164099
40
0.4429406
50
9.6571907
51
26.1932807
0
ARC
8
DEFAULT_255_1_234
10
16.5569992
20
0.0595118
40
0.3406537
50
26.5777228
51
40.1532208
0
ARC
8
DEFAULT_255_1_234
10
16.5825718
20
0.0794619
40
0.308246
50
40.3840491
51
80.1431104
0
ARC
8
DEFAULT_255_1_234
10
16.5498836
20
-0.0654667
40
0.4566909
50
79.2152159
51
89.7445637
0
LINE
8
DEFAULT_255_1_234
10
17.9791595
20
-0.6513
11
17.7253565
21
-0.1782306
0
LINE
8
DEFAULT_255_1_234
10
17.7253565
20
-0.1782306
11
17.4506711
21
-0.1782306
0
LINE
8
DEFAULT_255_1_234
10
17.4506711
20
-0.1782306
11
17.4506711
21
-0.6513
0
LINE
8
DEFAULT_255_1_234
10
17.4506711
20
-0.6513
11
17.2956585
21
-0.6513
0
LINE
8
DEFAULT_255_1_234
10
17.2956585
20
-0.6513
11
17.2956585
21
0.5181211
0
LINE
8
DEFAULT_255_1_234
10
17.2956585
20
0.5181211
11
17.6827883
21
0.5181211
0
LINE
8
DEFAULT_255_1_234
10
17.8699278
20
-0.1453005
11
18.1446133
21
-0.6416619
0
LINE
8
DEFAULT_255_1_234
10
18.1446133
20
-0.6416619
11
18.1446133
21
-0.6513
0
LINE
8
DEFAULT_255_1_234
10
18.1446133
20
-0.6513
11
17.9791595
21
-0.6513
0
LINE
8
DEFAULT_255_1_234
10
17.4506711
20
0.3912196
11
17.4506711
21
-0.0521323
0
LINE
8
DEFAULT_255_1_234
10
17.4506711
20
-0.0521323
11
17.6876074
21
-0.0521323
0
LINE
8
DEFAULT_255_1_234
10
17.6868042
20
0.3912196
11
17.4506711
21
0.3912196
0
ARC
8
DEFAULT_255_1_234
10
17.6869523
20
-0.1780239
40
0.6961575
50
80.653586
51
90.3427061
0
ARC
8
DEFAULT_255_1_234
10
17.7288997
20
0.0682348
40
0.4463577
50
65.6987447
51
80.8329603
0
ARC
8
DEFAULT_255_1_234
10
17.7766638
20
0.1777322
40
0.3269094
50
50.0017161
51
65.4305835
0
ARC
8
DEFAULT_255_1_234
10
17.7985103
20
0.2072482
40
0.2902647
50
11.628416
51
49.5603263
0
ARC
8
DEFAULT_255_1_234
10
17.6449438
20
0.1697299
40
0.4482792
50
359.5655735
51
12.3691
0
ARC
8
DEFAULT_255_1_234
10
17.7526298
20
0.1634644
40
0.3405924
50
341.9983148
51
0.4822259
0
ARC
8
DEFAULT_255_1_234
10
17.7921138
20
0.1527471
40
0.2997359
50
323.8609373
51
341.61416
0
ARC
8
DEFAULT_255_1_234
10
17.7619382
20
0.1760484
40
0.3378487
50
296.7018614
51
323.6876402
0
ARC
8
DEFAULT_255_1_234
10
17.7178278
20
0.2549235
40
0.4281516
50
290.8086567
51
297.2323311
0
ARC
8
DEFAULT_255_1_234
10
17.6901807
20
0.3072351
40
0.3593766
50
269.589728
51
281.8058135
0
ARC
8
DEFAULT_255_1_234
10
17.7152706
20
0.1924743
40
0.2419125
50
281.5501019
51
303.9357432
0
ARC
8
DEFAULT_255_1_234
10
17.7289894
20
0.1686936
40
0.2145323
50
304.4415616
51
311.2106213
0
ARC
8
DEFAULT_255_1_234
10
17.7421999
20
0.1547632
40
0.1953505
50
310.9875673
51
356.2715578
0
ARC
8
DEFAULT_255_1_234
10
17.6665648
20
0.1660422
40
0.2716331
50
354.9348262
51
0.0609027
0
ARC
8
DEFAULT_255_1_234
10
17.6478522
20
0.1687435
40
0.2903554
50
359.5239371
51
12.8808918
0
ARC
8
DEFAULT_255_1_234
10
17.7456078
20
0.1926728
40
0.1897315
50
12.4173452
51
43.1022135
0
ARC
8
DEFAULT_255_1_234
10
17.7517682
20
0.1963724
40
0.1827118
50
43.5751728
51
48.203944
0
ARC
8
DEFAULT_255_1_234
10
17.7348174
20
0.1742302
40
0.2105272
50
48.7809703
51
72.6969569
0
ARC
8
DEFAULT_255_1_234
10
17.6993799
20
0.066682
40
0.3237537
50
72.3702241
51
84.8791103
0
ARC
8
DEFAULT_255_1_234
10
17.6846275
20
-0.0675231
40
0.4587478
50
84.5400526
51
89.7281406
0
LINE
8
DEFAULT_255_1_234
10
18.5951938
20
-0.0938974
11
18.5951938
21
-0.2151766
0
LINE
8
DEFAULT_255_1_234
10
18.5951938
20
-0.2151766
11
18.203245
21
-0.2151766
0
LINE
8
DEFAULT_255_1_234
10
18.203245
20
-0.2151766
11
18.203245
21
-0.0938974
0
LINE
8
DEFAULT_255_1_234
10
18.203245
20
-0.0938974
11
18.5951938
21
-0.0938974
0
LINE
8
DEFAULT_255_1_234
10
19.52045
20
-0.6513
11
19.4088089
21
-0.3460939
0
LINE
8
DEFAULT_255_1_234
10
19.4088089
20
-0.3460939
11
18.9188729
21
-0.3460939
0
LINE
8
DEFAULT_255_1_234
10
18.9188729
20
-0.3460939
11
18.808838
21
-0.6513
0
LINE
8
DEFAULT_255_1_234
10
18.808838
20
-0.6513
11
18.6498096
21
-0.6513
0
LINE
8
DEFAULT_255_1_234
10
18.6498096
20
-0.6513
11
19.0963743
21
0.5181211
0
LINE
8
DEFAULT_255_1_234
10
19.0963743
20
0.5181211
11
19.2313075
21
0.5181211
0
LINE
8
DEFAULT_255_1_234
10
19.2313075
20
0.5181211
11
19.6786753
21
-0.6513
0
LINE
8
DEFAULT_255_1_234
10
19.6786753
20
-0.6513
11
19.52045
21
-0.6513
0
LINE
8
DEFAULT_255_1_234
10
19.1638409
20
0.3277689
11
18.9654569
21
-0.2191925
0
LINE
8
DEFAULT_255_1_234
10
18.9654569
20
-0.2191925
11
19.363028
21
-0.2191925
0
LINE
8
DEFAULT_255_1_234
10
19.363028
20
-0.2191925
11
19.1638409
21
0.3277689
0
ARC
8
DEFAULT_255_2_778
10
15.4041323
20
82.299189
40
0.3782009
50
0.4397807
51
91.3045231
0
ARC
8
DEFAULT_255_2_778
10
15.4019879
20
82.2969064
40
0.3803695
50
269.0259909
51
0.7811192
0
ARC
8
DEFAULT_255_2_778
10
15.5611293
20
82.2844643
40
0.7639615
50
290.7362057
51
357.8000295
0
ARC
8
DEFAULT_255_2_778
10
15.4759031
20
82.3020235
40
0.8499188
50
356.8376875
51
0.0046095
0
ARC
8
DEFAULT_255_2_778
10
15.4745443
20
82.3020748
40
0.8512778
50
0.0011515
51
85.3589632
0
ARC
8
DEFAULT_255_2_778
10
15.4745371
20
82.2830092
40
0.8702827
50
85.4600549
51
90.0075769
0
ARC
8
DEFAULT_255_2_778
10
20.305685
20
82.2927426
40
0.3845507
50
1.3931151
51
90.158378
0
ARC
8
DEFAULT_255_2_778
10
20.3652096
20
82.2863635
40
0.8684198
50
359.7643557
51
42.1181505
0
ARC
8
DEFAULT_255_2_778
10
20.3676156
20
82.2867931
40
0.866348
50
42.2037872
51
87.9292218
0
ARC
8
DEFAULT_255_2_778
10
20.3628626
20
82.2455097
40
0.9077821
50
87.7235759
51
90.0025578
0
ARC
8
DEFAULT_255_2_778
10
13.0587947
20
82.2996344
40
0.3777354
50
0.3727528
51
91.1638813
0
ARC
8
DEFAULT_255_2_778
10
13.1128692
20
82.2863595
40
0.8684602
50
359.7646302
51
42.1161032
0
ARC
8
DEFAULT_255_2_778
10
13.1153774
20
82.2869127
40
0.8662296
50
42.2002176
51
87.9268901
0
ARC
8
DEFAULT_255_2_778
10
13.1106626
20
82.2458749
40
0.9074169
50
87.7231194
51
90.002558
0
ARC
8
DEFAULT_255_2_778
10
17.691342
20
81.8945858
40
1.2841942
50
233.3100129
51
270.0348017
0
ARC
8
DEFAULT_255_2_778
10
17.7034133
20
81.9149622
40
1.3077482
50
187.7860459
51
233.4193197
0
ARC
8
DEFAULT_255_2_778
10
17.7216588
20
81.9165185
40
1.3260368
50
179.9838663
51
187.7458681
0
ARC
8
DEFAULT_255_2_778
10
17.6801523
20
81.9171375
40
1.2845303
50
143.7084173
51
180.0109545
0
ARC
8
DEFAULT_255_2_778
10
17.6952238
20
81.9120899
40
1.2996747
50
94.9692901
51
143.9223324
0
ARC
8
DEFAULT_255_2_778
10
17.6920032
20
81.9127347
40
1.2987573
50
89.9947559
51
94.8302073
0
ARC
8
DEFAULT_255_2_778
10
17.6942339
20
81.9069304
40
1.3045632
50
58.1407344
51
90.0927508
0
ARC
8
DEFAULT_255_2_778
10
17.7023831
20
81.9125662
40
1.2954809
50
3.5056409
51
58.315291
0
ARC
8
DEFAULT_255_2_778
10
17.7034163
20
81.9166563
40
1.2942058
50
359.9971467
51
3.3277024
0
ARC
8
DEFAULT_255_2_778
10
17.5149088
20
81.9145483
40
1.4827147
50
0.006083
51
0.0789681
0
ARC
8
DEFAULT_255_2_778
10
17.6927187
20
81.9147022
40
1.3049047
50
315.0308293
51
0.0001529
0
ARC
8
DEFAULT_255_2_778
10
17.6932377
20
81.9144521
40
1.3043608
50
270.000667
51
315.0224921
0
LINE
8
DEFAULT_255_2_778
10
17.6932529
20
80.6100914
11
17.6921221
21
80.6100919
0
ARC
8
DEFAULT_255_2_778
10
17.6963812
20
81.9129112
40
0.7580313
50
269.6780691
51
315.5292436
0
ARC
8
DEFAULT_255_2_778
10
17.6933107
20
81.9121878
40
0.7597205
50
315.7303962
51
0.2857903
0
ARC
8
DEFAULT_255_2_778
10
17.9810376
20
81.9164382
40
0.4719845
50
359.944048
51
0.0186519
0
ARC
8
DEFAULT_255_2_778
10
17.7010772
20
81.9154605
40
0.7519457
50
0.086204
51
85.4319233
0
ARC
8
DEFAULT_255_2_778
10
17.6922609
20
81.8730338
40
0.7949581
50
85.0420495
51
90.0100075
0
ARC
8
DEFAULT_255_2_778
10
17.6902396
20
81.9297519
40
0.7382424
50
89.8538973
51
89.9999976
0
ARC
8
DEFAULT_255_2_778
10
17.690377
20
81.9168044
40
0.7511899
50
90.01048
51
134.9443097
0
ARC
8
DEFAULT_255_2_778
10
17.6905947
20
81.9166222
40
0.7514726
50
134.9462486
51
180.0023145
0
ARC
8
DEFAULT_255_2_778
10
17.7031624
20
81.9126875
40
0.7640503
50
179.7072119
51
222.5790813
0
ARC
8
DEFAULT_255_2_778
10
17.6902296
20
81.9016475
40
0.7470579
50
222.6267201
51
270.1451401
0
ARC
8
DEFAULT_255_2_778
10
9.696742
20
81.8945858
40
1.2841942
50
233.3100129
51
270.0348017
0
ARC
8
DEFAULT_255_2_778
10
9.7088133
20
81.9149622
40
1.3077482
50
187.7860459
51
233.4193197
0
ARC
8
DEFAULT_255_2_778
10
9.7270588
20
81.9165185
40
1.3260368
50
179.9838663
51
187.7458681
0
ARC
8
DEFAULT_255_2_778
10
9.6858129
20
81.9169961
40
1.2847909
50
143.1940819
51
180.0046489
0
ARC
8
DEFAULT_255_2_778
10
9.7006078
20
81.9123006
40
1.2994598
50
94.9233187
51
143.4191345
0
ARC
8
DEFAULT_255_2_778
10
9.6974008
20
81.913012
40
1.2984798
50
89.9946509
51
94.7850278
0
ARC
8
DEFAULT_255_2_778
10
9.6996902
20
81.9068441
40
1.3046496
50
58.1428905
51
90.0952196
0
ARC
8
DEFAULT_255_2_778
10
9.7081177
20
81.9129453
40
1.2950254
50
3.2656058
51
58.3171105
0
ARC
8
DEFAULT_255_2_778
10
9.7086693
20
81.9169485
40
1.2942527
50
359.997494
51
3.0900664
0
ARC
8
DEFAULT_255_2_778
10
9.7259718
20
81.9147448
40
1.276952
50
359.9949307
51
0.0963391
0
ARC
8
DEFAULT_255_2_778
10
9.6986093
20
81.9147585
40
1.3043147
50
315.0200668
51
359.994431
0
ARC
8
DEFAULT_255_2_778
10
9.6986338
20
81.91452
40
1.3041287
50
270.0008363
51
315.026719
0
LINE
8
DEFAULT_255_2_778
10
9.6986529
20
80.6103914
11
9.6975221
21
80.6103919
0
ARC
8
DEFAULT_255_2_778
10
9.7017412
20
81.9129135
40
0.7580334
50
269.6810953
51
315.6152252
0
ARC
8
DEFAULT_255_2_778
10
9.6986839
20
81.9122381
40
0.7597504
50
315.8129036
51
0.3254485
0
ARC
8
DEFAULT_255_2_778
10
9.7061176
20
81.9151565
40
0.7523058
50
0.1093155
51
85.7820321
0
ARC
8
DEFAULT_255_2_778
10
9.6976381
20
81.8736263
40
0.7943655
50
85.3923987
51
90.0083732
0
ARC
8
DEFAULT_255_2_778
10
9.6956385
20
81.9288348
40
0.7391595
50
89.8539942
51
89.9999859
0
ARC
8
DEFAULT_255_2_778
10
9.695705
20
81.9169783
40
0.7510159
50
90.0050654
51
134.9497993
0
ARC
8
DEFAULT_255_2_778
10
9.6955746
20
81.9167963
40
0.7510526
50
134.9329452
51
180.0155944
0
ARC
8
DEFAULT_255_2_778
10
9.7085945
20
81.9126612
40
0.7640826
50
179.7052536
51
222.5741919
0
ARC
8
DEFAULT_255_2_778
10
9.6955805
20
81.9016163
40
0.7470269
50
222.6256588
51
270.1489141
0
LINE
8
DEFAULT_255_2_778
10
14.2091221
20
83.1326919
11
14.2091221
21
80.6698919
0
LINE
8
DEFAULT_255_2_778
10
14.2091221
20
80.6698919
11
14.7526221
21
80.6698919
0
LINE
8
DEFAULT_255_2_778
10
14.7526221
20
80.6698919
11
14.7526221
21
82.6772919
0
LINE
8
DEFAULT_255_2_778
10
14.7526221
20
82.6772919
11
15.3955221
21
82.6772919
0
LINE
8
DEFAULT_255_2_778
10
15.3955221
20
81.9165919
11
14.9309221
21
81.9165919
0
LINE
8
DEFAULT_255_2_778
10
14.9309221
20
81.9165919
11
15.7720221
21
80.6695919
0
LINE
8
DEFAULT_255_2_778
10
15.7720221
20
80.6695919
11
16.4449221
21
80.6695919
0
LINE
8
DEFAULT_255_2_778
10
16.4449221
20
80.6695919
11
15.8316221
21
81.5699919
0
LINE
8
DEFAULT_255_2_778
10
15.4744221
20
83.1532919
11
14.7523221
21
83.1532919
0
LINE
8
DEFAULT_255_2_778
10
14.7523221
20
83.1532919
11
14.2089221
21
83.1326919
0
LINE
8
DEFAULT_255_2_778
10
14.2089221
20
83.1326919
11
14.2091221
21
83.1326919
0
LINE
8
DEFAULT_255_2_778
10
19.1465221
20
83.1326919
11
19.1465221
21
80.6698919
0
LINE
8
DEFAULT_255_2_778
10
19.1465221
20
80.6698919
11
19.6900221
21
80.6698919
0
LINE
8
DEFAULT_255_2_778
10
19.6900221
20
80.6698919
11
19.6900221
21
82.6772919
0
LINE
8
DEFAULT_255_2_778
10
19.6900221
20
82.6772919
11
20.3046221
21
82.6772919
0
LINE
8
DEFAULT_255_2_778
10
20.6901221
20
82.3020919
11
20.6901221
21
80.6698919
0
LINE
8
DEFAULT_255_2_778
10
20.6901221
20
80.6698919
11
21.2336221
21
80.6698919
0
LINE
8
DEFAULT_255_2_778
10
21.2336221
20
80.6698919
11
21.2336221
21
82.2827919
0
LINE
8
DEFAULT_255_2_778
10
20.3628221
20
83.1532919
11
19.6900221
21
83.1532919
0
LINE
8
DEFAULT_255_2_778
10
19.6900221
20
83.1532919
11
19.1465221
21
83.1326919
0
LINE
8
DEFAULT_255_2_778
10
19.1465221
20
83.1326919
11
19.1465221
21
83.1326919
0
LINE
8
DEFAULT_255_2_778
10
11.1519221
20
83.1326919
11
11.1519221
21
80.6698919
0
LINE
8
DEFAULT_255_2_778
10
11.1519221
20
80.6698919
11
11.6951221
21
80.6698919
0
LINE
8
DEFAULT_255_2_778
10
11.6951221
20
80.6698919
11
11.6951221
21
82.6772919
0
LINE
8
DEFAULT_255_2_778
10
11.6951221
20
82.6772919
11
12.2994221
21
82.6772919
0
LINE
8
DEFAULT_255_2_778
10
12.2994221
20
82.6772919
11
12.2994221
21
80.6698919
0
LINE
8
DEFAULT_255_2_778
10
12.2994221
20
80.6698919
11
12.8428221
21
80.6698919
0
LINE
8
DEFAULT_255_2_778
10
12.8428221
20
80.6698919
11
12.8428221
21
82.6772919
0
LINE
8
DEFAULT_255_2_778
10
12.8428221
20
82.6772919
11
13.0511221
21
82.6772919
0
LINE
8
DEFAULT_255_2_778
10
13.4365221
20
82.3020919
11
13.4365221
21
80.6698919
0
LINE
8
DEFAULT_255_2_778
10
13.4365221
20
80.6698919
11
13.9813221
21
80.6698919
0
LINE
8
DEFAULT_255_2_778
10
13.9813221
20
80.6698919
11
13.9813221
21
82.2827919
0
LINE
8
DEFAULT_255_2_778
10
13.1106221
20
83.1532919
11
11.7054221
21
83.1532919
0
LINE
8
DEFAULT_255_2_778
10
11.7054221
20
83.1532919
11
11.1516221
21
83.1326919
0
LINE
8
DEFAULT_255_2_778
10
11.1516221
20
83.1326919
11
11.1519221
21
83.1326919
0
LINE
8
DEFAULT_255_2_778
10
17.6921221
20
80.6100919
11
17.6921221
21
80.6103919
0
LINE
8
DEFAULT_255_2_778
10
9.6975221
20
80.6103919
11
9.6975221
21
80.6103919
0
LINE
8
DEFAULT_255_1_234
10
11.587423
20
78.4332663
11
11.7424355
21
78.4332663
0
LINE
8
DEFAULT_255_1_234
10
10.8420777
20
78.5922947
11
10.8420777
21
78.7047391
0
LINE
8
DEFAULT_255_1_234
10
11.7424355
20
78.8557357
11
11.587423
21
78.8557357
0
LINE
8
DEFAULT_255_1_234
10
10.9970902
20
78.7007232
11
10.9970902
21
78.5874757
0
ARC
8
DEFAULT_255_1_234
10
11.1943742
20
78.4929846
40
0.5513052
50
340.1774281
51
353.7814284
0
ARC
8
DEFAULT_255_1_234
10
11.3515095
20
78.4344582
40
0.3836379
50
311.4558989
51
340.4421614
0
ARC
8
DEFAULT_255_1_234
10
11.3481763
20
78.4455528
40
0.3941894
50
282.4333181
51
310.7513653
0
ARC
8
DEFAULT_255_1_234
10
11.3042502
20
78.6270679
40
0.5809175
50
269.9358511
51
282.809604
0
ARC
8
DEFAULT_255_1_234
10
11.2990568
20
78.7728212
40
0.7266847
50
270.0021091
51
270.3581957
0
ARC
8
DEFAULT_255_1_234
10
11.2937985
20
78.5127585
40
0.4666519
50
250.7884749
51
270.6489167
0
ARC
8
DEFAULT_255_1_234
10
11.276982
20
78.4490319
40
0.4009729
50
219.3627325
51
250.0611886
0
ARC
8
DEFAULT_255_1_234
10
11.3599031
20
78.5195042
40
0.5097822
50
193.5479632
51
219.5756669
0
ARC
8
DEFAULT_255_1_234
10
11.5970652
20
78.5810919
40
0.7547848
50
181.1218675
51
193.87563
0
ARC
8
DEFAULT_255_1_234
10
11.8040833
20
78.592158
40
0.9620055
50
179.9918545
51
181.5394234
0
ARC
8
DEFAULT_255_1_234
10
11.6189935
20
78.7084788
40
0.7769248
50
169.5837241
51
180.2757934
0
ARC
8
DEFAULT_255_1_234
10
11.4352873
20
78.7424229
40
0.590109
50
155.0365899
51
169.6003176
0
ARC
8
DEFAULT_255_1_234
10
11.3217337
20
78.7971677
40
0.4640625
50
136.783148
51
155.2472683
0
ARC
8
DEFAULT_255_1_234
10
11.2827814
20
78.8302562
40
0.4130255
50
121.7633186
51
136.428115
0
ARC
8
DEFAULT_255_1_234
10
11.2962776
20
78.8053227
40
0.4413323
50
95.6459699
51
121.5490577
0
ARC
8
DEFAULT_255_1_234
10
11.3120058
20
78.6944949
40
0.55319
50
89.924208
51
96.1377933
0
ARC
8
DEFAULT_255_1_234
10
11.3170491
20
78.7063542
40
0.5413475
50
76.6779277
51
90.4563316
0
ARC
8
DEFAULT_255_1_234
10
11.3564114
20
78.8654114
40
0.3775041
50
47.485847
51
76.9287264
0
ARC
8
DEFAULT_255_1_234
10
11.3417087
20
78.8554159
40
0.3948286
50
16.5424086
51
46.8933463
0
ARC
8
DEFAULT_255_1_234
10
11.1809244
20
78.8025861
40
0.564021
50
5.4072051
51
17.0365086
0
ARC
8
DEFAULT_255_1_234
10
11.0370261
20
78.7794679
40
0.5556559
50
7.8891745
51
15.9239216
0
ARC
8
DEFAULT_255_1_234
10
11.2357274
20
78.8371631
40
0.3487515
50
15.7653144
51
27.9410532
0
ARC
8
DEFAULT_255_1_234
10
11.3461492
20
78.896279
40
0.2235026
50
27.8166557
51
46.4008329
0
ARC
8
DEFAULT_255_1_234
10
11.3511135
20
78.8957082
40
0.2205286
50
47.4371857
51
75.0698205
0
ARC
8
DEFAULT_255_1_234
10
11.3202529
20
78.7882765
40
0.3322915
50
74.7008593
51
87.8124495
0
ARC
8
DEFAULT_255_1_234
10
11.3129217
20
78.6826844
40
0.4380987
50
87.3814673
51
90.0240855
0
ARC
8
DEFAULT_255_1_234
10
11.309076
20
78.8004291
40
0.3203749
50
89.3451631
51
108.5745436
0
ARC
8
DEFAULT_255_1_234
10
11.2953865
20
78.8517908
40
0.2673494
50
109.2998449
51
143.3037509
0
ARC
8
DEFAULT_255_1_234
10
11.3715938
20
78.7931881
40
0.3634757
50
143.0753173
51
163.1916937
0
ARC
8
DEFAULT_255_1_234
10
11.5667666
20
78.7315967
40
0.5681262
50
162.9373603
51
174.6208611
0
ARC
8
DEFAULT_255_1_234
10
11.8293708
20
78.702801
40
0.8322832
50
174.3419979
51
180.1430411
0
ARC
8
DEFAULT_255_1_234
10
11.7362864
20
78.5833698
40
0.7392076
50
179.6817502
51
189.150529
0
ARC
8
DEFAULT_255_1_234
10
11.4862112
20
78.541719
40
0.4856932
50
188.9910863
51
203.5773039
0
ARC
8
DEFAULT_255_1_234
10
11.3782445
20
78.4969211
40
0.3688271
50
203.9077269
51
215.1312379
0
ARC
8
DEFAULT_255_1_234
10
11.2859539
20
78.4253941
40
0.2522457
50
213.9071664
51
263.8849284
0
ARC
8
DEFAULT_255_1_234
10
11.2984868
20
78.5038518
40
0.3316174
50
263.1758525
51
270.1031083
0
ARC
8
DEFAULT_255_1_234
10
11.301696
20
78.6285365
40
0.4563091
50
269.6719807
51
279.0609165
0
ARC
8
DEFAULT_255_1_234
10
11.3283728
20
78.4672907
40
0.2928759
50
278.8750225
51
293.6346586
0
ARC
8
DEFAULT_255_1_234
10
11.3603936
20
78.39209
40
0.2111472
50
293.8553404
51
310.0518804
0
ARC
8
DEFAULT_255_1_234
10
11.360879
20
78.3858516
40
0.2060917
50
311.0646779
51
332.0108348
0
ARC
8
DEFAULT_255_1_234
10
11.2416517
20
78.4515978
40
0.3422352
50
331.6588543
51
343.2878891
0
ARC
8
DEFAULT_255_1_234
10
11.0354032
20
78.5149798
40
0.5580003
50
343.1446044
51
351.010618
0
ARC
8
DEFAULT_255_1_234
10
10.8812678
20
78.5430871
40
0.7146438
50
350.7157277
51
351.1602153
0
LINE
8
DEFAULT_255_1_234
10
12.3825651
20
78.5200091
11
12.1070765
21
78.5200091
0
LINE
8
DEFAULT_255_1_234
10
12.1070765
20
78.5200091
11
12.1070765
21
78.0622
0
LINE
8
DEFAULT_255_1_234
10
12.1070765
20
78.0622
11
11.9528671
21
78.0622
0
LINE
8
DEFAULT_255_1_234
10
11.9528671
20
78.0622
11
11.9528671
21
79.2316211
0
LINE
8
DEFAULT_255_1_234
10
11.9528671
20
79.2316211
11
12.3841714
21
79.2316211
0
LINE
8
DEFAULT_255_1_234
10
12.1070765
20
79.1047196
11
12.1070765
21
78.6461074
0
LINE
8
DEFAULT_255_1_234
10
12.1070765
20
78.6461074
11
12.3841714
21
78.6461074
0
LINE
8
DEFAULT_255_1_234
10
12.3930063
20
79.1047196
11
12.1070765
21
79.1047196
0
ARC
8
DEFAULT_255_1_234
10
12.3883841
20
78.6257195
40
0.6059162
50
78.8378113
51
90.3983573
0
ARC
8
DEFAULT_255_1_234
10
12.4299855
20
78.8277879
40
0.3996205
50
58.9632738
51
79.0810598
0
ARC
8
DEFAULT_255_1_234
10
12.4601397
20
78.8837721
40
0.3361177
50
48.0197965
51
58.447194
0
ARC
8
DEFAULT_255_1_234
10
12.4690258
20
78.8923225
40
0.3238191
50
3.3375044
51
48.1766626
0
ARC
8
DEFAULT_255_1_234
10
12.3460098
20
78.8746171
40
0.4477806
50
359.9477528
51
4.6829065
0
ARC
8
DEFAULT_255_1_234
10
12.3583414
20
78.8703628
40
0.4354656
50
346.1877825
51
0.5060252
0
ARC
8
DEFAULT_255_1_234
10
12.4942282
20
78.8350731
40
0.295089
50
310.8831995
51
346.5426355
0
ARC
8
DEFAULT_255_1_234
10
12.4633702
20
78.8767695
40
0.3468331
50
286.6925341
51
310.2288297
0
ARC
8
DEFAULT_255_1_234
10
12.4064533
20
79.0557882
40
0.5346654
50
274.6850312
51
287.0245141
0
ARC
8
DEFAULT_255_1_234
10
12.3839256
20
79.2766932
40
0.7566852
50
269.8969846
51
275.018904
0
ARC
8
DEFAULT_255_1_234
10
12.3866847
20
79.0687707
40
0.4226708
50
269.6593078
51
279.4153575
0
ARC
8
DEFAULT_255_1_234
10
12.4124122
20
78.9197133
40
0.2714146
50
279.2049762
51
294.9900808
0
ARC
8
DEFAULT_255_1_234
10
12.4414448
20
78.8549508
40
0.2004525
50
295.2888114
51
311.2911209
0
ARC
8
DEFAULT_255_1_234
10
12.4485342
20
78.844422
40
0.1878703
50
311.7854996
51
347.2861051
0
ARC
8
DEFAULT_255_1_234
10
12.3501501
20
78.8697092
40
0.2894234
50
346.6893224
51
0.1059443
0
ARC
8
DEFAULT_255_1_234
10
12.2746396
20
78.8725685
40
0.3649409
50
359.6350983
51
0.0053152
0
ARC
8
DEFAULT_255_1_234
10
12.3716724
20
78.8750937
40
0.2679199
50
359.4672059
51
15.5933957
0
ARC
8
DEFAULT_255_1_234
10
12.4341613
20
78.8919779
40
0.2031932
50
15.7442113
51
46.6203375
0
ARC
8
DEFAULT_255_1_234
10
12.4193834
20
78.8749484
40
0.2257226
50
46.8628658
51
75.6676503
0
ARC
8
DEFAULT_255_1_234
10
12.3899654
20
78.7690718
40
0.3355939
50
75.276167
51
88.2915297
0
ARC
8
DEFAULT_255_1_234
10
12.3841361
20
78.6812524
40
0.4235602
50
87.8575022
51
88.8000139
0
LINE
8
DEFAULT_255_1_234
10
13.2764976
20
78.6196026
11
13.2764976
21
78.4983234
0
LINE
8
DEFAULT_255_1_234
10
13.2764976
20
78.4983234
11
12.8845487
21
78.4983234
0
LINE
8
DEFAULT_255_1_234
10
12.8845487
20
78.4983234
11
12.8845487
21
78.6196026
0
LINE
8
DEFAULT_255_1_234
10
12.8845487
20
78.6196026
11
13.2764976
21
78.6196026
0
LINE
8
DEFAULT_255_1_234
10
14.2202268
20
78.8934849
11
14.0652143
21
78.8934849
0
LINE
8
DEFAULT_255_1_234
10
13.3728784
20
78.4011394
11
13.527891
21
78.4011394
0
ARC
8
DEFAULT_255_1_234
10
14.1310955
20
79.7881768
40
1.252368
50
248.9199003
51
254.1439814
0
ARC
8
DEFAULT_255_1_234
10
13.963045
20
79.3555234
40
0.788226
50
241.633709
51
249.0064503
0
ARC
8
DEFAULT_255_1_234
10
13.8101845
20
79.0754317
40
0.4691427
50
230.498225
51
241.8087113
0
ARC
8
DEFAULT_255_1_234
10
13.7317419
20
78.9754906
40
0.3421437
50
227.4064532
51
229.9881192
0
ARC
8
DEFAULT_255_1_234
10
13.682994
20
78.9279088
40
0.2741476
50
200.6781896
51
228.1763934
0
ARC
8
DEFAULT_255_1_234
10
13.690225
20
78.9264077
40
0.2804109
50
179.5061581
51
199.8694617
0
ARC
8
DEFAULT_255_1_234
10
13.6893002
20
78.933821
40
0.2795204
50
132.4834203
51
181.0242172
0
ARC
8
DEFAULT_255_1_234
10
13.7488584
20
78.8775704
40
0.3612768
50
129.2532479
51
133.4242687
0
ARC
8
DEFAULT_255_1_234
10
13.7635034
20
78.8555965
40
0.3875675
50
101.98776
51
128.8742646
0
ARC
8
DEFAULT_255_1_234
10
13.8033644
20
78.6834741
40
0.5642249
50
89.5906553
51
102.3169264
0
ARC
8
DEFAULT_255_1_234
10
13.8104137
20
78.7153148
40
0.5323783
50
77.2360837
51
90.3248275
0
ARC
8
DEFAULT_255_1_234
10
13.8311216
20
78.81204
40
0.4334697
50
63.837784
51
77.0809408
0
ARC
8
DEFAULT_255_1_234
10
13.8588977
20
78.8637911
40
0.3747796
50
45.9864267
51
64.1607727
0
ARC
8
DEFAULT_255_1_234
10
13.8849859
20
78.8935866
40
0.3352302
50
32.2747395
51
45.6547121
0
ARC
8
DEFAULT_255_1_234
10
13.8916299
20
78.895488
40
0.328603
50
359.6507365
51
32.6130309
0
ARC
8
DEFAULT_255_1_234
10
13.7973395
20
78.895966
40
0.2678863
50
359.469343
51
14.9832209
0
ARC
8
DEFAULT_255_1_234
10
13.8678457
20
78.9148539
40
0.1948938
50
14.9781179
51
48.2004265
0
ARC
8
DEFAULT_255_1_234
10
13.8514101
20
78.8941983
40
0.2212521
50
48.5927837
51
74.1241538
0
ARC
8
DEFAULT_255_1_234
10
13.8180591
20
78.7841248
40
0.3362561
50
73.7888341
51
86.6652678
0
ARC
8
DEFAULT_255_1_234
10
13.8078156
20
78.6633881
40
0.4573953
50
86.2640471
51
90.0526343
0
ARC
8
DEFAULT_255_1_234
10
13.8049869
20
78.7029192
40
0.4178709
50
89.6697524
51
99.2309573
0
ARC
8
DEFAULT_255_1_234
10
13.780732
20
78.8473964
40
0.2713749
50
99.069534
51
113.7658566
0
ARC
8
DEFAULT_255_1_234
10
13.7533511
20
78.9119677
40
0.2012469
50
114.0401004
51
127.9850673
0
ARC
8
DEFAULT_255_1_234
10
13.7293075
20
78.941573
40
0.1631167
50
127.7287463
51
176.7105154
0
ARC
8
DEFAULT_255_1_234
10
13.7971792
20
78.9314693
40
0.2315392
50
175.1779447
51
180.0581938
0
ARC
8
DEFAULT_255_1_234
10
13.7128639
20
78.9302428
40
0.1472271
50
179.6142195
51
228.1246017
0
ARC
8
DEFAULT_255_1_234
10
13.7570308
20
78.9711308
40
0.2072299
50
226.5779593
51
230.8800004
0
ARC
8
DEFAULT_255_1_234
10
13.8041386
20
79.0336636
40
0.2854818
50
231.4635071
51
241.9260842
0
ARC
8
DEFAULT_255_1_234
10
13.9238564
20
79.25398
40
0.53622
50
241.7178533
51
248.3259551
0
ARC
8
DEFAULT_255_1_234
10
14.0623936
20
79.5972064
40
0.9063478
50
248.2007737
51
252.4528373
0
ARC
8
DEFAULT_255_1_234
10
14.1827661
20
79.9693441
40
1.2974635
50
252.3391078
51
254.3469452
0
ARC
8
DEFAULT_255_1_234
10
13.4285364
20
77.2716148
40
1.5037162
50
71.0197183
51
74.4087047
0
ARC
8
DEFAULT_255_1_234
10
13.5980049
20
77.7608111
40
0.9859993
50
66.1847285
51
71.086374
0
ARC
8
DEFAULT_255_1_234
10
13.7536361
20
78.11122
40
0.6025855
50
59.3536294
51
66.2691831
0
ARC
8
DEFAULT_255_1_234
10
13.8425014
20
78.2615609
40
0.4279449
50
49.1020879
51
59.3293958
0
ARC
8
DEFAULT_255_1_234
10
13.9243754
20
78.3548834
40
0.3038015
50
32.7919921
51
49.2505539
0
ARC
8
DEFAULT_255_1_234
10
13.9564844
20
78.3777191
40
0.264448
50
31.1181161
51
32.4005348
0
ARC
8
DEFAULT_255_1_234
10
13.9476381
20
78.3741779
40
0.2738556
50
8.1116974
51
30.7958831
0
ARC
8
DEFAULT_255_1_234
10
13.8666049
20
78.3603753
40
0.3560327
50
359.8389159
51
8.4706516
0
ARC
8
DEFAULT_255_1_234
10
13.9291841
20
78.3555137
40
0.2934776
50
337.4731098
51
0.7537279
0
ARC
8
DEFAULT_255_1_234
10
13.9470536
20
78.3535387
40
0.2762607
50
307.5917067
51
336.4315538
0
ARC
8
DEFAULT_255_1_234
10
13.9010364
20
78.4048102
40
0.3449979
50
307.6551545
51
308.4529766
0
ARC
8
DEFAULT_255_1_234
10
13.8780083
20
78.440325
40
0.3871988
50
284.3734338
51
307.1424381
0
ARC
8
DEFAULT_255_1_234
10
13.8284913
20
78.6224932
40
0.5759636
50
272.4382747
51
284.646547
0
ARC
8
DEFAULT_255_1_234
10
13.8158122
20
78.8024893
40
0.7563528
50
269.9708387
51
272.8178037
0
ARC
8
DEFAULT_255_1_234
10
13.8115161
20
78.5986716
40
0.5525489
50
248.2707594
51
270.4055579
0
ARC
8
DEFAULT_255_1_234
10
13.8060902
20
78.5796192
40
0.5328452
50
246.1383403
51
248.0542782
0
ARC
8
DEFAULT_255_1_234
10
13.7642281
20
78.4916843
40
0.4355005
50
233.1670131
51
246.4950969
0
ARC
8
DEFAULT_255_1_234
10
13.7088186
20
78.4168812
40
0.3424126
50
215.3403242
51
233.0843104
0
ARC
8
DEFAULT_255_1_234
10
13.6815617
20
78.3970549
40
0.3087104
50
179.2419209
51
215.2648451
0
ARC
8
DEFAULT_255_1_234
10
13.7583211
20
78.3984666
40
0.2304457
50
179.335461
51
199.1045811
0
ARC
8
DEFAULT_255_1_234
10
13.7250888
20
78.3897766
40
0.1962176
50
199.8828939
51
232.7063202
0
ARC
8
DEFAULT_255_1_234
10
13.7723156
20
78.4491788
40
0.2720938
50
232.3738199
51
255.5136649
0
ARC
8
DEFAULT_255_1_234
10
13.8064023
20
78.5735835
40
0.4010747
50
255.2446292
51
267.5320849
0
ARC
8
DEFAULT_255_1_234
10
13.8151646
20
78.6968702
40
0.5246356
50
267.1557994
51
270.0286766
0
ARC
8
DEFAULT_255_1_234
10
13.8179418
20
78.652495
40
0.4802668
50
269.7000017
51
278.1660162
0
ARC
8
DEFAULT_255_1_234
10
13.8435423
20
78.4794515
40
0.3053425
50
278.0231263
51
290.625471
0
ARC
8
DEFAULT_255_1_234
10
13.878311
20
78.3867025
40
0.206291
50
290.6619762
51
307.0370976
0
ARC
8
DEFAULT_255_1_234
10
13.90835
20
78.3498504
40
0.1587906
50
306.3943566
51
355.3030547
0
ARC
8
DEFAULT_255_1_234
10
13.8571431
20
78.3575113
40
0.2104809
50
354.3660432
51
0.0698737
0
ARC
8
DEFAULT_255_1_234
10
13.8713776
20
78.3597617
40
0.1962563
50
359.417946
51
16.1971788
0
ARC
8
DEFAULT_255_1_234
10
13.9169087
20
78.3722418
40
0.149053
50
16.4723299
51
52.6262157
0
ARC
8
DEFAULT_255_1_234
10
13.834814
20
78.2638433
40
0.2850296
50
52.7386432
51
62.4979148
0
ARC
8
DEFAULT_255_1_234
10
13.6963217
20
78.0032283
40
0.5801521
50
62.2515216
51
68.1220564
0
ARC
8
DEFAULT_255_1_234
10
13.5243128
20
77.5804872
40
1.0365451
50
68.0062803
51
71.8053402
0
ARC
8
DEFAULT_255_1_234
10
13.34475
20
77.0419758
40
1.6042013
50
71.7183119
51
73.9258742
0
LINE
8
DEFAULT_255_1_234
10
14.3591759
20
78.4726218
11
14.3591759
21
78.4999297
0
LINE
8
DEFAULT_255_1_234
10
15.0964895
20
78.5159932
11
15.0964895
21
78.4541488
0
LINE
8
DEFAULT_255_1_234
10
15.0964895
20
78.4541488
11
14.507763
21
78.4541488
0
LINE
8
DEFAULT_255_1_234
10
14.9944864
20
78.2846792
11
15.085245
21
78.2139999
0
LINE
8
DEFAULT_255_1_234
10
14.5125821
20
78.5762313
11
14.9479023
21
78.5762313
0
LINE
8
DEFAULT_255_1_234
10
14.9479023
20
78.5762313
11
14.9479023
21
78.5874757
0
ARC
8
DEFAULT_255_1_234
10
14.7531124
20
78.4837332
40
0.4376191
50
252.3266134
51
270.5810217
0
ARC
8
DEFAULT_255_1_234
10
14.7326213
20
78.4096644
40
0.3608374
50
223.3000567
51
251.8561855
0
ARC
8
DEFAULT_255_1_234
10
14.7537574
20
78.4301937
40
0.3902993
50
190.9374509
51
223.3654032
0
ARC
8
DEFAULT_255_1_234
10
14.9262546
20
78.4691885
40
0.5670891
50
179.6531105
51
191.4989439
0
ARC
8
DEFAULT_255_1_234
10
14.9384558
20
78.5031417
40
0.5792888
50
167.4007466
51
180.3176909
0
ARC
8
DEFAULT_255_1_234
10
14.833262
20
78.5253885
40
0.471777
50
154.1835823
51
167.250763
0
ARC
8
DEFAULT_255_1_234
10
14.7701087
20
78.5586417
40
0.4004528
50
134.3149965
51
154.5315275
0
ARC
8
DEFAULT_255_1_234
10
14.7483582
20
78.5777228
40
0.371612
50
122.8616532
51
133.9707695
0
ARC
8
DEFAULT_255_1_234
10
14.7380156
20
78.5999703
40
0.3473289
50
89.8249009
51
123.4199222
0
ARC
8
DEFAULT_255_1_234
10
14.7430197
20
78.5352967
40
0.4120197
50
74.7876118
51
90.5482747
0
ARC
8
DEFAULT_255_1_234
10
14.7723941
20
78.643803
40
0.2996077
50
39.8178249
51
74.7633718
0
ARC
8
DEFAULT_255_1_234
10
14.7211261
20
78.6038351
40
0.3645855
50
16.8990863
51
39.4829761
0
ARC
8
DEFAULT_255_1_234
10
14.5316557
20
78.5431526
40
0.5635218
50
4.9636328
51
17.2026414
0
ARC
8
DEFAULT_255_1_234
10
14.2898627
20
78.517634
40
0.8066286
50
359.8834553
51
5.2834307
0
ARC
8
DEFAULT_255_1_234
10
14.8936152
20
78.4607803
40
0.3859091
50
180.9846213
51
194.9401313
0
ARC
8
DEFAULT_255_1_234
10
14.788643
20
78.4320849
40
0.2770883
50
194.80314
51
222.0412631
0
ARC
8
DEFAULT_255_1_234
10
14.7582312
20
78.4019116
40
0.2343055
50
221.5417084
51
268.8614402
0
ARC
8
DEFAULT_255_1_234
10
14.7655306
20
78.4695686
40
0.3021528
50
267.732405
51
270.0097136
0
ARC
8
DEFAULT_255_1_234
10
14.7673116
20
78.4897105
40
0.3222994
50
269.6924892
51
280.4117579
0
ARC
8
DEFAULT_255_1_234
10
14.7849523
20
78.3978193
40
0.2287344
50
280.2255091
51
298.6338936
0
ARC
8
DEFAULT_255_1_234
10
14.7966315
20
78.3734223
40
0.2017294
50
299.0430333
51
300.4643464
0
ARC
8
DEFAULT_255_1_234
10
14.728632
20
78.4868038
40
0.3339357
50
300.6577328
51
322.0378878
0
ARC
8
DEFAULT_255_1_234
10
14.693586
20
78.5172021
40
0.3802736
50
321.6750233
51
322.3046845
0
ARC
8
DEFAULT_255_1_234
10
14.7866821
20
78.400537
40
0.3520454
50
276.9728461
51
328.0035423
0
ARC
8
DEFAULT_255_1_234
10
14.7589874
20
78.5485841
40
0.5024498
50
269.8361028
51
278.0581756
0
ARC
8
DEFAULT_255_1_234
10
14.7362611
20
78.6230757
40
0.202159
50
89.2018686
51
117.2851756
0
ARC
8
DEFAULT_255_1_234
10
14.741578
20
78.6188752
40
0.2083484
50
118.0551165
51
137.4540413
0
ARC
8
DEFAULT_255_1_234
10
14.779052
20
78.5848304
40
0.2589774
50
137.5109581
51
158.8516286
0
ARC
8
DEFAULT_255_1_234
10
14.8928356
20
78.5389074
40
0.38167
50
158.5845963
51
170.1721436
0
ARC
8
DEFAULT_255_1_234
10
15.0097745
20
78.5156823
40
0.5008657
50
169.8376422
51
173.0566086
0
ARC
8
DEFAULT_255_1_234
10
14.5400819
20
78.5667509
40
0.4083467
50
2.9091802
51
12.8847116
0
ARC
8
DEFAULT_255_1_234
10
14.6771495
20
78.5990101
40
0.2675383
50
12.6957781
51
28.6404489
0
ARC
8
DEFAULT_255_1_234
10
14.7313166
20
78.6270458
40
0.2065654
50
29.0169854
51
41.1487595
0
ARC
8
DEFAULT_255_1_234
10
14.7515951
20
78.6447003
40
0.1796786
50
41.1646065
51
85.0013516
0
ARC
8
DEFAULT_255_1_234
10
14.7395048
20
78.5712431
40
0.2539726
50
83.7280015
51
90.0964893
0
LINE
8
DEFAULT_255_1_234
10
15.6884286
20
78.9360531
11
15.6884286
21
78.7979072
0
LINE
8
DEFAULT_255_1_234
10
15.4169558
20
78.6790375
11
15.4169558
21
78.0622
0
LINE
8
DEFAULT_255_1_234
10
15.4169558
20
78.0622
11
15.2683687
21
78.0622
0
LINE
8
DEFAULT_255_1_234
10
15.2683687
20
78.0622
11
15.2683687
21
78.9312341
0
LINE
8
DEFAULT_255_1_234
10
15.2683687
20
78.9312341
11
15.4129399
21
78.9312341
0
LINE
8
DEFAULT_255_1_234
10
15.4129399
20
78.9312341
11
15.4153495
21
78.8308374
0
ARC
8
DEFAULT_255_1_234
10
15.6217691
20
78.3919342
40
0.4114092
50
80.6754243
51
86.8932892
0
ARC
8
DEFAULT_255_1_234
10
15.6157225
20
78.29517
40
0.5083596
50
86.8038578
51
90.0431435
0
ARC
8
DEFAULT_255_1_234
10
15.6120206
20
78.5408866
40
0.2626638
50
89.2759698
51
106.6213787
0
ARC
8
DEFAULT_255_1_234
10
15.591577
20
78.615183
40
0.1856317
50
107.1346045
51
157.6458115
0
ARC
8
DEFAULT_255_1_234
10
15.6607372
20
78.5768311
40
0.2643398
50
155.6586782
51
157.2539184
0
ARC
8
DEFAULT_255_1_234
10
15.6402574
20
78.6937157
40
0.2634121
50
127.8165941
51
148.6302098
0
ARC
8
DEFAULT_255_1_234
10
15.6149043
20
78.7197218
40
0.2273596
50
91.3329982
51
126.7875809
0
ARC
8
DEFAULT_255_1_234
10
15.6224983
20
78.6482195
40
0.299078
50
89.986594
51
92.4688449
0
ARC
8
DEFAULT_255_1_234
10
15.6233378
20
78.6757078
40
0.2715908
50
85.3589899
51
90.1623399
0
ARC
8
DEFAULT_255_1_234
10
15.6317894
20
78.7761164
40
0.1708278
50
78.401942
51
85.4594656
0
ARC
8
DEFAULT_255_1_234
10
15.6462778
20
78.8452236
40
0.1002194
50
67.7858312
51
78.5728455
0
ARC
8
DEFAULT_255_1_234
10
15.6570631
20
78.8731887
40
0.0702548
50
63.4835954
51
67.3062642
0
LINE
8
DEFAULT_255_1_234
10
15.9864061
20
78.9312341
11
15.9864061
21
78.0622
0
LINE
8
DEFAULT_255_1_234
10
15.9864061
20
78.0622
11
15.8378189
21
78.0622
0
LINE
8
DEFAULT_255_1_234
10
15.8378189
20
78.0622
11
15.8378189
21
78.9312341
0
LINE
8
DEFAULT_255_1_234
10
15.8378189
20
78.9312341
11
15.9864061
21
78.9312341
0
ARC
8
DEFAULT_255_1_234
10
15.9236338
20
79.1626889
40
0.097867
50
161.415052
51
180.5526306
0
ARC
8
DEFAULT_255_1_234
10
15.9112116
20
79.1661077
40
0.0850062
50
138.1827368
51
160.9307106
0
ARC
8
DEFAULT_255_1_234
10
15.9002061
20
79.1756588
40
0.0704362
50
104.6368899
51
138.0039868
0
ARC
8
DEFAULT_255_1_234
10
15.9109216
20
79.1389963
40
0.1086221
50
92.0600725
51
105.2189128
0
ARC
8
DEFAULT_255_1_234
10
15.9132564
20
79.1047117
40
0.1429728
50
89.9756393
51
92.5012496
0
ARC
8
DEFAULT_255_1_234
10
15.9142584
20
79.1272731
40
0.1204151
50
78.0235316
51
90.4478182
0
ARC
8
DEFAULT_255_1_234
10
15.9234676
20
79.1686295
40
0.0780493
50
55.051506
51
78.3369085
0
ARC
8
DEFAULT_255_1_234
10
15.928495
20
79.1770711
40
0.0682538
50
42.0501187
51
54.4513741
0
ARC
8
DEFAULT_255_1_234
10
15.9149817
20
79.1646798
40
0.0865878
50
1.7497075
51
42.1496013
0
ARC
8
DEFAULT_255_1_234
10
15.889515
20
79.1617738
40
0.1121515
50
359.9852656
51
2.8364544
0
ARC
8
DEFAULT_255_1_234
10
15.9061142
20
79.1608229
40
0.0955566
50
342.1070653
51
0.552888
0
ARC
8
DEFAULT_255_1_234
10
15.920384
20
79.1568904
40
0.0807713
50
316.7107116
51
341.6516965
0
ARC
8
DEFAULT_255_1_234
10
15.9270877
20
79.1508823
40
0.0717724
50
285.4397031
51
316.5324284
0
ARC
8
DEFAULT_255_1_234
10
15.9160794
20
79.1874554
40
0.1099597
50
272.3547054
51
285.8953117
0
ARC
8
DEFAULT_255_1_234
10
15.9133952
20
79.2240048
40
0.1465932
50
269.9695369
51
272.8160237
0
ARC
8
DEFAULT_255_1_234
10
15.9124133
20
79.2020863
40
0.1246779
50
258.8431134
51
270.4153935
0
ARC
8
DEFAULT_255_1_234
10
15.9034175
20
79.1585414
40
0.0802162
50
238.5431189
51
259.1288175
0
ARC
8
DEFAULT_255_1_234
10
15.896606
20
79.1461856
40
0.0661247
50
222.5062634
51
237.9906969
0
ARC
8
DEFAULT_255_1_234
10
15.9093648
20
79.1577889
40
0.0833707
50
184.1069131
51
222.460413
0
ARC
8
DEFAULT_255_1_234
10
15.9362889
20
79.1616349
40
0.1105176
50
179.9429482
51
185.0960898
0
LINE
8
DEFAULT_255_1_234
10
16.1863963
20
78.4726218
11
16.1863963
21
78.4999297
0
LINE
8
DEFAULT_255_1_234
10
16.9237099
20
78.5159932
11
16.9237099
21
78.4541488
0
LINE
8
DEFAULT_255_1_234
10
16.9237099
20
78.4541488
11
16.3349835
21
78.4541488
0
LINE
8
DEFAULT_255_1_234
10
16.8217068
20
78.2846792
11
16.9124655
21
78.2139999
0
LINE
8
DEFAULT_255_1_234
10
16.3398025
20
78.5762313
11
16.7751228
21
78.5762313
0
LINE
8
DEFAULT_255_1_234
10
16.7751228
20
78.5762313
11
16.7751228
21
78.5874757
0
ARC
8
DEFAULT_255_1_234
10
16.5803329
20
78.4837332
40
0.4376191
50
252.3266134
51
270.5810217
0
ARC
8
DEFAULT_255_1_234
10
16.5598418
20
78.4096644
40
0.3608374
50
223.3000567
51
251.8561855
0
ARC
8
DEFAULT_255_1_234
10
16.5809778
20
78.4301937
40
0.3902993
50
190.9374509
51
223.3654032
0
ARC
8
DEFAULT_255_1_234
10
16.753475
20
78.4691885
40
0.5670891
50
179.6531105
51
191.4989439
0
ARC
8
DEFAULT_255_1_234
10
16.7656763
20
78.5031417
40
0.5792888
50
167.4007466
51
180.3176909
0
ARC
8
DEFAULT_255_1_234
10
16.6604824
20
78.5253885
40
0.471777
50
154.1835823
51
167.250763
0
ARC
8
DEFAULT_255_1_234
10
16.5973292
20
78.5586417
40
0.4004528
50
134.3149965
51
154.5315275
0
ARC
8
DEFAULT_255_1_234
10
16.5755787
20
78.5777228
40
0.371612
50
122.8616532
51
133.9707695
0
ARC
8
DEFAULT_255_1_234
10
16.5652361
20
78.5999703
40
0.3473289
50
89.8249009
51
123.4199222
0
ARC
8
DEFAULT_255_1_234
10
16.5702402
20
78.5352967
40
0.4120197
50
74.7876118
51
90.5482747
0
ARC
8
DEFAULT_255_1_234
10
16.5996145
20
78.643803
40
0.2996077
50
39.8178249
51
74.7633718
0
ARC
8
DEFAULT_255_1_234
10
16.5483465
20
78.6038351
40
0.3645855
50
16.8990863
51
39.4829761
0
ARC
8
DEFAULT_255_1_234
10
16.3588762
20
78.5431526
40
0.5635218
50
4.9636328
51
17.2026414
0
ARC
8
DEFAULT_255_1_234
10
16.1170832
20
78.517634
40
0.8066286
50
359.8834553
51
5.2834307
0
ARC
8
DEFAULT_255_1_234
10
16.7208357
20
78.4607803
40
0.3859091
50
180.9846213
51
194.9401313
0
ARC
8
DEFAULT_255_1_234
10
16.6158634
20
78.4320849
40
0.2770883
50
194.80314
51
222.0412631
0
ARC
8
DEFAULT_255_1_234
10
16.5854516
20
78.4019116
40
0.2343055
50
221.5417084
51
268.8614402
0
ARC
8
DEFAULT_255_1_234
10
16.5927511
20
78.4695686
40
0.3021528
50
267.732405
51
270.0097136
0
ARC
8
DEFAULT_255_1_234
10
16.5945321
20
78.4897105
40
0.3222994
50
269.6924892
51
280.4117579
0
ARC
8
DEFAULT_255_1_234
10
16.6121728
20
78.3978193
40
0.2287344
50
280.2255091
51
298.6338936
0
ARC
8
DEFAULT_255_1_234
10
16.623852
20
78.3734223
40
0.2017294
50
299.0430333
51
300.4643464
0
ARC
8
DEFAULT_255_1_234
10
16.5558525
20
78.4868038
40
0.3339357
50
300.6577328
51
322.0378878
0
ARC
8
DEFAULT_255_1_234
10
16.5208064
20
78.5172021
40
0.3802736
50
321.6750233
51
322.3046845
0
ARC
8
DEFAULT_255_1_234
10
16.6139026
20
78.400537
40
0.3520454
50
276.9728461
51
328.0035423
0
ARC
8
DEFAULT_255_1_234
10
16.5862078
20
78.5485841
40
0.5024498
50
269.8361028
51
278.0581756
0
ARC
8
DEFAULT_255_1_234
10
16.5634816
20
78.6230757
40
0.202159
50
89.2018686
51
117.2851756
0
ARC
8
DEFAULT_255_1_234
10
16.5687985
20
78.6188752
40
0.2083484
50
118.0551165
51
137.4540413
0
ARC
8
DEFAULT_255_1_234
10
16.6062725
20
78.5848304
40
0.2589774
50
137.5109581
51
158.8516286
0
ARC
8
DEFAULT_255_1_234
10
16.720056
20
78.5389074
40
0.38167
50
158.5845963
51
170.1721436
0
ARC
8
DEFAULT_255_1_234
10
16.836995
20
78.5156823
40
0.5008657
50
169.8376422
51
173.0566086
0
ARC
8
DEFAULT_255_1_234
10
16.3673023
20
78.5667509
40
0.4083467
50
2.9091802
51
12.8847116
0
ARC
8
DEFAULT_255_1_234
10
16.50437
20
78.5990101
40
0.2675383
50
12.6957781
51
28.6404489
0
ARC
8
DEFAULT_255_1_234
10
16.5585371
20
78.6270458
40
0.2065654
50
29.0169854
51
41.1487595
0
ARC
8
DEFAULT_255_1_234
10
16.5788156
20
78.6447003
40
0.1796786
50
41.1646065
51
85.0013516
0
ARC
8
DEFAULT_255_1_234
10
16.5667253
20
78.5712431
40
0.2539726
50
83.7280015
51
90.0964893
0
LINE
8
DEFAULT_255_1_234
10
17.742144
20
78.6758248
11
17.5927537
21
78.6758248
0
LINE
8
DEFAULT_255_1_234
10
17.0594463
20
78.3296569
11
17.2080334
21
78.3296569
0
ARC
8
DEFAULT_255_1_234
10
17.4739356
20
78.2941959
40
0.1276617
50
359.3334982
51
18.5871358
0
ARC
8
DEFAULT_255_1_234
10
17.4947993
20
78.2997133
40
0.1061371
50
19.3540742
51
54.6485071
0
ARC
8
DEFAULT_255_1_234
10
17.4443895
20
78.2301919
40
0.1920087
50
54.3827097
51
65.0622807
0
ARC
8
DEFAULT_255_1_234
10
17.3675291
20
78.06849
40
0.3710447
50
64.8282493
51
71.4200025
0
ARC
8
DEFAULT_255_1_234
10
17.2773167
20
77.8038107
40
0.6506741
50
71.3164301
51
75.8006402
0
ARC
8
DEFAULT_255_1_234
10
17.1931987
20
77.4797561
40
0.9854641
50
75.6809531
51
78.0061883
0
ARC
8
DEFAULT_255_1_234
10
17.638052
20
79.577677
40
1.1591028
50
254.6901892
51
258.0466452
0
ARC
8
DEFAULT_255_1_234
10
17.5342428
20
79.2017781
40
0.7691345
50
249.9010773
51
254.755261
0
ARC
8
DEFAULT_255_1_234
10
17.433877
20
78.9291982
40
0.478665
50
243.3097214
51
249.9709442
0
ARC
8
DEFAULT_255_1_234
10
17.3709792
20
78.8037778
40
0.3383568
50
234.4047477
51
243.2862168
0
ARC
8
DEFAULT_255_1_234
10
17.3087315
20
78.7178232
40
0.2322322
50
220.8667099
51
234.5493881
0
ARC
8
DEFAULT_255_1_234
10
17.2745256
20
78.6866817
40
0.1859923
50
214.3062465
51
220.5065136
0
ARC
8
DEFAULT_255_1_234
10
17.2719335
20
78.683588
40
0.1821108
50
186.912965
51
213.9618616
0
ARC
8
DEFAULT_255_1_234
10
17.325143
20
78.6922009
40
0.2359799
50
179.8808832
51
187.4339886
0
ARC
8
DEFAULT_255_1_234
10
17.3096563
20
78.6942088
40
0.2204978
50
132.005434
51
180.3942919
0
ARC
8
DEFAULT_255_1_234
10
17.3753177
20
78.6336083
40
0.3095791
50
129.2319861
51
133.5302299
0
ARC
8
DEFAULT_255_1_234
10
17.3806685
20
78.6241928
40
0.3202615
50
100.4410011
51
128.9081242
0
ARC
8
DEFAULT_255_1_234
10
17.4080569
20
78.4956455
40
0.4516583
50
89.6985377
51
100.9026564
0
ARC
8
DEFAULT_255_1_234
10
17.4137611
20
78.4796166
40
0.4676928
50
77.6965325
51
90.4076836
0
ARC
8
DEFAULT_255_1_234
10
17.4468595
20
78.6223413
40
0.3211988
50
50.7276602
51
78.0399361
0
ARC
8
DEFAULT_255_1_234
10
17.4913053
20
78.6741296
40
0.2529778
50
25.7545084
51
51.0957453
0
ARC
8
DEFAULT_255_1_234
10
17.4914278
20
78.6791206
40
0.250738
50
359.2468627
51
24.7394243
0
ARC
8
DEFAULT_255_1_234
10
17.462973
20
78.6762664
40
0.1297815
50
359.8050318
51
45.1544908
0
ARC
8
DEFAULT_255_1_234
10
17.4222872
20
78.6414794
40
0.1831883
50
43.8047702
51
49.6271585
0
ARC
8
DEFAULT_255_1_234
10
17.4230773
20
78.6415678
40
0.18261
50
49.7980766
51
82.1218353
0
ARC
8
DEFAULT_255_1_234
10
17.4111745
20
78.5768998
40
0.2483163
50
81.4465357
51
90.1710293
0
ARC
8
DEFAULT_255_1_234
10
17.4087348
20
78.524288
40
0.300932
50
89.6766211
51
99.1264602
0
ARC
8
DEFAULT_255_1_234
10
17.391581
20
78.6276537
40
0.1961547
50
98.968313
51
113.4570237
0
ARC
8
DEFAULT_255_1_234
10
17.3719895
20
78.6744965
40
0.1453859
50
113.722589
51
127.4763106
0
ARC
8
DEFAULT_255_1_234
10
17.3551541
20
78.6945124
40
0.1192639
50
126.9083309
51
150.3165862
0
ARC
8
DEFAULT_255_1_234
10
17.3503874
20
78.6995981
40
0.112623
50
151.3635175
51
180.0701457
0
ARC
8
DEFAULT_255_1_234
10
17.3812658
20
78.697499
40
0.1435149
50
179.2169974
51
179.9954013
0
ARC
8
DEFAULT_255_1_234
10
17.3451716
20
78.6962056
40
0.1074286
50
179.3040112
51
198.4225446
0
ARC
8
DEFAULT_255_1_234
10
17.3259849
20
78.6912127
40
0.0876573
50
199.2895851
51
238.6034594
0
ARC
8
DEFAULT_255_1_234
10
17.3862696
20
78.785845
40
0.1998512
50
237.9846301
51
246.8744712
0
ARC
8
DEFAULT_255_1_234
10
17.4720641
20
78.9821205
40
0.4140547
50
246.6234531
51
251.8168941
0
ARC
8
DEFAULT_255_1_234
10
17.5751184
20
79.2915905
40
0.7402308
50
251.713434
51
255.0778414
0
ARC
8
DEFAULT_255_1_234
10
17.6950447
20
79.7382563
40
1.2027155
50
255.0367487
51
257.4705983
0
ARC
8
DEFAULT_255_1_234
10
17.1842457
20
77.4368863
40
1.1546601
50
73.6837552
51
77.5016755
0
ARC
8
DEFAULT_255_1_234
10
17.2931232
20
77.8068581
40
0.7690009
50
68.7044154
51
73.7249639
0
ARC
8
DEFAULT_255_1_234
10
17.3834252
20
78.0395654
40
0.5193873
50
63.590599
51
68.6626804
0
ARC
8
DEFAULT_255_1_234
10
17.4605271
20
78.1933123
40
0.3473927
50
54.7106439
51
63.7013633
0
ARC
8
DEFAULT_255_1_234
10
17.5229726
20
78.28054
40
0.2401192
50
41.0622434
51
54.8487496
0
ARC
8
DEFAULT_255_1_234
10
17.5571112
20
78.3118592
40
0.1938094
50
34.4950568
51
40.7105546
0
ARC
8
DEFAULT_255_1_234
10
17.5617919
20
78.3167078
40
0.1872106
50
9.3763373
51
34.0833615
0
ARC
8
DEFAULT_255_1_234
10
17.496479
20
78.3041728
40
0.2536988
50
359.7694872
51
9.7663171
0
ARC
8
DEFAULT_255_1_234
10
17.5162291
20
78.2998764
40
0.2339696
50
335.8654732
51
0.8022045
0
ARC
8
DEFAULT_255_1_234
10
17.5237335
20
78.3012197
40
0.2277108
50
307.7357725
51
334.7849066
0
ARC
8
DEFAULT_255_1_234
10
17.4836511
20
78.3462645
40
0.2878951
50
307.0241536
51
308.5578354
0
ARC
8
DEFAULT_255_1_234
10
17.4578842
20
78.3848801
40
0.3342515
50
282.9362969
51
306.5646424
0
ARC
8
DEFAULT_255_1_234
10
17.421714
20
78.5316108
40
0.4853615
50
271.1026298
51
283.2200835
0
ARC
8
DEFAULT_255_1_234
10
17.4153384
20
78.6557418
40
0.6096052
50
269.9919117
51
271.4772449
0
ARC
8
DEFAULT_255_1_234
10
17.4127139
20
78.5479436
40
0.5018135
50
259.0723564
51
270.289833
0
ARC
8
DEFAULT_255_1_234
10
17.3914871
20
78.4362271
40
0.388099
50
245.4963068
51
259.0227342
0
ARC
8
DEFAULT_255_1_234
10
17.3636827
20
78.3780615
40
0.3236422
50
228.9684658
51
245.7044727
0
ARC
8
DEFAULT_255_1_234
10
17.3371271
20
78.3453575
40
0.2815426
50
214.4011705
51
228.6759915
0
ARC
8
DEFAULT_255_1_234
10
17.3082011
20
78.329529
40
0.2487548
50
179.9705531
51
215.1572795
0
ARC
8
DEFAULT_255_1_234
10
17.3782611
20
78.3368806
40
0.1703809
50
182.4299387
51
203.0329699
0
ARC
8
DEFAULT_255_1_234
10
17.3598269
20
78.3312396
40
0.1512226
50
203.798802
51
232.548466
0
ARC
8
DEFAULT_255_1_234
10
17.387479
20
78.3663826
40
0.1959374
50
232.3782728
51
256.3934612
0
ARC
8
DEFAULT_255_1_234
10
17.4105152
20
78.4553842
40
0.2878639
50
256.104506
51
268.4626716
0
ARC
8
DEFAULT_255_1_234
10
17.4151636
20
78.5350487
40
0.3676329
50
268.0715632
51
270.0138206
0
ARC
8
DEFAULT_255_1_234
10
17.4170161
20
78.5078083
40
0.3403971
50
269.7031147
51
278.8341955
0
ARC
8
DEFAULT_255_1_234
10
17.4352254
20
78.3947876
40
0.2259217
50
278.6728789
51
292.8232582
0
ARC
8
DEFAULT_255_1_234
10
17.4552792
20
78.3446449
40
0.171929
50
293.1452328
51
303.6655899
0
ARC
8
DEFAULT_255_1_234
10
17.4817671
20
78.3070204
40
0.1259367
50
303.1248165
51
321.742847
0
ARC
8
DEFAULT_255_1_234
10
17.5003551
20
78.2907156
40
0.1012531
50
322.4748573
51
1.1291126
0
LINE
8
DEFAULT_255_2_778
10
9.5254834
20
35.5864333
11
12.1712834
21
35.5864333
0
LINE
8
DEFAULT_255_2_778
10
12.1712834
20
35.5864333
11
12.1712834
21
30.2947333
0
LINE
8
DEFAULT_255_2_778
10
12.1712834
20
30.2947333
11
9.5254834
21
30.2947333
0
LINE
8
DEFAULT_255_2_778
10
9.5254834
20
30.2947333
11
9.5254834
21
35.5864333
0
LINE
8
DEFAULT_255_2_778
10
10.3193
20
34.7926833
11
10.3193
21
31.0884833
0
ARC
8
DEFAULT_255_2_778
10
11.2444335
20
34.3966666
40
0.3960095
50
89.8710075
51
180.1289967
0
ARC
8
DEFAULT_255_2_778
10
11.246138
20
34.3966878
40
0.395988
50
359.8679252
51
90.1176342
0
ARC
8
DEFAULT_255_2_778
10
11.2461595
20
34.3949405
40
0.3959664
50
269.8792548
51
0.1207452
0
ARC
8
DEFAULT_255_2_778
10
11.2444123
20
34.3949621
40
0.3959881
50
179.8823802
51
270.1320647
0
LINE
8
DEFAULT_255_2_778
10
10.848425
20
34.395775
11
10.848425
21
34.395775
0
ARC
8
DEFAULT_255_2_778
10
11.2444335
20
31.4862666
40
0.3960095
50
89.8710075
51
180.1289967
0
ARC
8
DEFAULT_255_2_778
10
11.246138
20
31.4862878
40
0.395988
50
359.8679252
51
90.1176342
0
ARC
8
DEFAULT_255_2_778
10
11.2461595
20
31.4845405
40
0.3959664
50
269.8792548
51
0.1207452
0
ARC
8
DEFAULT_255_2_778
10
11.2444123
20
31.4845621
40
0.3959881
50
179.8823802
51
270.1320647
0
LINE
8
DEFAULT_255_2_778
10
10.848425
20
31.485375
11
10.848425
21
31.485375
0
LINE
8
DEFAULT_255_2_778
10
9.5255417
20
60.7218492
11
10.8484417
21
60.7218492
0
LINE
8
DEFAULT_255_2_778
10
10.8484417
20
60.7218492
11
10.8484417
21
35.5864492
0
LINE
8
DEFAULT_255_2_778
10
10.8484417
20
30.2947492
11
10.8484417
21
5.1593492
0
LINE
8
DEFAULT_255_2_778
10
10.8484417
20
5.1593492
11
9.5255417
21
5.1593492
0
LINE
8
DEFAULT_255_2_778
10
17.4629834
20
51.4614333
11
20.1087834
21
51.4614333
0
LINE
8
DEFAULT_255_2_778
10
20.1087834
20
51.4614333
11
20.1087834
21
46.1697333
0
LINE
8
DEFAULT_255_2_778
10
20.1087834
20
46.1697333
11
17.4629834
21
46.1697333
0
LINE
8
DEFAULT_255_2_778
10
17.4629834
20
46.1697333
11
17.4629834
21
51.4614333
0
LINE
8
DEFAULT_255_2_778
10
18.2568
20
50.6676833
11
18.2568
21
46.9634833
0
ARC
8
DEFAULT_255_2_778
10
19.1819335
20
50.2716666
40
0.3960095
50
89.8710075
51
180.1289967
0
ARC
8
DEFAULT_255_2_778
10
19.183638
20
50.2716878
40
0.395988
50
359.8679252
51
90.1176342
0
ARC
8
DEFAULT_255_2_778
10
19.1836595
20
50.2699405
40
0.3959664
50
269.8792548
51
0.1207452
0
ARC
8
DEFAULT_255_2_778
10
19.1819123
20
50.2699621
40
0.3959881
50
179.8823802
51
270.1320647
0
LINE
8
DEFAULT_255_2_778
10
18.785925
20
50.270775
11
18.785925
21
50.270775
0
ARC
8
DEFAULT_255_2_778
10
19.1819335
20
47.3612666
40
0.3960095
50
89.8710075
51
180.1289967
0
ARC
8
DEFAULT_255_2_778
10
19.183638
20
47.3612878
40
0.395988
50
359.8679252
51
90.1176342
0
ARC
8
DEFAULT_255_2_778
10
19.1836595
20
47.3595405
40
0.3959664
50
269.8792548
51
0.1207452
0
ARC
8
DEFAULT_255_2_778
10
19.1819123
20
47.3595621
40
0.3959881
50
179.8823802
51
270.1320647
0
LINE
8
DEFAULT_255_2_778
10
18.785925
20
47.360375
11
18.785925
21
47.360375
0
LINE
8
DEFAULT_255_2_778
10
20.1088417
20
68.6593494
11
18.7859417
21
68.6593494
0
LINE
8
DEFAULT_255_2_778
10
18.7859417
20
68.6593494
11
18.7859417
21
51.4614494
0
LINE
8
DEFAULT_255_2_778
10
18.7859417
20
46.1697494
11
18.7859417
21
28.9718494
0
LINE
8
DEFAULT_255_2_778
10
18.7859417
20
28.9718494
11
20.1088417
21
28.9718494
0
LINE
8
DEFAULT_255_1_234
10
4.3736489
20
77.2473211
11
4.3736489
21
76.2039983
0
LINE
8
DEFAULT_255_1_234
10
4.3736489
20
76.2039983
11
4.9278389
21
76.2039983
0
LINE
8
DEFAULT_255_1_234
10
4.9278389
20
76.2039983
11
4.9278389
21
76.0779
0
LINE
8
DEFAULT_255_1_234
10
4.9278389
20
76.0779
11
4.2186364
21
76.0779
0
LINE
8
DEFAULT_255_1_234
10
4.2186364
20
76.0779
11
4.2186364
21
77.2473211
0
LINE
8
DEFAULT_255_1_234
10
4.2186364
20
77.2473211
11
4.3736489
21
77.2473211
0
LINE
8
DEFAULT_255_1_234
10
5.5535113
20
77.2529433
11
5.5535113
21
76.0779
0
LINE
8
DEFAULT_255_1_234
10
5.5535113
20
76.0779
11
5.4041209
21
76.0779
0
LINE
8
DEFAULT_255_1_234
10
5.4041209
20
76.0779
11
5.4041209
21
77.0682133
0
LINE
8
DEFAULT_255_1_234
10
5.4041209
20
77.0682133
11
5.1045371
21
76.9581785
0
LINE
8
DEFAULT_255_1_234
10
5.1045371
20
76.9581785
11
5.1045371
21
77.0931117
0
LINE
8
DEFAULT_255_1_234
10
5.1045371
20
77.0931117
11
5.5302192
21
77.2529433
0
LINE
8
DEFAULT_255_1_234
10
5.5302192
20
77.2529433
11
5.5535113
21
77.2529433
0
LINE
8
DEFAULT_255_1_234
10
4.8878674
20
5.8098211
11
4.8878674
21
5.726291
0
LINE
8
DEFAULT_255_1_234
10
4.8878674
20
5.726291
11
4.4035536
21
4.6404
0
LINE
8
DEFAULT_255_1_234
10
4.4035536
20
4.6404
11
4.2477379
21
4.6404
0
LINE
8
DEFAULT_255_1_234
10
4.2477379
20
4.6404
11
4.7304454
21
5.6877387
0
LINE
8
DEFAULT_255_1_234
10
4.7304454
20
5.6877387
11
4.0975444
21
5.6877387
0
LINE
8
DEFAULT_255_1_234
10
4.0975444
20
5.6877387
11
4.0975444
21
5.8098211
0
LINE
8
DEFAULT_255_1_234
10
4.0975444
20
5.8098211
11
4.8878674
21
5.8098211
0
LINE
8
DEFAULT_255_1_234
10
4.6894835
20
13.7481243
11
4.7159882
21
13.7481243
0
LINE
8
DEFAULT_255_1_234
10
4.7159882
20
13.7481243
11
4.7159882
21
13.622026
0
LINE
8
DEFAULT_255_1_234
10
4.7159882
20
13.622026
11
4.6886803
21
13.622026
0
LINE
8
DEFAULT_255_1_234
10
4.1417189
20
13.0228583
11
4.1417189
21
13.0798836
0
LINE
8
DEFAULT_255_1_234
10
4.2911093
20
13.0606075
11
4.2911093
21
13.0059917
0
ARC
8
DEFAULT_255_1_234
10
4.6939151
20
13.1222455
40
0.4998079
50
90.6001036
51
104.514704
0
ARC
8
DEFAULT_255_1_234
10
4.6550667
20
13.2667131
40
0.3502176
50
104.2855254
51
133.862935
0
ARC
8
DEFAULT_255_1_234
10
4.6714424
20
13.255883
40
0.3693984
50
134.5302688
51
161.6210873
0
ARC
8
DEFAULT_255_1_234
10
4.8367613
20
13.1975895
40
0.5446739
50
161.2849839
51
174.2076652
0
ARC
8
DEFAULT_255_1_234
10
4.977455
20
13.1781787
40
0.6866274
50
173.7810589
51
174.9254635
0
ARC
8
DEFAULT_255_1_234
10
4.5224382
20
13.0398839
40
0.3033419
50
95.8330959
51
138.9954921
0
ARC
8
DEFAULT_255_1_234
10
4.5447738
20
12.9120375
40
0.4328947
50
89.8753725
51
97.0544009
0
ARC
8
DEFAULT_255_1_234
10
4.5495204
20
12.9955748
40
0.3493769
50
71.6407809
51
90.6240094
0
ARC
8
DEFAULT_255_1_234
10
4.5645777
20
13.0510082
40
0.2920396
50
39.6367836
51
71.019018
0
ARC
8
DEFAULT_255_1_234
10
4.500925
20
12.9959998
40
0.3761538
50
10.658731
51
39.9043955
0
ARC
8
DEFAULT_255_1_234
10
4.3461333
20
12.9623686
40
0.5345136
50
359.682601
51
11.132623
0
ARC
8
DEFAULT_255_1_234
10
4.3421464
20
12.955301
40
0.5385081
50
347.2486944
51
0.4369317
0
ARC
8
DEFAULT_255_1_234
10
4.5088941
20
12.9151807
40
0.3670249
50
318.1409698
51
347.6118597
0
ARC
8
DEFAULT_255_1_234
10
4.5413934
20
12.8884702
40
0.3250007
50
275.6342139
51
317.8248465
0
ARC
8
DEFAULT_255_1_234
10
4.5193045
20
13.0184219
40
0.4565864
50
269.8874292
51
276.7917694
0
ARC
8
DEFAULT_255_1_234
10
4.5138116
20
12.9158743
40
0.3540676
50
246.9140195
51
270.7437342
0
ARC
8
DEFAULT_255_1_234
10
4.5144506
20
12.9016384
40
0.3412781
50
218.1665114
51
245.878116
0
ARC
8
DEFAULT_255_1_234
10
4.6023967
20
12.9752279
40
0.455911
50
191.4115814
51
218.6077802
0
ARC
8
DEFAULT_255_1_234
10
4.7962056
20
13.0186833
40
0.6545001
50
179.6345085
51
191.7836486
0
ARC
8
DEFAULT_255_1_234
10
5.3544393
20
13.0865697
40
1.2127388
50
171.4525249
51
180.3158839
0
ARC
8
DEFAULT_255_1_234
10
4.9149269
20
13.1549608
40
0.7679464
50
157.9802646
51
171.6246686
0
ARC
8
DEFAULT_255_1_234
10
4.693529
20
13.2432421
40
0.5296008
50
141.4298019
51
157.854097
0
ARC
8
DEFAULT_255_1_234
10
4.629361
20
13.2886381
40
0.4511509
50
102.8715806
51
140.8564722
0
ARC
8
DEFAULT_255_1_234
10
4.6941226
20
13.0446552
40
0.7034845
50
90.3778349
51
103.5869322
0
ARC
8
DEFAULT_255_1_234
10
4.5203002
20
12.984173
40
0.2370698
50
89.8751008
51
126.2071704
0
ARC
8
DEFAULT_255_1_234
10
4.5248792
20
12.9687303
40
0.2522934
50
124.9745049
51
144.895901
0
ARC
8
DEFAULT_255_1_234
10
4.5072982
20
12.983056
40
0.2296779
50
145.2974905
51
160.2660252
0
ARC
8
DEFAULT_255_1_234
10
4.8145521
20
13.0028071
40
0.5234525
50
179.6514266
51
190.2855912
0
ARC
8
DEFAULT_255_1_234
10
4.6451658
20
12.9708786
40
0.3510893
50
190.0945431
51
207.5098196
0
ARC
8
DEFAULT_255_1_234
10
4.5885928
20
12.9439623
40
0.288489
50
207.9583163
51
216.3251085
0
ARC
8
DEFAULT_255_1_234
10
4.5546036
20
12.9160105
40
0.2445587
50
215.7661442
51
232.5456785
0
ARC
8
DEFAULT_255_1_234
10
4.5163019
20
12.8673482
40
0.1826382
50
232.8005391
51
270.6605633
0
ARC
8
DEFAULT_255_1_234
10
4.520872
20
12.9037612
40
0.2190529
50
269.35537
51
288.4744281
0
ARC
8
DEFAULT_255_1_234
10
4.5301617
20
12.8688118
40
0.1829749
50
289.1833337
51
322.9683818
0
ARC
8
DEFAULT_255_1_234
10
4.4690139
20
12.9170391
40
0.2608399
50
322.6007884
51
346.5182367
0
ARC
8
DEFAULT_255_1_234
10
4.3532735
20
12.9465616
40
0.3802777
50
346.2582162
51
358.7741648
0
ARC
8
DEFAULT_255_1_234
10
4.2514404
20
12.9520965
40
0.4822176
50
358.3755224
51
0.0098023
0
ARC
8
DEFAULT_255_1_234
10
4.3270591
20
12.9548657
40
0.4066078
50
359.6214041
51
11.2839074
0
ARC
8
DEFAULT_255_1_234
10
4.4547738
20
12.9815066
40
0.2761514
50
11.0482309
51
31.8146458
0
ARC
8
DEFAULT_255_1_234
10
4.4856781
20
12.9982584
40
0.2410679
50
32.3035391
51
38.082671
0
ARC
8
DEFAULT_255_1_234
10
4.5277441
20
13.0363662
40
0.1844966
50
36.825067
51
85.7415724
0
ARC
8
DEFAULT_255_1_234
10
4.5210274
20
12.9863301
40
0.2349122
50
85.0140713
51
90.0513278
0
LINE
8
DEFAULT_255_1_234
10
4.3200235
20
21.0711963
11
4.2011538
21
21.1017169
0
LINE
8
DEFAULT_255_1_234
10
4.2011538
20
21.1017169
11
4.2605887
21
21.6848211
0
LINE
8
DEFAULT_255_1_234
10
4.2605887
20
21.6848211
11
4.8597563
21
21.6848211
0
LINE
8
DEFAULT_255_1_234
10
4.8597563
20
21.6848211
11
4.8597563
21
21.5474784
0
LINE
8
DEFAULT_255_1_234
10
4.8597563
20
21.5474784
11
4.386687
21
21.5474784
0
LINE
8
DEFAULT_255_1_234
10
4.386687
20
21.5474784
11
4.3513473
21
21.2286184
0
LINE
8
DEFAULT_255_1_234
10
4.1593888
20
20.8230156
11
4.2999442
21
20.8230156
0
LINE
8
DEFAULT_255_1_234
10
4.3593791
20
21.1033232
11
4.3200235
21
21.0711963
0
ARC
8
DEFAULT_255_1_234
10
4.5368257
20
20.910623
40
0.3681349
50
93.7182161
51
120.2538958
0
ARC
8
DEFAULT_255_1_234
10
4.546252
20
20.8298394
40
0.449379
50
89.9660152
51
94.2496022
0
ARC
8
DEFAULT_255_1_234
10
4.5503254
20
20.8887549
40
0.390482
50
73.8043271
51
90.5585896
0
ARC
8
DEFAULT_255_1_234
10
4.5738151
20
20.9745602
40
0.3015334
50
41.3071453
51
73.5430202
0
ARC
8
DEFAULT_255_1_234
10
4.5321978
20
20.9387324
40
0.3564457
50
13.5075983
51
41.2174222
0
ARC
8
DEFAULT_255_1_234
10
4.3680182
20
20.8957486
40
0.5261351
50
1.1331335
51
13.8829381
0
ARC
8
DEFAULT_255_1_234
10
4.2268551
20
20.8881665
40
0.6674378
50
359.9919444
51
1.544251
0
ARC
8
DEFAULT_255_1_234
10
4.3545377
20
20.884028
40
0.5397702
50
347.8572367
51
0.4293338
0
ARC
8
DEFAULT_255_1_234
10
4.5295695
20
20.8443736
40
0.3603188
50
323.673004
51
348.1672506
0
ARC
8
DEFAULT_255_1_234
10
4.5590203
20
20.8264168
40
0.3259678
50
316.8171152
51
323.1492751
0
ARC
8
DEFAULT_255_1_234
10
4.5651392
20
20.822746
40
0.3189975
50
281.8396411
51
316.5457803
0
ARC
8
DEFAULT_255_1_234
10
4.5275656
20
20.9782762
40
0.4789527
50
269.5770101
51
282.4214771
0
ARC
8
DEFAULT_255_1_234
10
4.5204467
20
20.9569125
40
0.45759
50
256.2427136
51
270.4486331
0
ARC
8
DEFAULT_255_1_234
10
4.490537
20
20.8369229
40
0.3339303
50
228.9023911
51
256.3314342
0
ARC
8
DEFAULT_255_1_234
10
4.4831602
20
20.8252746
40
0.32031
50
193.753695
51
228.5271154
0
ARC
8
DEFAULT_255_1_234
10
4.6069556
20
20.86158
40
0.4492253
50
184.924711
51
194.497588
0
ARC
8
DEFAULT_255_1_234
10
4.6262123
20
20.8651591
40
0.3289787
50
187.3600538
51
198.6732863
0
ARC
8
DEFAULT_255_1_234
10
4.5212417
20
20.8287674
40
0.217884
50
198.4451669
51
217.794479
0
ARC
8
DEFAULT_255_1_234
10
4.4916592
20
20.8078085
40
0.1816698
50
218.2887171
51
228.5612368
0
ARC
8
DEFAULT_255_1_234
10
4.5014379
20
20.8209963
40
0.1980329
50
228.9654866
51
258.1234728
0
ARC
8
DEFAULT_255_1_234
10
4.5220089
20
20.9090833
40
0.2884748
50
257.7258293
51
270.401361
0
ARC
8
DEFAULT_255_1_234
10
4.5264975
20
20.8645821
40
0.2439788
50
269.4204404
51
286.4209037
0
ARC
8
DEFAULT_255_1_234
10
4.5413463
20
20.8106657
40
0.1880666
50
286.7251356
51
320.600362
0
ARC
8
DEFAULT_255_1_234
10
4.5030288
20
20.8417595
40
0.2374121
50
320.6712579
51
344.5441685
0
ARC
8
DEFAULT_255_1_234
10
4.3873614
20
20.8757045
40
0.3579479
50
344.2412205
51
356.7357071
0
ARC
8
DEFAULT_255_1_234
10
4.2624763
20
20.8860444
40
0.4832297
50
356.3548756
51
0.0500261
0
ARC
8
DEFAULT_255_1_234
10
4.3961272
20
20.889165
40
0.3495889
50
359.5576869
51
12.953486
0
ARC
8
DEFAULT_255_1_234
10
4.5016169
20
20.9147434
40
0.2410532
50
12.6490276
51
41.6081334
0
ARC
8
DEFAULT_255_1_234
10
4.524654
20
20.9343321
40
0.2108218
50
41.7850273
51
85.9892764
0
ARC
8
DEFAULT_255_1_234
10
4.5123277
20
20.8530462
40
0.2928454
50
84.6957577
51
90.0676183
0
ARC
8
DEFAULT_255_1_234
10
4.5099761
20
20.7861716
40
0.3597255
50
89.6804936
51
99.1614436
0
ARC
8
DEFAULT_255_1_234
10
4.4894392
20
20.9089131
40
0.235281
50
98.9830931
51
113.8908934
0
ARC
8
DEFAULT_255_1_234
10
4.4664802
20
20.9630587
40
0.176479
50
114.1950727
51
127.3641004
0
LINE
8
DEFAULT_255_1_234
10
4.9718628
20
29.6223211
11
4.9718628
21
28.845652
0
LINE
8
DEFAULT_255_1_234
10
4.9718628
20
28.845652
11
5.1341039
21
28.845652
0
LINE
8
DEFAULT_255_1_234
10
5.1341039
20
28.845652
11
5.1341039
21
28.7243728
0
LINE
8
DEFAULT_255_1_234
10
5.1341039
20
28.7243728
11
4.9718628
21
28.7243728
0
LINE
8
DEFAULT_255_1_234
10
4.9718628
20
28.7243728
11
4.9718628
21
28.4529
0
LINE
8
DEFAULT_255_1_234
10
4.9718628
20
28.4529
11
4.8224725
21
28.4529
0
LINE
8
DEFAULT_255_1_234
10
4.8224725
20
28.4529
11
4.8224725
21
28.7243728
0
LINE
8
DEFAULT_255_1_234
10
4.8224725
20
28.7243728
11
4.2899682
21
28.7243728
0
LINE
8
DEFAULT_255_1_234
10
4.2899682
20
28.7243728
11
4.2899682
21
28.8119187
0
LINE
8
DEFAULT_255_1_234
10
4.2899682
20
28.8119187
11
4.8136375
21
29.6223211
0
LINE
8
DEFAULT_255_1_234
10
4.8136375
20
29.6223211
11
4.9718628
21
29.6223211
0
LINE
8
DEFAULT_255_1_234
10
4.8048026
20
29.3869912
11
4.4586347
21
28.845652
0
LINE
8
DEFAULT_255_1_234
10
4.4586347
20
28.845652
11
4.8224725
21
28.845652
0
LINE
8
DEFAULT_255_1_234
10
4.8224725
20
28.845652
11
4.8224725
21
29.4191181
0
LINE
8
DEFAULT_255_1_234
10
4.8224725
20
29.4191181
11
4.8048026
21
29.3869912
0
LINE
8
DEFAULT_255_1_234
10
4.3489378
20
36.9261169
11
4.3489378
21
37.0473962
0
LINE
8
DEFAULT_255_1_234
10
4.3489378
20
37.0473962
11
4.460579
21
37.0473962
0
LINE
8
DEFAULT_255_1_234
10
4.2702268
20
37.2530087
11
4.1216396
21
37.2530087
0
LINE
8
DEFAULT_255_1_234
10
4.1111983
20
36.6988188
11
4.2605887
21
36.6988188
0
LINE
8
DEFAULT_255_1_234
10
4.460579
20
36.9261169
11
4.3489378
21
36.9261169
0
ARC
8
DEFAULT_255_1_234
10
4.4576656
20
37.3866713
40
0.3392876
50
270.4919872
51
281.8951556
0
ARC
8
DEFAULT_255_1_234
10
4.4817918
20
37.2764702
40
0.2264817
50
281.6691735
51
301.2943132
0
ARC
8
DEFAULT_255_1_234
10
4.4988128
20
37.2453304
40
0.1910381
50
301.7833094
51
311.7545298
0
ARC
8
DEFAULT_255_1_234
10
4.5079704
20
37.2351748
40
0.1773635
50
311.7323931
51
354.2802411
0
ARC
8
DEFAULT_255_1_234
10
4.4353329
20
37.2476722
40
0.2509385
50
353.0937916
51
0.1181479
0
ARC
8
DEFAULT_255_1_234
10
4.3892114
20
37.2524386
40
0.2970898
50
359.1805295
51
15.0453146
0
ARC
8
DEFAULT_255_1_234
10
4.5237951
20
37.2916992
40
0.1569564
50
13.9577229
51
77.6713066
0
ARC
8
DEFAULT_255_1_234
10
4.485148
20
37.1531949
40
0.3006298
50
76.1116566
51
90.7026153
0
ARC
8
DEFAULT_255_1_234
10
4.4792318
20
37.1805545
40
0.2732568
50
89.5324876
51
103.531937
0
ARC
8
DEFAULT_255_1_234
10
4.4591762
20
37.2604884
40
0.1908508
50
103.2931773
51
133.5619022
0
ARC
8
DEFAULT_255_1_234
10
4.4547251
20
37.2664375
40
0.1834746
50
133.8349307
51
173.5344437
0
ARC
8
DEFAULT_255_1_234
10
4.5270294
20
37.2536213
40
0.2568033
50
172.5096846
51
180.1366907
0
ARC
8
DEFAULT_255_1_234
10
4.4319188
20
37.2570622
40
0.3103056
50
155.3484492
51
180.7484736
0
ARC
8
DEFAULT_255_1_234
10
4.4270277
20
37.2541846
40
0.3070957
50
131.5744599
51
154.4798489
0
ARC
8
DEFAULT_255_1_234
10
4.4583424
20
37.222531
40
0.3515643
50
96.9875458
51
131.9690667
0
ARC
8
DEFAULT_255_1_234
10
4.4802904
20
37.0979636
40
0.4779224
50
89.8596053
51
97.7825159
0
ARC
8
DEFAULT_255_1_234
10
4.4850967
20
37.0717616
40
0.5041361
50
78.3655447
51
90.4131539
0
ARC
8
DEFAULT_255_1_234
10
4.5208885
20
37.2376887
40
0.3344039
50
56.6229102
51
78.638727
0
ARC
8
DEFAULT_255_1_234
10
4.5423829
20
37.2752805
40
0.2912001
50
47.0253525
51
56.0854072
0
ARC
8
DEFAULT_255_1_234
10
4.5443609
20
37.2792223
40
0.2869704
50
10.9208013
51
46.7778124
0
ARC
8
DEFAULT_255_1_234
10
4.4079675
20
37.2476857
40
0.426899
50
359.6364486
51
11.6087304
0
ARC
8
DEFAULT_255_1_234
10
4.5914519
20
37.2461752
40
0.243409
50
332.3549906
51
359.7179418
0
ARC
8
DEFAULT_255_1_234
10
4.5264121
20
37.2770142
40
0.3153459
50
325.2333722
51
332.8745602
0
ARC
8
DEFAULT_255_1_234
10
4.5416744
20
37.2663828
40
0.2967456
50
292.9802137
51
325.2392345
0
ARC
8
DEFAULT_255_1_234
10
4.5142118
20
37.3197863
40
0.3566604
50
292.5402179
51
293.6924929
0
ARC
8
DEFAULT_255_1_234
10
4.5534714
20
36.6743091
40
0.3307468
50
57.6435486
51
72.8625112
0
ARC
8
DEFAULT_255_1_234
10
4.5889214
20
36.7317549
40
0.2632492
50
36.7248896
51
57.4697979
0
ARC
8
DEFAULT_255_1_234
10
4.5877847
20
36.733022
40
0.2634081
50
8.0545065
51
36.356114
0
ARC
8
DEFAULT_255_1_234
10
4.5015032
20
36.7175174
40
0.3510261
50
359.8320645
51
8.5869982
0
ARC
8
DEFAULT_255_1_234
10
4.4639808
20
36.7127101
40
0.3885653
50
343.9829931
51
0.5571613
0
ARC
8
DEFAULT_255_1_234
10
4.5526005
20
36.6884438
40
0.2966924
50
311.6359546
51
343.7651759
0
ARC
8
DEFAULT_255_1_234
10
4.5147574
20
36.7311102
40
0.3537231
50
279.7829875
51
311.6255694
0
ARC
8
DEFAULT_255_1_234
10
4.4846351
20
36.874828
40
0.5004971
50
269.7286406
51
280.3856417
0
ARC
8
DEFAULT_255_1_234
10
4.4784423
20
36.8706996
40
0.4963778
50
256.6828919
51
270.4412052
0
ARC
8
DEFAULT_255_1_234
10
4.4445719
20
36.7322394
40
0.3538406
50
229.4223008
51
256.8556159
0
ARC
8
DEFAULT_255_1_234
10
4.4031112
20
36.6855736
40
0.2914296
50
181.818294
51
229.6455059
0
ARC
8
DEFAULT_255_1_234
10
4.5071068
20
36.6986496
40
0.3959084
50
179.9755256
51
183.2323064
0
ARC
8
DEFAULT_255_1_234
10
4.4898814
20
36.6966037
40
0.2293034
50
179.4465117
51
196.2869258
0
ARC
8
DEFAULT_255_1_234
10
4.4411222
20
36.6832651
40
0.1787621
50
196.5661473
51
227.705904
0
ARC
8
DEFAULT_255_1_234
10
4.4575317
20
36.7016155
40
0.2033784
50
227.7652068
51
257.8762805
0
ARC
8
DEFAULT_255_1_234
10
4.4800287
20
36.7959156
40
0.3003081
50
257.4584385
51
270.426602
0
ARC
8
DEFAULT_255_1_234
10
4.4845853
20
36.8248996
40
0.329292
50
269.5962073
51
280.8789248
0
ARC
8
DEFAULT_255_1_234
10
4.5075382
20
36.7102685
40
0.2123908
50
280.6346389
51
299.8595945
0
ARC
8
DEFAULT_255_1_234
10
4.5266289
20
36.6740212
40
0.171457
50
300.3576302
51
314.5517981
0
ARC
8
DEFAULT_255_1_234
10
4.5183349
20
36.6800919
40
0.1816095
50
315.0728369
51
345.0431014
0
ARC
8
DEFAULT_255_1_234
10
4.4260163
20
36.7069841
40
0.2777492
50
344.5986631
51
357.9269593
0
ARC
8
DEFAULT_255_1_234
10
4.3364489
20
36.7131276
40
0.3674917
50
357.4748886
51
0.0231117
0
ARC
8
DEFAULT_255_1_234
10
4.4387599
20
36.7155679
40
0.2651907
50
359.5047933
51
13.4239635
0
ARC
8
DEFAULT_255_1_234
10
4.5254242
20
36.7377478
40
0.1757509
50
12.9498199
51
48.7551375
0
ARC
8
DEFAULT_255_1_234
10
4.5071976
20
36.71284
40
0.2065134
50
49.5088623
51
72.1836453
0
ARC
8
DEFAULT_255_1_234
10
4.4714129
20
36.6066291
40
0.3185836
50
71.9010081
51
84.3554254
0
ARC
8
DEFAULT_255_1_234
10
4.4552761
20
36.4705326
40
0.4556151
50
84.0193428
51
89.333121
0
LINE
8
DEFAULT_255_1_234
10
4.8991119
20
44.4491792
11
4.8991119
21
44.3279
0
LINE
8
DEFAULT_255_1_234
10
4.8991119
20
44.3279
11
4.132884
21
44.3279
0
LINE
8
DEFAULT_255_1_234
10
4.132884
20
44.3279
11
4.132884
21
44.4347221
0
LINE
8
DEFAULT_255_1_234
10
4.132884
20
44.4347221
11
4.5376836
21
44.8844995
0
LINE
8
DEFAULT_255_1_234
10
4.2589823
20
45.1527595
11
4.1103952
21
45.1527595
0
LINE
8
DEFAULT_255_1_234
10
4.6252296
20
44.7889218
11
4.3119918
21
44.4491792
0
LINE
8
DEFAULT_255_1_234
10
4.3119918
20
44.4491792
11
4.8991119
21
44.4491792
0
ARC
8
DEFAULT_255_1_234
10
3.188667
20
46.0774527
40
1.8008286
50
318.5132453
51
320.7828378
0
ARC
8
DEFAULT_255_1_234
10
3.7173644
20
45.6471426
40
1.1191493
50
320.7372736
51
323.9737074
0
ARC
8
DEFAULT_255_1_234
10
4.1093501
20
45.3631361
40
0.6350923
50
323.8961724
51
328.6421089
0
ARC
8
DEFAULT_255_1_234
10
4.3140096
20
45.2369031
40
0.3946393
50
328.8299013
51
331.789948
0
ARC
8
DEFAULT_255_1_234
10
4.4137274
20
45.1854509
40
0.2824501
50
331.4255242
51
352.9364833
0
ARC
8
DEFAULT_255_1_234
10
4.4273775
20
45.1823976
40
0.2685315
50
353.2248685
51
0.0169286
0
ARC
8
DEFAULT_255_1_234
10
4.4483652
20
45.184695
40
0.2475536
50
359.4866256
51
15.9339782
0
ARC
8
DEFAULT_255_1_234
10
4.4990637
20
45.1983286
40
0.1950618
50
16.1714718
51
43.5284424
0
ARC
8
DEFAULT_255_1_234
10
4.5067946
20
45.2060573
40
0.184134
50
43.4415429
51
83.1661404
0
ARC
8
DEFAULT_255_1_234
10
4.4933864
20
45.1323771
40
0.258926
50
82.160215
51
90.1505798
0
ARC
8
DEFAULT_255_1_234
10
4.4902291
20
45.0786865
40
0.3126255
50
89.5460705
51
102.5418777
0
ARC
8
DEFAULT_255_1_234
10
4.4659377
20
45.1817665
40
0.2067346
50
102.1739365
51
129.2061916
0
ARC
8
DEFAULT_255_1_234
10
4.4580449
20
45.1942094
40
0.1921118
50
129.7279328
51
135.7542026
0
ARC
8
DEFAULT_255_1_234
10
4.4701977
20
45.1845045
40
0.2075944
50
136.175737
51
166.3674722
0
ARC
8
DEFAULT_255_1_234
10
4.5708896
20
45.1575182
40
0.3118201
50
165.9092917
51
178.8683903
0
ARC
8
DEFAULT_255_1_234
10
4.6573757
20
45.1528179
40
0.3983935
50
178.438168
51
180.0083905
0
ARC
8
DEFAULT_255_1_234
10
4.5172359
20
45.1567231
40
0.4068601
50
163.2878735
51
180.5581814
0
ARC
8
DEFAULT_255_1_234
10
4.4370621
20
45.178784
40
0.3237344
50
133.454115
51
162.9470031
0
ARC
8
DEFAULT_255_1_234
10
4.4549162
20
45.1598
40
0.349795
50
100.7869394
51
133.4384016
0
ARC
8
DEFAULT_255_1_234
10
4.4896934
20
45.0049319
40
0.5084616
50
89.6605301
51
101.3704185
0
ARC
8
DEFAULT_255_1_234
10
4.4963273
20
45.0110496
40
0.502348
50
78.2171172
51
90.4130393
0
ARC
8
DEFAULT_255_1_234
10
4.5318351
20
45.1734637
40
0.3361092
50
55.9268222
51
78.4888551
0
ARC
8
DEFAULT_255_1_234
10
4.5514791
20
45.2073324
40
0.2970617
50
47.9292255
51
55.4054003
0
ARC
8
DEFAULT_255_1_234
10
4.5616352
20
45.2176502
40
0.2825983
50
4.3347696
51
48.0560701
0
ARC
8
DEFAULT_255_1_234
10
4.4520745
20
45.2006601
40
0.393225
50
359.925209
51
5.5967654
0
ARC
8
DEFAULT_255_1_234
10
4.4949637
20
45.2062816
40
0.3503892
50
337.8914096
51
358.9967724
0
ARC
8
DEFAULT_255_1_234
10
4.2236049
20
45.3109706
40
0.6412172
50
326.9135351
51
338.3505194
0
ARC
8
DEFAULT_255_1_234
10
3.8250353
20
45.5664284
40
1.1146189
50
319.6472867
51
327.095818
0
ARC
8
DEFAULT_255_1_234
10
3.4417356
20
45.8826
40
1.6114559
50
317.2586784
51
319.9046139
0
LINE
8
DEFAULT_255_1_234
10
4.6130137
20
53.4404433
11
4.6130137
21
52.2654
0
LINE
8
DEFAULT_255_1_234
10
4.6130137
20
52.2654
11
4.4636234
21
52.2654
0
LINE
8
DEFAULT_255_1_234
10
4.4636234
20
52.2654
11
4.4636234
21
53.2557133
0
LINE
8
DEFAULT_255_1_234
10
4.4636234
20
53.2557133
11
4.1640396
21
53.1456785
0
LINE
8
DEFAULT_255_1_234
10
4.1640396
20
53.1456785
11
4.1640396
21
53.2806117
0
LINE
8
DEFAULT_255_1_234
10
4.1640396
20
53.2806117
11
4.5897217
21
53.4404433
0
LINE
8
DEFAULT_255_1_234
10
4.5897217
20
53.4404433
11
4.6130137
21
53.4404433
0
LINE
8
DEFAULT_255_1_234
10
4.8661817
20
60.8944327
11
4.8661817
21
60.7016709
0
LINE
8
DEFAULT_255_1_234
10
4.128065
20
60.6815916
11
4.128065
21
60.8799755
0
LINE
8
DEFAULT_255_1_234
10
4.7175946
20
60.6615123
11
4.7175946
21
60.9048739
0
LINE
8
DEFAULT_255_1_234
10
4.2766521
20
60.9161184
11
4.2766521
21
60.6783789
0
ARC
8
DEFAULT_255_1_234
10
3.6414707
20
60.6967805
40
1.2247208
50
353.8441951
51
0.2287902
0
ARC
8
DEFAULT_255_1_234
10
4.1054211
20
60.6449806
40
0.7578929
50
344.4934747
51
353.9765454
0
ARC
8
DEFAULT_255_1_234
10
4.4046801
20
60.5598981
40
0.4467846
50
329.2803592
51
344.7472793
0
ARC
8
DEFAULT_255_1_234
10
4.5039626
20
60.5054018
40
0.3336173
50
324.9352394
51
328.6160465
0
ARC
8
DEFAULT_255_1_234
10
4.5416734
20
60.4790427
40
0.2876076
50
280.580143
51
324.9173126
0
ARC
8
DEFAULT_255_1_234
10
4.5015527
20
60.6461099
40
0.4592847
50
269.5977311
51
281.6734359
0
ARC
8
DEFAULT_255_1_234
10
4.4943433
20
60.6341173
40
0.4472986
50
256.6228859
51
270.51044
0
ARC
8
DEFAULT_255_1_234
10
4.454141
20
60.4792877
40
0.2873874
50
215.8618325
51
257.2788573
0
ARC
8
DEFAULT_255_1_234
10
4.5562442
20
60.5477977
40
0.4102928
50
197.9693508
51
215.2623606
0
ARC
8
DEFAULT_255_1_234
10
4.8047558
20
60.6316709
40
0.6725652
50
187.8816417
51
198.2346507
0
ARC
8
DEFAULT_255_1_234
10
5.2005766
20
60.6888079
40
1.0724845
50
180.8976217
51
188.0055519
0
ARC
8
DEFAULT_255_1_234
10
5.4805954
20
60.6991777
40
1.3526448
50
180.7449369
51
181.1510016
0
ARC
8
DEFAULT_255_1_234
10
5.3228683
20
60.8848042
40
1.1948131
50
173.7675579
51
180.231553
0
ARC
8
DEFAULT_255_1_234
10
4.871083
20
60.9358666
40
0.7401564
50
164.3058563
51
173.9002247
0
ARC
8
DEFAULT_255_1_234
10
4.5798899
20
61.0197656
40
0.4371288
50
148.7922025
51
164.568378
0
ARC
8
DEFAULT_255_1_234
10
4.4847351
20
61.0728929
40
0.3282386
50
144.5883898
51
148.1176286
0
ARC
8
DEFAULT_255_1_234
10
4.4504249
20
61.0968315
40
0.2864044
50
101.6440918
51
144.514236
0
ARC
8
DEFAULT_255_1_234
10
4.4929315
20
60.9279069
40
0.4604934
50
89.5284041
51
102.5819763
0
ARC
8
DEFAULT_255_1_234
10
4.5008403
20
60.9240018
40
0.464401
50
77.0437873
51
90.5081339
0
ARC
8
DEFAULT_255_1_234
10
4.5410405
20
61.0882615
40
0.2953195
50
48.2778575
51
77.4994676
0
ARC
8
DEFAULT_255_1_234
10
4.5483036
20
61.1011746
40
0.2808655
50
36.3142134
51
47.6305865
0
ARC
8
DEFAULT_255_1_234
10
4.4614343
20
61.0426515
40
0.3855453
50
18.2931786
51
35.6769206
0
ARC
8
DEFAULT_255_1_234
10
4.2071102
20
60.9553593
40
0.654423
50
8.024666
51
18.5605216
0
ARC
8
DEFAULT_255_1_234
10
3.7908022
20
60.8938792
40
1.0752407
50
1.1274072
51
8.1718305
0
ARC
8
DEFAULT_255_1_234
10
3.4672213
20
60.8811885
40
1.3990231
50
0.5424119
51
1.3863029
0
ARC
8
DEFAULT_255_1_234
10
3.649359
20
60.9084342
40
1.0682415
50
359.8090433
51
4.9407866
0
ARC
8
DEFAULT_255_1_234
10
4.0703604
20
60.9460113
40
0.6455691
50
4.8362157
51
12.2904523
0
ARC
8
DEFAULT_255_1_234
10
4.3458719
20
61.0073965
40
0.3633074
50
12.0805627
51
23.8173984
0
ARC
8
DEFAULT_255_1_234
10
4.4632425
20
61.0570919
40
0.2358723
50
24.2871213
51
31.3935614
0
ARC
8
DEFAULT_255_1_234
10
4.5157122
20
61.0914233
40
0.1732111
50
30.7407893
51
82.4657128
0
ARC
8
DEFAULT_255_1_234
10
4.4977256
20
61.0030691
40
0.263235
50
81.1060089
51
90.2184952
0
ARC
8
DEFAULT_255_1_234
10
4.4941555
20
61.0288924
40
0.2374236
50
89.3806855
51
105.6762551
0
ARC
8
DEFAULT_255_1_234
10
4.4758186
20
61.0955567
40
0.1682847
50
105.7981136
51
149.7388061
0
ARC
8
DEFAULT_255_1_234
10
4.5822264
20
61.031595
40
0.2924306
50
149.4208916
51
163.6286378
0
ARC
8
DEFAULT_255_1_234
10
4.7913152
20
60.967825
40
0.5110213
50
163.3763315
51
172.1410975
0
ARC
8
DEFAULT_255_1_234
10
5.1213871
20
60.9205518
40
0.8444586
50
172.0259487
51
178.0703232
0
ARC
8
DEFAULT_255_1_234
10
5.424396
20
60.9061906
40
1.1477868
50
177.8631668
51
179.5044149
0
ARC
8
DEFAULT_255_1_234
10
5.3171365
20
60.6747389
40
1.0404907
50
179.7995573
51
185.2460446
0
ARC
8
DEFAULT_255_1_234
10
4.9128404
20
60.6364513
40
0.6343885
50
185.1411642
51
193.0079639
0
ARC
8
DEFAULT_255_1_234
10
4.6484877
20
60.5739641
40
0.3627568
50
192.7897626
51
205.2507664
0
ARC
8
DEFAULT_255_1_234
10
4.5438424
20
60.5272415
40
0.2481908
50
205.8005384
51
211.2537509
0
ARC
8
DEFAULT_255_1_234
10
4.4914864
20
60.492158
40
0.1852521
50
210.3789793
51
238.4008143
0
ARC
8
DEFAULT_255_1_234
10
4.4895386
20
60.4968376
40
0.1882621
50
239.6520629
51
265.9793761
0
ARC
8
DEFAULT_255_1_234
10
4.4980586
20
60.5640427
40
0.2559272
50
265.1315437
51
270.060332
0
ARC
8
DEFAULT_255_1_234
10
4.5009365
20
60.5316534
40
0.2235528
50
269.3314664
51
287.2178029
0
ARC
8
DEFAULT_255_1_234
10
4.5147217
20
60.4813279
40
0.1714108
50
287.7958004
51
329.080874
0
ARC
8
DEFAULT_255_1_234
10
4.4189674
20
60.541093
40
0.2842745
50
328.6634704
51
343.3325132
0
ARC
8
DEFAULT_255_1_234
10
4.2016694
20
60.6087863
40
0.5118644
50
343.0499468
51
351.9393422
0
ARC
8
DEFAULT_255_1_234
10
3.8549994
20
60.6598949
40
0.8622784
50
351.8069023
51
357.7959224
0
ARC
8
DEFAULT_255_1_234
10
3.531455
20
60.6766721
40
1.1862365
50
357.5871873
51
359.2677531
0
LINE
8
DEFAULT_255_1_234
10
4.4907489
20
69.3098211
11
4.4907489
21
68.2664983
0
LINE
8
DEFAULT_255_1_234
10
4.4907489
20
68.2664983
11
5.0449389
21
68.2664983
0
LINE
8
DEFAULT_255_1_234
10
5.0449389
20
68.2664983
11
5.0449389
21
68.1404
0
LINE
8
DEFAULT_255_1_234
10
5.0449389
20
68.1404
11
4.3357364
21
68.1404
0
LINE
8
DEFAULT_255_1_234
10
4.3357364
20
68.1404
11
4.3357364
21
69.3098211
0
LINE
8
DEFAULT_255_1_234
10
4.3357364
20
69.3098211
11
4.4907489
21
69.3098211
0
LINE
8
DEFAULT_255_1_234
10
5.9485094
20
68.2616792
11
5.9485094
21
68.1404
0
LINE
8
DEFAULT_255_1_234
10
5.9485094
20
68.1404
11
5.1822816
21
68.1404
0
LINE
8
DEFAULT_255_1_234
10
5.1822816
20
68.1404
11
5.1822816
21
68.2472221
0
LINE
8
DEFAULT_255_1_234
10
5.1822816
20
68.2472221
11
5.5870812
21
68.6969995
0
LINE
8
DEFAULT_255_1_234
10
5.3083799
20
68.9652595
11
5.1597927
21
68.9652595
0
LINE
8
DEFAULT_255_1_234
10
5.6746271
20
68.6014218
11
5.3613894
21
68.2616792
0
LINE
8
DEFAULT_255_1_234
10
5.3613894
20
68.2616792
11
5.9485094
21
68.2616792
0
ARC
8
DEFAULT_255_1_234
10
4.2380645
20
69.8899527
40
1.8008286
50
318.5132453
51
320.7828378
0
ARC
8
DEFAULT_255_1_234
10
4.766762
20
69.4596426
40
1.1191493
50
320.7372736
51
323.9737074
0
ARC
8
DEFAULT_255_1_234
10
5.1587476
20
69.1756361
40
0.6350923
50
323.8961724
51
328.6421089
0
ARC
8
DEFAULT_255_1_234
10
5.3634072
20
69.0494031
40
0.3946393
50
328.8299013
51
331.789948
0
ARC
8
DEFAULT_255_1_234
10
5.463125
20
68.9979509
40
0.2824501
50
331.4255242
51
352.9364833
0
ARC
8
DEFAULT_255_1_234
10
5.4767751
20
68.9948976
40
0.2685315
50
353.2248685
51
0.0169286
0
ARC
8
DEFAULT_255_1_234
10
5.4977627
20
68.997195
40
0.2475536
50
359.4866256
51
15.9339782
0
ARC
8
DEFAULT_255_1_234
10
5.5484613
20
69.0108286
40
0.1950618
50
16.1714718
51
43.5284424
0
ARC
8
DEFAULT_255_1_234
10
5.5561921
20
69.0185573
40
0.184134
50
43.4415429
51
83.1661404
0
ARC
8
DEFAULT_255_1_234
10
5.542784
20
68.9448771
40
0.258926
50
82.160215
51
90.1505798
0
ARC
8
DEFAULT_255_1_234
10
5.5396267
20
68.8911865
40
0.3126255
50
89.5460705
51
102.5418777
0
ARC
8
DEFAULT_255_1_234
10
5.5153353
20
68.9942665
40
0.2067346
50
102.1739365
51
129.2061916
0
ARC
8
DEFAULT_255_1_234
10
5.5074425
20
69.0067094
40
0.1921118
50
129.7279328
51
135.7542026
0
ARC
8
DEFAULT_255_1_234
10
5.5195952
20
68.9970045
40
0.2075944
50
136.175737
51
166.3674722
0
ARC
8
DEFAULT_255_1_234
10
5.6202872
20
68.9700182
40
0.3118201
50
165.9092917
51
178.8683903
0
ARC
8
DEFAULT_255_1_234
10
5.7067733
20
68.9653179
40
0.3983935
50
178.438168
51
180.0083905
0
ARC
8
DEFAULT_255_1_234
10
5.5666335
20
68.9692231
40
0.4068601
50
163.2878735
51
180.5581814
0
ARC
8
DEFAULT_255_1_234
10
5.4864596
20
68.991284
40
0.3237344
50
133.454115
51
162.9470031
0
ARC
8
DEFAULT_255_1_234
10
5.5043138
20
68.9723
40
0.349795
50
100.7869394
51
133.4384016
0
ARC
8
DEFAULT_255_1_234
10
5.5390909
20
68.8174319
40
0.5084616
50
89.6605301
51
101.3704185
0
ARC
8
DEFAULT_255_1_234
10
5.5457248
20
68.8235496
40
0.502348
50
78.2171172
51
90.4130393
0
ARC
8
DEFAULT_255_1_234
10
5.5812326
20
68.9859637
40
0.3361092
50
55.9268222
51
78.4888551
0
ARC
8
DEFAULT_255_1_234
10
5.6008767
20
69.0198324
40
0.2970617
50
47.9292255
51
55.4054003
0
ARC
8
DEFAULT_255_1_234
10
5.6110327
20
69.0301502
40
0.2825983
50
4.3347696
51
48.0560701
0
ARC
8
DEFAULT_255_1_234
10
5.5014721
20
69.0131601
40
0.393225
50
359.925209
51
5.5967654
0
ARC
8
DEFAULT_255_1_234
10
5.5443613
20
69.0187816
40
0.3503892
50
337.8914096
51
358.9967724
0
ARC
8
DEFAULT_255_1_234
10
5.2730025
20
69.1234706
40
0.6412172
50
326.9135351
51
338.3505194
0
ARC
8
DEFAULT_255_1_234
10
4.8744328
20
69.3789284
40
1.1146189
50
319.6472867
51
327.095818
0
ARC
8
DEFAULT_255_1_234
10
4.4911332
20
69.6951
40
1.6114559
50
317.2586784
51
319.9046139
0
LINE
8
DEFAULT_255_1_234
10
6.6384357
20
69.3098211
11
6.1509092
21
68.0400033
0
LINE
8
DEFAULT_255_1_234
10
6.1509092
20
68.0400033
11
6.0232046
21
68.0400033
0
LINE
8
DEFAULT_255_1_234
10
6.0232046
20
68.0400033
11
6.5115343
21
69.3098211
0
LINE
8
DEFAULT_255_1_234
10
6.5115343
20
69.3098211
11
6.6384357
21
69.3098211
0
LINE
8
DEFAULT_255_1_234
10
7.7211141
20
69.3098211
11
7.7211141
21
68.1404
0
LINE
8
DEFAULT_255_1_234
10
7.7211141
20
68.1404
11
7.5661015
21
68.1404
0
LINE
8
DEFAULT_255_1_234
10
7.5661015
20
68.1404
11
6.9773751
21
69.041561
0
LINE
8
DEFAULT_255_1_234
10
6.9773751
20
69.041561
11
6.9773751
21
68.1404
0
LINE
8
DEFAULT_255_1_234
10
6.9773751
20
68.1404
11
6.8223625
21
68.1404
0
LINE
8
DEFAULT_255_1_234
10
6.8223625
20
68.1404
11
6.8223625
21
69.3098211
0
LINE
8
DEFAULT_255_1_234
10
6.8223625
20
69.3098211
11
6.9773751
21
69.3098211
0
LINE
8
DEFAULT_255_1_234
10
6.9773751
20
69.3098211
11
7.5677079
21
68.4046442
0
LINE
8
DEFAULT_255_1_234
10
7.5677079
20
68.4046442
11
7.5677079
21
69.3098211
0
LINE
8
DEFAULT_255_1_234
10
7.5677079
20
69.3098211
11
7.7211141
21
69.3098211
0
LINE
8
DEFAULT_255_1_234
10
21.9957482
20
76.660201
11
21.9957482
21
76.2313062
0
LINE
8
DEFAULT_255_1_234
10
21.0945872
20
76.6063884
11
21.0945872
21
76.7083915
0
LINE
8
DEFAULT_255_1_234
10
21.9957482
20
76.9043659
11
21.8415389
21
76.9043659
0
LINE
8
DEFAULT_255_1_234
10
21.2495998
20
76.7124073
11
21.2495998
21
76.6168296
0
LINE
8
DEFAULT_255_1_234
10
21.842342
20
76.2722681
11
21.842342
21
76.5349059
0
LINE
8
DEFAULT_255_1_234
10
21.842342
20
76.5349059
11
21.5716725
21
76.5349059
0
LINE
8
DEFAULT_255_1_234
10
21.5716725
20
76.5349059
11
21.5716725
21
76.660201
0
LINE
8
DEFAULT_255_1_234
10
21.5716725
20
76.660201
11
21.9957482
21
76.660201
0
ARC
8
DEFAULT_255_1_234
10
21.7125989
20
76.4306396
40
0.3462765
50
295.8437914
51
324.8549609
0
ARC
8
DEFAULT_255_1_234
10
21.6709956
20
76.5059567
40
0.4322211
50
291.5695085
51
296.4549398
0
ARC
8
DEFAULT_255_1_234
10
21.6199207
20
76.6424275
40
0.5779178
50
278.6622409
51
291.3045483
0
ARC
8
DEFAULT_255_1_234
10
21.5859699
20
76.8572408
40
0.7953952
50
270.020006
51
278.7494541
0
ARC
8
DEFAULT_255_1_234
10
21.5821623
20
76.9889036
40
0.927067
50
269.9969998
51
270.2524872
0
ARC
8
DEFAULT_255_1_234
10
21.5783336
20
76.5805589
40
0.5187361
50
253.5786322
51
270.4175299
0
ARC
8
DEFAULT_255_1_234
10
21.5609992
20
76.5134236
40
0.4494451
50
238.8203306
51
253.2788235
0
ARC
8
DEFAULT_255_1_234
10
21.5590365
20
76.5083231
40
0.4440665
50
206.7883783
51
238.6962764
0
ARC
8
DEFAULT_255_1_234
10
21.6364275
20
76.5547405
40
0.5341121
50
206.1129412
51
207.4916643
0
ARC
8
DEFAULT_255_1_234
10
21.696119
20
76.5801488
40
0.5989041
50
188.6921119
51
205.7821245
0
ARC
8
DEFAULT_255_1_234
10
21.8817552
20
76.611723
40
0.7871862
50
180.3882829
51
188.9219216
0
ARC
8
DEFAULT_255_1_234
10
22.0045366
20
76.7140464
40
0.909967
50
170.2024264
51
180.3560651
0
ARC
8
DEFAULT_255_1_234
10
21.6881884
20
76.7706237
40
0.5886083
50
154.2857445
51
170.3893044
0
ARC
8
DEFAULT_255_1_234
10
21.5600087
20
76.829295
40
0.4476743
50
139.8401567
51
153.9332699
0
ARC
8
DEFAULT_255_1_234
10
21.5240823
20
76.8580577
40
0.4016697
50
98.4190291
51
139.6707122
0
ARC
8
DEFAULT_255_1_234
10
21.5620341
20
76.6735328
40
0.5898566
50
89.7659205
51
99.4415478
0
ARC
8
DEFAULT_255_1_234
10
21.568559
20
76.6800844
40
0.5833147
50
78.0551672
51
90.4042112
0
ARC
8
DEFAULT_255_1_234
10
21.60901
20
76.8619644
40
0.3970055
50
54.6380464
51
78.3339173
0
ARC
8
DEFAULT_255_1_234
10
21.6280156
20
76.8939795
40
0.3599102
50
50.031736
51
54.1558201
0
ARC
8
DEFAULT_255_1_234
10
21.6172944
20
76.8843766
40
0.3741624
50
18.1092409
51
49.7180913
0
ARC
8
DEFAULT_255_1_234
10
21.4716144
20
76.8310089
40
0.5292424
50
7.9672797
51
18.6984571
0
ARC
8
DEFAULT_255_1_234
10
21.4866622
20
76.8433504
40
0.3600838
50
9.7557294
51
27.3215714
0
ARC
8
DEFAULT_255_1_234
10
21.5994094
20
76.8996912
40
0.2340608
50
27.7361077
51
84.5257964
0
ARC
8
DEFAULT_255_1_234
10
21.5666481
20
76.735364
40
0.4011215
50
82.106034
51
90.2001166
0
ARC
8
DEFAULT_255_1_234
10
21.5616698
20
76.7861215
40
0.3503799
50
89.4150119
51
105.5823402
0
ARC
8
DEFAULT_255_1_234
10
21.5359696
20
76.8796867
40
0.2533503
50
105.6678618
51
144.2648758
0
ARC
8
DEFAULT_255_1_234
10
21.6252951
20
76.8161289
40
0.3629787
50
144.3561283
51
162.8564086
0
ARC
8
DEFAULT_255_1_234
10
21.833686
20
76.7492017
40
0.5818441
50
162.6076014
51
173.6780284
0
ARC
8
DEFAULT_255_1_234
10
22.1398004
20
76.711989
40
0.8902007
50
173.4670142
51
179.9730753
0
ARC
8
DEFAULT_255_1_234
10
21.9489675
20
76.612626
40
0.6993804
50
179.6556203
51
190.0080463
0
ARC
8
DEFAULT_255_1_234
10
21.7173504
20
76.5701375
40
0.4639066
50
189.8116607
51
206.6796816
0
ARC
8
DEFAULT_255_1_234
10
21.6328656
20
76.5307503
40
0.3707421
50
207.1031645
51
217.7074368
0
ARC
8
DEFAULT_255_1_234
10
21.5694345
20
76.4755559
40
0.2868417
50
216.7345547
51
265.6812148
0
ARC
8
DEFAULT_255_1_234
10
21.5825136
20
76.5659855
40
0.3780509
50
264.7366618
51
270.0611241
0
ARC
8
DEFAULT_255_1_234
10
21.5848399
20
76.8500111
40
0.662079
50
269.8335834
51
276.0539546
0
ARC
8
DEFAULT_255_1_234
10
21.6055404
20
76.659856
40
0.4708016
50
275.9894168
51
284.4615085
0
ARC
8
DEFAULT_255_1_234
10
21.6253411
20
76.5765663
40
0.3852094
50
284.7034461
51
286.4953897
0
ARC
8
DEFAULT_255_1_234
10
21.6660424
20
76.4454965
40
0.2479842
50
286.0770838
51
304.2625829
0
ARC
8
DEFAULT_255_1_234
10
21.6793838
20
76.4236594
40
0.2224291
50
304.5891602
51
317.1073298
0
LINE
8
DEFAULT_255_1_234
10
23.1515154
20
77.2473211
11
23.1515154
21
76.0779
0
LINE
8
DEFAULT_255_1_234
10
23.1515154
20
76.0779
11
22.9965028
21
76.0779
0
LINE
8
DEFAULT_255_1_234
10
22.9965028
20
76.0779
11
22.4077764
21
76.979061
0
LINE
8
DEFAULT_255_1_234
10
22.4077764
20
76.979061
11
22.4077764
21
76.0779
0
LINE
8
DEFAULT_255_1_234
10
22.4077764
20
76.0779
11
22.2527639
21
76.0779
0
LINE
8
DEFAULT_255_1_234
10
22.2527639
20
76.0779
11
22.2527639
21
77.2473211
0
LINE
8
DEFAULT_255_1_234
10
22.2527639
20
77.2473211
11
22.4077764
21
77.2473211
0
LINE
8
DEFAULT_255_1_234
10
22.4077764
20
77.2473211
11
22.9981092
21
76.3421442
0
LINE
8
DEFAULT_255_1_234
10
22.9981092
20
76.3421442
11
22.9981092
21
77.2473211
0
LINE
8
DEFAULT_255_1_234
10
22.9981092
20
77.2473211
11
23.1515154
21
77.2473211
0
LINE
8
DEFAULT_255_1_234
10
23.7490767
20
76.0779
11
23.4253977
21
76.0779
0
LINE
8
DEFAULT_255_1_234
10
23.4253977
20
76.0779
11
23.4253977
21
77.2473211
0
LINE
8
DEFAULT_255_1_234
10
23.4253977
20
77.2473211
11
23.7555021
21
77.2473211
0
LINE
8
DEFAULT_255_1_234
10
24.2711397
20
76.7019661
11
24.2711397
21
76.6272709
0
LINE
8
DEFAULT_255_1_234
10
23.759518
20
77.1204196
11
23.579607
21
77.1204196
0
LINE
8
DEFAULT_255_1_234
10
23.579607
20
77.1204196
11
23.579607
21
76.2039983
0
LINE
8
DEFAULT_255_1_234
10
23.579607
20
76.2039983
11
23.7418481
21
76.2039983
0
LINE
8
DEFAULT_255_1_234
10
24.1185367
20
76.6304836
11
24.1185367
21
76.6987534
0
ARC
8
DEFAULT_255_1_234
10
23.7593963
20
76.6607894
40
0.5865446
50
75.4101064
51
90.3804066
0
ARC
8
DEFAULT_255_1_234
10
23.7823477
20
76.7564492
40
0.4881916
50
60.145586
51
75.1888407
0
ARC
8
DEFAULT_255_1_234
10
23.7982252
20
76.7841199
40
0.4562893
50
26.5253612
51
60.1450928
0
ARC
8
DEFAULT_255_1_234
10
23.6862002
20
76.7247158
40
0.5830602
50
7.4030428
51
26.8320788
0
ARC
8
DEFAULT_255_1_234
10
23.5267758
20
76.6998804
40
0.7443669
50
0.1605367
51
7.7176192
0
ARC
8
DEFAULT_255_1_234
10
23.5431663
20
76.6234434
40
0.7279835
50
348.7289388
51
0.3012466
0
ARC
8
DEFAULT_255_1_234
10
23.7088093
20
76.5905386
40
0.559104
50
333.0706509
51
348.7181832
0
ARC
8
DEFAULT_255_1_234
10
23.8054851
20
76.5380319
40
0.4491417
50
299.2531685
51
333.4571258
0
ARC
8
DEFAULT_255_1_234
10
23.7693991
20
76.6065828
40
0.5265881
50
278.107187
51
299.0339503
0
ARC
8
DEFAULT_255_1_234
10
23.743807
20
76.7573216
40
0.679442
50
270.4443897
51
278.4511052
0
ARC
8
DEFAULT_255_1_234
10
23.74589
20
76.6644213
40
0.4604407
50
269.4970433
51
284.0205042
0
ARC
8
DEFAULT_255_1_234
10
23.7814201
20
76.5278978
40
0.3193797
50
283.7700273
51
318.1555492
0
ARC
8
DEFAULT_255_1_234
10
23.7476959
20
76.5531367
40
0.3613588
50
318.7415601
51
343.6873628
0
ARC
8
DEFAULT_255_1_234
10
23.5672982
20
76.6094832
40
0.5503313
50
343.3325091
51
355.8548958
0
ARC
8
DEFAULT_255_1_234
10
23.3574666
20
76.6294319
40
0.7610708
50
355.4988528
51
0.0791727
0
ARC
8
DEFAULT_255_1_234
10
23.4357289
20
76.702978
40
0.6828208
50
359.6455037
51
9.8607896
0
ARC
8
DEFAULT_255_1_234
10
23.6717987
20
76.7456099
40
0.4429406
50
9.6571907
51
26.1932807
0
ARC
8
DEFAULT_255_1_234
10
23.7645975
20
76.7887118
40
0.3406537
50
26.5777228
51
40.1532208
0
ARC
8
DEFAULT_255_1_234
10
23.7901702
20
76.8086619
40
0.308246
50
40.3840491
51
80.1431104
0
ARC
8
DEFAULT_255_1_234
10
23.757482
20
76.6637333
40
0.4566909
50
79.2152159
51
89.7445637
0
LINE
8
DEFAULT_255_1_234
10
23.9013235
20
29.0086963
11
23.7824538
21
29.0392169
0
LINE
8
DEFAULT_255_1_234
10
23.7824538
20
29.0392169
11
23.8418887
21
29.6223211
0
LINE
8
DEFAULT_255_1_234
10
23.8418887
20
29.6223211
11
24.4410563
21
29.6223211
0
LINE
8
DEFAULT_255_1_234
10
24.4410563
20
29.6223211
11
24.4410563
21
29.4849784
0
LINE
8
DEFAULT_255_1_234
10
24.4410563
20
29.4849784
11
23.967987
21
29.4849784
0
LINE
8
DEFAULT_255_1_234
10
23.967987
20
29.4849784
11
23.9326473
21
29.1661184
0
LINE
8
DEFAULT_255_1_234
10
23.7406888
20
28.7605156
11
23.8812442
21
28.7605156
0
LINE
8
DEFAULT_255_1_234
10
23.9406791
20
29.0408232
11
23.9013235
21
29.0086963
0
ARC
8
DEFAULT_255_1_234
10
24.1181257
20
28.848123
40
0.3681349
50
93.7182161
51
120.2538958
0
ARC
8
DEFAULT_255_1_234
10
24.127552
20
28.7673394
40
0.449379
50
89.9660152
51
94.2496022
0
ARC
8
DEFAULT_255_1_234
10
24.1316254
20
28.8262549
40
0.390482
50
73.8043271
51
90.5585896
0
ARC
8
DEFAULT_255_1_234
10
24.1551151
20
28.9120602
40
0.3015334
50
41.3071453
51
73.5430202
0
ARC
8
DEFAULT_255_1_234
10
24.1134978
20
28.8762324
40
0.3564457
50
13.5075983
51
41.2174222
0
ARC
8
DEFAULT_255_1_234
10
23.9493182
20
28.8332486
40
0.5261351
50
1.1331335
51
13.8829381
0
ARC
8
DEFAULT_255_1_234
10
23.8081551
20
28.8256665
40
0.6674378
50
359.9919444
51
1.544251
0
ARC
8
DEFAULT_255_1_234
10
23.9358377
20
28.821528
40
0.5397702
50
347.8572367
51
0.4293338
0
ARC
8
DEFAULT_255_1_234
10
24.1108695
20
28.7818736
40
0.3603188
50
323.673004
51
348.1672506
0
ARC
8
DEFAULT_255_1_234
10
24.1403203
20
28.7639168
40
0.3259678
50
316.8171152
51
323.1492751
0
ARC
8
DEFAULT_255_1_234
10
24.1464392
20
28.760246
40
0.3189975
50
281.8396411
51
316.5457803
0
ARC
8
DEFAULT_255_1_234
10
24.1088656
20
28.9157762
40
0.4789527
50
269.5770101
51
282.4214771
0
ARC
8
DEFAULT_255_1_234
10
24.1017467
20
28.8944125
40
0.45759
50
256.2427136
51
270.4486331
0
ARC
8
DEFAULT_255_1_234
10
24.071837
20
28.7744229
40
0.3339303
50
228.9023911
51
256.3314342
0
ARC
8
DEFAULT_255_1_234
10
24.0644602
20
28.7627746
40
0.32031
50
193.753695
51
228.5271154
0
ARC
8
DEFAULT_255_1_234
10
24.1882556
20
28.79908
40
0.4492253
50
184.924711
51
194.497588
0
ARC
8
DEFAULT_255_1_234
10
24.2075123
20
28.8026591
40
0.3289787
50
187.3600538
51
198.6732863
0
ARC
8
DEFAULT_255_1_234
10
24.1025417
20
28.7662674
40
0.217884
50
198.4451669
51
217.794479
0
ARC
8
DEFAULT_255_1_234
10
24.0729592
20
28.7453085
40
0.1816698
50
218.2887171
51
228.5612368
0
ARC
8
DEFAULT_255_1_234
10
24.0827379
20
28.7584963
40
0.1980329
50
228.9654866
51
258.1234728
0
ARC
8
DEFAULT_255_1_234
10
24.1033089
20
28.8465833
40
0.2884748
50
257.7258293
51
270.401361
0
ARC
8
DEFAULT_255_1_234
10
24.1077975
20
28.8020821
40
0.2439788
50
269.4204404
51
286.4209037
0
ARC
8
DEFAULT_255_1_234
10
24.1226463
20
28.7481657
40
0.1880666
50
286.7251356
51
320.600362
0
ARC
8
DEFAULT_255_1_234
10
24.0843288
20
28.7792595
40
0.2374121
50
320.6712579
51
344.5441685
0
ARC
8
DEFAULT_255_1_234
10
23.9686614
20
28.8132045
40
0.3579479
50
344.2412205
51
356.7357071
0
ARC
8
DEFAULT_255_1_234
10
23.8437763
20
28.8235444
40
0.4832297
50
356.3548756
51
0.0500261
0
ARC
8
DEFAULT_255_1_234
10
23.9774272
20
28.826665
40
0.3495889
50
359.5576869
51
12.953486
0
ARC
8
DEFAULT_255_1_234
10
24.0829169
20
28.8522434
40
0.2410532
50
12.6490276
51
41.6081334
0
ARC
8
DEFAULT_255_1_234
10
24.105954
20
28.8718321
40
0.2108218
50
41.7850273
51
85.9892764
0
ARC
8
DEFAULT_255_1_234
10
24.0936277
20
28.7905462
40
0.2928454
50
84.6957577
51
90.0676183
0
ARC
8
DEFAULT_255_1_234
10
24.0912761
20
28.7236716
40
0.3597255
50
89.6804936
51
99.1614436
0
ARC
8
DEFAULT_255_1_234
10
24.0707392
20
28.8464131
40
0.235281
50
98.9830931
51
113.8908934
0
ARC
8
DEFAULT_255_1_234
10
24.0477802
20
28.9005587
40
0.176479
50
114.1950727
51
127.3641004
0
LINE
8
DEFAULT_255_1_234
10
24.1298628
20
37.5598211
11
24.1298628
21
36.783152
0
LINE
8
DEFAULT_255_1_234
10
24.1298628
20
36.783152
11
24.2921039
21
36.783152
0
LINE
8
DEFAULT_255_1_234
10
24.2921039
20
36.783152
11
24.2921039
21
36.6618728
0
LINE
8
DEFAULT_255_1_234
10
24.2921039
20
36.6618728
11
24.1298628
21
36.6618728
0
LINE
8
DEFAULT_255_1_234
10
24.1298628
20
36.6618728
11
24.1298628
21
36.3904
0
LINE
8
DEFAULT_255_1_234
10
24.1298628
20
36.3904
11
23.9804725
21
36.3904
0
LINE
8
DEFAULT_255_1_234
10
23.9804725
20
36.3904
11
23.9804725
21
36.6618728
0
LINE
8
DEFAULT_255_1_234
10
23.9804725
20
36.6618728
11
23.4479682
21
36.6618728
0
LINE
8
DEFAULT_255_1_234
10
23.4479682
20
36.6618728
11
23.4479682
21
36.7494187
0
LINE
8
DEFAULT_255_1_234
10
23.4479682
20
36.7494187
11
23.9716375
21
37.5598211
0
LINE
8
DEFAULT_255_1_234
10
23.9716375
20
37.5598211
11
24.1298628
21
37.5598211
0
LINE
8
DEFAULT_255_1_234
10
23.9628026
20
37.3244912
11
23.6166347
21
36.783152
0
LINE
8
DEFAULT_255_1_234
10
23.6166347
20
36.783152
11
23.9804725
21
36.783152
0
LINE
8
DEFAULT_255_1_234
10
23.9804725
20
36.783152
11
23.9804725
21
37.3566181
0
LINE
8
DEFAULT_255_1_234
10
23.9804725
20
37.3566181
11
23.9628026
21
37.3244912
0
LINE
8
DEFAULT_255_1_234
10
23.9302378
20
44.8636169
11
23.9302378
21
44.9848962
0
LINE
8
DEFAULT_255_1_234
10
23.9302378
20
44.9848962
11
24.041879
21
44.9848962
0
LINE
8
DEFAULT_255_1_234
10
23.8515268
20
45.1905087
11
23.7029396
21
45.1905087
0
LINE
8
DEFAULT_255_1_234
10
23.6924983
20
44.6363188
11
23.8418887
21
44.6363188
0
LINE
8
DEFAULT_255_1_234
10
24.041879
20
44.8636169
11
23.9302378
21
44.8636169
0
ARC
8
DEFAULT_255_1_234
10
24.0389656
20
45.3241713
40
0.3392876
50
270.4919872
51
281.8951556
0
ARC
8
DEFAULT_255_1_234
10
24.0630918
20
45.2139702
40
0.2264817
50
281.6691735
51
301.2943132
0
ARC
8
DEFAULT_255_1_234
10
24.0801128
20
45.1828304
40
0.1910381
50
301.7833094
51
311.7545298
0
ARC
8
DEFAULT_255_1_234
10
24.0892704
20
45.1726748
40
0.1773635
50
311.7323931
51
354.2802411
0
ARC
8
DEFAULT_255_1_234
10
24.0166329
20
45.1851722
40
0.2509385
50
353.0937916
51
0.1181479
0
ARC
8
DEFAULT_255_1_234
10
23.9705114
20
45.1899386
40
0.2970898
50
359.1805295
51
15.0453146
0
ARC
8
DEFAULT_255_1_234
10
24.1050951
20
45.2291992
40
0.1569564
50
13.9577229
51
77.6713066
0
ARC
8
DEFAULT_255_1_234
10
24.066448
20
45.0906949
40
0.3006298
50
76.1116566
51
90.7026153
0
ARC
8
DEFAULT_255_1_234
10
24.0605318
20
45.1180545
40
0.2732568
50
89.5324876
51
103.531937
0
ARC
8
DEFAULT_255_1_234
10
24.0404762
20
45.1979884
40
0.1908508
50
103.2931773
51
133.5619022
0
ARC
8
DEFAULT_255_1_234
10
24.0360251
20
45.2039375
40
0.1834746
50
133.8349307
51
173.5344437
0
ARC
8
DEFAULT_255_1_234
10
24.1083294
20
45.1911213
40
0.2568033
50
172.5096846
51
180.1366907
0
ARC
8
DEFAULT_255_1_234
10
24.0132188
20
45.1945622
40
0.3103056
50
155.3484492
51
180.7484736
0
ARC
8
DEFAULT_255_1_234
10
24.0083277
20
45.1916846
40
0.3070957
50
131.5744599
51
154.4798489
0
ARC
8
DEFAULT_255_1_234
10
24.0396424
20
45.160031
40
0.3515643
50
96.9875458
51
131.9690667
0
ARC
8
DEFAULT_255_1_234
10
24.0615904
20
45.0354636
40
0.4779224
50
89.8596053
51
97.7825159
0
ARC
8
DEFAULT_255_1_234
10
24.0663967
20
45.0092616
40
0.5041361
50
78.3655447
51
90.4131539
0
ARC
8
DEFAULT_255_1_234
10
24.1021885
20
45.1751887
40
0.3344039
50
56.6229102
51
78.638727
0
ARC
8
DEFAULT_255_1_234
10
24.1236829
20
45.2127805
40
0.2912001
50
47.0253525
51
56.0854072
0
ARC
8
DEFAULT_255_1_234
10
24.1256609
20
45.2167223
40
0.2869704
50
10.9208013
51
46.7778124
0
ARC
8
DEFAULT_255_1_234
10
23.9892675
20
45.1851857
40
0.426899
50
359.6364486
51
11.6087304
0
ARC
8
DEFAULT_255_1_234
10
24.1727519
20
45.1836752
40
0.243409
50
332.3549906
51
359.7179418
0
ARC
8
DEFAULT_255_1_234
10
24.1077121
20
45.2145142
40
0.3153459
50
325.2333722
51
332.8745602
0
ARC
8
DEFAULT_255_1_234
10
24.1229744
20
45.2038828
40
0.2967456
50
292.9802137
51
325.2392345
0
ARC
8
DEFAULT_255_1_234
10
24.0955118
20
45.2572863
40
0.3566604
50
292.5402179
51
293.6924929
0
ARC
8
DEFAULT_255_1_234
10
24.1347714
20
44.6118091
40
0.3307468
50
57.6435486
51
72.8625112
0
ARC
8
DEFAULT_255_1_234
10
24.1702214
20
44.6692549
40
0.2632492
50
36.7248896
51
57.4697979
0
ARC
8
DEFAULT_255_1_234
10
24.1690847
20
44.670522
40
0.2634081
50
8.0545065
51
36.356114
0
ARC
8
DEFAULT_255_1_234
10
24.0828032
20
44.6550174
40
0.3510261
50
359.8320645
51
8.5869982
0
ARC
8
DEFAULT_255_1_234
10
24.0452808
20
44.6502101
40
0.3885653
50
343.9829931
51
0.5571613
0
ARC
8
DEFAULT_255_1_234
10
24.1339005
20
44.6259438
40
0.2966924
50
311.6359546
51
343.7651759
0
ARC
8
DEFAULT_255_1_234
10
24.0960574
20
44.6686102
40
0.3537231
50
279.7829875
51
311.6255694
0
ARC
8
DEFAULT_255_1_234
10
24.0659351
20
44.812328
40
0.5004971
50
269.7286406
51
280.3856417
0
ARC
8
DEFAULT_255_1_234
10
24.0597423
20
44.8081996
40
0.4963778
50
256.6828919
51
270.4412052
0
ARC
8
DEFAULT_255_1_234
10
24.0258719
20
44.6697394
40
0.3538406
50
229.4223008
51
256.8556159
0
ARC
8
DEFAULT_255_1_234
10
23.9844112
20
44.6230736
40
0.2914296
50
181.818294
51
229.6455059
0
ARC
8
DEFAULT_255_1_234
10
24.0884068
20
44.6361496
40
0.3959084
50
179.9755256
51
183.2323064
0
ARC
8
DEFAULT_255_1_234
10
24.0711814
20
44.6341037
40
0.2293034
50
179.4465117
51
196.2869258
0
ARC
8
DEFAULT_255_1_234
10
24.0224222
20
44.6207651
40
0.1787621
50
196.5661473
51
227.705904
0
ARC
8
DEFAULT_255_1_234
10
24.0388317
20
44.6391155
40
0.2033784
50
227.7652068
51
257.8762805
0
ARC
8
DEFAULT_255_1_234
10
24.0613287
20
44.7334156
40
0.3003081
50
257.4584385
51
270.426602
0
ARC
8
DEFAULT_255_1_234
10
24.0658853
20
44.7623996
40
0.329292
50
269.5962073
51
280.8789248
0
ARC
8
DEFAULT_255_1_234
10
24.0888382
20
44.6477685
40
0.2123908
50
280.6346389
51
299.8595945
0
ARC
8
DEFAULT_255_1_234
10
24.1079289
20
44.6115212
40
0.171457
50
300.3576302
51
314.5517981
0
ARC
8
DEFAULT_255_1_234
10
24.0996349
20
44.6175919
40
0.1816095
50
315.0728369
51
345.0431014
0
ARC
8
DEFAULT_255_1_234
10
24.0073163
20
44.6444841
40
0.2777492
50
344.5986631
51
357.9269593
0
ARC
8
DEFAULT_255_1_234
10
23.9177489
20
44.6506276
40
0.3674917
50
357.4748886
51
0.0231117
0
ARC
8
DEFAULT_255_1_234
10
24.0200599
20
44.6530679
40
0.2651907
50
359.5047933
51
13.4239635
0
ARC
8
DEFAULT_255_1_234
10
24.1067242
20
44.6752478
40
0.1757509
50
12.9498199
51
48.7551375
0
ARC
8
DEFAULT_255_1_234
10
24.0884976
20
44.65034
40
0.2065134
50
49.5088623
51
72.1836453
0
ARC
8
DEFAULT_255_1_234
10
24.0527129
20
44.5441291
40
0.3185836
50
71.9010081
51
84.3554254
0
ARC
8
DEFAULT_255_1_234
10
24.0365761
20
44.4080326
40
0.4556151
50
84.0193428
51
89.333121
0
LINE
8
DEFAULT_255_1_234
10
24.4804119
20
52.3866792
11
24.4804119
21
52.2654
0
LINE
8
DEFAULT_255_1_234
10
24.4804119
20
52.2654
11
23.714184
21
52.2654
0
LINE
8
DEFAULT_255_1_234
10
23.714184
20
52.2654
11
23.714184
21
52.3722221
0
LINE
8
DEFAULT_255_1_234
10
23.714184
20
52.3722221
11
24.1189836
21
52.8219995
0
LINE
8
DEFAULT_255_1_234
10
23.8402823
20
53.0902595
11
23.6916952
21
53.0902595
0
LINE
8
DEFAULT_255_1_234
10
24.2065296
20
52.7264218
11
23.8932918
21
52.3866792
0
LINE
8
DEFAULT_255_1_234
10
23.8932918
20
52.3866792
11
24.4804119
21
52.3866792
0
ARC
8
DEFAULT_255_1_234
10
22.769967
20
54.0149527
40
1.8008286
50
318.5132453
51
320.7828378
0
ARC
8
DEFAULT_255_1_234
10
23.2986644
20
53.5846426
40
1.1191493
50
320.7372736
51
323.9737074
0
ARC
8
DEFAULT_255_1_234
10
23.6906501
20
53.3006361
40
0.6350923
50
323.8961724
51
328.6421089
0
ARC
8
DEFAULT_255_1_234
10
23.8953096
20
53.1744031
40
0.3946393
50
328.8299013
51
331.789948
0
ARC
8
DEFAULT_255_1_234
10
23.9950274
20
53.1229509
40
0.2824501
50
331.4255242
51
352.9364833
0
ARC
8
DEFAULT_255_1_234
10
24.0086775
20
53.1198976
40
0.2685315
50
353.2248685
51
0.0169286
0
ARC
8
DEFAULT_255_1_234
10
24.0296652
20
53.122195
40
0.2475536
50
359.4866256
51
15.9339782
0
ARC
8
DEFAULT_255_1_234
10
24.0803637
20
53.1358286
40
0.1950618
50
16.1714718
51
43.5284424
0
ARC
8
DEFAULT_255_1_234
10
24.0880946
20
53.1435573
40
0.184134
50
43.4415429
51
83.1661404
0
ARC
8
DEFAULT_255_1_234
10
24.0746864
20
53.0698771
40
0.258926
50
82.160215
51
90.1505798
0
ARC
8
DEFAULT_255_1_234
10
24.0715291
20
53.0161865
40
0.3126255
50
89.5460705
51
102.5418777
0
ARC
8
DEFAULT_255_1_234
10
24.0472377
20
53.1192665
40
0.2067346
50
102.1739365
51
129.2061916
0
ARC
8
DEFAULT_255_1_234
10
24.0393449
20
53.1317094
40
0.1921118
50
129.7279328
51
135.7542026
0
ARC
8
DEFAULT_255_1_234
10
24.0514977
20
53.1220045
40
0.2075944
50
136.175737
51
166.3674722
0
ARC
8
DEFAULT_255_1_234
10
24.1521896
20
53.0950182
40
0.3118201
50
165.9092917
51
178.8683903
0
ARC
8
DEFAULT_255_1_234
10
24.2386757
20
53.0903179
40
0.3983935
50
178.438168
51
180.0083905
0
ARC
8
DEFAULT_255_1_234
10
24.0985359
20
53.0942231
40
0.4068601
50
163.2878735
51
180.5581814
0
ARC
8
DEFAULT_255_1_234
10
24.0183621
20
53.116284
40
0.3237344
50
133.454115
51
162.9470031
0
ARC
8
DEFAULT_255_1_234
10
24.0362162
20
53.0973
40
0.349795
50
100.7869394
51
133.4384016
0
ARC
8
DEFAULT_255_1_234
10
24.0709934
20
52.9424319
40
0.5084616
50
89.6605301
51
101.3704185
0
ARC
8
DEFAULT_255_1_234
10
24.0776273
20
52.9485496
40
0.502348
50
78.2171172
51
90.4130393
0
ARC
8
DEFAULT_255_1_234
10
24.1131351
20
53.1109637
40
0.3361092
50
55.9268222
51
78.4888551
0
ARC
8
DEFAULT_255_1_234
10
24.1327791
20
53.1448324
40
0.2970617
50
47.9292255
51
55.4054003
0
ARC
8
DEFAULT_255_1_234
10
24.1429352
20
53.1551502
40
0.2825983
50
4.3347696
51
48.0560701
0
ARC
8
DEFAULT_255_1_234
10
24.0333745
20
53.1381601
40
0.393225
50
359.925209
51
5.5967654
0
ARC
8
DEFAULT_255_1_234
10
24.0762637
20
53.1437816
40
0.3503892
50
337.8914096
51
358.9967724
0
ARC
8
DEFAULT_255_1_234
10
23.8049049
20
53.2484706
40
0.6412172
50
326.9135351
51
338.3505194
0
ARC
8
DEFAULT_255_1_234
10
23.4063353
20
53.5039284
40
1.1146189
50
319.6472867
51
327.095818
0
ARC
8
DEFAULT_255_1_234
10
23.0230356
20
53.8201
40
1.6114559
50
317.2586784
51
319.9046139
0
LINE
8
DEFAULT_255_1_234
10
24.2108137
20
61.3779433
11
24.2108137
21
60.2029
0
LINE
8
DEFAULT_255_1_234
10
24.2108137
20
60.2029
11
24.0614234
21
60.2029
0
LINE
8
DEFAULT_255_1_234
10
24.0614234
20
60.2029
11
24.0614234
21
61.1932133
0
LINE
8
DEFAULT_255_1_234
10
24.0614234
20
61.1932133
11
23.7618396
21
61.0831785
0
LINE
8
DEFAULT_255_1_234
10
23.7618396
20
61.0831785
11
23.7618396
21
61.2181117
0
LINE
8
DEFAULT_255_1_234
10
23.7618396
20
61.2181117
11
24.1875217
21
61.3779433
0
LINE
8
DEFAULT_255_1_234
10
24.1875217
20
61.3779433
11
24.2108137
21
61.3779433
0
LINE
8
DEFAULT_255_1_234
10
24.4474817
20
68.8319327
11
24.4474817
21
68.6391709
0
LINE
8
DEFAULT_255_1_234
10
23.709365
20
68.6190916
11
23.709365
21
68.8174755
0
LINE
8
DEFAULT_255_1_234
10
24.2988946
20
68.5990123
11
24.2988946
21
68.8423739
0
LINE
8
DEFAULT_255_1_234
10
23.8579521
20
68.8536184
11
23.8579521
21
68.6158789
0
ARC
8
DEFAULT_255_1_234
10
23.2227707
20
68.6342805
40
1.2247208
50
353.8441951
51
0.2287902
0
ARC
8
DEFAULT_255_1_234
10
23.6867211
20
68.5824806
40
0.7578929
50
344.4934747
51
353.9765454
0
ARC
8
DEFAULT_255_1_234
10
23.9859801
20
68.4973981
40
0.4467846
50
329.2803592
51
344.7472793
0
ARC
8
DEFAULT_255_1_234
10
24.0852626
20
68.4429018
40
0.3336173
50
324.9352394
51
328.6160465
0
ARC
8
DEFAULT_255_1_234
10
24.1229734
20
68.4165427
40
0.2876076
50
280.580143
51
324.9173126
0
ARC
8
DEFAULT_255_1_234
10
24.0828527
20
68.5836099
40
0.4592847
50
269.5977311
51
281.6734359
0
ARC
8
DEFAULT_255_1_234
10
24.0756433
20
68.5716173
40
0.4472986
50
256.6228859
51
270.51044
0
ARC
8
DEFAULT_255_1_234
10
24.035441
20
68.4167877
40
0.2873874
50
215.8618325
51
257.2788573
0
ARC
8
DEFAULT_255_1_234
10
24.1375442
20
68.4852977
40
0.4102928
50
197.9693508
51
215.2623606
0
ARC
8
DEFAULT_255_1_234
10
24.3860558
20
68.5691709
40
0.6725652
50
187.8816417
51
198.2346507
0
ARC
8
DEFAULT_255_1_234
10
24.7818766
20
68.6263079
40
1.0724845
50
180.8976217
51
188.0055519
0
ARC
8
DEFAULT_255_1_234
10
25.0618954
20
68.6366777
40
1.3526448
50
180.7449369
51
181.1510016
0
ARC
8
DEFAULT_255_1_234
10
24.9041683
20
68.8223042
40
1.1948131
50
173.7675579
51
180.231553
0
ARC
8
DEFAULT_255_1_234
10
24.452383
20
68.8733666
40
0.7401564
50
164.3058563
51
173.9002247
0
ARC
8
DEFAULT_255_1_234
10
24.1611899
20
68.9572656
40
0.4371288
50
148.7922025
51
164.568378
0
ARC
8
DEFAULT_255_1_234
10
24.0660351
20
69.0103929
40
0.3282386
50
144.5883898
51
148.1176286
0
ARC
8
DEFAULT_255_1_234
10
24.0317249
20
69.0343315
40
0.2864044
50
101.6440918
51
144.514236
0
ARC
8
DEFAULT_255_1_234
10
24.0742315
20
68.8654069
40
0.4604934
50
89.5284041
51
102.5819763
0
ARC
8
DEFAULT_255_1_234
10
24.0821403
20
68.8615018
40
0.464401
50
77.0437873
51
90.5081339
0
ARC
8
DEFAULT_255_1_234
10
24.1223405
20
69.0257615
40
0.2953195
50
48.2778575
51
77.4994676
0
ARC
8
DEFAULT_255_1_234
10
24.1296036
20
69.0386746
40
0.2808655
50
36.3142134
51
47.6305865
0
ARC
8
DEFAULT_255_1_234
10
24.0427343
20
68.9801515
40
0.3855453
50
18.2931786
51
35.6769206
0
ARC
8
DEFAULT_255_1_234
10
23.7884102
20
68.8928593
40
0.654423
50
8.024666
51
18.5605216
0
ARC
8
DEFAULT_255_1_234
10
23.3721022
20
68.8313792
40
1.0752407
50
1.1274072
51
8.1718305
0
ARC
8
DEFAULT_255_1_234
10
23.0485213
20
68.8186885
40
1.3990231
50
0.5424119
51
1.3863029
0
ARC
8
DEFAULT_255_1_234
10
23.230659
20
68.8459342
40
1.0682415
50
359.8090433
51
4.9407866
0
ARC
8
DEFAULT_255_1_234
10
23.6516604
20
68.8835113
40
0.6455691
50
4.8362157
51
12.2904523
0
ARC
8
DEFAULT_255_1_234
10
23.9271719
20
68.9448965
40
0.3633074
50
12.0805627
51
23.8173984
0
ARC
8
DEFAULT_255_1_234
10
24.0445425
20
68.9945919
40
0.2358723
50
24.2871213
51
31.3935614
0
ARC
8
DEFAULT_255_1_234
10
24.0970122
20
69.0289233
40
0.1732111
50
30.7407893
51
82.4657128
0
ARC
8
DEFAULT_255_1_234
10
24.0790256
20
68.9405691
40
0.263235
50
81.1060089
51
90.2184952
0
ARC
8
DEFAULT_255_1_234
10
24.0754555
20
68.9663924
40
0.2374236
50
89.3806855
51
105.6762551
0
ARC
8
DEFAULT_255_1_234
10
24.0571186
20
69.0330567
40
0.1682847
50
105.7981136
51
149.7388061
0
ARC
8
DEFAULT_255_1_234
10
24.1635264
20
68.969095
40
0.2924306
50
149.4208916
51
163.6286378
0
ARC
8
DEFAULT_255_1_234
10
24.3726152
20
68.905325
40
0.5110213
50
163.3763315
51
172.1410975
0
ARC
8
DEFAULT_255_1_234
10
24.7026871
20
68.8580518
40
0.8444586
50
172.0259487
51
178.0703232
0
ARC
8
DEFAULT_255_1_234
10
25.005696
20
68.8436906
40
1.1477868
50
177.8631668
51
179.5044149
0
ARC
8
DEFAULT_255_1_234
10
24.8984365
20
68.6122389
40
1.0404907
50
179.7995573
51
185.2460446
0
ARC
8
DEFAULT_255_1_234
10
24.4941404
20
68.5739513
40
0.6343885
50
185.1411642
51
193.0079639
0
ARC
8
DEFAULT_255_1_234
10
24.2297877
20
68.5114641
40
0.3627568
50
192.7897626
51
205.2507664
0
ARC
8
DEFAULT_255_1_234
10
24.1251424
20
68.4647415
40
0.2481908
50
205.8005384
51
211.2537509
0
ARC
8
DEFAULT_255_1_234
10
24.0727864
20
68.429658
40
0.1852521
50
210.3789793
51
238.4008143
0
ARC
8
DEFAULT_255_1_234
10
24.0708386
20
68.4343376
40
0.1882621
50
239.6520629
51
265.9793761
0
ARC
8
DEFAULT_255_1_234
10
24.0793586
20
68.5015427
40
0.2559272
50
265.1315437
51
270.060332
0
ARC
8
DEFAULT_255_1_234
10
24.0822365
20
68.4691534
40
0.2235528
50
269.3314664
51
287.2178029
0
ARC
8
DEFAULT_255_1_234
10
24.0960217
20
68.4188279
40
0.1714108
50
287.7958004
51
329.080874
0
ARC
8
DEFAULT_255_1_234
10
24.0002674
20
68.478593
40
0.2842745
50
328.6634704
51
343.3325132
0
ARC
8
DEFAULT_255_1_234
10
23.7829694
20
68.5462863
40
0.5118644
50
343.0499468
51
351.9393422
0
ARC
8
DEFAULT_255_1_234
10
23.4362994
20
68.5973949
40
0.8622784
50
351.8069023
51
357.7959224
0
ARC
8
DEFAULT_255_1_234
10
23.112755
20
68.6141721
40
1.1862365
50
357.5871873
51
359.2677531
0
ENDSEC
0
EOF