0
SECTION
2
HEADER
9
$MEASUREMENT
70
1
0
ENDSEC
0
SECTION
2
TABLES
0
TABLE
2
LTYPE
0
LTYPE
72
65
70
64
2
CONTINUOUS
3
______
73
0
40
0
0
ENDTAB
0
TABLE
2
LAYER
0
LAYER
2
DEFAULT_255_2_778
70
0
62
255
6
CONTINUOUS
0
ENDTAB
0
ENDSEC
0
SECTION
2
ENTITIES
0
LINE
8
DEFAULT_255_2_778
10
24.7414798
20
102.4612
11
145.7414798
21
102.4612
0
LINE
8
DEFAULT_255_2_778
10
143.54151
20
102.461255
11
143.54151
21
84.561155
0
LINE
8
DEFAULT_255_2_778
10
143.54151
20
84.561155
11
27.34151
21
84.561155
0
LINE
8
DEFAULT_255_2_778
10
27.34151
20
84.561155
11
27.34151
21
102.461255
0
LINE
8
DEFAULT_255_2_778
10
145.74151
20
12.661155
11
44.14151
21
12.661155
0
ARC
8
DEFAULT_255_2_778
10
82.3378466
20
47.5624486
40
0.9962403
50
138.3561595
51
180.0837306
0
ARC
8
DEFAULT_255_2_778
10
82.3404384
20
47.5634578
40
0.9975096
50
91.7301295
51
138.4984071
0
ARC
8
DEFAULT_255_2_778
10
82.3415976
20
47.542237
40
1.0187558
50
89.9994546
51
91.7592604
0
ARC
8
DEFAULT_255_2_778
10
82.3430632
20
47.5647534
40
0.9962403
50
48.3561595
51
90.0837306
0
ARC
8
DEFAULT_255_2_778
10
82.3440725
20
47.5621616
40
0.9975096
50
1.7301295
51
48.4984071
0
ARC
8
DEFAULT_255_2_778
10
82.3228517
20
47.5610024
40
1.0187558
50
359.9994546
51
1.7592604
0
ARC
8
DEFAULT_255_2_778
10
82.3453681
20
47.5595368
40
0.9962403
50
318.3561595
51
0.0837306
0
ARC
8
DEFAULT_255_2_778
10
82.3427762
20
47.5585275
40
0.9975096
50
271.7301295
51
318.4984071
0
ARC
8
DEFAULT_255_2_778
10
82.341617
20
47.5797483
40
1.0187558
50
269.9994546
51
271.7592604
0
ARC
8
DEFAULT_255_2_778
10
82.3401514
20
47.5572319
40
0.9962403
50
228.3561595
51
270.0837306
0
ARC
8
DEFAULT_255_2_778
10
82.3391422
20
47.5598238
40
0.9975096
50
181.7301295
51
228.4984071
0
ARC
8
DEFAULT_255_2_778
10
82.360363
20
47.560983
40
1.0187558
50
179.9994546
51
181.7592604
0
LINE
8
DEFAULT_255_2_778
10
81.3416073
20
47.5609927
11
81.3416073
21
47.5609927
0
ARC
8
DEFAULT_255_2_778
10
122.3378466
20
47.5624486
40
0.9962403
50
138.3561595
51
180.0837306
0
ARC
8
DEFAULT_255_2_778
10
122.3404384
20
47.5634578
40
0.9975096
50
91.7301295
51
138.4984071
0
ARC
8
DEFAULT_255_2_778
10
122.3415976
20
47.542237
40
1.0187558
50
89.9994546
51
91.7592604
0
ARC
8
DEFAULT_255_2_778
10
122.3430632
20
47.5647534
40
0.9962403
50
48.3561595
51
90.0837306
0
ARC
8
DEFAULT_255_2_778
10
122.3440725
20
47.5621616
40
0.9975096
50
1.7301295
51
48.4984071
0
ARC
8
DEFAULT_255_2_778
10
122.3228517
20
47.5610024
40
1.0187558
50
359.9994546
51
1.7592604
0
ARC
8
DEFAULT_255_2_778
10
122.3453681
20
47.5595368
40
0.9962403
50
318.3561595
51
0.0837306
0
ARC
8
DEFAULT_255_2_778
10
122.3427762
20
47.5585275
40
0.9975096
50
271.7301295
51
318.4984071
0
ARC
8
DEFAULT_255_2_778
10
122.341617
20
47.5797483
40
1.0187558
50
269.9994546
51
271.7592604
0
ARC
8
DEFAULT_255_2_778
10
122.3401514
20
47.5572319
40
0.9962403
50
228.3561595
51
270.0837306
0
ARC
8
DEFAULT_255_2_778
10
122.3391422
20
47.5598238
40
0.9975096
50
181.7301295
51
228.4984071
0
ARC
8
DEFAULT_255_2_778
10
122.360363
20
47.560983
40
1.0187558
50
179.9994546
51
181.7592604
0
LINE
8
DEFAULT_255_2_778
10
121.3416073
20
47.5609927
11
121.3416073
21
47.5609927
0
LINE
8
DEFAULT_255_2_778
10
150.1418125
20
74.0611152
11
130.3417125
21
74.0611152
0
LINE
8
DEFAULT_255_2_778
10
130.3417125
20
74.0611152
11
130.3417125
21
43.6610152
0
LINE
8
DEFAULT_255_2_778
10
130.3417125
20
43.6610152
11
132.6417125
21
40.8609152
0
LINE
8
DEFAULT_255_2_778
10
132.6417125
20
40.8609152
11
150.1418125
21
40.8609152
0
LINE
8
DEFAULT_255_2_778
10
0.5416125
20
74.4611152
11
0.5416125
21
68.0611152
0
LINE
8
DEFAULT_255_2_778
10
0.5416125
20
68.0611152
11
2.5416125
21
68.0611152
0
LINE
8
DEFAULT_255_2_778
10
2.5416125
20
68.0611152
11
2.5416125
21
74.1611152
0
LINE
8
DEFAULT_255_2_778
10
0.5416125
20
41.7909152
11
0.5416125
21
48.0610152
0
LINE
8
DEFAULT_255_2_778
10
0.5416125
20
48.0610152
11
2.5416125
21
48.0610152
0
LINE
8
DEFAULT_255_2_778
10
2.5416125
20
48.0610152
11
2.5416125
21
41.9610152
0
LINE
8
DEFAULT_255_2_778
10
0.9157701
20
41.9610836
11
22.6417701
21
41.9610836
0
LINE
8
DEFAULT_255_2_778
10
22.6417701
20
41.9610836
11
22.6417701
21
74.1611836
0
LINE
8
DEFAULT_255_2_778
10
22.6417701
20
74.1611836
11
0.9157701
21
74.1611836
0
LINE
8
DEFAULT_255_2_778
10
0.9157701
20
78.3611836
11
22.6417701
21
78.3611836
0
LINE
8
DEFAULT_255_2_778
10
22.6417701
20
78.3611836
11
22.6417701
21
100.4612836
0
LINE
8
DEFAULT_255_2_778
10
22.6417701
20
100.4612836
11
2.5415701
21
100.4612836
0
LINE
8
DEFAULT_255_2_778
10
2.5415701
20
100.4612836
11
2.5415701
21
94.4112836
0
LINE
8
DEFAULT_255_2_778
10
2.5413701
20
100.4612836
11
0.9154701
21
100.4612836
0
LINE
8
DEFAULT_255_2_778
10
2.5416
20
78.3610812
11
2.5416
21
84.4110812
0
ARC
8
DEFAULT_255_2_778
10
5.1459674
20
7.5645516
40
2.2543868
50
158.2386051
51
180.0898428
0
ARC
8
DEFAULT_255_2_778
10
5.1366453
20
7.5655336
40
2.2453665
50
100.4545112
51
158.173688
0
ARC
8
DEFAULT_255_2_778
10
5.1403947
20
7.5315047
40
2.2795122
50
89.9701221
51
100.3919857
0
ARC
8
DEFAULT_255_2_778
10
5.145132
20
7.5564879
40
2.2545315
50
68.2393107
51
90.0901832
0
ARC
8
DEFAULT_255_2_778
10
5.1461889
20
7.5660432
40
2.2452669
50
10.452684
51
68.1739611
0
ARC
8
DEFAULT_255_2_778
10
5.1118552
20
7.5622042
40
2.2797285
50
359.9701533
51
10.3910176
0
ARC
8
DEFAULT_255_2_778
10
5.1369186
20
7.5574616
40
2.2546676
50
338.2408662
51
0.0903398
0
ARC
8
DEFAULT_255_2_778
10
5.1467067
20
7.5563049
40
2.2451496
50
280.4535565
51
338.1756829
0
ARC
8
DEFAULT_255_2_778
10
5.1427766
20
7.5909685
40
2.2799523
50
269.9700133
51
280.3926283
0
ARC
8
DEFAULT_255_2_778
10
5.138042
20
7.5655367
40
2.2545229
50
248.2401607
51
270.0899995
0
ARC
8
DEFAULT_255_2_778
10
5.1369608
20
7.5559828
40
2.2452504
50
190.46182
51
248.1754031
0
ARC
8
DEFAULT_255_2_778
10
5.1713498
20
7.5598252
40
2.2797667
50
179.9700565
51
190.3998477
0
LINE
8
DEFAULT_255_2_778
10
2.8915834
20
7.5610166
11
2.8915834
21
7.5610166
0
ARC
8
DEFAULT_255_2_778
10
5.1538849
20
107.5645304
40
5.0123358
50
166.3116743
51
180.0392625
0
ARC
8
DEFAULT_255_2_778
10
5.1173653
20
107.5698894
40
4.9755863
50
145.3795793
51
166.2721162
0
ARC
8
DEFAULT_255_2_778
10
5.1510911
20
107.5511893
40
5.0139661
50
109.6243069
51
145.4226824
0
ARC
8
DEFAULT_255_2_778
10
5.1322778
20
107.5848025
40
4.975991
50
94.2930336
51
109.5502512
0
ARC
8
DEFAULT_255_2_778
10
5.1411748
20
107.4907331
40
5.0704627
50
89.9946267
51
94.3137155
0
ARC
8
DEFAULT_255_2_778
10
5.1450851
20
107.5488611
40
5.0123358
50
76.3116743
51
90.0392625
0
ARC
8
DEFAULT_255_2_778
10
5.1504441
20
107.5853808
40
4.9755863
50
55.3795793
51
76.2721162
0
ARC
8
DEFAULT_255_2_778
10
5.131744
20
107.5516549
40
5.0139661
50
19.6243069
51
55.4226824
0
ARC
8
DEFAULT_255_2_778
10
5.1653571
20
107.5704682
40
4.975991
50
4.2930336
51
19.5502512
0
ARC
8
DEFAULT_255_2_778
10
5.0712878
20
107.5615712
40
5.0704627
50
359.9946267
51
4.3137155
0
LINE
8
DEFAULT_255_2_778
10
24.7414503
20
102.5612957
11
0.1415503
21
102.5612957
0
LINE
8
DEFAULT_255_2_778
10
0.1415503
20
102.5612957
11
0.1415503
21
107.5610957
0
LINE
8
DEFAULT_255_2_778
10
10.1417503
20
107.5610957
11
10.1417503
21
102.5609957
0
ARC
8
DEFAULT_255_2_778
10
5.1459674
20
107.5646516
40
2.2543868
50
158.2386051
51
180.0898428
0
ARC
8
DEFAULT_255_2_778
10
5.1366453
20
107.5656336
40
2.2453665
50
100.4545112
51
158.173688
0
ARC
8
DEFAULT_255_2_778
10
5.1403947
20
107.5316047
40
2.2795122
50
89.9701221
51
100.3919857
0
ARC
8
DEFAULT_255_2_778
10
5.145132
20
107.5565879
40
2.2545315
50
68.2393107
51
90.0901832
0
ARC
8
DEFAULT_255_2_778
10
5.1461889
20
107.5661432
40
2.2452669
50
10.452684
51
68.1739611
0
ARC
8
DEFAULT_255_2_778
10
5.1118552
20
107.5623042
40
2.2797285
50
359.9701533
51
10.3910176
0
ARC
8
DEFAULT_255_2_778
10
5.1369186
20
107.5575616
40
2.2546676
50
338.2408662
51
0.0903398
0
ARC
8
DEFAULT_255_2_778
10
5.1467067
20
107.5564049
40
2.2451496
50
280.4535565
51
338.1756829
0
ARC
8
DEFAULT_255_2_778
10
5.1427766
20
107.5910685
40
2.2799523
50
269.9700133
51
280.3926283
0
ARC
8
DEFAULT_255_2_778
10
5.138042
20
107.5656367
40
2.2545229
50
248.2401607
51
270.0899995
0
ARC
8
DEFAULT_255_2_778
10
5.1369608
20
107.5560828
40
2.2452504
50
190.46182
51
248.1754031
0
ARC
8
DEFAULT_255_2_778
10
5.1713498
20
107.5599252
40
2.2797667
50
179.9700565
51
190.3998477
0
LINE
8
DEFAULT_255_2_778
10
2.8915834
20
107.5611166
11
2.8915834
21
107.5611166
0
ARC
8
DEFAULT_255_2_778
10
145.153704
20
107.5645287
40
5.0123358
50
166.3116743
51
180.0392625
0
ARC
8
DEFAULT_255_2_778
10
145.1171844
20
107.5698877
40
4.9755863
50
145.3795793
51
166.2721162
0
ARC
8
DEFAULT_255_2_778
10
145.1509102
20
107.5511876
40
5.0139661
50
109.6243069
51
145.4226824
0
ARC
8
DEFAULT_255_2_778
10
145.1320969
20
107.5848007
40
4.975991
50
94.2930336
51
109.5502512
0
ARC
8
DEFAULT_255_2_778
10
145.1409939
20
107.4907314
40
5.0704627
50
89.9946267
51
94.3137155
0
ARC
8
DEFAULT_255_2_778
10
145.1448984
20
107.5490801
40
5.012115
50
76.3113713
51
90.0391979
0
ARC
8
DEFAULT_255_2_778
10
145.1501867
20
107.5853247
40
4.9756495
50
55.3796246
51
76.2717703
0
ARC
8
DEFAULT_255_2_778
10
145.1314705
20
107.5515518
40
5.0140772
50
19.625083
51
55.4228799
0
ARC
8
DEFAULT_255_2_778
10
145.1653195
20
107.5704606
40
4.9758479
50
4.293225
51
19.5509081
0
ARC
8
DEFAULT_255_2_778
10
145.0713886
20
107.5615747
40
5.0701808
50
359.9945665
51
4.3138957
0
LINE
8
DEFAULT_255_2_778
10
140.1413695
20
102.5612939
11
140.1413695
21
107.5610939
0
LINE
8
DEFAULT_255_2_778
10
150.1415695
20
107.5610939
11
150.1415695
21
102.5609939
0
LINE
8
DEFAULT_255_2_778
10
150.1415695
20
102.5609939
11
24.7414695
21
102.5609939
0
LINE
8
DEFAULT_255_2_778
10
24.7414695
20
102.5609939
11
24.7414695
21
49.6609939
0
LINE
8
DEFAULT_255_2_778
10
24.7414695
20
49.6609939
11
48.7415695
21
49.6609939
0
LINE
8
DEFAULT_255_2_778
10
48.7415695
20
49.6609939
11
48.7415695
21
76.7611939
0
ARC
8
DEFAULT_255_2_778
10
145.6445592
20
107.5549957
40
2.24395
50
269.9267041
51
292.1952373
0
ARC
8
DEFAULT_255_2_778
10
145.6392259
20
107.5627191
40
2.2531168
50
292.2466166
51
349.7599784
0
ARC
8
DEFAULT_255_2_778
10
145.6273996
20
107.5600725
40
2.2642893
50
349.8790806
51
0.0246708
0
ARC
8
DEFAULT_255_2_778
10
145.6478797
20
107.5639037
40
2.2438108
50
359.927066
51
22.1959334
0
ARC
8
DEFAULT_255_2_778
10
145.6399288
20
107.5584968
40
2.253216
50
22.246856
51
79.7581538
0
ARC
8
DEFAULT_255_2_778
10
145.6426592
20
107.5469108
40
2.2641369
50
79.8782785
51
90.0245604
0
ARC
8
DEFAULT_255_2_778
10
144.6387234
20
107.5672395
40
2.2438099
50
89.9268356
51
112.196844
0
ARC
8
DEFAULT_255_2_778
10
144.6441586
20
107.5592787
40
2.253235
50
112.2483356
51
169.7586841
0
ARC
8
DEFAULT_255_2_778
10
144.6556186
20
107.5620194
40
2.2640302
50
169.8785003
51
180.024595
0
ARC
8
DEFAULT_255_2_778
10
144.6355368
20
107.5581769
40
2.24395
50
179.9267041
51
202.1952373
0
ARC
8
DEFAULT_255_2_778
10
144.6432602
20
107.5635102
40
2.2531168
50
202.2466166
51
259.7599784
0
ARC
8
DEFAULT_255_2_778
10
144.6406136
20
107.5753365
40
2.2642893
50
259.8790806
51
270.0246708
0
ARC
8
DEFAULT_255_2_778
10
145.6442525
20
7.5668893
40
2.2440601
50
67.8053156
51
90.07312
0
ARC
8
DEFAULT_255_2_778
10
145.6389615
20
7.5591849
40
2.2531931
50
10.2420225
51
67.7547501
0
ARC
8
DEFAULT_255_2_778
10
145.6273773
20
7.5619192
40
2.2641116
50
359.9754109
51
10.121807
0
ARC
8
DEFAULT_255_2_778
10
145.6478445
20
7.5580952
40
2.2436459
50
337.8022412
51
0.0728393
0
ARC
8
DEFAULT_255_2_778
10
145.6396175
20
7.5636413
40
2.2533595
50
280.2415647
51
337.7507056
0
ARC
8
DEFAULT_255_2_778
10
145.6423577
20
7.5751382
40
2.2641909
50
269.9754772
51
280.1216009
0
ARC
8
DEFAULT_255_2_778
10
144.6384234
20
7.5547556
40
2.2438099
50
247.803156
51
270.0731644
0
ARC
8
DEFAULT_255_2_778
10
144.6438586
20
7.5627163
40
2.253235
50
190.2413159
51
247.7516644
0
ARC
8
DEFAULT_255_2_778
10
144.6553186
20
7.5599756
40
2.2640302
50
179.975405
51
190.1214997
0
ARC
8
DEFAULT_255_2_778
10
144.6352368
20
7.5638181
40
2.24395
50
157.8047627
51
180.0732959
0
ARC
8
DEFAULT_255_2_778
10
144.6429602
20
7.5584848
40
2.2531168
50
100.2400216
51
157.7533834
0
ARC
8
DEFAULT_255_2_778
10
144.6403136
20
7.5466585
40
2.2642893
50
89.9753292
51
100.1209194
0
LINE
8
DEFAULT_255_2_778
10
144.6415886
20
105.3110475
11
145.6416886
21
105.3110475
0
LINE
8
DEFAULT_255_2_778
10
145.6416886
20
109.8110475
11
144.6415886
21
109.8110475
0
LINE
8
DEFAULT_255_2_778
10
145.6413886
20
5.3109475
11
144.6412886
21
5.3109475
0
LINE
8
DEFAULT_255_2_778
10
144.6412886
20
9.8109475
11
145.6413886
21
9.8109475
0
ARC
8
DEFAULT_255_2_778
10
48.1920212
20
18.3609887
40
2.7503776
50
132.2785677
51
179.992562
0
ARC
8
DEFAULT_255_2_778
10
48.1915035
20
18.3613736
40
2.7498598
50
180.0005804
51
227.7262002
0
LINE
8
DEFAULT_255_2_778
10
14.2415095
20
41.9610573
11
14.2415095
21
41.8909573
0
LINE
8
DEFAULT_255_2_778
10
14.2415095
20
41.8909573
11
20.4415095
21
41.8909573
0
LINE
8
DEFAULT_255_2_778
10
20.4415095
20
41.8909573
11
20.4415095
21
41.9610573
0
ARC
8
DEFAULT_255_2_778
10
27.2901488
20
40.3575341
40
0.996477
50
228.3575081
51
270.0830578
0
ARC
8
DEFAULT_255_2_778
10
27.2890132
20
40.3600368
40
0.9975959
50
181.7327121
51
228.5017548
0
ARC
8
DEFAULT_255_2_778
10
27.3101525
20
40.3611485
40
1.0187592
50
179.9994554
51
181.7592612
0
ARC
8
DEFAULT_255_2_778
10
39.9953717
20
40.3597392
40
0.9963226
50
318.3541388
51
0.0816049
0
ARC
8
DEFAULT_255_2_778
10
39.9927097
20
40.3587197
40
0.9976376
50
271.732932
51
318.4994886
0
ARC
8
DEFAULT_255_2_778
10
39.991603
20
40.3798174
40
1.0187592
50
269.9994554
51
271.7592612
0
LINE
8
DEFAULT_255_2_778
10
0.1415933
20
39.3610582
11
27.2915933
21
39.3610582
0
LINE
8
DEFAULT_255_2_778
10
26.2913933
20
40.3611582
11
26.2913933
21
41.2612582
0
LINE
8
DEFAULT_255_2_778
10
26.2913933
20
41.2612582
11
24.6914933
21
41.2612582
0
LINE
8
DEFAULT_255_2_778
10
24.6914933
20
41.2612582
11
24.6914933
21
48.7611582
0
LINE
8
DEFAULT_255_2_778
10
24.6914933
20
48.7611582
11
42.5915933
21
48.7611582
0
LINE
8
DEFAULT_255_2_778
10
42.5915933
20
48.7611582
11
42.5915933
21
41.2612582
0
LINE
8
DEFAULT_255_2_778
10
42.5915933
20
41.2612582
11
40.9916933
21
41.2612582
0
LINE
8
DEFAULT_255_2_778
10
40.9916933
20
41.2612582
11
40.9916933
21
40.3611582
0
LINE
8
DEFAULT_255_2_778
10
39.9915933
20
39.3610582
11
27.2915933
21
39.3610582
0
ARC
8
DEFAULT_255_2_778
10
29.1920212
20
89.3608887
40
2.7503776
50
132.2785677
51
179.992562
0
ARC
8
DEFAULT_255_2_778
10
29.1915035
20
89.3612736
40
2.7498598
50
180.0005804
51
227.7262002
0
ARC
8
DEFAULT_255_2_778
10
141.69095
20
89.3615985
40
2.7505939
50
312.2805608
51
359.9926518
0
ARC
8
DEFAULT_255_2_778
10
141.6922679
20
89.3613762
40
2.7492759
50
359.9972827
51
47.7315845
0
ARC
8
DEFAULT_255_2_778
10
141.69095
20
25.7615985
40
2.7505939
50
312.2805608
51
359.9926518
0
ARC
8
DEFAULT_255_2_778
10
141.6922679
20
25.7613762
40
2.7492759
50
359.9972827
51
47.7315845
0
LINE
8
DEFAULT_255_2_778
10
143.6415027
20
92.2612791
11
143.5415027
21
92.2612791
0
LINE
8
DEFAULT_255_2_778
10
27.3415027
20
92.2612791
11
27.2415027
21
92.2612791
0
LINE
8
DEFAULT_255_2_778
10
46.2415027
20
12.6610791
11
46.2415027
21
15.8239791
0
LINE
8
DEFAULT_255_2_778
10
46.2415027
20
15.8239791
11
46.3415027
21
15.7501791
0
ARC
8
DEFAULT_255_2_778
10
48.19152
20
18.3613546
40
3.1999326
50
127.545987
51
180.0051402
0
ARC
8
DEFAULT_255_2_778
10
48.1932748
20
18.3616446
40
3.2016874
50
180.0103273
51
232.4385387
0
LINE
8
DEFAULT_255_2_778
10
46.3415875
20
20.9722675
11
46.2414875
21
20.8984675
0
LINE
8
DEFAULT_255_2_778
10
143.5414875
20
22.8610675
11
143.6414875
21
22.8610675
0
LINE
8
DEFAULT_255_2_778
10
0.1415875
20
102.5612675
11
0.1415875
21
78.2611675
0
LINE
8
DEFAULT_255_2_778
10
0.1415875
20
78.2611675
11
23.6415875
21
78.2611675
0
LINE
8
DEFAULT_255_2_778
10
23.6415875
20
78.2611675
11
23.6415875
21
100.5612675
0
LINE
8
DEFAULT_255_2_778
10
23.6415875
20
100.5612675
11
0.1415875
21
100.5612675
0
LINE
8
DEFAULT_255_2_778
10
0.1415875
20
78.2611675
11
0.1415875
21
12.5611675
0
LINE
8
DEFAULT_255_2_778
10
8.2415875
20
74.4611675
11
8.2415875
21
74.1611675
0
LINE
8
DEFAULT_255_2_778
10
148.5415875
20
74.0611675
11
148.5415875
21
74.2611675
0
LINE
8
DEFAULT_255_2_778
10
131.1415875
20
42.6873675
11
131.1415875
21
42.2836675
0
LINE
8
DEFAULT_255_2_778
10
131.1415875
20
74.2611675
11
131.1415875
21
74.0611675
0
LINE
8
DEFAULT_255_2_778
10
39.9915875
20
39.3612675
11
41.1413875
21
39.3612675
0
LINE
8
DEFAULT_255_2_778
10
40.9916875
20
40.5611675
11
41.1416875
21
40.5611675
0
LINE
8
DEFAULT_255_2_778
10
26.1416875
20
40.5611675
11
26.2916875
21
40.5611675
0
LINE
8
DEFAULT_255_2_778
10
41.0773396
20
58.1310427
11
38.6593396
21
58.1310427
0
LINE
8
DEFAULT_255_2_778
10
38.6593396
20
58.1310427
11
38.3156396
21
55.3309427
0
LINE
8
DEFAULT_255_2_778
10
38.3156396
20
55.3309427
11
40.7336396
21
55.3309427
0
LINE
8
DEFAULT_255_2_778
10
40.7336396
20
55.3309427
11
41.0773396
21
58.1310427
0
ARC
8
DEFAULT_255_2_778
10
141.6917583
20
89.3610748
40
3.1995959
50
307.5430182
51
0.0063218
0
ARC
8
DEFAULT_255_2_778
10
141.6903975
20
89.3612106
40
3.2009567
50
0.0038887
51
52.4449796
0
LINE
8
DEFAULT_255_2_778
10
143.6414542
20
82.9611279
11
143.6414542
21
86.8241279
0
LINE
8
DEFAULT_255_2_778
10
143.6414542
20
91.8988279
11
143.6414542
21
102.4612279
0
LINE
8
DEFAULT_255_2_778
10
41.5194396
20
61.7312427
11
39.1014396
21
61.7312427
0
LINE
8
DEFAULT_255_2_778
10
39.1014396
20
61.7312427
11
38.7577396
21
58.9311427
0
LINE
8
DEFAULT_255_2_778
10
38.7577396
20
58.9311427
11
41.1757396
21
58.9311427
0
LINE
8
DEFAULT_255_2_778
10
41.1757396
20
58.9311427
11
41.5194396
21
61.7312427
0
LINE
8
DEFAULT_255_2_778
10
132.3917146
20
39.5112822
11
132.3917146
21
40.8111822
0
LINE
8
DEFAULT_255_2_778
10
132.3917146
20
40.8111822
11
130.1417146
21
43.4612822
0
LINE
8
DEFAULT_255_2_778
10
130.1417146
20
43.4612822
11
128.3917146
21
43.4612822
0
LINE
8
DEFAULT_255_2_778
10
117.9414521
20
35.8610927
11
121.3413521
21
35.8610927
0
LINE
8
DEFAULT_255_2_778
10
121.3413521
20
35.8610927
11
121.3413521
21
37.8610927
0
LINE
8
DEFAULT_255_2_778
10
121.3413521
20
37.8610927
11
117.9414521
21
37.8610927
0
LINE
8
DEFAULT_255_2_778
10
117.9414521
20
37.8610927
11
117.9414521
21
35.8610927
0
LINE
8
DEFAULT_255_2_778
10
136.5414521
20
37.8610927
11
133.1415521
21
37.8610927
0
LINE
8
DEFAULT_255_2_778
10
133.1415521
20
37.8610927
11
133.1415521
21
35.8610927
0
LINE
8
DEFAULT_255_2_778
10
133.1415521
20
35.8610927
11
136.5414521
21
35.8610927
0
LINE
8
DEFAULT_255_2_778
10
136.5414521
20
35.8610927
11
136.5414521
21
37.8610927
0
LINE
8
DEFAULT_255_2_778
10
87.5416521
20
37.8610927
11
87.5416521
21
35.8610927
0
LINE
8
DEFAULT_255_2_778
10
87.5416521
20
35.8610927
11
90.9415521
21
35.8610927
0
LINE
8
DEFAULT_255_2_778
10
90.9415521
20
35.8610927
11
90.9415521
21
37.8610927
0
LINE
8
DEFAULT_255_2_778
10
90.9415521
20
37.8610927
11
87.5416521
21
37.8610927
0
LINE
8
DEFAULT_255_2_778
10
98.9414521
20
33.2609927
11
102.3413521
21
33.2609927
0
LINE
8
DEFAULT_255_2_778
10
102.3413521
20
33.2609927
11
102.3413521
21
35.2609927
0
LINE
8
DEFAULT_255_2_778
10
102.3413521
20
35.2609927
11
98.9414521
21
35.2609927
0
LINE
8
DEFAULT_255_2_778
10
98.9414521
20
35.2609927
11
98.9414521
21
33.2609927
0
LINE
8
DEFAULT_255_2_778
10
113.7414521
20
37.8610927
11
110.3415521
21
37.8610927
0
LINE
8
DEFAULT_255_2_778
10
110.3415521
20
37.8610927
11
110.3415521
21
35.8610927
0
LINE
8
DEFAULT_255_2_778
10
110.3415521
20
35.8610927
11
113.7414521
21
35.8610927
0
LINE
8
DEFAULT_255_2_778
10
113.7414521
20
35.8610927
11
113.7414521
21
37.8610927
0
LINE
8
DEFAULT_255_2_778
10
75.7414521
20
37.8610927
11
72.3415521
21
37.8610927
0
LINE
8
DEFAULT_255_2_778
10
72.3415521
20
37.8610927
11
72.3415521
21
35.8610927
0
LINE
8
DEFAULT_255_2_778
10
72.3415521
20
35.8610927
11
75.7414521
21
35.8610927
0
LINE
8
DEFAULT_255_2_778
10
75.7414521
20
35.8610927
11
75.7414521
21
37.8610927
0
LINE
8
DEFAULT_255_2_778
10
136.9414521
20
33.2609927
11
140.3413521
21
33.2609927
0
LINE
8
DEFAULT_255_2_778
10
140.3413521
20
33.2609927
11
140.3413521
21
35.2609927
0
LINE
8
DEFAULT_255_2_778
10
140.3413521
20
35.2609927
11
136.9414521
21
35.2609927
0
LINE
8
DEFAULT_255_2_778
10
136.9414521
20
35.2609927
11
136.9414521
21
33.2609927
0
LINE
8
DEFAULT_255_2_778
10
60.5414521
20
35.8610927
11
60.5414521
21
37.8610927
0
LINE
8
DEFAULT_255_2_778
10
60.5414521
20
37.8610927
11
57.1415521
21
37.8610927
0
LINE
8
DEFAULT_255_2_778
10
57.1415521
20
37.8610927
11
57.1415521
21
35.8610927
0
LINE
8
DEFAULT_255_2_778
10
57.1415521
20
35.8610927
11
60.5414521
21
35.8610927
0
LINE
8
DEFAULT_255_2_778
10
79.9414521
20
37.8610927
11
79.9414521
21
35.8610927
0
LINE
8
DEFAULT_255_2_778
10
79.9414521
20
35.8610927
11
83.3413521
21
35.8610927
0
LINE
8
DEFAULT_255_2_778
10
83.3413521
20
35.8610927
11
83.3413521
21
37.8610927
0
LINE
8
DEFAULT_255_2_778
10
83.3413521
20
37.8610927
11
79.9414521
21
37.8610927
0
LINE
8
DEFAULT_255_2_778
10
102.7416521
20
35.8610927
11
106.1415521
21
35.8610927
0
LINE
8
DEFAULT_255_2_778
10
106.1415521
20
35.8610927
11
106.1415521
21
37.8610927
0
LINE
8
DEFAULT_255_2_778
10
106.1415521
20
37.8610927
11
102.7416521
21
37.8610927
0
LINE
8
DEFAULT_255_2_778
10
102.7416521
20
37.8610927
11
102.7416521
21
35.8610927
0
LINE
8
DEFAULT_255_2_778
10
128.9415521
20
35.8610927
11
128.9415521
21
37.8610927
0
LINE
8
DEFAULT_255_2_778
10
128.9415521
20
37.8610927
11
125.5416521
21
37.8610927
0
LINE
8
DEFAULT_255_2_778
10
125.5416521
20
37.8610927
11
125.5416521
21
35.8610927
0
LINE
8
DEFAULT_255_2_778
10
125.5416521
20
35.8610927
11
128.9415521
21
35.8610927
0
LINE
8
DEFAULT_255_2_778
10
94.7414521
20
33.2609927
11
94.7414521
21
35.2609927
0
LINE
8
DEFAULT_255_2_778
10
94.7414521
20
35.2609927
11
91.3415521
21
35.2609927
0
LINE
8
DEFAULT_255_2_778
10
91.3415521
20
35.2609927
11
91.3415521
21
33.2609927
0
LINE
8
DEFAULT_255_2_778
10
91.3415521
20
33.2609927
11
94.7414521
21
33.2609927
0
LINE
8
DEFAULT_255_2_778
10
129.3415521
20
33.2609927
11
132.7414521
21
33.2609927
0
LINE
8
DEFAULT_255_2_778
10
132.7414521
20
33.2609927
11
132.7414521
21
35.2609927
0
LINE
8
DEFAULT_255_2_778
10
132.7414521
20
35.2609927
11
129.3415521
21
35.2609927
0
LINE
8
DEFAULT_255_2_778
10
129.3415521
20
35.2609927
11
129.3415521
21
33.2609927
0
LINE
8
DEFAULT_255_2_778
10
64.7416521
20
35.8610927
11
68.1415521
21
35.8610927
0
LINE
8
DEFAULT_255_2_778
10
68.1415521
20
35.8610927
11
68.1415521
21
37.8610927
0
LINE
8
DEFAULT_255_2_778
10
68.1415521
20
37.8610927
11
64.7416521
21
37.8610927
0
LINE
8
DEFAULT_255_2_778
10
64.7416521
20
37.8610927
11
64.7416521
21
35.8610927
0
LINE
8
DEFAULT_255_2_778
10
95.1415521
20
35.8610927
11
98.5414521
21
35.8610927
0
LINE
8
DEFAULT_255_2_778
10
98.5414521
20
35.8610927
11
98.5414521
21
37.8610927
0
LINE
8
DEFAULT_255_2_778
10
98.5414521
20
37.8610927
11
95.1415521
21
37.8610927
0
LINE
8
DEFAULT_255_2_778
10
95.1415521
20
37.8610927
11
95.1415521
21
35.8610927
0
LINE
8
DEFAULT_255_2_778
10
114.1415521
20
33.2609927
11
117.5414521
21
33.2609927
0
LINE
8
DEFAULT_255_2_778
10
117.5414521
20
33.2609927
11
117.5414521
21
35.2609927
0
LINE
8
DEFAULT_255_2_778
10
117.5414521
20
35.2609927
11
114.1415521
21
35.2609927
0
LINE
8
DEFAULT_255_2_778
10
114.1415521
20
35.2609927
11
114.1415521
21
33.2609927
0
LINE
8
DEFAULT_255_2_778
10
79.9414521
20
76.9612114
11
83.3413521
21
76.9612114
0
LINE
8
DEFAULT_255_2_778
10
83.3413521
20
76.9612114
11
83.3413521
21
79.2612114
0
LINE
8
DEFAULT_255_2_778
10
83.3413521
20
79.2612114
11
79.9414521
21
79.2612114
0
LINE
8
DEFAULT_255_2_778
10
79.9414521
20
79.2612114
11
79.9414521
21
76.9612114
0
LINE
8
DEFAULT_255_2_778
10
110.3415521
20
79.2612114
11
110.3415521
21
76.9612114
0
LINE
8
DEFAULT_255_2_778
10
110.3415521
20
76.9612114
11
113.7414521
21
76.9612114
0
LINE
8
DEFAULT_255_2_778
10
113.7414521
20
76.9612114
11
113.7414521
21
79.2612114
0
LINE
8
DEFAULT_255_2_778
10
113.7414521
20
79.2612114
11
110.3415521
21
79.2612114
0
LINE
8
DEFAULT_255_2_778
10
87.1415521
20
79.8611114
11
87.1415521
21
82.1611114
0
LINE
8
DEFAULT_255_2_778
10
87.1415521
20
82.1611114
11
83.7416521
21
82.1611114
0
LINE
8
DEFAULT_255_2_778
10
83.7416521
20
82.1611114
11
83.7416521
21
79.8611114
0
LINE
8
DEFAULT_255_2_778
10
83.7416521
20
79.8611114
11
87.1415521
21
79.8611114
0
LINE
8
DEFAULT_255_2_778
10
57.1415521
20
79.2612114
11
57.1415521
21
76.9612114
0
LINE
8
DEFAULT_255_2_778
10
57.1415521
20
76.9612114
11
60.5414521
21
76.9612114
0
LINE
8
DEFAULT_255_2_778
10
60.5414521
20
76.9612114
11
60.5414521
21
79.2612114
0
LINE
8
DEFAULT_255_2_778
10
60.5414521
20
79.2612114
11
57.1415521
21
79.2612114
0
LINE
8
DEFAULT_255_2_778
10
102.7416521
20
76.9612114
11
106.1415521
21
76.9612114
0
LINE
8
DEFAULT_255_2_778
10
106.1415521
20
76.9612114
11
106.1415521
21
79.2612114
0
LINE
8
DEFAULT_255_2_778
10
106.1415521
20
79.2612114
11
102.7416521
21
79.2612114
0
LINE
8
DEFAULT_255_2_778
10
102.7416521
20
79.2612114
11
102.7416521
21
76.9612114
0
LINE
8
DEFAULT_255_2_778
10
91.3415521
20
79.8611114
11
94.7414521
21
79.8611114
0
LINE
8
DEFAULT_255_2_778
10
94.7414521
20
79.8611114
11
94.7414521
21
82.1611114
0
LINE
8
DEFAULT_255_2_778
10
94.7414521
20
82.1611114
11
91.3415521
21
82.1611114
0
LINE
8
DEFAULT_255_2_778
10
91.3415521
20
82.1611114
11
91.3415521
21
79.8611114
0
LINE
8
DEFAULT_255_2_778
10
87.5416521
20
76.9612114
11
90.9415521
21
76.9612114
0
LINE
8
DEFAULT_255_2_778
10
90.9415521
20
76.9612114
11
90.9415521
21
79.2612114
0
LINE
8
DEFAULT_255_2_778
10
90.9415521
20
79.2612114
11
87.5416521
21
79.2612114
0
LINE
8
DEFAULT_255_2_778
10
87.5416521
20
79.2612114
11
87.5416521
21
76.9612114
0
LINE
8
DEFAULT_255_2_778
10
102.3413521
20
79.8611114
11
102.3413521
21
82.1611114
0
LINE
8
DEFAULT_255_2_778
10
102.3413521
20
82.1611114
11
98.9414521
21
82.1611114
0
LINE
8
DEFAULT_255_2_778
10
98.9414521
20
82.1611114
11
98.9414521
21
79.8611114
0
LINE
8
DEFAULT_255_2_778
10
98.9414521
20
79.8611114
11
102.3413521
21
79.8611114
0
LINE
8
DEFAULT_255_2_778
10
121.7416521
20
79.8611114
11
125.1415521
21
79.8611114
0
LINE
8
DEFAULT_255_2_778
10
125.1415521
20
79.8611114
11
125.1415521
21
82.1611114
0
LINE
8
DEFAULT_255_2_778
10
125.1415521
20
82.1611114
11
121.7416521
21
82.1611114
0
LINE
8
DEFAULT_255_2_778
10
121.7416521
20
82.1611114
11
121.7416521
21
79.8611114
0
LINE
8
DEFAULT_255_2_778
10
114.1415521
20
79.8611114
11
117.5414521
21
79.8611114
0
LINE
8
DEFAULT_255_2_778
10
117.5414521
20
79.8611114
11
117.5414521
21
82.1611114
0
LINE
8
DEFAULT_255_2_778
10
117.5414521
20
82.1611114
11
114.1415521
21
82.1611114
0
LINE
8
DEFAULT_255_2_778
10
114.1415521
20
82.1611114
11
114.1415521
21
79.8611114
0
LINE
8
DEFAULT_255_2_778
10
76.1415521
20
79.8611114
11
79.5414521
21
79.8611114
0
LINE
8
DEFAULT_255_2_778
10
79.5414521
20
79.8611114
11
79.5414521
21
82.1611114
0
LINE
8
DEFAULT_255_2_778
10
79.5414521
20
82.1611114
11
76.1415521
21
82.1611114
0
LINE
8
DEFAULT_255_2_778
10
76.1415521
20
82.1611114
11
76.1415521
21
79.8611114
0
LINE
8
DEFAULT_255_2_778
10
140.3413521
20
79.8611114
11
140.3413521
21
82.1611114
0
LINE
8
DEFAULT_255_2_778
10
140.3413521
20
82.1611114
11
136.9414521
21
82.1611114
0
LINE
8
DEFAULT_255_2_778
10
136.9414521
20
82.1611114
11
136.9414521
21
79.8611114
0
LINE
8
DEFAULT_255_2_778
10
136.9414521
20
79.8611114
11
140.3413521
21
79.8611114
0
LINE
8
DEFAULT_255_2_778
10
64.7416521
20
79.2612114
11
64.7416521
21
76.9612114
0
LINE
8
DEFAULT_255_2_778
10
64.7416521
20
76.9612114
11
68.1415521
21
76.9612114
0
LINE
8
DEFAULT_255_2_778
10
68.1415521
20
76.9612114
11
68.1415521
21
79.2612114
0
LINE
8
DEFAULT_255_2_778
10
68.1415521
20
79.2612114
11
64.7416521
21
79.2612114
0
LINE
8
DEFAULT_255_2_778
10
129.3415521
20
79.8611114
11
132.7414521
21
79.8611114
0
LINE
8
DEFAULT_255_2_778
10
132.7414521
20
79.8611114
11
132.7414521
21
82.1611114
0
LINE
8
DEFAULT_255_2_778
10
132.7414521
20
82.1611114
11
129.3415521
21
82.1611114
0
LINE
8
DEFAULT_255_2_778
10
129.3415521
20
82.1611114
11
129.3415521
21
79.8611114
0
LINE
8
DEFAULT_255_2_778
10
56.7414521
20
79.8611114
11
56.7414521
21
82.1611114
0
LINE
8
DEFAULT_255_2_778
10
56.7414521
20
82.1611114
11
53.3415521
21
82.1611114
0
LINE
8
DEFAULT_255_2_778
10
53.3415521
20
82.1611114
11
53.3415521
21
79.8611114
0
LINE
8
DEFAULT_255_2_778
10
53.3415521
20
79.8611114
11
56.7414521
21
79.8611114
0
LINE
8
DEFAULT_255_2_778
10
71.9415521
20
79.8611114
11
71.9415521
21
82.1611114
0
LINE
8
DEFAULT_255_2_778
10
71.9415521
20
82.1611114
11
68.5416521
21
82.1611114
0
LINE
8
DEFAULT_255_2_778
10
68.5416521
20
82.1611114
11
68.5416521
21
79.8611114
0
LINE
8
DEFAULT_255_2_778
10
68.5416521
20
79.8611114
11
71.9415521
21
79.8611114
0
LINE
8
DEFAULT_255_2_778
10
117.9414521
20
76.9612114
11
121.3413521
21
76.9612114
0
LINE
8
DEFAULT_255_2_778
10
121.3413521
20
76.9612114
11
121.3413521
21
79.2612114
0
LINE
8
DEFAULT_255_2_778
10
121.3413521
20
79.2612114
11
117.9414521
21
79.2612114
0
LINE
8
DEFAULT_255_2_778
10
117.9414521
20
79.2612114
11
117.9414521
21
76.9612114
0
LINE
8
DEFAULT_255_2_778
10
128.9415521
20
76.9612114
11
128.9415521
21
79.2612114
0
LINE
8
DEFAULT_255_2_778
10
128.9415521
20
79.2612114
11
125.5416521
21
79.2612114
0
LINE
8
DEFAULT_255_2_778
10
125.5416521
20
79.2612114
11
125.5416521
21
76.9612114
0
LINE
8
DEFAULT_255_2_778
10
125.5416521
20
76.9612114
11
128.9415521
21
76.9612114
0
LINE
8
DEFAULT_255_2_778
10
72.3415521
20
76.9612114
11
75.7414521
21
76.9612114
0
LINE
8
DEFAULT_255_2_778
10
75.7414521
20
76.9612114
11
75.7414521
21
79.2612114
0
LINE
8
DEFAULT_255_2_778
10
75.7414521
20
79.2612114
11
72.3415521
21
79.2612114
0
LINE
8
DEFAULT_255_2_778
10
72.3415521
20
79.2612114
11
72.3415521
21
76.9612114
0
LINE
8
DEFAULT_255_2_778
10
133.1415521
20
76.9612114
11
136.5414521
21
76.9612114
0
LINE
8
DEFAULT_255_2_778
10
136.5414521
20
76.9612114
11
136.5414521
21
79.2612114
0
LINE
8
DEFAULT_255_2_778
10
136.5414521
20
79.2612114
11
133.1415521
21
79.2612114
0
LINE
8
DEFAULT_255_2_778
10
133.1415521
20
79.2612114
11
133.1415521
21
76.9612114
0
LINE
8
DEFAULT_255_2_778
10
60.9414521
20
82.1611114
11
60.9414521
21
79.8611114
0
LINE
8
DEFAULT_255_2_778
10
60.9414521
20
79.8611114
11
64.3413521
21
79.8611114
0
LINE
8
DEFAULT_255_2_778
10
64.3413521
20
79.8611114
11
64.3413521
21
82.1611114
0
LINE
8
DEFAULT_255_2_778
10
64.3413521
20
82.1611114
11
60.9414521
21
82.1611114
0
LINE
8
DEFAULT_255_2_778
10
98.5414521
20
76.9612114
11
98.5414521
21
79.2612114
0
LINE
8
DEFAULT_255_2_778
10
98.5414521
20
79.2612114
11
95.1415521
21
79.2612114
0
LINE
8
DEFAULT_255_2_778
10
95.1415521
20
79.2612114
11
95.1415521
21
76.9612114
0
LINE
8
DEFAULT_255_2_778
10
95.1415521
20
76.9612114
11
98.5414521
21
76.9612114
0
LINE
8
DEFAULT_255_2_778
10
52.9415521
20
76.9612114
11
52.9415521
21
79.2612114
0
LINE
8
DEFAULT_255_2_778
10
52.9415521
20
79.2612114
11
49.5416521
21
79.2612114
0
LINE
8
DEFAULT_255_2_778
10
49.5416521
20
79.2612114
11
49.5416521
21
76.9612114
0
LINE
8
DEFAULT_255_2_778
10
49.5416521
20
76.9612114
11
52.9415521
21
76.9612114
0
LINE
8
DEFAULT_255_2_778
10
106.5416521
20
79.8611114
11
109.9415521
21
79.8611114
0
LINE
8
DEFAULT_255_2_778
10
109.9415521
20
79.8611114
11
109.9415521
21
82.1611114
0
LINE
8
DEFAULT_255_2_778
10
109.9415521
20
82.1611114
11
106.5416521
21
82.1611114
0
LINE
8
DEFAULT_255_2_778
10
106.5416521
20
82.1611114
11
106.5416521
21
79.8611114
0
LINE
8
DEFAULT_255_2_778
10
33.9775396
20
58.1310427
11
31.5595396
21
58.1310427
0
LINE
8
DEFAULT_255_2_778
10
31.5595396
20
58.1310427
11
31.2158396
21
55.3309427
0
LINE
8
DEFAULT_255_2_778
10
31.2158396
20
55.3309427
11
33.6338396
21
55.3309427
0
LINE
8
DEFAULT_255_2_778
10
33.6338396
20
55.3309427
11
33.9775396
21
58.1310427
0
LINE
8
DEFAULT_255_2_778
10
34.4193396
20
61.7312427
11
32.0013396
21
61.7312427
0
LINE
8
DEFAULT_255_2_778
10
32.0013396
20
61.7312427
11
31.6576396
21
58.9311427
0
LINE
8
DEFAULT_255_2_778
10
31.6576396
20
58.9311427
11
34.0756396
21
58.9311427
0
LINE
8
DEFAULT_255_2_778
10
34.0756396
20
58.9311427
11
34.4193396
21
61.7312427
0
ARC
8
DEFAULT_255_2_778
10
41.5197163
20
61.7315977
40
0.8000462
50
352.9620559
51
353.5635988
0
ARC
8
DEFAULT_255_2_778
10
41.5218005
20
61.7313862
40
0.7979515
50
353.561916
51
359.9988314
0
ARC
8
DEFAULT_255_2_778
10
41.5201397
20
61.7310157
40
0.7996123
50
0.0253761
51
41.5302225
0
ARC
8
DEFAULT_255_2_778
10
41.5198561
20
61.7316985
40
0.7993722
50
41.4801087
51
90.0230606
0
ARC
8
DEFAULT_255_2_778
10
39.1014919
20
61.7310468
40
0.8000239
50
90.004123
51
172.9981608
0
ARC
8
DEFAULT_255_2_778
10
38.312191
20
55.3312464
40
0.7965249
50
172.9817075
51
173.7540024
0
ARC
8
DEFAULT_255_2_778
10
38.3144294
20
55.3309608
40
0.798781
50
173.7511121
51
179.9989769
0
ARC
8
DEFAULT_255_2_778
10
38.3156006
20
55.3312189
40
0.7999523
50
180.0174593
51
221.5175716
0
ARC
8
DEFAULT_255_2_778
10
38.3155492
20
55.3308205
40
0.7996498
50
221.4986397
51
270.0275947
0
ARC
8
DEFAULT_255_2_778
10
40.7339666
20
55.3311071
40
0.7999364
50
269.9976873
51
352.9964888
0
LINE
8
DEFAULT_255_2_778
10
42.0079343
20
59.1435707
11
42.3137343
21
61.6335707
0
LINE
8
DEFAULT_255_2_778
10
41.5195343
20
62.5310707
11
39.1014343
21
62.5310707
0
LINE
8
DEFAULT_255_2_778
10
38.3074343
20
61.8285707
11
37.9613343
21
59.0097707
0
LINE
8
DEFAULT_255_2_778
10
37.9613343
20
59.0097707
11
38.4400343
21
58.5310707
0
LINE
8
DEFAULT_255_2_778
10
38.4400343
20
58.5310707
11
37.8275343
21
57.9185707
0
LINE
8
DEFAULT_255_2_778
10
37.8275343
20
57.9185707
11
37.5216343
21
55.4285707
0
LINE
8
DEFAULT_255_2_778
10
38.3159343
20
54.5311707
11
40.7339343
21
54.5311707
0
LINE
8
DEFAULT_255_2_778
10
41.5279343
20
55.2335707
11
41.8740343
21
58.0524707
0
LINE
8
DEFAULT_255_2_778
10
41.8740343
20
58.0524707
11
41.3954343
21
58.5310707
0
LINE
8
DEFAULT_255_2_778
10
41.3954343
20
58.5310707
11
42.0079343
21
59.1435707
0
ARC
8
DEFAULT_255_2_778
10
35.5578677
20
54.9312321
40
0.4000177
50
90.0025391
51
179.9974407
0
ARC
8
DEFAULT_255_2_778
10
35.5579108
20
54.9312109
40
0.4000391
50
0.005601
51
90.008711
0
ARC
8
DEFAULT_255_2_778
10
35.5578895
20
54.9312105
40
0.4000605
50
269.9943399
51
0.0056601
0
ARC
8
DEFAULT_255_2_778
10
35.5578892
20
54.9311892
40
0.4000392
50
179.9912911
51
269.9943939
0
LINE
8
DEFAULT_255_2_778
10
35.15785
20
54.93125
11
35.15785
21
54.93125
0
ARC
8
DEFAULT_255_2_778
10
34.4196163
20
61.7315977
40
0.8000462
50
352.9620559
51
353.5635988
0
ARC
8
DEFAULT_255_2_778
10
34.4217005
20
61.7313862
40
0.7979515
50
353.561916
51
359.9988314
0
ARC
8
DEFAULT_255_2_778
10
34.4200397
20
61.7310157
40
0.7996123
50
0.0253761
51
41.5302225
0
ARC
8
DEFAULT_255_2_778
10
34.4197561
20
61.7316985
40
0.7993722
50
41.4801087
51
90.0230606
0
ARC
8
DEFAULT_255_2_778
10
32.0013919
20
61.7310468
40
0.8000239
50
90.004123
51
172.9981608
0
ARC
8
DEFAULT_255_2_778
10
31.212091
20
55.3312464
40
0.7965249
50
172.9817075
51
173.7540024
0
ARC
8
DEFAULT_255_2_778
10
31.2143294
20
55.3309608
40
0.798781
50
173.7511121
51
179.9989769
0
ARC
8
DEFAULT_255_2_778
10
31.2155006
20
55.3312189
40
0.7999523
50
180.0174593
51
221.5175716
0
ARC
8
DEFAULT_255_2_778
10
31.2154492
20
55.3308205
40
0.7996498
50
221.4986397
51
270.0275947
0
ARC
8
DEFAULT_255_2_778
10
33.6338666
20
55.3311071
40
0.7999364
50
269.9976873
51
352.9964888
0
LINE
8
DEFAULT_255_2_778
10
34.9078343
20
59.1435707
11
35.2136343
21
61.6335707
0
LINE
8
DEFAULT_255_2_778
10
34.4194343
20
62.5310707
11
32.0013343
21
62.5310707
0
LINE
8
DEFAULT_255_2_778
10
31.2073343
20
61.8285707
11
30.8612343
21
59.0097707
0
LINE
8
DEFAULT_255_2_778
10
30.8612343
20
59.0097707
11
31.3399343
21
58.5310707
0
LINE
8
DEFAULT_255_2_778
10
31.3399343
20
58.5310707
11
30.7274343
21
57.9185707
0
LINE
8
DEFAULT_255_2_778
10
30.7274343
20
57.9185707
11
30.4215343
21
55.4285707
0
LINE
8
DEFAULT_255_2_778
10
31.2158343
20
54.5311707
11
33.6338343
21
54.5311707
0
LINE
8
DEFAULT_255_2_778
10
34.4278343
20
55.2335707
11
34.7739343
21
58.0524707
0
LINE
8
DEFAULT_255_2_778
10
34.7739343
20
58.0524707
11
34.2953343
21
58.5310707
0
LINE
8
DEFAULT_255_2_778
10
34.2953343
20
58.5310707
11
34.9078343
21
59.1435707
0
ARC
8
DEFAULT_255_2_778
10
42.6579677
20
54.9312321
40
0.4000177
50
90.0025391
51
179.9974407
0
ARC
8
DEFAULT_255_2_778
10
42.6580108
20
54.9312109
40
0.4000391
50
0.005601
51
90.008711
0
ARC
8
DEFAULT_255_2_778
10
42.6579895
20
54.9312105
40
0.4000605
50
269.9943399
51
0.0056601
0
ARC
8
DEFAULT_255_2_778
10
42.6579892
20
54.9311892
40
0.4000392
50
179.9912911
51
269.9943939
0
LINE
8
DEFAULT_255_2_778
10
42.25795
20
54.93125
11
42.25795
21
54.93125
0
ARC
8
DEFAULT_255_2_778
10
29.191156
20
89.361582
40
3.1995959
50
127.5430182
51
180.0063218
0
ARC
8
DEFAULT_255_2_778
10
29.1932474
20
89.3618061
40
3.2016874
50
180.0103284
51
232.4385392
0
ARC
8
DEFAULT_255_2_778
10
141.6917642
20
25.7607759
40
3.1995959
50
307.5430182
51
0.0063218
0
ARC
8
DEFAULT_255_2_778
10
141.6896721
20
25.7605515
40
3.201688
50
0.0103335
51
52.4385336
0
LINE
8
DEFAULT_255_2_778
10
24.7414601
20
76.361129
11
48.7414601
21
76.361129
0
LINE
8
DEFAULT_255_2_778
10
27.2414601
20
102.461229
11
27.2414601
21
91.898529
0
LINE
8
DEFAULT_255_2_778
10
27.2414601
20
86.823829
11
27.2414601
21
82.961129
0
LINE
8
DEFAULT_255_2_778
10
46.2414601
20
32.161129
11
46.2414601
21
20.898429
0
LINE
8
DEFAULT_255_2_778
10
143.6414601
20
12.661129
11
143.6414601
21
23.223829
0
LINE
8
DEFAULT_255_2_778
10
143.6414601
20
28.298529
11
143.6414601
21
32.161129
0
LINE
8
DEFAULT_255_2_778
10
132.3490601
20
40.861229
11
132.6413601
21
40.861229
0
LINE
8
DEFAULT_255_2_778
10
150.1417601
20
74.261129
11
130.1416601
21
74.261129
0
LINE
8
DEFAULT_255_2_778
10
26.1415601
20
39.361329
11
26.1415601
21
41.161229
0
LINE
8
DEFAULT_255_2_778
10
40.9915601
20
41.161229
11
42.6915601
21
41.161229
0
LINE
8
DEFAULT_255_2_778
10
42.6915601
20
41.161229
11
42.6915601
21
48.861129
0
LINE
8
DEFAULT_255_2_778
10
42.6915601
20
48.861129
11
24.5916601
21
48.861129
0
LINE
8
DEFAULT_255_2_778
10
24.5916601
20
48.861129
11
24.5916601
21
41.161229
0
LINE
8
DEFAULT_255_2_778
10
24.5916601
20
41.161229
11
26.2915601
21
41.161229
0
LINE
8
DEFAULT_255_2_778
10
41.1416601
20
12.561329
11
41.1416601
21
41.161229
0
LINE
8
DEFAULT_255_2_778
10
118.3414601
20
39.511029
11
150.1414601
21
39.511029
0
LINE
8
DEFAULT_255_2_778
10
150.1417875
20
75.5610352
11
130.1416875
21
75.5610352
0
LINE
8
DEFAULT_255_2_778
10
130.1416875
20
75.5610352
11
130.1416875
21
43.4610352
0
LINE
8
DEFAULT_255_2_778
10
150.1415875
20
102.5612352
11
150.1415875
21
12.5613352
0
LINE
8
DEFAULT_255_2_778
10
24.7414875
20
76.7612352
11
145.7414875
21
76.7612352
0
LINE
8
DEFAULT_255_2_778
10
145.7414875
20
76.7612352
11
145.7414875
21
102.5612352
0
LINE
8
DEFAULT_255_2_778
10
0.1415875
20
41.7912352
11
23.6415875
21
41.7912352
0
LINE
8
DEFAULT_255_2_778
10
23.6415875
20
41.7912352
11
23.6415875
21
74.4611352
0
LINE
8
DEFAULT_255_2_778
10
23.6415875
20
74.4611352
11
0.1415875
21
74.4611352
0
LINE
8
DEFAULT_255_2_778
10
80.3417875
20
41.6110352
11
60.3416875
21
41.6110352
0
LINE
8
DEFAULT_255_2_778
10
62.3416409
20
41.6109818
11
62.3416409
21
38.9108818
0
LINE
8
DEFAULT_255_2_778
10
62.3416409
20
38.9108818
11
78.3414409
21
38.9108818
0
LINE
8
DEFAULT_255_2_778
10
78.3414409
20
38.9108818
11
78.3414409
21
41.6109818
0
LINE
8
DEFAULT_255_2_778
10
80.3417409
20
39.6112818
11
80.3417409
21
43.0111818
0
LINE
8
DEFAULT_255_2_778
10
80.3417409
20
43.0111818
11
60.3416409
21
43.0111818
0
LINE
8
DEFAULT_255_2_778
10
60.3416409
20
43.0111818
11
60.3416409
21
39.6112818
0
LINE
8
DEFAULT_255_2_778
10
78.3414409
20
73.5109818
11
78.3414409
21
76.2110818
0
LINE
8
DEFAULT_255_2_778
10
78.3414409
20
76.2110818
11
62.3416409
21
76.2110818
0
LINE
8
DEFAULT_255_2_778
10
62.3416409
20
76.2110818
11
62.3416409
21
73.5109818
0
LINE
8
DEFAULT_255_2_778
10
80.3417409
20
75.5109818
11
80.3417409
21
72.1110818
0
LINE
8
DEFAULT_255_2_778
10
80.3417409
20
72.1110818
11
60.3416409
21
72.1110818
0
LINE
8
DEFAULT_255_2_778
10
60.3416409
20
72.1110818
11
60.3416409
21
75.5109818
0
LINE
8
DEFAULT_255_2_778
10
80.341755
20
73.5110089
11
60.341655
21
73.5110089
0
LINE
8
DEFAULT_255_2_778
10
120.341755
20
41.6110089
11
100.341655
21
41.6110089
0
LINE
8
DEFAULT_255_2_778
10
102.3416409
20
41.6109818
11
102.3416409
21
38.9108818
0
LINE
8
DEFAULT_255_2_778
10
102.3416409
20
38.9108818
11
118.3415409
21
38.9108818
0
LINE
8
DEFAULT_255_2_778
10
118.3415409
20
38.9108818
11
118.3415409
21
41.6109818
0
LINE
8
DEFAULT_255_2_778
10
120.3417409
20
39.6112818
11
120.3417409
21
43.0111818
0
LINE
8
DEFAULT_255_2_778
10
120.3417409
20
43.0111818
11
100.3416409
21
43.0111818
0
LINE
8
DEFAULT_255_2_778
10
100.3416409
20
43.0111818
11
100.3416409
21
39.6112818
0
LINE
8
DEFAULT_255_2_778
10
120.3417409
20
73.5109818
11
100.3416409
21
73.5109818
0
LINE
8
DEFAULT_255_2_778
10
118.3415409
20
73.5109818
11
118.3415409
21
76.2110818
0
LINE
8
DEFAULT_255_2_778
10
118.3415409
20
76.2110818
11
102.3416409
21
76.2110818
0
LINE
8
DEFAULT_255_2_778
10
102.3416409
20
76.2110818
11
102.3416409
21
73.5109818
0
LINE
8
DEFAULT_255_2_778
10
120.3417259
20
75.5110407
11
120.3417259
21
72.1111407
0
LINE
8
DEFAULT_255_2_778
10
120.3417259
20
72.1111407
11
100.3416259
21
72.1111407
0
LINE
8
DEFAULT_255_2_778
10
100.3416259
20
72.1111407
11
100.3416259
21
75.5110407
0
LINE
8
DEFAULT_255_2_778
10
9.5916259
20
78.3611407
11
9.5916259
21
78.2611407
0
LINE
8
DEFAULT_255_2_778
10
8.5415259
20
78.3611407
11
8.5415259
21
78.2611407
0
LINE
8
DEFAULT_255_2_778
10
15.4916259
20
78.2611407
11
15.4916259
21
78.3611407
0
LINE
8
DEFAULT_255_2_778
10
16.5414259
20
78.2611407
11
16.5414259
21
78.3611407
0
LINE
8
DEFAULT_255_2_778
10
10.7415259
20
41.7909407
11
10.7415259
21
41.9610407
0
LINE
8
DEFAULT_255_2_778
10
13.6416259
20
41.9610407
11
13.6416259
21
41.7909407
0
LINE
8
DEFAULT_255_2_778
10
44.1415259
20
32.6612407
11
145.7414259
21
32.6612407
0
LINE
8
DEFAULT_255_2_778
10
145.7414259
20
32.1611407
11
44.1415259
21
32.1611407
0
LINE
8
DEFAULT_255_2_778
10
145.7414259
20
82.4611407
11
24.7414259
21
82.4611407
0
LINE
8
DEFAULT_255_2_778
10
24.7414259
20
82.9611407
11
145.7414259
21
82.9611407
0
LINE
8
DEFAULT_255_2_778
10
25.1415259
20
70.2611407
11
27.9415259
21
70.2611407
0
LINE
8
DEFAULT_255_2_778
10
27.9415259
20
70.2611407
11
27.9415259
21
72.6612407
0
LINE
8
DEFAULT_255_2_778
10
27.9415259
20
72.6612407
11
25.1415259
21
72.6612407
0
LINE
8
DEFAULT_255_2_778
10
25.1415259
20
72.6612407
11
25.1415259
21
70.2611407
0
LINE
8
DEFAULT_255_2_778
10
27.9415259
20
67.0610407
11
27.9415259
21
69.4610407
0
LINE
8
DEFAULT_255_2_778
10
27.9415259
20
69.4610407
11
25.1415259
21
69.4610407
0
LINE
8
DEFAULT_255_2_778
10
25.1415259
20
69.4610407
11
25.1415259
21
67.0610407
0
LINE
8
DEFAULT_255_2_778
10
25.1415259
20
67.0610407
11
27.9415259
21
67.0610407
0
LINE
8
DEFAULT_255_2_778
10
27.9415259
20
73.4610407
11
27.9415259
21
75.8610407
0
LINE
8
DEFAULT_255_2_778
10
27.9415259
20
75.8610407
11
25.1415259
21
75.8610407
0
LINE
8
DEFAULT_255_2_778
10
25.1415259
20
75.8610407
11
25.1415259
21
73.4610407
0
LINE
8
DEFAULT_255_2_778
10
25.1415259
20
73.4610407
11
27.9415259
21
73.4610407
0
LINE
8
DEFAULT_255_2_778
10
36.8416259
20
70.2611407
11
39.6417259
21
70.2611407
0
LINE
8
DEFAULT_255_2_778
10
39.6417259
20
70.2611407
11
39.6417259
21
72.6612407
0
LINE
8
DEFAULT_255_2_778
10
39.6417259
20
72.6612407
11
36.8416259
21
72.6612407
0
LINE
8
DEFAULT_255_2_778
10
36.8416259
20
72.6612407
11
36.8416259
21
70.2611407
0
LINE
8
DEFAULT_255_2_778
10
39.6417259
20
73.4610407
11
39.6417259
21
75.8610407
0
LINE
8
DEFAULT_255_2_778
10
39.6417259
20
75.8610407
11
36.8416259
21
75.8610407
0
LINE
8
DEFAULT_255_2_778
10
36.8416259
20
75.8610407
11
36.8416259
21
73.4610407
0
LINE
8
DEFAULT_255_2_778
10
36.8416259
20
73.4610407
11
39.6417259
21
73.4610407
0
LINE
8
DEFAULT_255_2_778
10
36.8416259
20
67.0610407
11
39.6417259
21
67.0610407
0
LINE
8
DEFAULT_255_2_778
10
39.6417259
20
67.0610407
11
39.6417259
21
69.4610407
0
LINE
8
DEFAULT_255_2_778
10
39.6417259
20
69.4610407
11
36.8416259
21
69.4610407
0
LINE
8
DEFAULT_255_2_778
10
36.8416259
20
69.4610407
11
36.8416259
21
67.0610407
0
LINE
8
DEFAULT_255_2_778
10
22.0416259
20
100.4612407
11
22.0416259
21
100.5612407
0
LINE
8
DEFAULT_255_2_778
10
21.0415259
20
100.4612407
11
21.0415259
21
100.5612407
0
LINE
8
DEFAULT_255_2_778
10
20.5414259
20
100.4612407
11
20.5414259
21
100.5612407
0
LINE
8
DEFAULT_255_2_778
10
22.0416259
20
74.1611407
11
22.0416259
21
74.4611407
0
LINE
8
DEFAULT_255_2_778
10
22.0416259
20
78.2611407
11
22.0416259
21
78.3611407
0
LINE
8
DEFAULT_255_2_778
10
21.0415259
20
74.1611407
11
21.0415259
21
74.4611407
0
LINE
8
DEFAULT_255_2_778
10
21.0415259
20
78.2611407
11
21.0415259
21
78.3611407
0
LINE
8
DEFAULT_255_2_778
10
22.0416259
20
41.7909407
11
22.0416259
21
41.9610407
0
LINE
8
DEFAULT_255_2_778
10
21.0415259
20
41.7909407
11
21.0415259
21
41.9610407
0
LINE
8
DEFAULT_255_2_778
10
78.3415259
20
39.5110407
11
88.3914259
21
39.5110407
0
LINE
8
DEFAULT_255_2_778
10
88.3914259
20
39.5110407
11
88.3914259
21
73.8110407
0
LINE
8
DEFAULT_255_2_778
10
88.3914259
20
73.8110407
11
86.5915259
21
75.6110407
0
LINE
8
DEFAULT_255_2_778
10
86.5915259
20
75.6110407
11
78.3415259
21
75.6110407
0
LINE
8
DEFAULT_255_2_778
10
78.3415259
20
39.6110407
11
88.2914259
21
39.6110407
0
LINE
8
DEFAULT_255_2_778
10
88.2914259
20
39.6110407
11
88.2914259
21
73.5110407
0
LINE
8
DEFAULT_255_2_778
10
88.2914259
20
73.5110407
11
86.2914259
21
75.5110407
0
LINE
8
DEFAULT_255_2_778
10
86.2914259
20
75.5110407
11
78.3415259
21
75.5110407
0
LINE
8
DEFAULT_255_2_778
10
62.3413259
20
75.6110407
11
52.2914259
21
75.6110407
0
LINE
8
DEFAULT_255_2_778
10
52.2914259
20
75.6110407
11
52.2914259
21
39.5110407
0
LINE
8
DEFAULT_255_2_778
10
52.2914259
20
39.5110407
11
62.3413259
21
39.5110407
0
LINE
8
DEFAULT_255_2_778
10
62.3414014
20
75.511071
11
52.3915014
21
75.511071
0
LINE
8
DEFAULT_255_2_778
10
52.3915014
20
75.511071
11
52.3915014
21
39.611071
0
LINE
8
DEFAULT_255_2_778
10
52.3915014
20
39.611071
11
62.3414014
21
39.611071
0
LINE
8
DEFAULT_255_2_778
10
145.7415014
20
12.561171
11
145.7415014
21
38.661171
0
LINE
8
DEFAULT_255_2_778
10
145.7415014
20
38.661171
11
44.1415014
21
38.661171
0
LINE
8
DEFAULT_255_2_778
10
44.1415014
20
38.661171
11
44.1415014
21
12.561171
0
LINE
8
DEFAULT_255_2_778
10
143.5415014
20
12.661171
11
143.5415014
21
30.561271
0
LINE
8
DEFAULT_255_2_778
10
143.5415014
20
30.561271
11
46.3415014
21
30.561271
0
LINE
8
DEFAULT_255_2_778
10
46.3415014
20
30.561271
11
46.3415014
21
12.661171
0
LINE
8
DEFAULT_255_2_778
10
102.3416014
20
75.611071
11
92.2917014
21
75.611071
0
LINE
8
DEFAULT_255_2_778
10
92.2917014
20
75.611071
11
92.2917014
21
39.511071
0
LINE
8
DEFAULT_255_2_778
10
92.2917014
20
39.511071
11
102.3416014
21
39.511071
0
LINE
8
DEFAULT_255_2_778
10
102.3416666
20
75.5109793
11
92.3917666
21
75.5109793
0
LINE
8
DEFAULT_255_2_778
10
92.3917666
20
75.5109793
11
92.3917666
21
39.6109793
0
LINE
8
DEFAULT_255_2_778
10
92.3917666
20
39.6109793
11
102.3416666
21
39.6109793
0
LINE
8
DEFAULT_255_2_778
10
128.3914666
20
39.5109793
11
128.3914666
21
73.8110793
0
LINE
8
DEFAULT_255_2_778
10
128.3914666
20
73.8110793
11
126.5915666
21
75.6109793
0
LINE
8
DEFAULT_255_2_778
10
126.5915666
20
75.6109793
11
118.3415666
21
75.6109793
0
LINE
8
DEFAULT_255_2_778
10
118.3415666
20
75.5109793
11
126.2914666
21
75.5109793
0
LINE
8
DEFAULT_255_2_778
10
126.2914666
20
75.5109793
11
128.2914666
21
73.5109793
0
LINE
8
DEFAULT_255_2_778
10
128.2914666
20
73.5109793
11
128.2914666
21
39.6109793
0
LINE
8
DEFAULT_255_2_778
10
128.2914666
20
39.6109793
11
118.3415666
21
39.6109793
0
LINE
8
DEFAULT_255_2_778
10
9.2416666
20
39.3612793
11
9.2416666
21
41.7911793
0
LINE
8
DEFAULT_255_2_778
10
4.2415666
20
41.7911793
11
4.2415666
21
39.3612793
0
LINE
8
DEFAULT_255_2_778
10
143.5415666
20
84.7110793
11
143.6415666
21
84.7110793
0
LINE
8
DEFAULT_255_2_778
10
143.6415666
20
86.0109793
11
143.5415666
21
86.0109793
0
LINE
8
DEFAULT_255_2_778
10
27.3415666
20
86.0109793
11
27.2415666
21
86.0109793
0
LINE
8
DEFAULT_255_2_778
10
27.2415666
20
84.7110793
11
27.3415666
21
84.7110793
0
LINE
8
DEFAULT_255_2_778
10
46.3415666
20
30.4111793
11
46.2415666
21
30.4111793
0
LINE
8
DEFAULT_255_2_778
10
46.2415666
20
29.1109793
11
46.3415666
21
29.1109793
0
LINE
8
DEFAULT_255_2_778
10
143.5415666
20
29.1109793
11
143.6415666
21
29.1109793
0
LINE
8
DEFAULT_255_2_778
10
143.6415666
20
30.4111793
11
143.5415666
21
30.4111793
0
LINE
8
DEFAULT_255_2_778
10
0.7416666
20
68.0610793
11
0.7416666
21
48.0609793
0
LINE
8
DEFAULT_255_2_778
10
2.5416666
20
48.0609793
11
2.5416666
21
68.0610793
0
LINE
8
DEFAULT_255_2_778
10
1.8611666
20
48.0609793
11
1.8611666
21
68.0610793
0
LINE
8
DEFAULT_255_2_778
10
2.1415666
20
41.7908793
11
2.1415666
21
41.9610793
0
LINE
8
DEFAULT_255_2_778
10
2.2415666
20
41.9610793
11
2.2415666
21
41.7908793
0
LINE
8
DEFAULT_255_2_778
10
2.7416666
20
41.9610793
11
2.7416666
21
41.7908793
0
LINE
8
DEFAULT_255_2_778
10
0.7416666
20
94.4109793
11
0.7416666
21
84.4110793
0
LINE
8
DEFAULT_255_2_778
10
0.5416073
20
78.2613382
11
0.5416073
21
84.4113382
0
LINE
8
DEFAULT_255_2_778
10
0.5416073
20
84.4113382
11
2.5416073
21
84.4113382
0
LINE
8
DEFAULT_255_2_778
10
2.5416073
20
84.4113382
11
2.5416073
21
94.4112382
0
LINE
8
DEFAULT_255_2_778
10
2.5416073
20
94.4112382
11
0.5416073
21
94.4112382
0
LINE
8
DEFAULT_255_2_778
10
0.5416073
20
94.4112382
11
0.5416073
21
100.5612382
0
LINE
8
DEFAULT_255_2_778
10
1.8611057
20
84.4110605
11
1.8611057
21
94.4110605
0
LINE
8
DEFAULT_255_2_778
10
2.1416057
20
100.4612605
11
2.1416057
21
100.5612605
0
LINE
8
DEFAULT_255_2_778
10
2.2416057
20
100.5612605
11
2.2416057
21
100.4612605
0
LINE
8
DEFAULT_255_2_778
10
2.1416057
20
78.2611605
11
2.1416057
21
78.3611605
0
LINE
8
DEFAULT_255_2_778
10
2.1416057
20
74.1611605
11
2.1416057
21
74.4611605
0
LINE
8
DEFAULT_255_2_778
10
2.2416057
20
78.3611605
11
2.2416057
21
78.2611605
0
LINE
8
DEFAULT_255_2_778
10
34.9417057
20
39.1612605
11
26.3417057
21
39.1612605
0
LINE
8
DEFAULT_255_2_778
10
26.3417057
20
39.1612605
11
26.3417057
21
33.9611605
0
LINE
8
DEFAULT_255_2_778
10
26.3417057
20
33.9611605
11
34.9417057
21
33.9611605
0
LINE
8
DEFAULT_255_2_778
10
34.9417057
20
33.9611605
11
34.9417057
21
39.1612605
0
LINE
8
DEFAULT_255_2_778
10
27.3414845
20
39.1612353
11
27.3414845
21
34.3611353
0
LINE
8
DEFAULT_255_2_778
10
27.3414845
20
34.3611353
11
33.9414845
21
34.3611353
0
LINE
8
DEFAULT_255_2_778
10
33.9414845
20
34.3611353
11
33.9414845
21
39.1612353
0
LINE
8
DEFAULT_255_2_778
10
28.33155
20
35.0611854
11
29.13165
21
35.0611854
0
LINE
8
DEFAULT_255_2_778
10
29.13165
20
35.0611854
11
29.13165
21
39.0611854
0
LINE
8
DEFAULT_255_2_778
10
29.13165
20
39.0611854
11
28.33155
21
39.0611854
0
LINE
8
DEFAULT_255_2_778
10
28.33155
20
39.0611854
11
28.33155
21
35.0611854
0
LINE
8
DEFAULT_255_2_778
10
28.9315625
20
36.5611854
11
28.9315625
21
37.0611854
0
LINE
8
DEFAULT_255_2_778
10
28.9315625
20
37.0611854
11
28.5315625
21
37.0611854
0
LINE
8
DEFAULT_255_2_778
10
28.5315625
20
37.0611854
11
28.5315625
21
36.5611854
0
LINE
8
DEFAULT_255_2_778
10
28.5315625
20
36.5611854
11
28.9315625
21
36.5611854
0
LINE
8
DEFAULT_255_2_778
10
31.6716625
20
35.0611854
11
31.6716625
21
39.0611854
0
LINE
8
DEFAULT_255_2_778
10
31.6716625
20
39.0611854
11
30.8715625
21
39.0611854
0
LINE
8
DEFAULT_255_2_778
10
30.8715625
20
39.0611854
11
30.8715625
21
35.0611854
0
LINE
8
DEFAULT_255_2_778
10
30.8715625
20
35.0611854
11
31.6716625
21
35.0611854
0
LINE
8
DEFAULT_255_2_778
10
31.4716984
20
36.5612162
11
31.4716984
21
37.0612162
0
LINE
8
DEFAULT_255_2_778
10
31.4716984
20
37.0612162
11
31.0715984
21
37.0612162
0
LINE
8
DEFAULT_255_2_778
10
31.0715984
20
37.0612162
11
31.0715984
21
36.5612162
0
LINE
8
DEFAULT_255_2_778
10
31.0715984
20
36.5612162
11
31.4716984
21
36.5612162
0
LINE
8
DEFAULT_255_2_778
10
32.7416984
20
37.0612162
11
32.3415984
21
37.0612162
0
LINE
8
DEFAULT_255_2_778
10
32.3415984
20
37.0612162
11
32.3415984
21
36.5612162
0
LINE
8
DEFAULT_255_2_778
10
32.3415984
20
36.5612162
11
32.7416984
21
36.5612162
0
LINE
8
DEFAULT_255_2_778
10
32.7416984
20
36.5612162
11
32.7416984
21
37.0612162
0
LINE
8
DEFAULT_255_2_778
10
32.9416984
20
35.0612162
11
32.9416984
21
39.0612162
0
LINE
8
DEFAULT_255_2_778
10
32.9416984
20
39.0612162
11
32.1415984
21
39.0612162
0
LINE
8
DEFAULT_255_2_778
10
32.1415984
20
39.0612162
11
32.1415984
21
35.0612162
0
LINE
8
DEFAULT_255_2_778
10
32.1415984
20
35.0612162
11
32.9416984
21
35.0612162
0
LINE
8
DEFAULT_255_2_778
10
30.2016984
20
37.0612162
11
29.8015984
21
37.0612162
0
LINE
8
DEFAULT_255_2_778
10
29.8015984
20
37.0612162
11
29.8015984
21
36.5612162
0
LINE
8
DEFAULT_255_2_778
10
29.8015984
20
36.5612162
11
30.2016984
21
36.5612162
0
LINE
8
DEFAULT_255_2_778
10
30.2016984
20
36.5612162
11
30.2016984
21
37.0612162
0
LINE
8
DEFAULT_255_2_778
10
29.6015984
20
35.0612162
11
30.4016984
21
35.0612162
0
LINE
8
DEFAULT_255_2_778
10
30.4016984
20
35.0612162
11
30.4016984
21
39.0612162
0
LINE
8
DEFAULT_255_2_778
10
30.4016984
20
39.0612162
11
29.6015984
21
39.0612162
0
LINE
8
DEFAULT_255_2_778
10
29.6015984
20
39.0612162
11
29.6015984
21
35.0612162
0
LINE
8
DEFAULT_255_2_778
10
140.1415984
20
12.5611162
11
140.1415984
21
7.5610162
0
ARC
8
DEFAULT_255_2_778
10
145.1293627
20
7.5578312
40
5.0121582
50
346.3111509
51
0.0392352
0
ARC
8
DEFAULT_255_2_778
10
145.1657155
20
7.5525156
40
4.9755814
50
325.3788979
51
346.271558
0
ARC
8
DEFAULT_255_2_778
10
145.1318635
20
7.571296
40
5.0141106
50
289.6246393
51
325.4220682
0
ARC
8
DEFAULT_255_2_778
10
145.1507713
20
7.5374318
40
4.9758672
50
274.2932373
51
289.5505316
0
ARC
8
DEFAULT_255_2_778
10
145.1418947
20
7.6313053
40
5.0701421
50
269.9946329
51
274.3138515
0
ARC
8
DEFAULT_255_2_778
10
145.137985
20
7.573498
40
5.0123358
50
256.3116743
51
270.0392625
0
ARC
8
DEFAULT_255_2_778
10
145.132626
20
7.5369783
40
4.9755863
50
235.3795793
51
256.2721162
0
ARC
8
DEFAULT_255_2_778
10
145.1513262
20
7.5707042
40
5.0139661
50
199.6243069
51
235.4226824
0
ARC
8
DEFAULT_255_2_778
10
145.117713
20
7.5518909
40
4.975991
50
184.2930336
51
199.5502512
0
ARC
8
DEFAULT_255_2_778
10
145.2117823
20
7.5607879
40
5.0704627
50
179.9946267
51
184.3137155
0
ARC
8
DEFAULT_255_2_778
10
5.1290852
20
7.5578286
40
5.0123358
50
346.3116743
51
0.0392625
0
ARC
8
DEFAULT_255_2_778
10
5.1656049
20
7.5524697
40
4.9755863
50
325.3795793
51
346.2721162
0
ARC
8
DEFAULT_255_2_778
10
5.131879
20
7.5711698
40
5.0139661
50
289.6243069
51
325.4226824
0
ARC
8
DEFAULT_255_2_778
10
5.1506923
20
7.5375566
40
4.975991
50
274.2930336
51
289.5502512
0
ARC
8
DEFAULT_255_2_778
10
5.1417953
20
7.631626
40
5.0704627
50
269.9946267
51
274.3137155
0
ARC
8
DEFAULT_255_2_778
10
5.1386166
20
7.5737107
40
5.012548
50
256.3052072
51
270.0308991
0
ARC
8
DEFAULT_255_2_778
10
5.133303
20
7.5373822
40
4.9759954
50
235.376297
51
256.2656181
0
ARC
8
DEFAULT_255_2_778
10
5.1521028
20
7.5712378
40
5.0145385
50
199.6269704
51
235.4193253
0
ARC
8
DEFAULT_255_2_778
10
5.1185021
20
7.5524384
40
4.9765795
50
184.2985253
51
199.5530465
0
ARC
8
DEFAULT_255_2_778
10
5.2124423
20
7.5613335
40
5.0709224
50
180.0007922
51
184.3191906
0
LINE
8
DEFAULT_255_2_778
10
140.1415198
20
12.5610634
11
150.1415198
21
12.5610634
0
LINE
8
DEFAULT_255_2_778
10
150.1415198
20
12.5610634
11
150.1415198
21
7.5609634
0
LINE
8
DEFAULT_255_2_778
10
10.1414198
20
12.5610634
11
0.1415198
21
12.5610634
0
LINE
8
DEFAULT_255_2_778
10
0.1415198
20
12.5610634
11
0.1415198
21
7.5609634
0
LINE
8
DEFAULT_255_2_778
10
10.1414466
20
12.5610478
11
10.1414466
21
7.5609478
0
LINE
8
DEFAULT_255_2_778
10
10.1414466
20
12.5610478
11
140.1415466
21
12.5610478
0
LINE
8
DEFAULT_255_2_778
10
44.6415466
20
12.5610478
11
44.6415466
21
11.8609478
0
LINE
8
DEFAULT_255_2_778
10
44.6415466
20
11.8609478
11
42.6415466
21
11.8609478
0
LINE
8
DEFAULT_255_2_778
10
42.6415466
20
11.8609478
11
42.6415466
21
10.0610478
0
LINE
8
DEFAULT_255_2_778
10
42.6415466
20
10.0610478
11
39.6414466
21
7.8609478
0
LINE
8
DEFAULT_255_2_778
10
39.6414466
20
7.8609478
11
37.1413466
21
7.8609478
0
LINE
8
DEFAULT_255_2_778
10
29.6415466
20
12.5610478
11
29.6415466
21
11.8609478
0
LINE
8
DEFAULT_255_2_778
10
29.6415466
20
11.8609478
11
31.6414466
21
11.8609478
0
LINE
8
DEFAULT_255_2_778
10
31.6414466
20
11.8609478
11
31.6414466
21
10.0610478
0
LINE
8
DEFAULT_255_2_778
10
31.6414466
20
10.0610478
11
34.6416466
21
7.8609478
0
LINE
8
DEFAULT_255_2_778
10
34.6416466
20
7.8609478
11
37.1416466
21
7.8609478
0
LINE
8
DEFAULT_255_2_778
10
120.6415466
20
11.8612478
11
118.6415466
21
11.8612478
0
LINE
8
DEFAULT_255_2_778
10
118.6415466
20
11.8612478
11
118.6415466
21
10.0612478
0
LINE
8
DEFAULT_255_2_778
10
118.6415466
20
10.0612478
11
115.6414466
21
7.8612478
0
LINE
8
DEFAULT_255_2_778
10
115.6414466
20
7.8612478
11
113.1413466
21
7.8612478
0
LINE
8
DEFAULT_255_2_778
10
105.6414466
20
11.8612478
11
107.6414466
21
11.8612478
0
LINE
8
DEFAULT_255_2_778
10
107.6414466
20
11.8612478
11
107.6414466
21
10.0612478
0
LINE
8
DEFAULT_255_2_778
10
107.6414466
20
10.0612478
11
110.6415466
21
7.8612478
0
LINE
8
DEFAULT_255_2_778
10
110.6415466
20
7.8612478
11
113.1416466
21
7.8612478
0
LINE
8
DEFAULT_255_2_778
10
120.6415
20
12.66115
11
120.6415
21
11.86105
0
LINE
8
DEFAULT_255_2_778
10
120.6415565
20
12.5610738
11
120.6415565
21
11.8609738
0
LINE
8
DEFAULT_255_2_778
10
105.6415565
20
11.8612738
11
105.6415565
21
3.8612738
0
LINE
8
DEFAULT_255_2_778
10
105.6415565
20
3.8612738
11
107.6415565
21
3.8612738
0
LINE
8
DEFAULT_255_2_778
10
107.6415565
20
3.8612738
11
107.6415565
21
2.1613738
0
LINE
8
DEFAULT_255_2_778
10
107.6415565
20
2.1613738
11
110.6416565
21
-0.1386262
0
LINE
8
DEFAULT_255_2_778
10
110.6416565
20
-0.1386262
11
115.6417565
21
-0.1386262
0
LINE
8
DEFAULT_255_2_778
10
115.6417565
20
-0.1386262
11
118.6418565
21
2.1613738
0
LINE
8
DEFAULT_255_2_778
10
118.6418565
20
2.1613738
11
118.6418565
21
3.8612738
0
LINE
8
DEFAULT_255_2_778
10
118.6418565
20
3.8612738
11
120.6418565
21
3.8612738
0
LINE
8
DEFAULT_255_2_778
10
120.6418565
20
3.8612738
11
120.6418565
21
11.8612738
0
LINE
8
DEFAULT_255_2_778
10
105.6415565
20
12.6610738
11
105.6415565
21
11.8609738
0
ARC
8
DEFAULT_255_2_778
10
31.9852103
20
18.3155207
40
1.4978809
50
151.5762719
51
180.1198
0
ARC
8
DEFAULT_255_2_778
10
31.9836829
20
18.3156561
40
1.4964733
50
98.4344484
51
151.5529958
0
ARC
8
DEFAULT_255_2_778
10
31.9867847
20
18.288294
40
1.5239948
50
89.9793999
51
98.398917
0
ARC
8
DEFAULT_255_2_778
10
31.9896483
20
18.3193959
40
1.4928946
50
60.1195848
51
90.088872
0
ARC
8
DEFAULT_255_2_778
10
31.9865761
20
18.3119426
40
1.5008881
50
7.8731137
51
60.1596451
0
ARC
8
DEFAULT_255_2_778
10
31.9742869
20
18.3128012
40
1.5129459
50
359.9843805
51
7.777154
0
ARC
8
DEFAULT_255_2_778
10
31.9941236
20
18.3100609
40
1.4931108
50
330.1869817
51
0.0893259
0
ARC
8
DEFAULT_255_2_778
10
31.986881
20
18.3130246
40
1.5008686
50
277.8818784
51
330.2262782
0
ARC
8
DEFAULT_255_2_778
10
31.9877465
20
18.325312
40
1.5129233
50
269.9843285
51
277.7855994
0
ARC
8
DEFAULT_255_2_778
10
31.9856362
20
17.8781767
40
1.0657893
50
269.9696163
51
270.0911988
0
ARC
8
DEFAULT_255_2_778
10
31.984975
20
18.3097802
40
1.4973931
50
224.9932112
51
270.0036748
0
ARC
8
DEFAULT_255_2_778
10
31.9847241
20
18.3100311
40
1.4973932
50
179.9963252
51
225.0067888
0
ARC
8
DEFAULT_255_2_778
10
32.0857326
20
18.3101271
40
1.5984016
50
179.9189299
51
179.9999992
0
ARC
8
DEFAULT_255_2_778
10
28.4854276
20
18.3157406
40
1.4979983
50
151.5776441
51
180.1205538
0
ARC
8
DEFAULT_255_2_778
10
28.4836799
20
18.3159829
40
1.4963462
50
98.4340912
51
151.5539513
0
ARC
8
DEFAULT_255_2_778
10
28.4867845
20
18.2886327
40
1.5238562
50
89.9793906
51
98.39873
0
ARC
8
DEFAULT_255_2_778
10
28.489672
20
18.319283
40
1.4932076
50
60.1896232
51
90.0897623
0
ARC
8
DEFAULT_255_2_778
10
28.4867987
20
18.3122274
40
1.5007583
50
7.8797944
51
60.2283516
0
ARC
8
DEFAULT_255_2_778
10
28.4741263
20
18.3130045
40
1.5132064
50
359.9842589
51
7.7848696
0
ARC
8
DEFAULT_255_2_778
10
28.4943917
20
18.310248
40
1.4929428
50
330.1849745
51
0.0898313
0
ARC
8
DEFAULT_255_2_778
10
28.4870215
20
18.3133512
40
1.5008808
50
277.877293
51
330.2220824
0
ARC
8
DEFAULT_255_2_778
10
28.4877444
20
18.3261966
40
1.513508
50
269.9844125
51
277.7835372
0
ARC
8
DEFAULT_255_2_778
10
28.4856366
20
17.878021
40
1.0653336
50
269.9696109
51
270.0912149
0
ARC
8
DEFAULT_255_2_778
10
28.4850849
20
18.3103456
40
1.4976586
50
225.0028301
51
269.9994898
0
ARC
8
DEFAULT_255_2_778
10
28.4848241
20
18.3102311
40
1.4973932
50
179.9963252
51
225.0067888
0
ARC
8
DEFAULT_255_2_778
10
28.5858326
20
18.3103271
40
1.5984016
50
179.9189299
51
179.9999992
0
ARC
8
DEFAULT_255_2_778
10
24.9857545
20
26.5660509
40
1.4982252
50
151.5847107
51
180.1209297
0
ARC
8
DEFAULT_255_2_778
10
24.9835795
20
26.5665216
40
1.4960882
50
98.430422
51
151.5609287
0
ARC
8
DEFAULT_255_2_778
10
24.9868791
20
26.5382858
40
1.5245031
50
89.9791958
51
98.3975127
0
ARC
8
DEFAULT_255_2_778
10
24.9905854
20
26.5645578
40
1.4982343
50
61.5815566
51
90.1205694
0
ARC
8
DEFAULT_255_2_778
10
24.9909913
20
26.5665594
40
1.4962809
50
8.4346451
51
61.5587482
0
ARC
8
DEFAULT_255_2_778
10
24.9634867
20
26.5634379
40
1.523946
50
359.9793546
51
8.3990535
0
ARC
8
DEFAULT_255_2_778
10
24.994364
20
26.5605566
40
1.4930705
50
330.1428379
51
0.0894958
0
ARC
8
DEFAULT_255_2_778
10
24.9870571
20
26.5635741
40
1.5009101
50
277.8739834
51
330.1817986
0
ARC
8
DEFAULT_255_2_778
10
24.9878445
20
26.5761832
40
1.5132946
50
269.984406
51
277.7790508
0
ARC
8
DEFAULT_255_2_778
10
24.9851138
20
26.5557458
40
1.4928589
50
240.1189425
51
270.0889991
0
ARC
8
DEFAULT_255_2_778
10
24.9882492
20
26.5632651
40
1.500941
50
187.8710349
51
240.158166
0
ARC
8
DEFAULT_255_2_778
10
25.0008088
20
26.5624755
40
1.5132763
50
179.984355
51
187.7763005
0
ARC
8
DEFAULT_255_2_778
10
21.4847319
20
26.5662515
40
1.4981026
50
151.5802751
51
180.1209614
0
ARC
8
DEFAULT_255_2_778
10
21.4827876
20
26.5665866
40
1.4962333
50
98.4320341
51
151.5561276
0
ARC
8
DEFAULT_255_2_778
10
21.4859822
20
26.5388576
40
1.5241313
50
89.9793083
51
98.3979756
0
ARC
8
DEFAULT_255_2_778
10
21.4888827
20
26.5699177
40
1.4930728
50
60.1882456
51
90.0901824
0
ARC
8
DEFAULT_255_2_778
10
21.4859313
20
26.5627978
40
1.5007183
50
7.8772947
51
60.2256172
0
ARC
8
DEFAULT_255_2_778
10
21.4729675
20
26.5635015
40
1.5134652
50
359.9843743
51
7.7836437
0
ARC
8
DEFAULT_255_2_778
10
21.4933617
20
26.5607387
40
1.4930728
50
330.1882456
51
0.0901824
0
ARC
8
DEFAULT_255_2_778
10
21.4862417
20
26.5636901
40
1.5007183
50
277.8772947
51
330.2256172
0
ARC
8
DEFAULT_255_2_778
10
21.4869454
20
26.5766539
40
1.5134652
50
269.9843743
51
277.7836437
0
ARC
8
DEFAULT_255_2_778
10
21.4848362
20
26.1289767
40
1.0657893
50
269.9696163
51
270.0911988
0
ARC
8
DEFAULT_255_2_778
10
21.4842088
20
26.5609033
40
1.4977162
50
225.0037427
51
270.0023795
0
ARC
8
DEFAULT_255_2_778
10
21.4835087
20
26.5604185
40
1.4968784
50
179.9987245
51
225.009574
0
ARC
8
DEFAULT_255_2_778
10
21.4355272
20
26.5604516
40
1.4488969
50
179.8957161
51
179.9999929
0
ARC
8
DEFAULT_255_2_778
10
28.4849459
20
26.5665292
40
1.4980165
50
151.5794485
51
180.1201144
0
ARC
8
DEFAULT_255_2_778
10
28.4831638
20
26.5668144
40
1.4963136
50
98.4345278
51
151.556579
0
ARC
8
DEFAULT_255_2_778
10
28.4862835
20
26.5393428
40
1.523946
50
89.9793545
51
98.3990533
0
ARC
8
DEFAULT_255_2_778
10
28.4885291
20
26.9975008
40
1.0657893
50
89.9696163
51
90.0911988
0
ARC
8
DEFAULT_255_2_778
10
28.4891565
20
26.5655742
40
1.4977162
50
45.0037427
51
90.0023795
0
ARC
8
DEFAULT_255_2_778
10
28.4898567
20
26.566059
40
1.4968784
50
359.9987245
51
45.009574
0
ARC
8
DEFAULT_255_2_778
10
28.5378381
20
26.5660259
40
1.4488969
50
359.8957161
51
359.9999929
0
ARC
8
DEFAULT_255_2_778
10
28.488584
20
26.5602596
40
1.4981519
50
331.5856128
51
0.11967
0
ARC
8
DEFAULT_255_2_778
10
28.4906249
20
26.5597976
40
1.4961372
50
278.4333789
51
331.563985
0
ARC
8
DEFAULT_255_2_778
10
28.4873871
20
26.5878634
40
1.5243748
50
269.9791601
51
278.3990496
0
ARC
8
DEFAULT_255_2_778
10
28.4836922
20
26.5615019
40
1.4980165
50
241.5794485
51
270.1201144
0
ARC
8
DEFAULT_255_2_778
10
28.483407
20
26.5597199
40
1.4963136
50
188.4345278
51
241.556579
0
ARC
8
DEFAULT_255_2_778
10
28.5108786
20
26.5628396
40
1.523946
50
179.9793545
51
188.3990533
0
ARC
8
DEFAULT_255_2_778
10
31.9848459
20
26.5668292
40
1.4980165
50
151.5794485
51
180.1201144
0
ARC
8
DEFAULT_255_2_778
10
31.9830638
20
26.5671144
40
1.4963136
50
98.4345278
51
151.556579
0
ARC
8
DEFAULT_255_2_778
10
31.9861835
20
26.5396428
40
1.523946
50
89.9793545
51
98.3990533
0
ARC
8
DEFAULT_255_2_778
10
31.9890605
20
26.5704797
40
1.4931108
50
60.1869817
51
90.0893259
0
ARC
8
DEFAULT_255_2_778
10
31.9860968
20
26.5632371
40
1.5008686
50
7.8818784
51
60.2262782
0
ARC
8
DEFAULT_255_2_778
10
31.9738094
20
26.5641026
40
1.5129233
50
359.9843285
51
7.7855994
0
ARC
8
DEFAULT_255_2_778
10
31.993664
20
26.5613566
40
1.4930705
50
330.1428379
51
0.0894958
0
ARC
8
DEFAULT_255_2_778
10
31.9863571
20
26.5643741
40
1.5009101
50
277.8739834
51
330.1817986
0
ARC
8
DEFAULT_255_2_778
10
31.9871445
20
26.5769832
40
1.5132946
50
269.984406
51
277.7790508
0
ARC
8
DEFAULT_255_2_778
10
31.9850362
20
26.1294767
40
1.0657893
50
269.9696163
51
270.0911988
0
ARC
8
DEFAULT_255_2_778
10
31.984375
20
26.5610802
40
1.4973931
50
224.9932112
51
270.0036748
0
ARC
8
DEFAULT_255_2_778
10
31.9845472
20
26.5613649
40
1.4977163
50
179.9976205
51
224.9962573
0
ARC
8
DEFAULT_255_2_778
10
32.0852326
20
26.5614271
40
1.5984016
50
179.9189299
51
179.9999992
0
ARC
8
DEFAULT_255_2_778
10
17.9845103
20
18.3147207
40
1.4978809
50
151.5762719
51
180.1198
0
ARC
8
DEFAULT_255_2_778
10
17.9829829
20
18.3148561
40
1.4964733
50
98.4344484
51
151.5529958
0
ARC
8
DEFAULT_255_2_778
10
17.9860847
20
18.287494
40
1.5239948
50
89.9793999
51
98.398917
0
ARC
8
DEFAULT_255_2_778
10
17.9889712
20
18.3185145
40
1.4929761
50
60.185604
51
90.089746
0
ARC
8
DEFAULT_255_2_778
10
17.9859294
20
18.3112074
40
1.5008286
50
7.8793787
51
60.2235439
0
ARC
8
DEFAULT_255_2_778
10
17.9733506
20
18.3119996
40
1.5131821
50
359.9844438
51
7.7843734
0
ARC
8
DEFAULT_255_2_778
10
17.9933269
20
18.3092494
40
1.4932076
50
330.1896232
51
0.0897623
0
ARC
8
DEFAULT_255_2_778
10
17.9862714
20
18.3121227
40
1.5007583
50
277.8797944
51
330.2283516
0
ARC
8
DEFAULT_255_2_778
10
17.9870484
20
18.3247951
40
1.5132064
50
269.9842589
51
277.7848696
0
ARC
8
DEFAULT_255_2_778
10
17.9849362
20
17.8773767
40
1.0657893
50
269.9696163
51
270.0911988
0
ARC
8
DEFAULT_255_2_778
10
17.9843431
20
18.309386
40
1.497799
50
224.9996429
51
270.0010676
0
ARC
8
DEFAULT_255_2_778
10
17.9843472
20
18.3092649
40
1.4977163
50
179.9976205
51
224.9962573
0
ARC
8
DEFAULT_255_2_778
10
18.0850326
20
18.3093271
40
1.5984016
50
179.9189299
51
179.9999992
0
ARC
8
DEFAULT_255_2_778
10
24.9854723
20
18.3149633
40
1.498443
50
151.5868185
51
180.1213846
0
ARC
8
DEFAULT_255_2_778
10
24.9830777
20
18.3155545
40
1.4960555
50
98.4305393
51
151.5630979
0
ARC
8
DEFAULT_255_2_778
10
24.9863791
20
18.2872857
40
1.5245031
50
89.9791959
51
98.3975129
0
ARC
8
DEFAULT_255_2_778
10
24.9900869
20
18.3138251
40
1.497967
50
61.5770986
51
90.1206472
0
ARC
8
DEFAULT_255_2_778
10
24.9902722
20
18.3155147
40
1.496393
50
8.4319547
51
61.5525444
0
ARC
8
DEFAULT_255_2_778
10
24.9626527
20
18.312338
40
1.5241801
50
359.9793536
51
8.3978393
0
ARC
8
DEFAULT_255_2_778
10
24.9937617
20
18.3094387
40
1.4930728
50
330.1882456
51
0.0901824
0
ARC
8
DEFAULT_255_2_778
10
24.9866417
20
18.3123901
40
1.5007183
50
277.8772947
51
330.2256172
0
ARC
8
DEFAULT_255_2_778
10
24.9873454
20
18.3253539
40
1.5134652
50
269.9843743
51
277.7836437
0
ARC
8
DEFAULT_255_2_778
10
24.9845826
20
18.3049597
40
1.4930728
50
240.1882456
51
270.0901824
0
ARC
8
DEFAULT_255_2_778
10
24.987534
20
18.3120797
40
1.5007183
50
187.8772947
51
240.2256172
0
ARC
8
DEFAULT_255_2_778
10
25.0004978
20
18.311376
40
1.5134652
50
179.9843743
51
187.7836437
0
ARC
8
DEFAULT_255_2_778
10
21.4843459
20
18.3152292
40
1.4980165
50
151.5794485
51
180.1201144
0
ARC
8
DEFAULT_255_2_778
10
21.4825638
20
18.3155144
40
1.4963136
50
98.4345278
51
151.556579
0
ARC
8
DEFAULT_255_2_778
10
21.4856835
20
18.2880428
40
1.523946
50
89.9793545
51
98.3990533
0
ARC
8
DEFAULT_255_2_778
10
21.4885827
20
18.3189177
40
1.4930728
50
60.1882456
51
90.0901824
0
ARC
8
DEFAULT_255_2_778
10
21.4856313
20
18.3117978
40
1.5007183
50
7.8772947
51
60.2256172
0
ARC
8
DEFAULT_255_2_778
10
21.4726675
20
18.3125015
40
1.5134652
50
359.9843743
51
7.7836437
0
ARC
8
DEFAULT_255_2_778
10
21.4930617
20
18.3097387
40
1.4930728
50
330.1882456
51
0.0901824
0
ARC
8
DEFAULT_255_2_778
10
21.4859417
20
18.3126901
40
1.5007183
50
277.8772947
51
330.2256172
0
ARC
8
DEFAULT_255_2_778
10
21.4866454
20
18.3256539
40
1.5134652
50
269.9843743
51
277.7836437
0
ARC
8
DEFAULT_255_2_778
10
21.4835973
20
18.2589572
40
1.4467708
50
270.0000012
51
270.104365
0
ARC
8
DEFAULT_255_2_778
10
21.4837369
20
18.3094867
40
1.4973002
50
224.9971221
51
269.9946594
0
ARC
8
DEFAULT_255_2_778
10
21.4840472
20
18.3097649
40
1.4977163
50
179.9976205
51
224.9962573
0
ARC
8
DEFAULT_255_2_778
10
21.5847326
20
18.3098271
40
1.5984016
50
179.9189299
51
179.9999992
0
ARC
8
DEFAULT_255_2_778
10
14.4849201
20
18.3147537
40
1.4981908
50
151.5841225
51
180.121038
0
ARC
8
DEFAULT_255_2_778
10
14.4828059
20
18.3151677
40
1.4961345
50
98.4282795
51
151.5595389
0
ARC
8
DEFAULT_255_2_778
10
14.486178
20
18.2866618
40
1.524827
50
89.9791589
51
98.3966224
0
ARC
8
DEFAULT_255_2_778
10
14.4898731
20
18.3134755
40
1.4980165
50
61.5794485
51
90.1201144
0
ARC
8
DEFAULT_255_2_778
10
14.4901584
20
18.3152576
40
1.4963136
50
8.4345278
51
61.556579
0
ARC
8
DEFAULT_255_2_778
10
14.4626867
20
18.3121379
40
1.523946
50
359.9793545
51
8.3990533
0
ARC
8
DEFAULT_255_2_778
10
14.4935236
20
18.3092609
40
1.4931108
50
330.1869817
51
0.0893259
0
ARC
8
DEFAULT_255_2_778
10
14.486281
20
18.3122246
40
1.5008686
50
277.8818784
51
330.2262782
0
ARC
8
DEFAULT_255_2_778
10
14.4871465
20
18.324512
40
1.5129233
50
269.9843285
51
277.7855994
0
ARC
8
DEFAULT_255_2_778
10
14.4844005
20
18.3046574
40
1.4930705
50
240.1428379
51
270.0894958
0
ARC
8
DEFAULT_255_2_778
10
14.487418
20
18.3119643
40
1.5009101
50
187.8739834
51
240.1817986
0
ARC
8
DEFAULT_255_2_778
10
14.5000271
20
18.3111769
40
1.5132946
50
179.984406
51
187.7790508
0
ARC
8
DEFAULT_255_2_778
10
10.9847319
20
18.3144515
40
1.4981026
50
151.5802751
51
180.1209614
0
ARC
8
DEFAULT_255_2_778
10
10.9827876
20
18.3147866
40
1.4962333
50
98.4320341
51
151.5561276
0
ARC
8
DEFAULT_255_2_778
10
10.9859822
20
18.2870576
40
1.5241313
50
89.9793083
51
98.3979756
0
ARC
8
DEFAULT_255_2_778
10
10.989168
20
18.3644203
40
1.4467708
50
90.0000012
51
90.104365
0
ARC
8
DEFAULT_255_2_778
10
10.9890284
20
18.3138908
40
1.4973002
50
44.9971221
51
89.9946594
0
ARC
8
DEFAULT_255_2_778
10
10.9887181
20
18.3136126
40
1.4977163
50
359.9976205
51
44.9962573
0
ARC
8
DEFAULT_255_2_778
10
10.8880327
20
18.3135504
40
1.5984016
50
359.9189299
51
359.9999992
0
ARC
8
DEFAULT_255_2_778
10
10.9883853
20
18.3081709
40
1.4980506
50
331.5830241
51
0.1192473
0
ARC
8
DEFAULT_255_2_778
10
10.9902326
20
18.3078013
40
1.4962501
50
278.4354362
51
331.5618085
0
ARC
8
DEFAULT_255_2_778
10
10.987085
20
18.3354842
40
1.5240956
50
269.9792366
51
278.3998208
0
ARC
8
DEFAULT_255_2_778
10
10.9833699
20
18.309488
40
1.4981026
50
241.5802751
51
270.1209614
0
ARC
8
DEFAULT_255_2_778
10
10.9830348
20
18.3075437
40
1.4962333
50
188.4320341
51
241.5561276
0
ARC
8
DEFAULT_255_2_778
10
11.0107638
20
18.3107383
40
1.5241313
50
179.9793083
51
188.3979756
0
ARC
8
DEFAULT_255_2_778
10
7.4851545
20
18.3147509
40
1.4982252
50
151.5847107
51
180.1209297
0
ARC
8
DEFAULT_255_2_778
10
7.4829795
20
18.3152216
40
1.4960882
50
98.430422
51
151.5609287
0
ARC
8
DEFAULT_255_2_778
10
7.4862791
20
18.2869858
40
1.5245031
50
89.9791958
51
98.3975127
0
ARC
8
DEFAULT_255_2_778
10
7.4899854
20
18.3132578
40
1.4982343
50
61.5815566
51
90.1205694
0
ARC
8
DEFAULT_255_2_778
10
7.4903913
20
18.3152594
40
1.4962809
50
8.4346451
51
61.5587482
0
ARC
8
DEFAULT_255_2_778
10
7.4628867
20
18.3121379
40
1.523946
50
359.9793546
51
8.3990535
0
ARC
8
DEFAULT_255_2_778
10
7.493764
20
18.3092566
40
1.4930705
50
330.1428379
51
0.0894958
0
ARC
8
DEFAULT_255_2_778
10
7.4864571
20
18.3122741
40
1.5009101
50
277.8739834
51
330.1817986
0
ARC
8
DEFAULT_255_2_778
10
7.4872445
20
18.3248832
40
1.5132946
50
269.984406
51
277.7790508
0
ARC
8
DEFAULT_255_2_778
10
7.4845138
20
18.3044458
40
1.4928589
50
240.1189425
51
270.0889991
0
ARC
8
DEFAULT_255_2_778
10
7.4876492
20
18.3119651
40
1.500941
50
187.8710349
51
240.158166
0
ARC
8
DEFAULT_255_2_778
10
7.5002088
20
18.3111755
40
1.5132763
50
179.984355
51
187.7763005
0
ARC
8
DEFAULT_255_2_778
10
17.9845963
20
26.564943
40
1.497967
50
151.5770986
51
180.1206472
0
ARC
8
DEFAULT_255_2_778
10
17.9829067
20
26.5651283
40
1.496393
50
98.4319547
51
151.5525444
0
ARC
8
DEFAULT_255_2_778
10
17.9860834
20
26.5375088
40
1.5241801
50
89.9793536
51
98.3978393
0
ARC
8
DEFAULT_255_2_778
10
17.9889827
20
26.5686177
40
1.4930728
50
60.1882456
51
90.0901824
0
ARC
8
DEFAULT_255_2_778
10
17.9860313
20
26.5614978
40
1.5007183
50
7.8772947
51
60.2256172
0
ARC
8
DEFAULT_255_2_778
10
17.9730675
20
26.5622015
40
1.5134652
50
359.9843743
51
7.7836437
0
ARC
8
DEFAULT_255_2_778
10
17.9934617
20
26.5594387
40
1.4930728
50
330.1882456
51
0.0901824
0
ARC
8
DEFAULT_255_2_778
10
17.9863417
20
26.5623901
40
1.5007183
50
277.8772947
51
330.2256172
0
ARC
8
DEFAULT_255_2_778
10
17.9870454
20
26.5753539
40
1.5134652
50
269.9843743
51
277.7836437
0
ARC
8
DEFAULT_255_2_778
10
17.9839973
20
26.5086572
40
1.4467708
50
270.0000012
51
270.104365
0
ARC
8
DEFAULT_255_2_778
10
17.9842051
20
26.5595927
40
1.4977063
50
225.0035563
51
269.9920519
0
ARC
8
DEFAULT_255_2_778
10
17.9843472
20
26.5594649
40
1.4977163
50
179.9976205
51
224.9962573
0
ARC
8
DEFAULT_255_2_778
10
18.0850326
20
26.5595271
40
1.5984016
50
179.9189299
51
179.9999992
0
ARC
8
DEFAULT_255_2_778
10
14.4849201
20
26.5652537
40
1.4981908
50
151.5841225
51
180.121038
0
ARC
8
DEFAULT_255_2_778
10
14.4828059
20
26.5656677
40
1.4961345
50
98.4282795
51
151.5595389
0
ARC
8
DEFAULT_255_2_778
10
14.486178
20
26.5371618
40
1.524827
50
89.9791589
51
98.3966224
0
ARC
8
DEFAULT_255_2_778
10
14.4898731
20
26.5639755
40
1.4980165
50
61.5794485
51
90.1201144
0
ARC
8
DEFAULT_255_2_778
10
14.4901584
20
26.5657576
40
1.4963136
50
8.4345278
51
61.556579
0
ARC
8
DEFAULT_255_2_778
10
14.4626867
20
26.5626379
40
1.523946
50
359.9793545
51
8.3990533
0
ARC
8
DEFAULT_255_2_778
10
14.4884536
20
26.5589809
40
1.4981823
50
331.5843057
51
0.1188554
0
ARC
8
DEFAULT_255_2_778
10
14.4903582
20
26.5585406
40
1.4962976
50
278.438047
51
331.5644288
0
ARC
8
DEFAULT_255_2_778
10
14.4872837
20
26.5859991
40
1.5239104
50
269.979283
51
278.4008985
0
ARC
8
DEFAULT_255_2_778
10
14.4835884
20
26.5601841
40
1.4980986
50
241.5783803
51
270.1202552
0
ARC
8
DEFAULT_255_2_778
10
14.4833324
20
26.5584371
40
1.4964406
50
188.4345656
51
241.555165
0
ARC
8
DEFAULT_255_2_778
10
14.5107274
20
26.5615408
40
1.5239948
50
179.9794
51
188.3989171
0
ARC
8
DEFAULT_255_2_778
10
10.9853636
20
26.5654415
40
1.4982343
50
151.5815566
51
180.1205694
0
ARC
8
DEFAULT_255_2_778
10
10.983362
20
26.5658473
40
1.4962809
50
98.4346451
51
151.5587482
0
ARC
8
DEFAULT_255_2_778
10
10.9864835
20
26.5383428
40
1.523946
50
89.9793546
51
98.3990535
0
ARC
8
DEFAULT_255_2_778
10
10.9887291
20
26.9965008
40
1.0657893
50
89.9696163
51
90.0911988
0
ARC
8
DEFAULT_255_2_778
10
10.9893903
20
26.5648973
40
1.4973931
50
44.9932112
51
90.0036748
0
ARC
8
DEFAULT_255_2_778
10
10.9896347
20
26.5647845
40
1.4973002
50
0.0053406
51
45.0028779
0
ARC
8
DEFAULT_255_2_778
10
11.0401642
20
26.564924
40
1.4467707
50
359.895635
51
359.9999988
0
ARC
8
DEFAULT_255_2_778
10
10.988784
20
26.5591596
40
1.4981519
50
331.5856128
51
0.11967
0
ARC
8
DEFAULT_255_2_778
10
10.9908249
20
26.5586976
40
1.4961372
50
278.4333789
51
331.563985
0
ARC
8
DEFAULT_255_2_778
10
10.9875871
20
26.5867634
40
1.5243748
50
269.9791601
51
278.3990496
0
ARC
8
DEFAULT_255_2_778
10
10.9838922
20
26.5604019
40
1.4980165
50
241.5794485
51
270.1201144
0
ARC
8
DEFAULT_255_2_778
10
10.983607
20
26.5586199
40
1.4963136
50
188.4345278
51
241.556579
0
ARC
8
DEFAULT_255_2_778
10
11.0110786
20
26.5617396
40
1.523946
50
179.9793545
51
188.3990533
0
ARC
8
DEFAULT_255_2_778
10
7.4853319
20
26.5657515
40
1.4981026
50
151.5802751
51
180.1209614
0
ARC
8
DEFAULT_255_2_778
10
7.4833876
20
26.5660866
40
1.4962333
50
98.4320341
51
151.5561276
0
ARC
8
DEFAULT_255_2_778
10
7.4865822
20
26.5383576
40
1.5241313
50
89.9793083
51
98.3979756
0
ARC
8
DEFAULT_255_2_778
10
7.4894827
20
26.5694177
40
1.4930728
50
60.1882456
51
90.0901824
0
ARC
8
DEFAULT_255_2_778
10
7.4865313
20
26.5622978
40
1.5007183
50
7.8772947
51
60.2256172
0
ARC
8
DEFAULT_255_2_778
10
7.4735675
20
26.5630015
40
1.5134652
50
359.9843743
51
7.7836437
0
ARC
8
DEFAULT_255_2_778
10
7.4939617
20
26.5602387
40
1.4930728
50
330.1882456
51
0.0901824
0
ARC
8
DEFAULT_255_2_778
10
7.4868417
20
26.5631901
40
1.5007183
50
277.8772947
51
330.2256172
0
ARC
8
DEFAULT_255_2_778
10
7.4875454
20
26.5761539
40
1.5134652
50
269.9843743
51
277.7836437
0
ARC
8
DEFAULT_255_2_778
10
7.4844973
20
26.5094572
40
1.4467708
50
270.0000012
51
270.104365
0
ARC
8
DEFAULT_255_2_778
10
7.4846369
20
26.5599867
40
1.4973002
50
224.9971221
51
269.9946594
0
ARC
8
DEFAULT_255_2_778
10
7.4845306
20
26.560093
40
1.4973002
50
180.0053406
51
225.0028779
0
ARC
8
DEFAULT_255_2_778
10
7.4340011
20
26.5599534
40
1.4467707
50
179.895635
51
179.9999988
0
LINE
8
DEFAULT_255_2_778
10
105.6414327
20
12.5610887
11
105.6414327
21
11.8609887
0
LINE
8
DEFAULT_255_2_778
10
34.2365327
20
31.9611887
11
34.9413327
21
31.9611887
0
LINE
8
DEFAULT_255_2_778
10
34.9413327
20
31.9611887
11
34.9413327
21
15.9612887
0
LINE
8
DEFAULT_255_2_778
10
34.9413327
20
15.9612887
11
19.7415327
21
15.9612887
0
LINE
8
DEFAULT_255_2_778
10
19.7415327
20
15.9612887
11
4.5415327
21
15.9612887
0
LINE
8
DEFAULT_255_2_778
10
4.5415327
20
15.9612887
11
4.5415327
21
31.9611887
0
LINE
8
DEFAULT_255_2_778
10
4.5415327
20
31.9611887
11
5.4866327
21
31.9611887
0
LINE
8
DEFAULT_255_2_778
10
33.6367327
20
30.4611887
11
33.6367327
21
27.9812887
0
LINE
8
DEFAULT_255_2_778
10
33.6367327
20
27.9812887
11
34.2367327
21
27.9812887
0
LINE
8
DEFAULT_255_2_778
10
33.6367327
20
28.5612887
11
34.2367327
21
28.5612887
0
LINE
8
DEFAULT_255_2_778
10
33.5367327
20
29.9412887
11
30.6866327
21
29.9412887
0
LINE
8
DEFAULT_255_2_778
10
33.5367327
20
29.6613887
11
30.6866327
21
29.6613887
0
LINE
8
DEFAULT_255_2_778
10
33.5367327
20
28.6614887
11
33.5367327
21
30.3614887
0
LINE
8
DEFAULT_255_2_778
10
33.5367327
20
30.3614887
11
30.6866327
21
30.3614887
0
LINE
8
DEFAULT_255_2_778
10
30.6866327
20
30.3614887
11
30.6866327
21
28.6614887
0
LINE
8
DEFAULT_255_2_778
10
30.6866327
20
28.6614887
11
33.5367327
21
28.6614887
0
LINE
8
DEFAULT_255_2_778
10
33.5367327
20
29.3615887
11
30.6866327
21
29.3615887
0
LINE
8
DEFAULT_255_2_778
10
33.5367327
20
29.0816887
11
30.6866327
21
29.0816887
0
LINE
8
DEFAULT_255_2_778
10
31.0866327
20
30.3616887
11
31.0866327
21
31.7116887
0
LINE
8
DEFAULT_255_2_778
10
31.0866327
20
31.7116887
11
33.1366327
21
31.7116887
0
LINE
8
DEFAULT_255_2_778
10
33.1366327
20
31.7116887
11
33.1366327
21
30.3616887
0
LINE
8
DEFAULT_255_2_778
10
27.5867327
20
30.3616887
11
27.5867327
21
31.7116887
0
LINE
8
DEFAULT_255_2_778
10
27.5867327
20
31.7116887
11
29.6367327
21
31.7116887
0
LINE
8
DEFAULT_255_2_778
10
29.6367327
20
31.7116887
11
29.6367327
21
30.3616887
0
LINE
8
DEFAULT_255_2_778
10
30.0367327
20
29.6616887
11
27.1867327
21
29.6616887
0
LINE
8
DEFAULT_255_2_778
10
30.0367327
20
29.3615887
11
27.1867327
21
29.3615887
0
LINE
8
DEFAULT_255_2_778
10
30.0367327
20
29.0816887
11
27.1867327
21
29.0816887
0
LINE
8
DEFAULT_255_2_778
10
30.0367327
20
28.6617887
11
30.0367327
21
30.3616887
0
LINE
8
DEFAULT_255_2_778
10
30.0367327
20
30.3616887
11
27.1867327
21
30.3616887
0
LINE
8
DEFAULT_255_2_778
10
27.1867327
20
30.3616887
11
27.1867327
21
28.6617887
0
LINE
8
DEFAULT_255_2_778
10
27.1867327
20
28.6617887
11
30.0367327
21
28.6617887
0
LINE
8
DEFAULT_255_2_778
10
30.0367327
20
29.9418887
11
27.1867327
21
29.9418887
0
LINE
8
DEFAULT_255_2_778
10
31.0866327
20
30.4617887
11
29.6367327
21
30.4617887
0
LINE
8
DEFAULT_255_2_778
10
30.1368327
20
30.4617887
11
30.1368327
21
27.9817887
0
LINE
8
DEFAULT_255_2_778
10
30.1368327
20
27.9817887
11
30.5868327
21
27.9817887
0
LINE
8
DEFAULT_255_2_778
10
30.5868327
20
27.9817887
11
30.5868327
21
30.4617887
0
LINE
8
DEFAULT_255_2_778
10
30.1368327
20
28.5617887
11
30.5868327
21
28.5617887
0
LINE
8
DEFAULT_255_2_778
10
27.5867327
20
30.4617887
11
26.1368327
21
30.4617887
0
LINE
8
DEFAULT_255_2_778
10
26.6369327
20
30.4617887
11
26.6369327
21
27.9817887
0
LINE
8
DEFAULT_255_2_778
10
26.6369327
20
27.9817887
11
27.0869327
21
27.9817887
0
LINE
8
DEFAULT_255_2_778
10
27.0869327
20
27.9817887
11
27.0869327
21
30.4617887
0
LINE
8
DEFAULT_255_2_778
10
26.6369327
20
28.5617887
11
27.0869327
21
28.5617887
0
LINE
8
DEFAULT_255_2_778
10
33.6369327
20
22.2117887
11
33.6369327
21
19.7317887
0
LINE
8
DEFAULT_255_2_778
10
33.6369327
20
19.7317887
11
34.2370327
21
19.7317887
0
LINE
8
DEFAULT_255_2_778
10
33.6369327
20
20.3117887
11
34.2370327
21
20.3117887
0
LINE
8
DEFAULT_255_2_778
10
33.5369327
20
20.4117887
11
33.5369327
21
22.1117887
0
LINE
8
DEFAULT_255_2_778
10
33.5369327
20
22.1117887
11
30.6868327
21
22.1117887
0
LINE
8
DEFAULT_255_2_778
10
30.6868327
20
22.1117887
11
30.6868327
21
20.4117887
0
LINE
8
DEFAULT_255_2_778
10
30.6868327
20
20.4117887
11
33.5369327
21
20.4117887
0
LINE
8
DEFAULT_255_2_778
10
33.5369327
20
21.1118887
11
30.6868327
21
21.1118887
0
LINE
8
DEFAULT_255_2_778
10
33.5369327
20
20.8319887
11
30.6868327
21
20.8319887
0
LINE
8
DEFAULT_255_2_778
10
33.5369327
20
21.6918887
11
30.6868327
21
21.6918887
0
LINE
8
DEFAULT_255_2_778
10
33.5369327
20
21.4119887
11
30.6868327
21
21.4119887
0
LINE
8
DEFAULT_255_2_778
10
33.1369327
20
22.1119887
11
33.1369327
21
23.4618887
0
LINE
8
DEFAULT_255_2_778
10
33.1369327
20
23.4618887
11
31.0869327
21
23.4618887
0
LINE
8
DEFAULT_255_2_778
10
31.0869327
20
23.4618887
11
31.0869327
21
22.1119887
0
LINE
8
DEFAULT_255_2_778
10
29.6370327
20
22.2120887
11
30.5871327
21
22.2120887
0
LINE
8
DEFAULT_255_2_778
10
34.2370327
20
22.2120887
11
33.1371327
21
22.2120887
0
LINE
8
DEFAULT_255_2_778
10
29.6372327
20
22.1119887
11
29.6372327
21
23.4618887
0
LINE
8
DEFAULT_255_2_778
10
29.6372327
20
23.4618887
11
27.5872327
21
23.4618887
0
LINE
8
DEFAULT_255_2_778
10
27.5872327
20
23.4618887
11
27.5872327
21
22.1119887
0
LINE
8
DEFAULT_255_2_778
10
30.0373327
20
21.1118887
11
27.1872327
21
21.1118887
0
LINE
8
DEFAULT_255_2_778
10
30.0373327
20
21.4119887
11
27.1872327
21
21.4119887
0
LINE
8
DEFAULT_255_2_778
10
30.0373327
20
20.8319887
11
27.1872327
21
20.8319887
0
LINE
8
DEFAULT_255_2_778
10
30.0373327
20
20.4120887
11
30.0373327
21
22.1119887
0
LINE
8
DEFAULT_255_2_778
10
30.0373327
20
22.1119887
11
27.1872327
21
22.1119887
0
LINE
8
DEFAULT_255_2_778
10
27.1872327
20
22.1119887
11
27.1872327
21
20.4120887
0
LINE
8
DEFAULT_255_2_778
10
27.1872327
20
20.4120887
11
30.0373327
21
20.4120887
0
LINE
8
DEFAULT_255_2_778
10
30.0373327
20
21.6920887
11
27.1872327
21
21.6920887
0
LINE
8
DEFAULT_255_2_778
10
30.1373327
20
20.3120887
11
30.5873327
21
20.3120887
0
LINE
8
DEFAULT_255_2_778
10
26.6374327
20
22.2120887
11
26.6374327
21
19.7320887
0
LINE
8
DEFAULT_255_2_778
10
26.6374327
20
19.7320887
11
27.0874327
21
19.7320887
0
LINE
8
DEFAULT_255_2_778
10
27.0874327
20
19.7320887
11
27.0874327
21
22.2120887
0
LINE
8
DEFAULT_255_2_778
10
26.1373327
20
22.2120887
11
27.5872327
21
22.2120887
0
LINE
8
DEFAULT_255_2_778
10
26.6371327
20
20.3120887
11
27.0872327
21
20.3120887
0
LINE
8
DEFAULT_255_2_778
10
33.2559327
20
19.1121887
11
30.7183327
21
19.1121887
0
LINE
8
DEFAULT_255_2_778
10
30.7183327
20
17.5122887
11
33.2559327
21
17.5122887
0
LINE
8
DEFAULT_255_2_778
10
30.5871327
20
20.3622887
11
33.6372327
21
20.3622887
0
LINE
8
DEFAULT_255_2_778
10
30.4873327
20
18.3123887
11
30.4873327
21
18.3123887
0
LINE
8
DEFAULT_255_2_778
10
29.7563327
20
19.1124887
11
27.2187327
21
19.1124887
0
LINE
8
DEFAULT_255_2_778
10
27.2187327
20
17.5124887
11
29.7563327
21
17.5124887
0
LINE
8
DEFAULT_255_2_778
10
27.0874327
20
20.3625887
11
30.1376327
21
20.3625887
0
LINE
8
DEFAULT_255_2_778
10
26.9874327
20
18.3125887
11
26.9874327
21
18.3125887
0
LINE
8
DEFAULT_255_2_778
10
26.2564327
20
27.3626887
11
23.7188327
21
27.3626887
0
LINE
8
DEFAULT_255_2_778
10
23.7188327
20
25.7627887
11
26.2564327
21
25.7627887
0
LINE
8
DEFAULT_255_2_778
10
23.5875327
20
28.6128887
11
26.6376327
21
28.6128887
0
LINE
8
DEFAULT_255_2_778
10
23.4875327
20
26.5628887
11
23.4875327
21
26.5628887
0
LINE
8
DEFAULT_255_2_778
10
22.7565327
20
27.3629887
11
20.2189327
21
27.3629887
0
LINE
8
DEFAULT_255_2_778
10
20.2189327
20
25.7629887
11
22.7565327
21
25.7629887
0
LINE
8
DEFAULT_255_2_778
10
20.0876327
20
28.6130887
11
23.1364327
21
28.6130887
0
LINE
8
DEFAULT_255_2_778
10
19.9866327
20
26.5630887
11
19.9866327
21
26.5630887
0
LINE
8
DEFAULT_255_2_778
10
29.7555327
20
27.3631887
11
27.2179327
21
27.3631887
0
LINE
8
DEFAULT_255_2_778
10
27.2179327
20
25.7632887
11
29.7555327
21
25.7632887
0
LINE
8
DEFAULT_255_2_778
10
27.0866327
20
28.6133887
11
30.1368327
21
28.6133887
0
LINE
8
DEFAULT_255_2_778
10
26.9869327
20
26.5633887
11
26.9869327
21
26.5633887
0
LINE
8
DEFAULT_255_2_778
10
33.2557327
20
27.3634887
11
30.7181327
21
27.3634887
0
LINE
8
DEFAULT_255_2_778
10
30.7181327
20
25.7635887
11
33.2557327
21
25.7635887
0
LINE
8
DEFAULT_255_2_778
10
30.5868327
20
28.6135887
11
33.6369327
21
28.6135887
0
LINE
8
DEFAULT_255_2_778
10
30.4868327
20
26.5636887
11
30.4868327
21
26.5636887
0
LINE
8
DEFAULT_255_2_778
10
20.5869327
20
30.3635887
11
20.5869327
21
31.7134887
0
LINE
8
DEFAULT_255_2_778
10
20.5869327
20
31.7134887
11
22.6369327
21
31.7134887
0
LINE
8
DEFAULT_255_2_778
10
22.6369327
20
31.7134887
11
22.6369327
21
30.3635887
0
LINE
8
DEFAULT_255_2_778
10
23.0369327
20
28.6636887
11
20.1866327
21
28.6636887
0
LINE
8
DEFAULT_255_2_778
10
20.1866327
20
28.6636887
11
20.1866327
21
30.3635887
0
LINE
8
DEFAULT_255_2_778
10
20.1866327
20
30.3635887
11
23.0367327
21
30.3635887
0
LINE
8
DEFAULT_255_2_778
10
23.0367327
20
30.3635887
11
23.0369327
21
28.6636887
0
LINE
8
DEFAULT_255_2_778
10
23.0369327
20
29.9436887
11
20.1866327
21
29.9436887
0
LINE
8
DEFAULT_255_2_778
10
23.0367327
20
29.6637887
11
20.1866327
21
29.6637887
0
LINE
8
DEFAULT_255_2_778
10
23.0367327
20
29.3636887
11
20.1866327
21
29.3636887
0
LINE
8
DEFAULT_255_2_778
10
23.0367327
20
29.0837887
11
20.1866327
21
29.0837887
0
LINE
8
DEFAULT_255_2_778
10
34.2365327
20
24.5638887
11
34.2365327
21
32.3137887
0
LINE
8
DEFAULT_255_2_778
10
34.2365327
20
32.3137887
11
5.4866327
21
32.3137887
0
LINE
8
DEFAULT_255_2_778
10
5.4866327
20
32.3137887
11
5.4866327
21
24.5638887
0
LINE
8
DEFAULT_255_2_778
10
5.4866327
20
24.5638887
11
34.2365327
21
24.5638887
0
LINE
8
DEFAULT_255_2_778
10
5.4866327
20
27.9812887
11
6.0867327
21
27.9812887
0
LINE
8
DEFAULT_255_2_778
10
6.0867327
20
27.9812887
11
6.0867327
21
30.4611887
0
LINE
8
DEFAULT_255_2_778
10
20.5866327
20
30.4611887
11
19.1367327
21
30.4611887
0
LINE
8
DEFAULT_255_2_778
10
19.6368327
20
28.5612887
11
20.0868327
21
28.5612887
0
LINE
8
DEFAULT_255_2_778
10
19.6368327
20
30.4611887
11
19.6368327
21
27.9812887
0
LINE
8
DEFAULT_255_2_778
10
19.6368327
20
27.9812887
11
20.0868327
21
27.9812887
0
LINE
8
DEFAULT_255_2_778
10
20.0868327
20
27.9812887
11
20.0868327
21
30.4611887
0
LINE
8
DEFAULT_255_2_778
10
24.0868327
20
30.4611887
11
22.6369327
21
30.4611887
0
LINE
8
DEFAULT_255_2_778
10
23.1369327
20
28.5612887
11
23.5870327
21
28.5612887
0
LINE
8
DEFAULT_255_2_778
10
23.1369327
20
30.4611887
11
23.1369327
21
27.9812887
0
LINE
8
DEFAULT_255_2_778
10
23.1369327
20
27.9812887
11
23.5870327
21
27.9812887
0
LINE
8
DEFAULT_255_2_778
10
23.5870327
20
27.9812887
11
23.5870327
21
30.4611887
0
LINE
8
DEFAULT_255_2_778
10
17.0870327
20
30.4611887
11
15.6371327
21
30.4611887
0
LINE
8
DEFAULT_255_2_778
10
16.5872327
20
30.4611887
11
16.5872327
21
27.9812887
0
LINE
8
DEFAULT_255_2_778
10
16.5872327
20
27.9812887
11
16.1371327
21
27.9812887
0
LINE
8
DEFAULT_255_2_778
10
16.1371327
20
27.9812887
11
16.1371327
21
30.4611887
0
LINE
8
DEFAULT_255_2_778
10
16.1371327
20
28.5612887
11
16.5872327
21
28.5612887
0
LINE
8
DEFAULT_255_2_778
10
19.5373327
20
29.3613887
11
16.6864327
21
29.3613887
0
LINE
8
DEFAULT_255_2_778
10
19.5365327
20
29.0813887
11
16.6864327
21
29.0813887
0
LINE
8
DEFAULT_255_2_778
10
19.5365327
20
28.6614887
11
19.5365327
21
30.3614887
0
LINE
8
DEFAULT_255_2_778
10
19.5365327
20
30.3614887
11
16.6864327
21
30.3614887
0
LINE
8
DEFAULT_255_2_778
10
16.6864327
20
30.3614887
11
16.6864327
21
28.6614887
0
LINE
8
DEFAULT_255_2_778
10
16.6864327
20
28.6614887
11
19.5365327
21
28.6614887
0
LINE
8
DEFAULT_255_2_778
10
19.5365327
20
29.9415887
11
16.6864327
21
29.9415887
0
LINE
8
DEFAULT_255_2_778
10
19.5365327
20
29.6616887
11
16.6864327
21
29.6616887
0
LINE
8
DEFAULT_255_2_778
10
17.0865327
20
30.3616887
11
17.0865327
21
31.7116887
0
LINE
8
DEFAULT_255_2_778
10
17.0865327
20
31.7116887
11
19.1364327
21
31.7116887
0
LINE
8
DEFAULT_255_2_778
10
19.1364327
20
31.7116887
11
19.1364327
21
30.3616887
0
LINE
8
DEFAULT_255_2_778
10
10.0864327
20
30.3616887
11
10.0864327
21
31.7116887
0
LINE
8
DEFAULT_255_2_778
10
10.0864327
20
31.7116887
11
12.1364327
21
31.7116887
0
LINE
8
DEFAULT_255_2_778
10
12.1364327
20
31.7116887
11
12.1364327
21
30.3616887
0
LINE
8
DEFAULT_255_2_778
10
12.5364327
20
29.6616887
11
9.6866327
21
29.6616887
0
LINE
8
DEFAULT_255_2_778
10
12.5367327
20
29.0816887
11
9.6866327
21
29.0816887
0
LINE
8
DEFAULT_255_2_778
10
12.5367327
20
29.3615887
11
9.6866327
21
29.3615887
0
LINE
8
DEFAULT_255_2_778
10
12.5367327
20
28.6614887
11
12.5367327
21
30.3614887
0
LINE
8
DEFAULT_255_2_778
10
12.5367327
20
30.3614887
11
9.6866327
21
30.3614887
0
LINE
8
DEFAULT_255_2_778
10
9.6866327
20
30.3614887
11
9.6866327
21
28.6614887
0
LINE
8
DEFAULT_255_2_778
10
9.6866327
20
28.6614887
11
12.5367327
21
28.6614887
0
LINE
8
DEFAULT_255_2_778
10
12.5367327
20
29.9415887
11
9.6866327
21
29.9415887
0
LINE
8
DEFAULT_255_2_778
10
5.4866327
20
28.5614887
11
6.0867327
21
28.5614887
0
LINE
8
DEFAULT_255_2_778
10
10.0866327
20
30.4614887
11
8.6367327
21
30.4614887
0
LINE
8
DEFAULT_255_2_778
10
9.1368327
20
30.4614887
11
9.1368327
21
27.9815887
0
LINE
8
DEFAULT_255_2_778
10
9.1368327
20
27.9815887
11
9.5868327
21
27.9815887
0
LINE
8
DEFAULT_255_2_778
10
9.5868327
20
27.9815887
11
9.5868327
21
30.4614887
0
LINE
8
DEFAULT_255_2_778
10
9.1368327
20
28.5614887
11
9.5868327
21
28.5614887
0
LINE
8
DEFAULT_255_2_778
10
13.5868327
20
30.4614887
11
12.1369327
21
30.4614887
0
LINE
8
DEFAULT_255_2_778
10
12.6370327
20
28.5614887
11
13.0870327
21
28.5614887
0
LINE
8
DEFAULT_255_2_778
10
12.6370327
20
30.4614887
11
12.6370327
21
27.9815887
0
LINE
8
DEFAULT_255_2_778
10
12.6370327
20
27.9815887
11
13.0870327
21
27.9815887
0
LINE
8
DEFAULT_255_2_778
10
13.0870327
20
27.9815887
11
13.0870327
21
30.4614887
0
LINE
8
DEFAULT_255_2_778
10
8.6370327
20
30.3614887
11
8.6370327
21
31.7113887
0
LINE
8
DEFAULT_255_2_778
10
8.6370327
20
31.7113887
11
6.5870327
21
31.7113887
0
LINE
8
DEFAULT_255_2_778
10
6.5870327
20
31.7113887
11
6.5870327
21
30.3614887
0
LINE
8
DEFAULT_255_2_778
10
9.0370327
20
29.3613887
11
6.1864327
21
29.3613887
0
LINE
8
DEFAULT_255_2_778
10
9.0365327
20
29.9412887
11
6.1864327
21
29.9412887
0
LINE
8
DEFAULT_255_2_778
10
9.0365327
20
29.6613887
11
6.1864327
21
29.6613887
0
LINE
8
DEFAULT_255_2_778
10
9.0365327
20
29.0813887
11
6.1864327
21
29.0813887
0
LINE
8
DEFAULT_255_2_778
10
9.0365327
20
28.6614887
11
9.0365327
21
30.3614887
0
LINE
8
DEFAULT_255_2_778
10
9.0365327
20
30.3614887
11
6.1864327
21
30.3614887
0
LINE
8
DEFAULT_255_2_778
10
6.1864327
20
30.3614887
11
6.1864327
21
28.6614887
0
LINE
8
DEFAULT_255_2_778
10
6.1864327
20
28.6614887
11
9.0365327
21
28.6614887
0
LINE
8
DEFAULT_255_2_778
10
15.6365327
20
30.3614887
11
15.6365327
21
31.7113887
0
LINE
8
DEFAULT_255_2_778
10
15.6365327
20
31.7113887
11
13.5865327
21
31.7113887
0
LINE
8
DEFAULT_255_2_778
10
13.5865327
20
31.7113887
11
13.5865327
21
30.3614887
0
LINE
8
DEFAULT_255_2_778
10
16.0366327
20
29.9415887
11
13.1865327
21
29.9415887
0
LINE
8
DEFAULT_255_2_778
10
16.0366327
20
29.6616887
11
13.1865327
21
29.6616887
0
LINE
8
DEFAULT_255_2_778
10
16.0366327
20
29.3615887
11
13.1865327
21
29.3615887
0
LINE
8
DEFAULT_255_2_778
10
16.0366327
20
29.0816887
11
13.1865327
21
29.0816887
0
LINE
8
DEFAULT_255_2_778
10
16.0366327
20
28.6617887
11
16.0366327
21
30.3616887
0
LINE
8
DEFAULT_255_2_778
10
16.0366327
20
30.3616887
11
13.1865327
21
30.3616887
0
LINE
8
DEFAULT_255_2_778
10
13.1865327
20
30.3616887
11
13.1865327
21
28.6617887
0
LINE
8
DEFAULT_255_2_778
10
13.1865327
20
28.6617887
11
16.0366327
21
28.6617887
0
LINE
8
DEFAULT_255_2_778
10
22.6366327
20
22.1117887
11
22.6366327
21
23.4616887
0
LINE
8
DEFAULT_255_2_778
10
22.6366327
20
23.4616887
11
20.5866327
21
23.4616887
0
LINE
8
DEFAULT_255_2_778
10
20.5866327
20
23.4616887
11
20.5866327
21
22.1117887
0
LINE
8
DEFAULT_255_2_778
10
23.0367327
20
20.4117887
11
20.1866327
21
20.4117887
0
LINE
8
DEFAULT_255_2_778
10
20.1866327
20
20.4117887
11
20.1866327
21
22.1117887
0
LINE
8
DEFAULT_255_2_778
10
20.1866327
20
22.1117887
11
23.0367327
21
22.1117887
0
LINE
8
DEFAULT_255_2_778
10
23.0367327
20
22.1117887
11
23.0367327
21
20.4117887
0
LINE
8
DEFAULT_255_2_778
10
23.0367327
20
21.6918887
11
20.1866327
21
21.6918887
0
LINE
8
DEFAULT_255_2_778
10
23.0367327
20
21.4119887
11
20.1866327
21
21.4119887
0
LINE
8
DEFAULT_255_2_778
10
23.0367327
20
21.1118887
11
20.1866327
21
21.1118887
0
LINE
8
DEFAULT_255_2_778
10
23.0367327
20
20.8319887
11
20.1866327
21
20.8319887
0
LINE
8
DEFAULT_255_2_778
10
24.0865327
20
22.2120887
11
22.6366327
21
22.2120887
0
LINE
8
DEFAULT_255_2_778
10
23.5867327
20
22.2120887
11
23.5867327
21
19.7320887
0
LINE
8
DEFAULT_255_2_778
10
23.5867327
20
19.7320887
11
23.1364327
21
19.7320887
0
LINE
8
DEFAULT_255_2_778
10
23.1364327
20
19.7320887
11
23.1364327
21
22.2120887
0
LINE
8
DEFAULT_255_2_778
10
23.1364327
20
20.3120887
11
23.5865327
21
20.3120887
0
LINE
8
DEFAULT_255_2_778
10
17.0865327
20
22.2120887
11
15.6365327
21
22.2120887
0
LINE
8
DEFAULT_255_2_778
10
16.5867327
20
22.2120887
11
16.5867327
21
19.7320887
0
LINE
8
DEFAULT_255_2_778
10
16.5867327
20
19.7320887
11
16.1366327
21
19.7320887
0
LINE
8
DEFAULT_255_2_778
10
16.1366327
20
19.7320887
11
16.1366327
21
22.2120887
0
LINE
8
DEFAULT_255_2_778
10
16.1366327
20
20.3120887
11
16.5867327
21
20.3120887
0
LINE
8
DEFAULT_255_2_778
10
34.2367327
20
16.3120887
11
34.2367327
21
24.0619887
0
LINE
8
DEFAULT_255_2_778
10
34.2367327
20
24.0619887
11
5.4866327
21
24.0619887
0
LINE
8
DEFAULT_255_2_778
10
5.4866327
20
24.0619887
11
5.4866327
21
16.3120887
0
LINE
8
DEFAULT_255_2_778
10
5.4866327
20
16.3120887
11
34.2367327
21
16.3120887
0
LINE
8
DEFAULT_255_2_778
10
5.4866327
20
19.7312887
11
6.0867327
21
19.7312887
0
LINE
8
DEFAULT_255_2_778
10
6.0867327
20
19.7312887
11
6.0867327
21
22.2112887
0
LINE
8
DEFAULT_255_2_778
10
20.5866327
20
22.2112887
11
19.1367327
21
22.2112887
0
LINE
8
DEFAULT_255_2_778
10
20.0868327
20
22.2112887
11
20.0868327
21
19.7312887
0
LINE
8
DEFAULT_255_2_778
10
20.0868327
20
19.7312887
11
19.6368327
21
19.7312887
0
LINE
8
DEFAULT_255_2_778
10
19.6368327
20
19.7312887
11
19.6368327
21
22.2112887
0
LINE
8
DEFAULT_255_2_778
10
19.6368327
20
20.3112887
11
20.0868327
21
20.3112887
0
LINE
8
DEFAULT_255_2_778
10
19.5368327
20
20.4112887
11
19.5368327
21
22.1111887
0
LINE
8
DEFAULT_255_2_778
10
19.5368327
20
22.1111887
11
16.6864327
21
22.1111887
0
LINE
8
DEFAULT_255_2_778
10
16.6864327
20
22.1111887
11
16.6864327
21
20.4112887
0
LINE
8
DEFAULT_255_2_778
10
16.6864327
20
20.4112887
11
19.5368327
21
20.4112887
0
LINE
8
DEFAULT_255_2_778
10
19.5368327
20
21.6913887
11
16.6864327
21
21.6913887
0
LINE
8
DEFAULT_255_2_778
10
19.5365327
20
21.4113887
11
16.6864327
21
21.4113887
0
LINE
8
DEFAULT_255_2_778
10
19.5365327
20
21.1113887
11
16.6864327
21
21.1113887
0
LINE
8
DEFAULT_255_2_778
10
19.5365327
20
20.8314887
11
16.6864327
21
20.8314887
0
LINE
8
DEFAULT_255_2_778
10
19.1364327
20
22.1114887
11
19.1364327
21
23.4613887
0
LINE
8
DEFAULT_255_2_778
10
19.1364327
20
23.4613887
11
17.0865327
21
23.4613887
0
LINE
8
DEFAULT_255_2_778
10
17.0865327
20
23.4613887
11
17.0865327
21
22.1114887
0
LINE
8
DEFAULT_255_2_778
10
19.2552327
20
19.1113887
11
16.7176327
21
19.1113887
0
LINE
8
DEFAULT_255_2_778
10
16.7176327
20
17.5114887
11
19.2552327
21
17.5114887
0
LINE
8
DEFAULT_255_2_778
10
16.5864327
20
20.3615887
11
19.6365327
21
20.3615887
0
LINE
8
DEFAULT_255_2_778
10
16.4866327
20
18.3115887
11
16.4866327
21
18.3115887
0
LINE
8
DEFAULT_255_2_778
10
26.2556327
20
19.1116887
11
23.7180327
21
19.1116887
0
LINE
8
DEFAULT_255_2_778
10
23.7180327
20
17.5116887
11
26.2556327
21
17.5116887
0
LINE
8
DEFAULT_255_2_778
10
23.5867327
20
20.3617887
11
26.6369327
21
20.3617887
0
LINE
8
DEFAULT_255_2_778
10
23.4870327
20
18.3117887
11
23.4870327
21
18.3117887
0
LINE
8
DEFAULT_255_2_778
10
22.7559327
20
19.1118887
11
20.2183327
21
19.1118887
0
LINE
8
DEFAULT_255_2_778
10
20.2183327
20
17.5119887
11
22.7559327
21
17.5119887
0
LINE
8
DEFAULT_255_2_778
10
20.0871327
20
20.3620887
11
23.1364327
21
20.3620887
0
LINE
8
DEFAULT_255_2_778
10
19.9863327
20
18.3120887
11
19.9863327
21
18.3120887
0
LINE
8
DEFAULT_255_2_778
10
5.9914327
20
24.5612887
11
5.9914327
21
24.0611887
0
LINE
8
DEFAULT_255_2_778
10
8.9915327
20
24.0611887
11
8.9915327
21
24.5612887
0
LINE
8
DEFAULT_255_2_778
10
9.4916327
20
24.5612887
11
9.4916327
21
24.0611887
0
LINE
8
DEFAULT_255_2_778
10
12.1366327
20
22.1111887
11
12.1366327
21
23.4610887
0
LINE
8
DEFAULT_255_2_778
10
12.1366327
20
23.4610887
11
10.0866327
21
23.4610887
0
LINE
8
DEFAULT_255_2_778
10
10.0866327
20
23.4610887
11
10.0866327
21
22.1111887
0
LINE
8
DEFAULT_255_2_778
10
12.5367327
20
21.4111887
11
9.6866327
21
21.4111887
0
LINE
8
DEFAULT_255_2_778
10
12.5367327
20
21.1110887
11
9.6866327
21
21.1110887
0
LINE
8
DEFAULT_255_2_778
10
12.5367327
20
20.8311887
11
9.6866327
21
20.8311887
0
LINE
8
DEFAULT_255_2_778
10
12.5367327
20
20.4112887
11
12.5367327
21
22.1111887
0
LINE
8
DEFAULT_255_2_778
10
12.5367327
20
22.1111887
11
9.6866327
21
22.1111887
0
LINE
8
DEFAULT_255_2_778
10
9.6866327
20
22.1111887
11
9.6866327
21
20.4112887
0
LINE
8
DEFAULT_255_2_778
10
9.6866327
20
20.4112887
11
12.5367327
21
20.4112887
0
LINE
8
DEFAULT_255_2_778
10
12.5367327
20
21.6913887
11
9.6866327
21
21.6913887
0
LINE
8
DEFAULT_255_2_778
10
5.4866327
20
20.3112887
11
6.0867327
21
20.3112887
0
LINE
8
DEFAULT_255_2_778
10
10.0866327
20
22.2112887
11
8.6367327
21
22.2112887
0
LINE
8
DEFAULT_255_2_778
10
9.1368327
20
22.2112887
11
9.1368327
21
19.7312887
0
LINE
8
DEFAULT_255_2_778
10
9.1368327
20
19.7312887
11
9.5868327
21
19.7312887
0
LINE
8
DEFAULT_255_2_778
10
9.5868327
20
19.7312887
11
9.5868327
21
22.2112887
0
LINE
8
DEFAULT_255_2_778
10
9.1368327
20
20.3112887
11
9.5868327
21
20.3112887
0
LINE
8
DEFAULT_255_2_778
10
13.5868327
20
22.2112887
11
12.1369327
21
22.2112887
0
LINE
8
DEFAULT_255_2_778
10
13.0870327
20
22.2112887
11
13.0870327
21
19.7312887
0
LINE
8
DEFAULT_255_2_778
10
13.0870327
20
19.7312887
11
12.6370327
21
19.7312887
0
LINE
8
DEFAULT_255_2_778
10
12.6370327
20
19.7312887
11
12.6370327
21
22.2112887
0
LINE
8
DEFAULT_255_2_778
10
12.6370327
20
20.3112887
11
13.0870327
21
20.3112887
0
LINE
8
DEFAULT_255_2_778
10
8.6370327
20
22.1111887
11
8.6370327
21
23.4610887
0
LINE
8
DEFAULT_255_2_778
10
8.6370327
20
23.4610887
11
6.5870327
21
23.4610887
0
LINE
8
DEFAULT_255_2_778
10
6.5870327
20
23.4610887
11
6.5870327
21
22.1111887
0
LINE
8
DEFAULT_255_2_778
10
9.0370327
20
21.1110887
11
6.1864327
21
21.1110887
0
LINE
8
DEFAULT_255_2_778
10
9.0365327
20
20.8311887
11
6.1864327
21
20.8311887
0
LINE
8
DEFAULT_255_2_778
10
9.0365327
20
20.4112887
11
9.0365327
21
22.1111887
0
LINE
8
DEFAULT_255_2_778
10
9.0365327
20
22.1111887
11
6.1864327
21
22.1111887
0
LINE
8
DEFAULT_255_2_778
10
6.1864327
20
22.1111887
11
6.1864327
21
20.4112887
0
LINE
8
DEFAULT_255_2_778
10
6.1864327
20
20.4112887
11
9.0365327
21
20.4112887
0
LINE
8
DEFAULT_255_2_778
10
9.0365327
20
21.6913887
11
6.1864327
21
21.6913887
0
LINE
8
DEFAULT_255_2_778
10
9.0365327
20
21.4113887
11
6.1864327
21
21.4113887
0
LINE
8
DEFAULT_255_2_778
10
15.7553327
20
19.1113887
11
13.2177327
21
19.1113887
0
LINE
8
DEFAULT_255_2_778
10
13.2177327
20
17.5114887
11
15.7553327
21
17.5114887
0
LINE
8
DEFAULT_255_2_778
10
13.0865327
20
20.3615887
11
16.1366327
21
20.3615887
0
LINE
8
DEFAULT_255_2_778
10
12.9867327
20
18.3115887
11
12.9867327
21
18.3115887
0
LINE
8
DEFAULT_255_2_778
10
12.2557327
20
19.1116887
11
9.7181327
21
19.1116887
0
LINE
8
DEFAULT_255_2_778
10
9.7181327
20
17.5116887
11
12.2557327
21
17.5116887
0
LINE
8
DEFAULT_255_2_778
10
9.5868327
20
20.3617887
11
12.6370327
21
20.3617887
0
LINE
8
DEFAULT_255_2_778
10
9.4866327
20
18.3112887
11
9.4866327
21
18.3112887
0
LINE
8
DEFAULT_255_2_778
10
8.7555327
20
19.1113887
11
6.2179327
21
19.1113887
0
LINE
8
DEFAULT_255_2_778
10
6.2179327
20
17.5114887
11
8.7555327
21
17.5114887
0
LINE
8
DEFAULT_255_2_778
10
6.0867327
20
20.3615887
11
9.1368327
21
20.3615887
0
LINE
8
DEFAULT_255_2_778
10
5.9869327
20
18.3115887
11
5.9869327
21
18.3115887
0
LINE
8
DEFAULT_255_2_778
10
15.6368327
20
22.1114887
11
15.6368327
21
23.4613887
0
LINE
8
DEFAULT_255_2_778
10
15.6368327
20
23.4613887
11
13.5868327
21
23.4613887
0
LINE
8
DEFAULT_255_2_778
10
13.5868327
20
23.4613887
11
13.5868327
21
22.1114887
0
LINE
8
DEFAULT_255_2_778
10
16.0369327
20
20.4115887
11
16.0369327
21
22.1114887
0
LINE
8
DEFAULT_255_2_778
10
16.0369327
20
22.1114887
11
13.1865327
21
22.1114887
0
LINE
8
DEFAULT_255_2_778
10
13.1865327
20
22.1114887
11
13.1865327
21
20.4115887
0
LINE
8
DEFAULT_255_2_778
10
13.1865327
20
20.4115887
11
16.0369327
21
20.4115887
0
LINE
8
DEFAULT_255_2_778
10
16.0369327
20
21.6915887
11
13.1865327
21
21.6915887
0
LINE
8
DEFAULT_255_2_778
10
16.0366327
20
21.4116887
11
13.1865327
21
21.4116887
0
LINE
8
DEFAULT_255_2_778
10
16.0366327
20
21.1115887
11
13.1865327
21
21.1115887
0
LINE
8
DEFAULT_255_2_778
10
16.0366327
20
20.8316887
11
13.1865327
21
20.8316887
0
LINE
8
DEFAULT_255_2_778
10
19.2552327
20
27.3615887
11
16.7176327
21
27.3615887
0
LINE
8
DEFAULT_255_2_778
10
16.7176327
20
25.7616887
11
19.2552327
21
25.7616887
0
LINE
8
DEFAULT_255_2_778
10
16.5864327
20
28.6117887
11
19.6365327
21
28.6117887
0
LINE
8
DEFAULT_255_2_778
10
16.4866327
20
26.5617887
11
16.4866327
21
26.5617887
0
LINE
8
DEFAULT_255_2_778
10
15.7556327
20
27.3618887
11
13.2180327
21
27.3618887
0
LINE
8
DEFAULT_255_2_778
10
13.2180327
20
25.7619887
11
15.7556327
21
25.7619887
0
LINE
8
DEFAULT_255_2_778
10
13.0867327
20
28.6120887
11
16.1369327
21
28.6120887
0
LINE
8
DEFAULT_255_2_778
10
12.9867327
20
26.5620887
11
12.9867327
21
26.5620887
0
LINE
8
DEFAULT_255_2_778
10
12.2557327
20
27.3621887
11
9.7181327
21
27.3621887
0
LINE
8
DEFAULT_255_2_778
10
9.7181327
20
25.7621887
11
12.2557327
21
25.7621887
0
LINE
8
DEFAULT_255_2_778
10
9.5868327
20
28.6122887
11
12.6370327
21
28.6122887
0
LINE
8
DEFAULT_255_2_778
10
9.4871327
20
26.5622887
11
9.4871327
21
26.5622887
0
LINE
8
DEFAULT_255_2_778
10
8.7560327
20
27.3623887
11
6.2184327
21
27.3623887
0
LINE
8
DEFAULT_255_2_778
10
6.2184327
20
25.7624887
11
8.7560327
21
25.7624887
0
LINE
8
DEFAULT_255_2_778
10
6.0872327
20
28.6125887
11
9.1373327
21
28.6125887
0
LINE
8
DEFAULT_255_2_778
10
5.9872327
20
26.5625887
11
5.9872327
21
26.5625887
0
LINE
8
DEFAULT_255_2_778
10
26.1373327
20
22.1125887
11
26.1373327
21
23.4624887
0
LINE
8
DEFAULT_255_2_778
10
26.1373327
20
23.4624887
11
24.0873327
21
23.4624887
0
LINE
8
DEFAULT_255_2_778
10
24.0873327
20
23.4624887
11
24.0873327
21
22.1125887
0
LINE
8
DEFAULT_255_2_778
10
26.5374327
20
21.1123887
11
23.6865327
21
21.1123887
0
LINE
8
DEFAULT_255_2_778
10
26.5366327
20
20.4123887
11
26.5366327
21
22.1122887
0
LINE
8
DEFAULT_255_2_778
10
26.5366327
20
22.1122887
11
23.6865327
21
22.1122887
0
LINE
8
DEFAULT_255_2_778
10
23.6865327
20
22.1122887
11
23.6865327
21
20.4123887
0
LINE
8
DEFAULT_255_2_778
10
23.6865327
20
20.4123887
11
26.5366327
21
20.4123887
0
LINE
8
DEFAULT_255_2_778
10
26.5366327
20
20.8321887
11
23.6865327
21
20.8321887
0
LINE
8
DEFAULT_255_2_778
10
26.5366327
20
21.6920887
11
23.6865327
21
21.6920887
0
LINE
8
DEFAULT_255_2_778
10
26.5366327
20
21.4121887
11
23.6865327
21
21.4121887
0
LINE
8
DEFAULT_255_2_778
10
26.1365327
20
30.3622887
11
26.1365327
21
31.7121887
0
LINE
8
DEFAULT_255_2_778
10
26.1365327
20
31.7121887
11
24.0865327
21
31.7121887
0
LINE
8
DEFAULT_255_2_778
10
24.0865327
20
31.7121887
11
24.0865327
21
30.3622887
0
LINE
8
DEFAULT_255_2_778
10
26.5366327
20
29.0821887
11
23.6865327
21
29.0821887
0
LINE
8
DEFAULT_255_2_778
10
26.5366327
20
29.3621887
11
23.6865327
21
29.3621887
0
LINE
8
DEFAULT_255_2_778
10
26.5366327
20
29.9420887
11
23.6865327
21
29.9420887
0
LINE
8
DEFAULT_255_2_778
10
26.5366327
20
29.6621887
11
23.6865327
21
29.6621887
0
LINE
8
DEFAULT_255_2_778
10
26.5366327
20
28.6622887
11
26.5366327
21
30.3622887
0
LINE
8
DEFAULT_255_2_778
10
26.5366327
20
30.3622887
11
23.6865327
21
30.3622887
0
LINE
8
DEFAULT_255_2_778
10
23.6865327
20
30.3622887
11
23.6865327
21
28.6622887
0
LINE
8
DEFAULT_255_2_778
10
23.6865327
20
28.6622887
11
26.5366327
21
28.6622887
0
LINE
8
DEFAULT_255_2_778
10
33.1366327
20
30.4622887
11
34.2365327
21
30.4622887
0
LINE
8
DEFAULT_255_2_778
10
33.5914327
20
24.0622887
11
33.5914327
21
24.5622887
0
LINE
8
DEFAULT_255_2_778
10
30.1365327
20
22.2122887
11
30.1365327
21
19.7323887
0
LINE
8
DEFAULT_255_2_778
10
30.1365327
20
19.7323887
11
30.5866327
21
19.7323887
0
LINE
8
DEFAULT_255_2_778
10
30.5866327
20
19.7323887
11
30.5866327
21
22.2122887
0
LINE
8
DEFAULT_255_2_778
10
30.5866327
20
22.2122887
11
31.0866327
21
22.2122887
0
LINE
8
DEFAULT_255_2_778
10
34.2367327
20
31.5621887
11
34.4918327
21
31.5621887
0
LINE
8
DEFAULT_255_2_778
10
34.4918327
20
31.5621887
11
34.4918327
21
16.3620887
0
LINE
8
DEFAULT_255_2_778
10
34.4918327
20
16.3620887
11
34.2367327
21
16.3620887
0
LINE
8
DEFAULT_255_2_778
10
5.4866327
20
30.4611887
11
6.5865327
21
30.4611887
0
LINE
8
DEFAULT_255_2_778
10
5.4866327
20
22.2112887
11
6.5865327
21
22.2112887
0
LINE
8
DEFAULT_255_2_778
10
5.4866327
20
16.3612887
11
5.0916327
21
16.3612887
0
LINE
8
DEFAULT_255_2_778
10
5.0916327
20
16.3612887
11
5.0916327
21
31.5613887
0
LINE
8
DEFAULT_255_2_778
10
5.0916327
20
31.5613887
11
5.4866327
21
31.5613887
0
LINE
8
DEFAULT_255_2_778
10
15.7913327
20
68.8810887
11
15.7913327
21
64.2810887
0
LINE
8
DEFAULT_255_2_778
10
15.7913327
20
64.2810887
11
16.2914327
21
63.7809887
0
LINE
8
DEFAULT_255_2_778
10
16.2914327
20
63.7809887
11
16.2914327
21
69.3811887
0
LINE
8
DEFAULT_255_2_778
10
13.1114327
20
69.3811887
11
13.1114327
21
63.7812887
0
LINE
8
DEFAULT_255_2_778
10
13.1114327
20
63.7812887
11
13.6114327
21
64.2812887
0
LINE
8
DEFAULT_255_2_778
10
16.2914327
20
63.7812887
11
14.7015327
21
63.7812887
0
LINE
8
DEFAULT_255_2_778
10
14.7015327
20
63.7812887
11
13.1116327
21
63.7812887
0
LINE
8
DEFAULT_255_2_778
10
15.7916327
20
64.2812887
11
14.7015327
21
64.2812887
0
LINE
8
DEFAULT_255_2_778
10
14.7015327
20
64.2812887
11
13.6114327
21
64.2812887
0
LINE
8
DEFAULT_255_2_778
10
13.6114327
20
64.2812887
11
13.6114327
21
68.8810887
0
LINE
8
DEFAULT_255_2_778
10
13.6114327
20
68.8810887
11
13.1114327
21
69.3811887
0
LINE
8
DEFAULT_255_2_778
10
13.1114327
20
69.3811887
11
14.7012327
21
69.3811887
0
LINE
8
DEFAULT_255_2_778
10
14.7012327
20
69.3811887
11
16.2911327
21
69.3811887
0
LINE
8
DEFAULT_255_2_778
10
16.2911327
20
69.3811887
11
15.7911327
21
68.8810887
0
LINE
8
DEFAULT_255_2_778
10
15.7911327
20
68.8810887
11
14.7010327
21
68.8810887
0
LINE
8
DEFAULT_255_2_778
10
14.7010327
20
68.8810887
11
13.6114327
21
68.8810887
0
LINE
8
DEFAULT_255_2_778
10
18.9594327
20
66.5611887
11
18.9594327
21
63.8232887
0
LINE
8
DEFAULT_255_2_778
10
18.9594327
20
63.8232887
11
17.1095327
21
61.9733887
0
LINE
8
DEFAULT_255_2_778
10
17.1095327
20
61.9733887
11
10.4235327
21
61.9733887
0
LINE
8
DEFAULT_255_2_778
10
10.4235327
20
61.9733887
11
10.4235327
21
66.5611887
0
LINE
8
DEFAULT_255_2_778
10
10.4235327
20
66.5611887
11
10.4235327
21
71.1490887
0
LINE
8
DEFAULT_255_2_778
10
10.4235327
20
71.1490887
11
17.1095327
21
71.1490887
0
LINE
8
DEFAULT_255_2_778
10
17.1095327
20
71.1490887
11
18.9594327
21
69.2991887
0
LINE
8
DEFAULT_255_2_778
10
18.9594327
20
69.2991887
11
18.9594327
21
66.5611887
0
LINE
8
DEFAULT_255_2_778
10
20.4215327
20
66.5611887
11
20.4215327
21
60.5612887
0
LINE
8
DEFAULT_255_2_778
10
20.4215327
20
60.5612887
11
8.9614327
21
60.5612887
0
LINE
8
DEFAULT_255_2_778
10
8.9614327
20
60.5612887
11
8.9614327
21
66.5611887
0
LINE
8
DEFAULT_255_2_778
10
8.9614327
20
66.5611887
11
8.9614327
21
72.5611887
0
LINE
8
DEFAULT_255_2_778
10
8.9614327
20
72.5611887
11
20.4213327
21
72.5611887
0
LINE
8
DEFAULT_255_2_778
10
20.4213327
20
72.5611887
11
20.4215327
21
66.5611887
0
ENDSEC
0
EOF