0
SECTION
2
HEADER
9
$MEASUREMENT
70
1
0
ENDSEC
0
SECTION
2
TABLES
0
TABLE
2
LTYPE
0
LTYPE
72
65
70
64
2
CONTINUOUS
3
______
73
0
40
0
0
ENDTAB
0
TABLE
2
LAYER
0
LAYER
2
DEFAULT_255_2_778
70
0
62
255
6
CONTINUOUS
0
LAYER
2
DEFAULT_255_1_388
70
0
62
255
6
CONTINUOUS
0
ENDTAB
0
ENDSEC
0
SECTION
2
ENTITIES
0
ARC
8
DEFAULT_255_2_778
10
3.5700693
20
107.5552026
40
0.7914215
50
129.1312896
51
180.1450914
0
ARC
8
DEFAULT_255_2_778
10
3.5703345
20
107.5556897
40
0.7912112
50
89.854026
51
129.1684493
0
ARC
8
DEFAULT_255_2_778
10
25.7993937
20
107.5553762
40
0.7915249
50
39.4792447
51
90.147911
0
ARC
8
DEFAULT_255_2_778
10
25.7999935
20
107.5552229
40
0.7911595
50
359.8533901
51
39.5154338
0
ARC
8
DEFAULT_255_2_778
10
25.7996693
20
-1.9863497
40
0.7914836
50
309.4761667
51
0.1482649
0
ARC
8
DEFAULT_255_2_778
10
25.799398
20
-1.9867808
40
0.7913235
50
269.8517415
51
309.511178
0
ARC
8
DEFAULT_255_2_778
10
3.570342
20
-1.9867226
40
0.7913815
50
219.1282118
51
270.1454017
0
ARC
8
DEFAULT_255_2_778
10
3.5700247
20
-1.9863401
40
0.7913769
50
179.8524075
51
219.1641908
0
LINE
8
DEFAULT_255_2_778
10
3.5723503
20
108.3468985
11
25.7973503
21
108.3468985
0
LINE
8
DEFAULT_255_2_778
10
26.5911503
20
107.5531985
11
26.5911503
21
-1.9843015
0
LINE
8
DEFAULT_255_2_778
10
25.7973503
20
-2.7781015
11
3.5723503
21
-2.7781015
0
LINE
8
DEFAULT_255_2_778
10
2.7786503
20
-1.9843015
11
2.7786503
21
107.5531985
0
LINE
8
DEFAULT_255_1_388
10
8.988432
20
-0.2223532
11
9.1628199
21
-0.2223532
0
LINE
8
DEFAULT_255_1_388
10
8.1499242
20
-0.0434475
11
8.1499242
21
0.0830516
0
LINE
8
DEFAULT_255_1_388
10
9.1628199
20
0.2529217
11
8.988432
21
0.2529217
0
LINE
8
DEFAULT_255_1_388
10
8.3243121
20
0.0785337
11
8.3243121
21
-0.0488688
0
ARC
8
DEFAULT_255_1_388
10
8.5462433
20
-0.1551671
40
0.6202263
50
340.1774904
51
353.7812217
0
ARC
8
DEFAULT_255_1_388
10
8.7230286
20
-0.2210107
40
0.4315926
50
311.4560052
51
340.4420756
0
ARC
8
DEFAULT_255_1_388
10
8.7192826
20
-0.2085335
40
0.4434573
50
282.4332229
51
310.7514507
0
ARC
8
DEFAULT_255_1_388
10
8.6698644
20
-0.0043297
40
0.6535262
50
269.9358869
51
282.8096729
0
ARC
8
DEFAULT_255_1_388
10
8.6640583
20
0.1469329
40
0.8048043
50
269.9995752
51
270.3612856
0
ARC
8
DEFAULT_255_1_388
10
8.6581073
20
-0.1329219
40
0.5249831
50
250.7885263
51
270.6488451
0
ARC
8
DEFAULT_255_1_388
10
8.6391898
20
-0.2046147
40
0.4510942
50
219.3628377
51
250.0611024
0
ARC
8
DEFAULT_255_1_388
10
8.7324772
20
-0.1253347
40
0.5735046
50
193.5480293
51
219.5755675
0
ARC
8
DEFAULT_255_1_388
10
8.9992981
20
-0.056048
40
0.849146
50
181.1220183
51
193.8754971
0
ARC
8
DEFAULT_255_1_388
10
9.2316214
20
-0.0436086
40
1.0816971
50
179.9914644
51
181.5398227
0
ARC
8
DEFAULT_255_1_388
10
9.0239525
20
0.0872586
40
0.8740384
50
169.5837606
51
180.275782
0
ARC
8
DEFAULT_255_1_388
10
8.8172873
20
0.1254439
40
0.6638751
50
155.0367033
51
169.6002779
0
ARC
8
DEFAULT_255_1_388
10
8.6895331
20
0.1870336
40
0.5220662
50
136.7831557
51
155.2472983
0
ARC
8
DEFAULT_255_1_388
10
8.6457122
20
0.2242577
40
0.4646502
50
121.7633063
51
136.4281161
0
ARC
8
DEFAULT_255_1_388
10
8.6608962
20
0.1962049
40
0.4964979
50
95.6460018
51
121.5489589
0
ARC
8
DEFAULT_255_1_388
10
8.6785936
20
0.0714704
40
0.6223912
50
89.9245727
51
96.1375919
0
ARC
8
DEFAULT_255_1_388
10
8.6842641
20
0.0848721
40
0.6090084
50
76.6779212
51
90.456405
0
ARC
8
DEFAULT_255_1_388
10
8.7285454
20
0.263806
40
0.42469
50
47.4858803
51
76.9287069
0
ARC
8
DEFAULT_255_1_388
10
8.7120068
20
0.2525623
40
0.4441778
50
16.5424081
51
46.8934505
0
ARC
8
DEFAULT_255_1_388
10
8.5311118
20
0.1931265
40
0.6345318
50
5.4072971
51
17.0363711
0
ARC
8
DEFAULT_255_1_388
10
8.3692843
20
0.1671304
40
0.6250632
50
7.8888693
51
15.9242022
0
ARC
8
DEFAULT_255_1_388
10
8.5927828
20
0.2320309
40
0.3923364
50
15.7650676
51
27.9410069
0
ARC
8
DEFAULT_255_1_388
10
8.7169997
20
0.2985317
40
0.2514401
50
27.8167196
51
46.4007942
0
ARC
8
DEFAULT_255_1_388
10
8.7225839
20
0.2978882
40
0.2480958
50
47.4372362
51
75.0695672
0
ARC
8
DEFAULT_255_1_388
10
8.6878675
20
0.1770277
40
0.3738281
50
74.7009379
51
87.8124314
0
ARC
8
DEFAULT_255_1_388
10
8.6796292
20
0.0586659
40
0.4924321
50
87.3802571
51
90.0251599
0
ARC
8
DEFAULT_255_1_388
10
8.6752939
20
0.1906997
40
0.3604218
50
89.3451886
51
108.5744412
0
ARC
8
DEFAULT_255_1_388
10
8.6598931
20
0.2484836
40
0.3007661
50
109.2998307
51
143.3037387
0
ARC
8
DEFAULT_255_1_388
10
8.7456221
20
0.1825584
40
0.4089031
50
143.075267
51
163.1918576
0
ARC
8
DEFAULT_255_1_388
10
8.9652055
20
0.1132652
40
0.6391492
50
162.9375929
51
174.6208776
0
ARC
8
DEFAULT_255_1_388
10
9.2606437
20
0.0808711
40
0.9363344
50
174.342123
51
180.1430283
0
ARC
8
DEFAULT_255_1_388
10
9.1558978
20
-0.0534883
40
0.8315986
50
179.6817261
51
189.150555
0
ARC
8
DEFAULT_255_1_388
10
8.8745727
20
-0.1003441
40
0.5464044
50
188.9911061
51
203.5772363
0
ARC
8
DEFAULT_255_1_388
10
8.7531019
20
-0.1507461
40
0.4149206
50
203.9075402
51
215.1312435
0
ARC
8
DEFAULT_255_1_388
10
8.6492817
20
-0.2312093
40
0.2837747
50
213.9071511
51
263.8848919
0
ARC
8
DEFAULT_255_1_388
10
8.663381
20
-0.1429481
40
0.3730641
50
263.1757928
51
270.1031044
0
ARC
8
DEFAULT_255_1_388
10
8.666989
20
-0.0026489
40
0.5133712
50
269.6722503
51
279.0606936
0
ARC
8
DEFAULT_255_1_388
10
8.6970045
20
-0.184085
40
0.3294739
50
278.8749101
51
293.6349581
0
ARC
8
DEFAULT_255_1_388
10
8.7330249
20
-0.2686749
40
0.2375405
50
293.8553806
51
310.0518171
0
ARC
8
DEFAULT_255_1_388
10
8.7335758
20
-0.2756979
40
0.2318463
50
311.0644687
51
332.0111037
0
ARC
8
DEFAULT_255_1_388
10
8.5994431
20
-0.2017298
40
0.3850112
50
331.6586806
51
343.2877423
0
ARC
8
DEFAULT_255_1_388
10
8.3673896
20
-0.1304194
40
0.6277712
50
343.1446576
51
351.0103568
0
ARC
8
DEFAULT_255_1_388
10
8.204122
20
-0.1004127
40
0.7937327
50
350.71248
51
351.1626997
0
LINE
8
DEFAULT_255_1_388
10
9.8829608
20
-0.1247683
11
9.5730382
21
-0.1247683
0
LINE
8
DEFAULT_255_1_388
10
9.5730382
20
-0.1247683
11
9.5730382
21
-0.6398
0
LINE
8
DEFAULT_255_1_388
10
9.5730382
20
-0.6398
11
9.3995538
21
-0.6398
0
LINE
8
DEFAULT_255_1_388
10
9.3995538
20
-0.6398
11
9.3995538
21
0.6757898
0
LINE
8
DEFAULT_255_1_388
10
9.3995538
20
0.6757898
11
9.8847679
21
0.6757898
0
LINE
8
DEFAULT_255_1_388
10
9.5730382
20
0.5330267
11
9.5730382
21
0.0170914
0
LINE
8
DEFAULT_255_1_388
10
9.5730382
20
0.0170914
11
9.8847679
21
0.0170914
0
LINE
8
DEFAULT_255_1_388
10
9.8947071
20
0.5330267
11
9.5730382
21
0.5330267
0
ARC
8
DEFAULT_255_1_388
10
9.8895053
20
-0.0058666
40
0.6816729
50
78.8380084
51
90.398184
0
ARC
8
DEFAULT_255_1_388
10
9.9363083
20
0.2214796
40
0.449571
50
58.9633273
51
79.0810717
0
ARC
8
DEFAULT_255_1_388
10
9.9702468
20
0.2844823
40
0.3781049
50
48.0194715
51
58.4475592
0
ARC
8
DEFAULT_255_1_388
10
9.9802287
20
0.2940818
40
0.3642936
50
3.3374546
51
48.1766642
0
ARC
8
DEFAULT_255_1_388
10
9.8417094
20
0.2741581
40
0.5038766
50
359.9483251
51
4.6822857
0
ARC
8
DEFAULT_255_1_388
10
9.8557017
20
0.2693779
40
0.4899031
50
346.1879032
51
0.5059221
0
ARC
8
DEFAULT_255_1_388
10
10.0085809
20
0.2296763
40
0.3319729
50
310.8832219
51
346.5426612
0
ARC
8
DEFAULT_255_1_388
10
9.9738657
20
0.2765853
40
0.3901853
50
286.6925305
51
310.228778
0
ARC
8
DEFAULT_255_1_388
10
9.9098387
20
0.4779585
40
0.6014737
50
274.6848219
51
287.0247342
0
ARC
8
DEFAULT_255_1_388
10
9.8844936
20
0.7264088
40
0.8511785
50
269.8968222
51
275.0192639
0
ARC
8
DEFAULT_255_1_388
10
9.8875929
20
0.4926144
40
0.4755314
50
269.6596206
51
279.4150542
0
ARC
8
DEFAULT_255_1_388
10
9.9165387
20
0.3248945
40
0.3053379
50
279.2050006
51
294.9901776
0
ARC
8
DEFAULT_255_1_388
10
9.9492022
20
0.2520353
40
0.2255036
50
295.2886769
51
311.2912669
0
ARC
8
DEFAULT_255_1_388
10
9.9571763
20
0.2401938
40
0.2113522
50
311.7853512
51
347.2860549
0
ARC
8
DEFAULT_255_1_388
10
9.8464925
20
0.268643
40
0.3256011
50
346.6891629
51
0.1057086
0
ARC
8
DEFAULT_255_1_388
10
9.7542384
20
0.2719247
40
0.417863
50
359.63239
51
359.9961329
0
ARC
8
DEFAULT_255_1_388
10
9.8706989
20
0.2746987
40
0.3014155
50
359.4673371
51
15.5931159
0
ARC
8
DEFAULT_255_1_388
10
9.9410052
20
0.2936937
40
0.2285918
50
15.7441779
51
46.620186
0
ARC
8
DEFAULT_255_1_388
10
9.9243812
20
0.2745361
40
0.2539359
50
46.8628482
51
75.6676625
0
ARC
8
DEFAULT_255_1_388
10
9.8912869
20
0.1554243
40
0.3775415
50
75.2763152
51
88.2916439
0
ARC
8
DEFAULT_255_1_388
10
9.8846868
20
0.0552097
40
0.4779221
50
87.8589087
51
88.7986197
0
LINE
8
DEFAULT_255_1_388
10
11.0729552
20
0.6821148
11
11.0729552
21
-0.6398
0
LINE
8
DEFAULT_255_1_388
10
11.0729552
20
-0.6398
11
10.9048922
21
-0.6398
0
LINE
8
DEFAULT_255_1_388
10
10.9048922
20
-0.6398
11
10.9048922
21
0.474295
0
LINE
8
DEFAULT_255_1_388
10
10.9048922
20
0.474295
11
10.5678626
21
0.3505066
0
LINE
8
DEFAULT_255_1_388
10
10.5678626
20
0.3505066
11
10.5678626
21
0.5023055
0
LINE
8
DEFAULT_255_1_388
10
10.5678626
20
0.5023055
11
11.0467518
21
0.6821148
0
LINE
8
DEFAULT_255_1_388
10
11.0467518
20
0.6821148
11
11.0729552
21
0.6821148
0
LINE
8
DEFAULT_255_1_388
10
12.6171468
20
0.6757898
11
12.6171468
21
-0.6398
0
LINE
8
DEFAULT_255_1_388
10
12.6171468
20
-0.6398
11
12.4427589
21
-0.6398
0
LINE
8
DEFAULT_255_1_388
10
12.4427589
20
-0.6398
11
12.4427589
21
-0.0317011
0
LINE
8
DEFAULT_255_1_388
10
12.4427589
20
-0.0317011
11
11.7795426
21
-0.0317011
0
LINE
8
DEFAULT_255_1_388
10
11.7795426
20
-0.0317011
11
11.7795426
21
-0.6398
0
LINE
8
DEFAULT_255_1_388
10
11.7795426
20
-0.6398
11
11.6060582
21
-0.6398
0
LINE
8
DEFAULT_255_1_388
10
11.6060582
20
-0.6398
11
11.6060582
21
0.6757898
0
LINE
8
DEFAULT_255_1_388
10
11.6060582
20
0.6757898
11
11.7795426
21
0.6757898
0
LINE
8
DEFAULT_255_1_388
10
11.7795426
20
0.6757898
11
11.7795426
21
0.1101585
0
LINE
8
DEFAULT_255_1_388
10
11.7795426
20
0.1101585
11
12.4427589
21
0.1101585
0
LINE
8
DEFAULT_255_1_388
10
12.4427589
20
0.1101585
11
12.4427589
21
0.6757898
0
LINE
8
DEFAULT_255_1_388
10
12.4427589
20
0.6757898
11
12.6171468
21
0.6757898
0
LINE
8
DEFAULT_255_1_388
10
13.2469313
20
-0.0127263
11
13.2469313
21
-0.1491645
0
LINE
8
DEFAULT_255_1_388
10
13.2469313
20
-0.1491645
11
12.8059918
21
-0.1491645
0
LINE
8
DEFAULT_255_1_388
10
12.8059918
20
-0.1491645
11
12.8059918
21
-0.0127263
0
LINE
8
DEFAULT_255_1_388
10
12.8059918
20
-0.0127263
11
13.2469313
21
-0.0127263
0
LINE
8
DEFAULT_255_1_388
10
13.4954115
20
0.6757898
11
13.8369588
21
0.0152842
0
LINE
8
DEFAULT_255_1_388
10
13.8369588
20
0.0152842
11
14.1803133
21
0.6757898
0
LINE
8
DEFAULT_255_1_388
10
14.1803133
20
0.6757898
11
14.3772904
21
0.6757898
0
LINE
8
DEFAULT_255_1_388
10
14.3772904
20
0.6757898
11
13.923701
21
-0.1491645
0
LINE
8
DEFAULT_255_1_388
10
13.923701
20
-0.1491645
11
13.923701
21
-0.6398
0
LINE
8
DEFAULT_255_1_388
10
13.923701
20
-0.6398
11
13.7502167
21
-0.6398
0
LINE
8
DEFAULT_255_1_388
10
13.7502167
20
-0.6398
11
13.7502167
21
-0.1491645
0
LINE
8
DEFAULT_255_1_388
10
13.7502167
20
-0.1491645
11
13.2966273
21
0.6757898
0
LINE
8
DEFAULT_255_1_388
10
13.2966273
20
0.6757898
11
13.4954115
21
0.6757898
0
LINE
8
DEFAULT_255_1_388
10
15.3657899
20
-0.5033618
11
15.3657899
21
-0.6398
0
LINE
8
DEFAULT_255_1_388
10
15.3657899
20
-0.6398
11
14.5037894
21
-0.6398
0
LINE
8
DEFAULT_255_1_388
10
14.5037894
20
-0.6398
11
14.5037894
21
-0.5196259
0
LINE
8
DEFAULT_255_1_388
10
14.5037894
20
-0.5196259
11
14.9591859
21
-0.0136298
0
LINE
8
DEFAULT_255_1_388
10
14.645649
20
0.2881607
11
14.4784896
21
0.2881607
0
LINE
8
DEFAULT_255_1_388
10
15.0576744
20
-0.121154
11
14.7052843
21
-0.5033618
0
LINE
8
DEFAULT_255_1_388
10
14.7052843
20
-0.5033618
11
15.3657899
21
-0.5033618
0
ARC
8
DEFAULT_255_1_388
10
13.4415918
20
1.3283983
40
2.0258655
50
318.5132526
51
320.7829045
0
ARC
8
DEFAULT_255_1_388
10
14.0363875
20
0.8442929
40
1.2589638
50
320.7372878
51
323.9739031
0
ARC
8
DEFAULT_255_1_388
10
14.4772807
20
0.5248554
40
0.7145141
50
323.8962701
51
328.64194
0
ARC
8
DEFAULT_255_1_388
10
14.7075065
20
0.3828545
40
0.4440242
50
328.8294576
51
331.7891185
0
ARC
8
DEFAULT_255_1_388
10
14.8197385
20
0.3249374
40
0.3177517
50
331.4254512
51
352.9365785
0
ARC
8
DEFAULT_255_1_388
10
14.8350385
20
0.321505
40
0.3021496
50
353.2257659
51
0.0166158
0
ARC
8
DEFAULT_255_1_388
10
14.8587145
20
0.3240894
40
0.2784847
50
359.486299
51
15.9343185
0
ARC
8
DEFAULT_255_1_388
10
14.9157412
20
0.3394269
40
0.2194403
50
16.1712913
51
43.5286088
0
ARC
8
DEFAULT_255_1_388
10
14.9244357
20
0.3481191
40
0.2071504
50
43.4417391
51
83.1661095
0
ARC
8
DEFAULT_255_1_388
10
14.9093518
20
0.2652316
40
0.2912888
50
82.160179
51
90.1505708
0
ARC
8
DEFAULT_255_1_388
10
14.9057999
20
0.2048279
40
0.3517025
50
89.5460741
51
102.5418361
0
ARC
8
DEFAULT_255_1_388
10
14.8784719
20
0.3207933
40
0.2325748
50
102.1738499
51
129.206123
0
ARC
8
DEFAULT_255_1_388
10
14.8696173
20
0.3347664
40
0.2161591
50
129.72865
51
135.753947
0
ARC
8
DEFAULT_255_1_388
10
14.8832655
20
0.3238728
40
0.2335433
50
136.1757367
51
166.3673339
0
ARC
8
DEFAULT_255_1_388
10
14.9965343
20
0.2935148
40
0.3507873
50
165.9090694
51
178.8684636
0
ARC
8
DEFAULT_255_1_388
10
15.0941115
20
0.2882263
40
0.4484624
50
178.4391136
51
180.0083808
0
ARC
8
DEFAULT_255_1_388
10
14.9361816
20
0.2926197
40
0.4577138
50
163.2878482
51
180.5581842
0
ARC
8
DEFAULT_255_1_388
10
14.8459857
20
0.3174393
40
0.3641968
50
133.4540601
51
162.947111
0
ARC
8
DEFAULT_255_1_388
10
14.8660739
20
0.2960789
40
0.3935189
50
100.7869829
51
133.4382499
0
ARC
8
DEFAULT_255_1_388
10
14.9051984
20
0.1218399
40
0.5720313
50
89.660664
51
101.3702276
0
ARC
8
DEFAULT_255_1_388
10
14.9126593
20
0.1287263
40
0.5651495
50
78.2172678
51
90.412935
0
ARC
8
DEFAULT_255_1_388
10
14.9526059
20
0.3114511
40
0.378122
50
55.9269121
51
78.4888449
0
ARC
8
DEFAULT_255_1_388
10
14.9746774
20
0.3495187
40
0.3342379
50
47.929771
51
55.4049217
0
ARC
8
DEFAULT_255_1_388
10
14.9861304
20
0.3611618
40
0.3179217
50
4.334829
51
48.0560205
0
ARC
8
DEFAULT_255_1_388
10
14.8629106
20
0.3420487
40
0.442341
50
359.9251713
51
5.5971671
0
ARC
8
DEFAULT_255_1_388
10
14.9111261
20
0.3483728
40
0.3941854
50
337.8914027
51
358.9967534
0
ARC
8
DEFAULT_255_1_388
10
14.6058831
20
0.4661295
40
0.7213271
50
326.9132501
51
338.3508308
0
ARC
8
DEFAULT_255_1_388
10
14.1574943
20
0.7535105
40
1.2538973
50
319.6471833
51
327.0959558
0
ARC
8
DEFAULT_255_1_388
10
13.7261601
20
1.109305
40
1.8129975
50
317.2588228
51
319.9045804
0
LINE
8
DEFAULT_255_1_388
10
16.3678429
20
0.138169
11
16.3678429
21
-0.0786865
0
LINE
8
DEFAULT_255_1_388
10
15.5374671
20
-0.1012756
11
15.5374671
21
0.1219048
0
LINE
8
DEFAULT_255_1_388
10
16.2006834
20
-0.1238647
11
16.2006834
21
0.1499153
0
LINE
8
DEFAULT_255_1_388
10
15.7046266
20
0.1625652
11
15.7046266
21
-0.1048898
0
ARC
8
DEFAULT_255_1_388
10
14.9900763
20
-0.0841882
40
1.3777776
50
353.8440855
51
0.2287917
0
ARC
8
DEFAULT_255_1_388
10
15.511978
20
-0.1424586
40
0.852639
50
344.4934746
51
353.9763743
0
ARC
8
DEFAULT_255_1_388
10
15.8486587
20
-0.2381809
40
0.5026273
50
329.2803599
51
344.7473406
0
ARC
8
DEFAULT_255_1_388
10
15.9602083
20
-0.2993962
40
0.3754848
50
324.9361395
51
328.6153007
0
ARC
8
DEFAULT_255_1_388
10
16.0027733
20
-0.3291414
40
0.3235566
50
280.5801797
51
324.9173226
0
ARC
8
DEFAULT_255_1_388
10
15.9576361
20
-0.1411764
40
0.5167077
50
269.5979457
51
281.6732777
0
ARC
8
DEFAULT_255_1_388
10
15.9495265
20
-0.1546887
40
0.5032026
50
256.6228565
51
270.5105488
0
ARC
8
DEFAULT_255_1_388
10
15.9043008
20
-0.3288655
40
0.3233092
50
215.8618351
51
257.2787793
0
ARC
8
DEFAULT_255_1_388
10
16.0191715
20
-0.2517894
40
0.4615831
50
197.9695203
51
215.2622745
0
ARC
8
DEFAULT_255_1_388
10
16.298739
20
-0.1574359
40
0.7566307
50
187.8816486
51
198.2346584
0
ARC
8
DEFAULT_255_1_388
10
16.7440629
20
-0.0931547
40
1.2065653
50
180.8977266
51
188.0054894
0
ARC
8
DEFAULT_255_1_388
10
17.0490842
20
-0.08166
40
1.5117443
50
180.7434591
51
181.152202
0
ARC
8
DEFAULT_255_1_388
10
16.8815838
20
0.1273371
40
1.3441277
50
173.7674302
51
180.2315596
0
ARC
8
DEFAULT_255_1_388
10
16.3733707
20
0.1847779
40
0.8326847
50
164.3058537
51
173.9000553
0
ARC
8
DEFAULT_255_1_388
10
16.0457707
20
0.2791652
40
0.4917711
50
148.7922028
51
164.5682288
0
ARC
8
DEFAULT_255_1_388
10
15.9388445
20
0.3388457
40
0.3694204
50
144.5883979
51
148.1161588
0
ARC
8
DEFAULT_255_1_388
10
15.900119
20
0.3658667
40
0.322202
50
101.6440149
51
144.5142619
0
ARC
8
DEFAULT_255_1_388
10
15.9479382
20
0.1758337
40
0.5180451
50
89.528284
51
102.5820197
0
ARC
8
DEFAULT_255_1_388
10
15.9568374
20
0.1714376
40
0.5224441
50
77.0437914
51
90.508231
0
ARC
8
DEFAULT_255_1_388
10
16.0020628
20
0.3562272
40
0.3322297
50
48.2777708
51
77.4996087
0
ARC
8
DEFAULT_255_1_388
10
16.0102368
20
0.3707557
40
0.315966
50
36.3141586
51
47.6307332
0
ARC
8
DEFAULT_255_1_388
10
15.912509
20
0.3049159
40
0.4337313
50
18.2931065
51
35.6770203
0
ARC
8
DEFAULT_255_1_388
10
15.6263931
20
0.2067107
40
0.7362203
50
8.0246996
51
18.5605636
0
ARC
8
DEFAULT_255_1_388
10
15.1580286
20
0.1375432
40
1.2096583
50
1.127539
51
8.1718423
0
ARC
8
DEFAULT_255_1_388
10
14.793142
20
0.1232374
40
1.5747719
50
0.5432713
51
1.38669
0
ARC
8
DEFAULT_255_1_388
10
14.9988798
20
0.1539163
40
1.2018103
50
359.8092569
51
4.9408001
0
ARC
8
DEFAULT_255_1_388
10
15.472538
20
0.19619
40
0.7262727
50
4.8364937
51
12.2906017
0
ARC
8
DEFAULT_255_1_388
10
15.7824844
20
0.2652485
40
0.4087324
50
12.0806994
51
23.8171225
0
ARC
8
DEFAULT_255_1_388
10
15.914524
20
0.3211508
40
0.2653719
50
24.2874621
51
31.3934353
0
ARC
8
DEFAULT_255_1_388
10
15.9735676
20
0.3597822
40
0.1948607
50
30.7407708
51
82.4658033
0
ARC
8
DEFAULT_255_1_388
10
15.9533337
20
0.2604017
40
0.2961198
50
81.1057101
51
90.2187368
0
ARC
8
DEFAULT_255_1_388
10
15.9493149
20
0.2894421
40
0.2670929
50
89.380395
51
105.6763916
0
ARC
8
DEFAULT_255_1_388
10
15.9286871
20
0.364432
40
0.1893189
50
105.7980655
51
149.7387869
0
ARC
8
DEFAULT_255_1_388
10
16.0484011
20
0.2924719
40
0.3289892
50
149.4208441
51
163.628295
0
ARC
8
DEFAULT_255_1_388
10
16.2836241
20
0.2207345
40
0.5749004
50
163.3764549
51
172.141138
0
ARC
8
DEFAULT_255_1_388
10
16.6548962
20
0.1675582
40
0.9499585
50
172.0258462
51
178.0705453
0
ARC
8
DEFAULT_255_1_388
10
16.9970515
20
0.1513682
40
1.2924734
50
177.8639301
51
179.5036263
0
ARC
8
DEFAULT_255_1_388
10
16.8751534
20
-0.1089849
40
1.170534
50
179.7995545
51
185.246089
0
ARC
8
DEFAULT_255_1_388
10
16.4203127
20
-0.1520596
40
0.7136613
50
185.1411911
51
193.0082205
0
ARC
8
DEFAULT_255_1_388
10
16.1229387
20
-0.2223559
40
0.4080987
50
192.7897338
51
205.2507384
0
ARC
8
DEFAULT_255_1_388
10
16.0051597
20
-0.2749462
40
0.2791522
50
205.8001921
51
211.2545876
0
ARC
8
DEFAULT_255_1_388
10
15.9463136
20
-0.3143868
40
0.2084074
50
210.3789935
51
238.4007996
0
ARC
8
DEFAULT_255_1_388
10
15.9441222
20
-0.3091214
40
0.2117943
50
239.6521916
51
265.9793852
0
ARC
8
DEFAULT_255_1_388
10
15.9537071
20
-0.2334642
40
0.2879689
50
265.1324455
51
270.0603288
0
ARC
8
DEFAULT_255_1_388
10
15.9569448
20
-0.2699582
40
0.2514919
50
269.3314378
51
287.2180039
0
ARC
8
DEFAULT_255_1_388
10
15.9724531
20
-0.3265709
40
0.1928357
50
287.7957942
51
329.0808983
0
ARC
8
DEFAULT_255_1_388
10
15.8647288
20
-0.2593349
40
0.319808
50
328.6635261
51
343.3325043
0
ARC
8
DEFAULT_255_1_388
10
15.6202746
20
-0.1831805
40
0.5758408
50
343.0498092
51
351.9392499
0
ARC
8
DEFAULT_255_1_388
10
15.2302068
20
-0.1256795
40
0.9701202
50
351.8071632
51
357.7957897
0
ARC
8
DEFAULT_255_1_388
10
14.8667545
20
-0.1068276
40
1.3340376
50
357.5870923
51
359.2682493
0
LINE
8
DEFAULT_255_1_388
10
16.9894952
20
-0.6398
11
16.6253587
21
-0.6398
0
LINE
8
DEFAULT_255_1_388
10
16.6253587
20
-0.6398
11
16.6253587
21
0.6757898
0
LINE
8
DEFAULT_255_1_388
10
16.6253587
20
0.6757898
11
16.9967237
21
0.6757898
0
LINE
8
DEFAULT_255_1_388
10
17.5768121
20
0.0622696
11
17.5768121
21
-0.0217619
0
LINE
8
DEFAULT_255_1_388
10
17.0012416
20
0.5330267
11
16.7988431
21
0.5330267
0
LINE
8
DEFAULT_255_1_388
10
16.7988431
20
0.5330267
11
16.7988431
21
-0.4979404
0
LINE
8
DEFAULT_255_1_388
10
16.7988431
20
-0.4979404
11
16.9813631
21
-0.4979404
0
LINE
8
DEFAULT_255_1_388
10
17.4051349
20
-0.0181477
11
17.4051349
21
0.0586553
0
ARC
8
DEFAULT_255_1_388
10
17.0011032
20
0.0159436
40
0.6598608
50
75.4100343
51
90.3802731
0
ARC
8
DEFAULT_255_1_388
10
17.0269278
20
0.1235691
40
0.5492049
50
60.1455157
51
75.1889627
0
ARC
8
DEFAULT_255_1_388
10
17.0447869
20
0.1546914
40
0.5133226
50
26.525419
51
60.1451222
0
ARC
8
DEFAULT_255_1_388
10
16.9187655
20
0.0878642
40
0.6559324
50
7.4029944
51
26.832209
0
ARC
8
DEFAULT_255_1_388
10
16.7394053
20
0.0599229
40
0.8374103
50
0.1605597
51
7.7176135
0
ARC
8
DEFAULT_255_1_388
10
16.7578453
20
-0.0260679
40
0.8189782
50
348.7289744
51
0.30125
0
ARC
8
DEFAULT_255_1_388
10
16.9441917
20
-0.0630844
40
0.628991
50
333.0706936
51
348.7181455
0
ARC
8
DEFAULT_255_1_388
10
17.0529545
20
-0.1221551
40
0.5052808
50
299.2531435
51
333.4571133
0
ARC
8
DEFAULT_255_1_388
10
17.0123576
20
-0.0450371
40
0.5924066
50
278.1072193
51
299.0340218
0
ARC
8
DEFAULT_255_1_388
10
16.9835624
20
0.1245979
40
0.7644209
50
270.4446841
51
278.4508355
0
ARC
8
DEFAULT_255_1_388
10
16.9859108
20
0.02003
40
0.5179903
50
269.4969684
51
284.0204874
0
ARC
8
DEFAULT_255_1_388
10
17.0258827
20
-0.1335585
40
0.3592968
50
283.7699076
51
318.1557121
0
ARC
8
DEFAULT_255_1_388
10
16.9879372
20
-0.1051601
40
0.4065308
50
318.7417595
51
343.687252
0
ARC
8
DEFAULT_255_1_388
10
16.7849951
20
-0.0417725
40
0.6191194
50
343.3324891
51
355.8548594
0
ARC
8
DEFAULT_255_1_388
10
16.5488988
20
-0.0193281
40
0.856237
50
355.4988754
51
0.0789913
0
ARC
8
DEFAULT_255_1_388
10
16.6369787
20
0.063408
40
0.7681709
50
359.6455047
51
9.8607559
0
ARC
8
DEFAULT_255_1_388
10
16.9025511
20
0.1113664
40
0.498312
50
9.6573037
51
26.1931522
0
ARC
8
DEFAULT_255_1_388
10
17.0069585
20
0.1598587
40
0.3832303
50
26.5777895
51
40.1533752
0
ARC
8
DEFAULT_255_1_388
10
17.035725
20
0.182302
40
0.3467742
50
40.3839958
51
80.1430923
0
ARC
8
DEFAULT_255_1_388
10
16.9989506
20
0.0192486
40
0.5137832
50
79.2153636
51
89.7445174
0
LINE
8
DEFAULT_255_1_388
10
18.7234354
20
0.6757898
11
18.7234354
21
0.5330267
0
LINE
8
DEFAULT_255_1_388
10
18.7234354
20
0.5330267
11
18.3005672
21
0.5330267
0
LINE
8
DEFAULT_255_1_388
10
18.3005672
20
0.5330267
11
18.3005672
21
-0.6398
0
LINE
8
DEFAULT_255_1_388
10
18.3005672
20
-0.6398
11
18.1279864
21
-0.6398
0
LINE
8
DEFAULT_255_1_388
10
18.1279864
20
-0.6398
11
18.1279864
21
0.5330267
0
LINE
8
DEFAULT_255_1_388
10
18.1279864
20
0.5330267
11
17.7060218
21
0.5330267
0
LINE
8
DEFAULT_255_1_388
10
17.7060218
20
0.5330267
11
17.7060218
21
0.6757898
0
LINE
8
DEFAULT_255_1_388
10
17.7060218
20
0.6757898
11
18.7234354
21
0.6757898
0
LINE
8
DEFAULT_255_1_388
10
19.0306473
20
-0.0127263
11
19.0306473
21
-0.1491645
0
LINE
8
DEFAULT_255_1_388
10
19.0306473
20
-0.1491645
11
18.5897079
21
-0.1491645
0
LINE
8
DEFAULT_255_1_388
10
18.5897079
20
-0.1491645
11
18.5897079
21
-0.0127263
0
LINE
8
DEFAULT_255_1_388
10
18.5897079
20
-0.0127263
11
19.0306473
21
-0.0127263
0
LINE
8
DEFAULT_255_1_388
10
19.5836288
20
-0.6398
11
19.2194923
21
-0.6398
0
LINE
8
DEFAULT_255_1_388
10
19.2194923
20
-0.6398
11
19.2194923
21
0.6757898
0
LINE
8
DEFAULT_255_1_388
10
19.2194923
20
0.6757898
11
19.5908573
21
0.6757898
0
LINE
8
DEFAULT_255_1_388
10
20.1709457
20
0.0622696
11
20.1709457
21
-0.0217619
0
LINE
8
DEFAULT_255_1_388
10
19.5953751
20
0.5330267
11
19.3929767
21
0.5330267
0
LINE
8
DEFAULT_255_1_388
10
19.3929767
20
0.5330267
11
19.3929767
21
-0.4979404
0
LINE
8
DEFAULT_255_1_388
10
19.3929767
20
-0.4979404
11
19.5754967
21
-0.4979404
0
LINE
8
DEFAULT_255_1_388
10
19.9992684
20
-0.0181477
11
19.9992684
21
0.0586553
0
ARC
8
DEFAULT_255_1_388
10
19.5952368
20
0.0159436
40
0.6598608
50
75.4100343
51
90.3802731
0
ARC
8
DEFAULT_255_1_388
10
19.6210613
20
0.1235691
40
0.5492049
50
60.1455157
51
75.1889627
0
ARC
8
DEFAULT_255_1_388
10
19.6389204
20
0.1546914
40
0.5133226
50
26.525419
51
60.1451222
0
ARC
8
DEFAULT_255_1_388
10
19.5128991
20
0.0878642
40
0.6559324
50
7.4029944
51
26.832209
0
ARC
8
DEFAULT_255_1_388
10
19.3335388
20
0.0599229
40
0.8374103
50
0.1605597
51
7.7176135
0
ARC
8
DEFAULT_255_1_388
10
19.3519788
20
-0.0260679
40
0.8189782
50
348.7289744
51
0.30125
0
ARC
8
DEFAULT_255_1_388
10
19.5383252
20
-0.0630844
40
0.628991
50
333.0706936
51
348.7181455
0
ARC
8
DEFAULT_255_1_388
10
19.647088
20
-0.1221551
40
0.5052808
50
299.2531435
51
333.4571133
0
ARC
8
DEFAULT_255_1_388
10
19.6064911
20
-0.0450371
40
0.5924066
50
278.1072193
51
299.0340218
0
ARC
8
DEFAULT_255_1_388
10
19.577696
20
0.1245979
40
0.7644209
50
270.4446841
51
278.4508355
0
ARC
8
DEFAULT_255_1_388
10
19.5800443
20
0.02003
40
0.5179903
50
269.4969684
51
284.0204874
0
ARC
8
DEFAULT_255_1_388
10
19.6200162
20
-0.1335585
40
0.3592968
50
283.7699076
51
318.1557121
0
ARC
8
DEFAULT_255_1_388
10
19.5820707
20
-0.1051601
40
0.4065308
50
318.7417595
51
343.687252
0
ARC
8
DEFAULT_255_1_388
10
19.3791286
20
-0.0417725
40
0.6191194
50
343.3324891
51
355.8548594
0
ARC
8
DEFAULT_255_1_388
10
19.1430323
20
-0.0193281
40
0.856237
50
355.4988754
51
0.0789913
0
ARC
8
DEFAULT_255_1_388
10
19.2311123
20
0.063408
40
0.7681709
50
359.6455047
51
9.8607559
0
ARC
8
DEFAULT_255_1_388
10
19.4966846
20
0.1113664
40
0.498312
50
9.6573037
51
26.1931522
0
ARC
8
DEFAULT_255_1_388
10
19.6010921
20
0.1598587
40
0.3832303
50
26.5777895
51
40.1533752
0
ARC
8
DEFAULT_255_1_388
10
19.6298586
20
0.182302
40
0.3467742
50
40.3839958
51
80.1430923
0
ARC
8
DEFAULT_255_1_388
10
19.5930841
20
0.0192486
40
0.5137832
50
79.2153636
51
89.7445174
0
ARC
8
DEFAULT_255_2_778
10
15.2718323
20
106.111689
40
0.3782009
50
0.4397807
51
91.3045231
0
ARC
8
DEFAULT_255_2_778
10
15.2696879
20
106.1094064
40
0.3803695
50
269.0259909
51
0.7811192
0
ARC
8
DEFAULT_255_2_778
10
15.4288293
20
106.0969643
40
0.7639615
50
290.7362057
51
357.8000295
0
ARC
8
DEFAULT_255_2_778
10
15.3436031
20
106.1145235
40
0.8499188
50
356.8376875
51
0.0046095
0
ARC
8
DEFAULT_255_2_778
10
15.3422443
20
106.1145748
40
0.8512778
50
0.0011515
51
85.3589632
0
ARC
8
DEFAULT_255_2_778
10
15.3422371
20
106.0955092
40
0.8702827
50
85.4600549
51
90.0075769
0
ARC
8
DEFAULT_255_2_778
10
20.173385
20
106.1052426
40
0.3845507
50
1.3931151
51
90.158378
0
ARC
8
DEFAULT_255_2_778
10
20.2329096
20
106.0988635
40
0.8684198
50
359.7643557
51
42.1181505
0
ARC
8
DEFAULT_255_2_778
10
20.2353156
20
106.0992931
40
0.866348
50
42.2037872
51
87.9292218
0
ARC
8
DEFAULT_255_2_778
10
20.2305626
20
106.0580097
40
0.9077821
50
87.7235759
51
90.0025578
0
ARC
8
DEFAULT_255_2_778
10
12.9264947
20
106.1121344
40
0.3777354
50
0.3727528
51
91.1638813
0
ARC
8
DEFAULT_255_2_778
10
12.9805692
20
106.0988595
40
0.8684602
50
359.7646302
51
42.1161032
0
ARC
8
DEFAULT_255_2_778
10
12.9830774
20
106.0994127
40
0.8662296
50
42.2002176
51
87.9268901
0
ARC
8
DEFAULT_255_2_778
10
12.9783626
20
106.0583749
40
0.9074169
50
87.7231194
51
90.002558
0
ARC
8
DEFAULT_255_2_778
10
17.559042
20
105.7070858
40
1.2841942
50
233.3100129
51
270.0348017
0
ARC
8
DEFAULT_255_2_778
10
17.5711133
20
105.7274622
40
1.3077482
50
187.7860459
51
233.4193197
0
ARC
8
DEFAULT_255_2_778
10
17.5893588
20
105.7290185
40
1.3260368
50
179.9838663
51
187.7458681
0
ARC
8
DEFAULT_255_2_778
10
17.5478523
20
105.7296375
40
1.2845303
50
143.7084173
51
180.0109545
0
ARC
8
DEFAULT_255_2_778
10
17.5629238
20
105.7245899
40
1.2996747
50
94.9692901
51
143.9223324
0
ARC
8
DEFAULT_255_2_778
10
17.5597032
20
105.7252347
40
1.2987573
50
89.9947559
51
94.8302073
0
ARC
8
DEFAULT_255_2_778
10
17.5619339
20
105.7194304
40
1.3045632
50
58.1407344
51
90.0927508
0
ARC
8
DEFAULT_255_2_778
10
17.5700831
20
105.7250662
40
1.2954809
50
3.5056409
51
58.315291
0
ARC
8
DEFAULT_255_2_778
10
17.5711163
20
105.7291563
40
1.2942058
50
359.9971467
51
3.3277024
0
ARC
8
DEFAULT_255_2_778
10
17.3826088
20
105.7270483
40
1.4827147
50
0.006083
51
0.0789681
0
ARC
8
DEFAULT_255_2_778
10
17.5604187
20
105.7272022
40
1.3049047
50
315.0308293
51
0.0001529
0
ARC
8
DEFAULT_255_2_778
10
17.5609377
20
105.7269521
40
1.3043608
50
270.000667
51
315.0224921
0
LINE
8
DEFAULT_255_2_778
10
17.5609529
20
104.4225914
11
17.5598221
21
104.4225919
0
ARC
8
DEFAULT_255_2_778
10
17.5640812
20
105.7254112
40
0.7580313
50
269.6780691
51
315.5292436
0
ARC
8
DEFAULT_255_2_778
10
17.5610107
20
105.7246878
40
0.7597205
50
315.7303962
51
0.2857903
0
ARC
8
DEFAULT_255_2_778
10
17.8487376
20
105.7289382
40
0.4719845
50
359.944048
51
0.0186519
0
ARC
8
DEFAULT_255_2_778
10
17.5687772
20
105.7279605
40
0.7519457
50
0.086204
51
85.4319233
0
ARC
8
DEFAULT_255_2_778
10
17.5599609
20
105.6855338
40
0.7949581
50
85.0420495
51
90.0100075
0
ARC
8
DEFAULT_255_2_778
10
17.5579396
20
105.7422519
40
0.7382424
50
89.8538973
51
89.9999976
0
ARC
8
DEFAULT_255_2_778
10
17.558077
20
105.7293044
40
0.7511899
50
90.01048
51
134.9443097
0
ARC
8
DEFAULT_255_2_778
10
17.5582947
20
105.7291222
40
0.7514726
50
134.9462486
51
180.0023145
0
ARC
8
DEFAULT_255_2_778
10
17.5708624
20
105.7251875
40
0.7640503
50
179.7072119
51
222.5790813
0
ARC
8
DEFAULT_255_2_778
10
17.5579296
20
105.7141475
40
0.7470579
50
222.6267201
51
270.1451401
0
ARC
8
DEFAULT_255_2_778
10
9.564442
20
105.7070858
40
1.2841942
50
233.3100129
51
270.0348017
0
ARC
8
DEFAULT_255_2_778
10
9.5765133
20
105.7274622
40
1.3077482
50
187.7860459
51
233.4193197
0
ARC
8
DEFAULT_255_2_778
10
9.5947588
20
105.7290185
40
1.3260368
50
179.9838663
51
187.7458681
0
ARC
8
DEFAULT_255_2_778
10
9.5535129
20
105.7294961
40
1.2847909
50
143.1940819
51
180.0046489
0
ARC
8
DEFAULT_255_2_778
10
9.5683078
20
105.7248006
40
1.2994598
50
94.9233187
51
143.4191345
0
ARC
8
DEFAULT_255_2_778
10
9.5651008
20
105.725512
40
1.2984798
50
89.9946509
51
94.7850278
0
ARC
8
DEFAULT_255_2_778
10
9.5673902
20
105.7193441
40
1.3046496
50
58.1428905
51
90.0952196
0
ARC
8
DEFAULT_255_2_778
10
9.5758177
20
105.7254453
40
1.2950254
50
3.2656058
51
58.3171105
0
ARC
8
DEFAULT_255_2_778
10
9.5763693
20
105.7294485
40
1.2942527
50
359.997494
51
3.0900664
0
ARC
8
DEFAULT_255_2_778
10
9.5936718
20
105.7272448
40
1.276952
50
359.9949307
51
0.0963391
0
ARC
8
DEFAULT_255_2_778
10
9.5663093
20
105.7272585
40
1.3043147
50
315.0200668
51
359.994431
0
ARC
8
DEFAULT_255_2_778
10
9.5663338
20
105.72702
40
1.3041287
50
270.0008363
51
315.026719
0
LINE
8
DEFAULT_255_2_778
10
9.5663529
20
104.4228914
11
9.5652221
21
104.4228919
0
ARC
8
DEFAULT_255_2_778
10
9.5694412
20
105.7254135
40
0.7580334
50
269.6810953
51
315.6152252
0
ARC
8
DEFAULT_255_2_778
10
9.5663839
20
105.7247381
40
0.7597504
50
315.8129036
51
0.3254485
0
ARC
8
DEFAULT_255_2_778
10
9.5738176
20
105.7276565
40
0.7523058
50
0.1093155
51
85.7820321
0
ARC
8
DEFAULT_255_2_778
10
9.5653381
20
105.6861263
40
0.7943655
50
85.3923987
51
90.0083732
0
ARC
8
DEFAULT_255_2_778
10
9.5633385
20
105.7413348
40
0.7391595
50
89.8539942
51
89.9999859
0
ARC
8
DEFAULT_255_2_778
10
9.563405
20
105.7294783
40
0.7510159
50
90.0050654
51
134.9497993
0
ARC
8
DEFAULT_255_2_778
10
9.5632746
20
105.7292963
40
0.7510526
50
134.9329452
51
180.0155944
0
ARC
8
DEFAULT_255_2_778
10
9.5762945
20
105.7251612
40
0.7640826
50
179.7052536
51
222.5741919
0
ARC
8
DEFAULT_255_2_778
10
9.5632805
20
105.7141163
40
0.7470269
50
222.6256588
51
270.1489141
0
LINE
8
DEFAULT_255_2_778
10
14.0768221
20
106.9451919
11
14.0768221
21
104.4823919
0
LINE
8
DEFAULT_255_2_778
10
14.0768221
20
104.4823919
11
14.6203221
21
104.4823919
0
LINE
8
DEFAULT_255_2_778
10
14.6203221
20
104.4823919
11
14.6203221
21
106.4897919
0
LINE
8
DEFAULT_255_2_778
10
14.6203221
20
106.4897919
11
15.2632221
21
106.4897919
0
LINE
8
DEFAULT_255_2_778
10
15.2632221
20
105.7290919
11
14.7986221
21
105.7290919
0
LINE
8
DEFAULT_255_2_778
10
14.7986221
20
105.7290919
11
15.6397221
21
104.4820919
0
LINE
8
DEFAULT_255_2_778
10
15.6397221
20
104.4820919
11
16.3126221
21
104.4820919
0
LINE
8
DEFAULT_255_2_778
10
16.3126221
20
104.4820919
11
15.6993221
21
105.3824919
0
LINE
8
DEFAULT_255_2_778
10
15.3421221
20
106.9657919
11
14.6200221
21
106.9657919
0
LINE
8
DEFAULT_255_2_778
10
14.6200221
20
106.9657919
11
14.0766221
21
106.9451919
0
LINE
8
DEFAULT_255_2_778
10
14.0766221
20
106.9451919
11
14.0768221
21
106.9451919
0
LINE
8
DEFAULT_255_2_778
10
19.0142221
20
106.9451919
11
19.0142221
21
104.4823919
0
LINE
8
DEFAULT_255_2_778
10
19.0142221
20
104.4823919
11
19.5577221
21
104.4823919
0
LINE
8
DEFAULT_255_2_778
10
19.5577221
20
104.4823919
11
19.5577221
21
106.4897919
0
LINE
8
DEFAULT_255_2_778
10
19.5577221
20
106.4897919
11
20.1723221
21
106.4897919
0
LINE
8
DEFAULT_255_2_778
10
20.5578221
20
106.1145919
11
20.5578221
21
104.4823919
0
LINE
8
DEFAULT_255_2_778
10
20.5578221
20
104.4823919
11
21.1013221
21
104.4823919
0
LINE
8
DEFAULT_255_2_778
10
21.1013221
20
104.4823919
11
21.1013221
21
106.0952919
0
LINE
8
DEFAULT_255_2_778
10
20.2305221
20
106.9657919
11
19.5577221
21
106.9657919
0
LINE
8
DEFAULT_255_2_778
10
19.5577221
20
106.9657919
11
19.0142221
21
106.9451919
0
LINE
8
DEFAULT_255_2_778
10
19.0142221
20
106.9451919
11
19.0142221
21
106.9451919
0
LINE
8
DEFAULT_255_2_778
10
11.0196221
20
106.9451919
11
11.0196221
21
104.4823919
0
LINE
8
DEFAULT_255_2_778
10
11.0196221
20
104.4823919
11
11.5628221
21
104.4823919
0
LINE
8
DEFAULT_255_2_778
10
11.5628221
20
104.4823919
11
11.5628221
21
106.4897919
0
LINE
8
DEFAULT_255_2_778
10
11.5628221
20
106.4897919
11
12.1671221
21
106.4897919
0
LINE
8
DEFAULT_255_2_778
10
12.1671221
20
106.4897919
11
12.1671221
21
104.4823919
0
LINE
8
DEFAULT_255_2_778
10
12.1671221
20
104.4823919
11
12.7105221
21
104.4823919
0
LINE
8
DEFAULT_255_2_778
10
12.7105221
20
104.4823919
11
12.7105221
21
106.4897919
0
LINE
8
DEFAULT_255_2_778
10
12.7105221
20
106.4897919
11
12.9188221
21
106.4897919
0
LINE
8
DEFAULT_255_2_778
10
13.3042221
20
106.1145919
11
13.3042221
21
104.4823919
0
LINE
8
DEFAULT_255_2_778
10
13.3042221
20
104.4823919
11
13.8490221
21
104.4823919
0
LINE
8
DEFAULT_255_2_778
10
13.8490221
20
104.4823919
11
13.8490221
21
106.0952919
0
LINE
8
DEFAULT_255_2_778
10
12.9783221
20
106.9657919
11
11.5731221
21
106.9657919
0
LINE
8
DEFAULT_255_2_778
10
11.5731221
20
106.9657919
11
11.0193221
21
106.9451919
0
LINE
8
DEFAULT_255_2_778
10
11.0193221
20
106.9451919
11
11.0196221
21
106.9451919
0
LINE
8
DEFAULT_255_2_778
10
17.5598221
20
104.4225919
11
17.5598221
21
104.4228919
0
LINE
8
DEFAULT_255_2_778
10
9.5652221
20
104.4228919
11
9.5652221
21
104.4228919
0
LINE
8
DEFAULT_255_1_388
10
11.120132
20
102.3037468
11
11.2945199
21
102.3037468
0
LINE
8
DEFAULT_255_1_388
10
10.2816242
20
102.4826525
11
10.2816242
21
102.6091516
0
LINE
8
DEFAULT_255_1_388
10
11.2945199
20
102.7790217
11
11.120132
21
102.7790217
0
LINE
8
DEFAULT_255_1_388
10
10.4560121
20
102.6046337
11
10.4560121
21
102.4772312
0
ARC
8
DEFAULT_255_1_388
10
10.6779433
20
102.3709329
40
0.6202263
50
340.1774904
51
353.7812217
0
ARC
8
DEFAULT_255_1_388
10
10.8547286
20
102.3050893
40
0.4315926
50
311.4560052
51
340.4420756
0
ARC
8
DEFAULT_255_1_388
10
10.8509826
20
102.3175665
40
0.4434573
50
282.4332229
51
310.7514507
0
ARC
8
DEFAULT_255_1_388
10
10.8015644
20
102.5217703
40
0.6535262
50
269.9358869
51
282.8096729
0
ARC
8
DEFAULT_255_1_388
10
10.7957583
20
102.6730329
40
0.8048043
50
269.9995752
51
270.3612856
0
ARC
8
DEFAULT_255_1_388
10
10.7898073
20
102.3931781
40
0.5249831
50
250.7885263
51
270.6488451
0
ARC
8
DEFAULT_255_1_388
10
10.7708898
20
102.3214853
40
0.4510942
50
219.3628377
51
250.0611024
0
ARC
8
DEFAULT_255_1_388
10
10.8641772
20
102.4007653
40
0.5735046
50
193.5480293
51
219.5755675
0
ARC
8
DEFAULT_255_1_388
10
11.1309981
20
102.470052
40
0.849146
50
181.1220183
51
193.8754971
0
ARC
8
DEFAULT_255_1_388
10
11.3633214
20
102.4824914
40
1.0816971
50
179.9914644
51
181.5398227
0
ARC
8
DEFAULT_255_1_388
10
11.1556525
20
102.6133586
40
0.8740384
50
169.5837606
51
180.275782
0
ARC
8
DEFAULT_255_1_388
10
10.9489873
20
102.6515439
40
0.6638751
50
155.0367033
51
169.6002779
0
ARC
8
DEFAULT_255_1_388
10
10.8212331
20
102.7131336
40
0.5220662
50
136.7831557
51
155.2472983
0
ARC
8
DEFAULT_255_1_388
10
10.7774122
20
102.7503577
40
0.4646502
50
121.7633063
51
136.4281161
0
ARC
8
DEFAULT_255_1_388
10
10.7925962
20
102.7223049
40
0.4964979
50
95.6460018
51
121.5489589
0
ARC
8
DEFAULT_255_1_388
10
10.8102936
20
102.5975704
40
0.6223912
50
89.9245727
51
96.1375919
0
ARC
8
DEFAULT_255_1_388
10
10.8159641
20
102.6109721
40
0.6090084
50
76.6779212
51
90.456405
0
ARC
8
DEFAULT_255_1_388
10
10.8602454
20
102.789906
40
0.42469
50
47.4858803
51
76.9287069
0
ARC
8
DEFAULT_255_1_388
10
10.8437068
20
102.7786623
40
0.4441778
50
16.5424081
51
46.8934505
0
ARC
8
DEFAULT_255_1_388
10
10.6628118
20
102.7192265
40
0.6345318
50
5.4072971
51
17.0363711
0
ARC
8
DEFAULT_255_1_388
10
10.5009843
20
102.6932304
40
0.6250632
50
7.8888693
51
15.9242022
0
ARC
8
DEFAULT_255_1_388
10
10.7244828
20
102.7581309
40
0.3923364
50
15.7650676
51
27.9410069
0
ARC
8
DEFAULT_255_1_388
10
10.8486997
20
102.8246317
40
0.2514401
50
27.8167196
51
46.4007942
0
ARC
8
DEFAULT_255_1_388
10
10.8542839
20
102.8239882
40
0.2480958
50
47.4372362
51
75.0695672
0
ARC
8
DEFAULT_255_1_388
10
10.8195675
20
102.7031277
40
0.3738281
50
74.7009379
51
87.8124314
0
ARC
8
DEFAULT_255_1_388
10
10.8113292
20
102.5847659
40
0.4924321
50
87.3802571
51
90.0251599
0
ARC
8
DEFAULT_255_1_388
10
10.8069939
20
102.7167997
40
0.3604218
50
89.3451886
51
108.5744412
0
ARC
8
DEFAULT_255_1_388
10
10.7915931
20
102.7745836
40
0.3007661
50
109.2998307
51
143.3037387
0
ARC
8
DEFAULT_255_1_388
10
10.8773221
20
102.7086584
40
0.4089031
50
143.075267
51
163.1918576
0
ARC
8
DEFAULT_255_1_388
10
11.0969055
20
102.6393652
40
0.6391492
50
162.9375929
51
174.6208776
0
ARC
8
DEFAULT_255_1_388
10
11.3923437
20
102.6069711
40
0.9363344
50
174.342123
51
180.1430283
0
ARC
8
DEFAULT_255_1_388
10
11.2875978
20
102.4726117
40
0.8315986
50
179.6817261
51
189.150555
0
ARC
8
DEFAULT_255_1_388
10
11.0062727
20
102.4257559
40
0.5464044
50
188.9911061
51
203.5772363
0
ARC
8
DEFAULT_255_1_388
10
10.8848019
20
102.3753539
40
0.4149206
50
203.9075402
51
215.1312435
0
ARC
8
DEFAULT_255_1_388
10
10.7809817
20
102.2948907
40
0.2837747
50
213.9071511
51
263.8848919
0
ARC
8
DEFAULT_255_1_388
10
10.795081
20
102.3831519
40
0.3730641
50
263.1757928
51
270.1031044
0
ARC
8
DEFAULT_255_1_388
10
10.798689
20
102.5234511
40
0.5133712
50
269.6722503
51
279.0606936
0
ARC
8
DEFAULT_255_1_388
10
10.8287045
20
102.342015
40
0.3294739
50
278.8749101
51
293.6349581
0
ARC
8
DEFAULT_255_1_388
10
10.8647249
20
102.2574251
40
0.2375405
50
293.8553806
51
310.0518171
0
ARC
8
DEFAULT_255_1_388
10
10.8652758
20
102.2504021
40
0.2318463
50
311.0644687
51
332.0111037
0
ARC
8
DEFAULT_255_1_388
10
10.7311431
20
102.3243702
40
0.3850112
50
331.6586806
51
343.2877423
0
ARC
8
DEFAULT_255_1_388
10
10.4990896
20
102.3956806
40
0.6277712
50
343.1446576
51
351.0103568
0
ARC
8
DEFAULT_255_1_388
10
10.335822
20
102.4256873
40
0.7937327
50
350.71248
51
351.1626997
0
LINE
8
DEFAULT_255_1_388
10
12.0146608
20
102.4013317
11
11.7047382
21
102.4013317
0
LINE
8
DEFAULT_255_1_388
10
11.7047382
20
102.4013317
11
11.7047382
21
101.8863
0
LINE
8
DEFAULT_255_1_388
10
11.7047382
20
101.8863
11
11.5312538
21
101.8863
0
LINE
8
DEFAULT_255_1_388
10
11.5312538
20
101.8863
11
11.5312538
21
103.2018898
0
LINE
8
DEFAULT_255_1_388
10
11.5312538
20
103.2018898
11
12.0164679
21
103.2018898
0
LINE
8
DEFAULT_255_1_388
10
11.7047382
20
103.0591267
11
11.7047382
21
102.5431914
0
LINE
8
DEFAULT_255_1_388
10
11.7047382
20
102.5431914
11
12.0164679
21
102.5431914
0
LINE
8
DEFAULT_255_1_388
10
12.0264071
20
103.0591267
11
11.7047382
21
103.0591267
0
ARC
8
DEFAULT_255_1_388
10
12.0212053
20
102.5202334
40
0.6816729
50
78.8380084
51
90.398184
0
ARC
8
DEFAULT_255_1_388
10
12.0680083
20
102.7475796
40
0.449571
50
58.9633273
51
79.0810717
0
ARC
8
DEFAULT_255_1_388
10
12.1019468
20
102.8105823
40
0.3781049
50
48.0194715
51
58.4475592
0
ARC
8
DEFAULT_255_1_388
10
12.1119287
20
102.8201818
40
0.3642936
50
3.3374546
51
48.1766642
0
ARC
8
DEFAULT_255_1_388
10
11.9734094
20
102.8002581
40
0.5038766
50
359.9483251
51
4.6822857
0
ARC
8
DEFAULT_255_1_388
10
11.9874017
20
102.7954779
40
0.4899031
50
346.1879032
51
0.5059221
0
ARC
8
DEFAULT_255_1_388
10
12.1402809
20
102.7557763
40
0.3319729
50
310.8832219
51
346.5426612
0
ARC
8
DEFAULT_255_1_388
10
12.1055657
20
102.8026853
40
0.3901853
50
286.6925305
51
310.228778
0
ARC
8
DEFAULT_255_1_388
10
12.0415387
20
103.0040585
40
0.6014737
50
274.6848219
51
287.0247342
0
ARC
8
DEFAULT_255_1_388
10
12.0161936
20
103.2525088
40
0.8511785
50
269.8968222
51
275.0192639
0
ARC
8
DEFAULT_255_1_388
10
12.0192929
20
103.0187144
40
0.4755314
50
269.6596206
51
279.4150542
0
ARC
8
DEFAULT_255_1_388
10
12.0482387
20
102.8509945
40
0.3053379
50
279.2050006
51
294.9901776
0
ARC
8
DEFAULT_255_1_388
10
12.0809022
20
102.7781353
40
0.2255036
50
295.2886769
51
311.2912669
0
ARC
8
DEFAULT_255_1_388
10
12.0888763
20
102.7662938
40
0.2113522
50
311.7853512
51
347.2860549
0
ARC
8
DEFAULT_255_1_388
10
11.9781925
20
102.794743
40
0.3256011
50
346.6891629
51
0.1057086
0
ARC
8
DEFAULT_255_1_388
10
11.8859384
20
102.7980247
40
0.417863
50
359.63239
51
359.9961329
0
ARC
8
DEFAULT_255_1_388
10
12.0023989
20
102.8007987
40
0.3014155
50
359.4673371
51
15.5931159
0
ARC
8
DEFAULT_255_1_388
10
12.0727052
20
102.8197937
40
0.2285918
50
15.7441779
51
46.620186
0
ARC
8
DEFAULT_255_1_388
10
12.0560812
20
102.8006361
40
0.2539359
50
46.8628482
51
75.6676625
0
ARC
8
DEFAULT_255_1_388
10
12.0229869
20
102.6815243
40
0.3775415
50
75.2763152
51
88.2916439
0
ARC
8
DEFAULT_255_1_388
10
12.0163868
20
102.5813097
40
0.4779221
50
87.8589087
51
88.7986197
0
LINE
8
DEFAULT_255_1_388
10
13.020328
20
102.5133737
11
13.020328
21
102.3769355
0
LINE
8
DEFAULT_255_1_388
10
13.020328
20
102.3769355
11
12.5793886
21
102.3769355
0
LINE
8
DEFAULT_255_1_388
10
12.5793886
20
102.3769355
11
12.5793886
21
102.5133737
0
LINE
8
DEFAULT_255_1_388
10
12.5793886
20
102.5133737
11
13.020328
21
102.5133737
0
LINE
8
DEFAULT_255_1_388
10
14.0820163
20
102.8214892
11
13.9076283
21
102.8214892
0
LINE
8
DEFAULT_255_1_388
10
13.1287558
20
102.2676042
11
13.3031437
21
102.2676042
0
ARC
8
DEFAULT_255_1_388
10
13.981701
20
103.8278821
40
1.4087688
50
248.9196578
51
254.1442424
0
ARC
8
DEFAULT_255_1_388
10
13.792689
20
103.3412805
40
0.8867498
50
241.6337352
51
249.0064643
0
ARC
8
DEFAULT_255_1_388
10
13.6207204
20
103.0261764
40
0.5277799
50
230.4982261
51
241.8087583
0
ARC
8
DEFAULT_255_1_388
10
13.5324975
20
102.9137686
40
0.3849419
50
227.4062979
51
229.9877433
0
ARC
8
DEFAULT_255_1_388
10
13.4776321
20
102.8602155
40
0.3084129
50
200.6782127
51
228.1765252
0
ARC
8
DEFAULT_255_1_388
10
13.485769
20
102.8585277
40
0.315461
50
179.506278
51
199.8695278
0
ARC
8
DEFAULT_255_1_388
10
13.4847279
20
102.8668671
40
0.3144584
50
132.4834401
51
181.0242352
0
ARC
8
DEFAULT_255_1_388
10
13.5516483
20
102.8036788
40
0.4063094
50
129.2526113
51
133.4249077
0
ARC
8
DEFAULT_255_1_388
10
13.5682076
20
102.7788619
40
0.436014
50
101.9878945
51
128.8741833
0
ARC
8
DEFAULT_255_1_388
10
13.6130491
20
102.585236
40
0.6347415
50
89.5906376
51
102.3170567
0
ARC
8
DEFAULT_255_1_388
10
13.6209803
20
102.6210586
40
0.5989122
50
77.2359491
51
90.3248968
0
ARC
8
DEFAULT_255_1_388
10
13.6442734
20
102.7298554
40
0.4876594
50
63.8379856
51
77.0808925
0
ARC
8
DEFAULT_255_1_388
10
13.6755267
20
102.7880882
40
0.4216191
50
45.9863127
51
64.1608798
0
ARC
8
DEFAULT_255_1_388
10
13.7048661
20
102.821599
40
0.3771394
50
32.2747934
51
45.6544796
0
ARC
8
DEFAULT_255_1_388
10
13.7123467
20
102.8237426
40
0.3696765
50
359.6507495
51
32.6129943
0
ARC
8
DEFAULT_255_1_388
10
13.606265
20
102.8242788
40
0.3013762
50
359.469654
51
14.983205
0
ARC
8
DEFAULT_255_1_388
10
13.6855902
20
102.8455288
40
0.2192542
50
14.9781954
51
48.2004799
0
ARC
8
DEFAULT_255_1_388
10
13.6671013
20
102.8222937
40
0.2489048
50
48.5926661
51
74.1242559
0
ARC
8
DEFAULT_255_1_388
10
13.6295815
20
102.6984607
40
0.3782845
50
73.7889321
51
86.6653996
0
ARC
8
DEFAULT_255_1_388
10
13.618063
20
102.5626955
40
0.5145025
50
86.2642725
51
90.0533288
0
ARC
8
DEFAULT_255_1_388
10
13.6148723
20
102.6071376
40
0.4700681
50
89.669455
51
99.2313411
0
ARC
8
DEFAULT_255_1_388
10
13.5875883
20
102.7696401
40
0.3052945
50
99.0695987
51
113.7659242
0
ARC
8
DEFAULT_255_1_388
10
13.5567877
20
102.8422772
40
0.226407
50
114.0402885
51
127.9848946
0
ARC
8
DEFAULT_255_1_388
10
13.5297353
20
102.8755884
40
0.1835045
50
127.7287217
51
176.7106493
0
ARC
8
DEFAULT_255_1_388
10
13.6061018
20
102.864221
40
0.2604907
50
175.1780759
51
180.0581213
0
ARC
8
DEFAULT_255_1_388
10
13.5112362
20
102.8628411
40
0.1656287
50
179.6140658
51
228.124674
0
ARC
8
DEFAULT_255_1_388
10
13.5609719
20
102.908894
40
0.2332038
50
226.5785315
51
230.8792476
0
ARC
8
DEFAULT_255_1_388
10
13.6139206
20
102.9791908
40
0.3211664
50
231.4636401
51
241.9261664
0
ARC
8
DEFAULT_255_1_388
10
13.7485989
20
103.2270349
40
0.6032345
50
241.7177136
51
248.3259138
0
ARC
8
DEFAULT_255_1_388
10
13.9044584
20
103.6131771
40
1.0196417
50
248.2007377
51
252.4527713
0
ARC
8
DEFAULT_255_1_388
10
14.0398111
20
104.0316092
40
1.4594143
50
252.3388938
51
254.347037
0
ARC
8
DEFAULT_255_1_388
10
13.1913411
20
100.9968095
40
1.6917621
50
71.0197462
51
74.4085467
0
ARC
8
DEFAULT_255_1_388
10
13.3820499
20
101.5473144
40
1.1091618
50
66.1845203
51
71.086519
0
ARC
8
DEFAULT_255_1_388
10
13.5571048
20
101.9414439
40
0.6779073
50
59.3537334
51
66.269255
0
ARC
8
DEFAULT_255_1_388
10
13.6570774
20
102.1105777
40
0.4814366
50
49.1021732
51
59.3294421
0
ARC
8
DEFAULT_255_1_388
10
13.7491762
20
102.2155575
40
0.3417875
50
32.7924183
51
49.2503526
0
ARC
8
DEFAULT_255_1_388
10
13.7841376
20
102.2405311
40
0.2988789
50
31.121225
51
32.3977355
0
ARC
8
DEFAULT_255_1_388
10
13.7753554
20
102.2372728
40
0.3080861
50
8.1116803
51
30.7958224
0
ARC
8
DEFAULT_255_1_388
10
13.68419
20
102.2217437
40
0.4005385
50
359.8390945
51
8.4707348
0
ARC
8
DEFAULT_255_1_388
10
13.7545948
20
102.2162751
40
0.3301608
50
337.4732479
51
0.7538283
0
ARC
8
DEFAULT_255_1_388
10
13.7746973
20
102.2140554
40
0.3107929
50
307.5917028
51
336.4313755
0
ARC
8
DEFAULT_255_1_388
10
13.7236031
20
102.2708509
40
0.3870096
50
307.6560665
51
308.4561779
0
ARC
8
DEFAULT_255_1_388
10
13.6970247
20
102.3116832
40
0.435591
50
284.3733666
51
307.1426212
0
ARC
8
DEFAULT_255_1_388
10
13.6413141
20
102.5166391
40
0.6479685
50
272.4384566
51
284.6464689
0
ARC
8
DEFAULT_255_1_388
10
13.6270526
20
102.7190434
40
0.8508149
50
269.9708517
51
272.8180721
0
ARC
8
DEFAULT_255_1_388
10
13.6222209
20
102.4898283
40
0.6216151
50
248.2707343
51
270.4054609
0
ARC
8
DEFAULT_255_1_388
10
13.616108
20
102.4683673
40
0.5994203
50
246.1380358
51
248.054058
0
ARC
8
DEFAULT_255_1_388
10
13.5690223
20
102.3694705
40
0.4899388
50
233.1671897
51
246.4951656
0
ARC
8
DEFAULT_255_1_388
10
13.5066858
20
102.2853137
40
0.3852115
50
215.3403381
51
233.084328
0
ARC
8
DEFAULT_255_1_388
10
13.4760222
20
102.2630093
40
0.3472969
50
179.2419235
51
215.2648426
0
ARC
8
DEFAULT_255_1_388
10
13.5623773
20
102.2645979
40
0.259251
50
179.3355796
51
199.1045873
0
ARC
8
DEFAULT_255_1_388
10
13.5249915
20
102.2548223
40
0.2207454
50
199.8830064
51
232.7061328
0
ARC
8
DEFAULT_255_1_388
10
13.5781189
20
102.3216456
40
0.306101
50
232.3736206
51
255.5136621
0
ARC
8
DEFAULT_255_1_388
10
13.6164695
20
102.4616177
40
0.4512213
50
255.2447928
51
267.5318292
0
ARC
8
DEFAULT_255_1_388
10
13.6263162
20
102.6002709
40
0.5901825
50
267.1564563
51
270.0294721
0
ARC
8
DEFAULT_255_1_388
10
13.6294487
20
102.5503623
40
0.5402814
50
269.6999944
51
278.1662446
0
ARC
8
DEFAULT_255_1_388
10
13.6582515
20
102.3556974
40
0.3435003
50
278.0229022
51
290.6255326
0
ARC
8
DEFAULT_255_1_388
10
13.6973681
20
102.2513547
40
0.2320666
50
290.6616368
51
307.0374127
0
ARC
8
DEFAULT_255_1_388
10
13.7311581
20
102.209904
40
0.1786372
50
306.3942078
51
355.303191
0
ARC
8
DEFAULT_255_1_388
10
13.6735874
20
102.2185186
40
0.2367516
50
354.3662092
51
0.0709489
0
ARC
8
DEFAULT_255_1_388
10
13.6895743
20
102.2210561
40
0.2207761
50
359.4175379
51
16.1975911
0
ARC
8
DEFAULT_255_1_388
10
13.7407861
20
102.2350954
40
0.1676828
50
16.4721294
51
52.6261798
0
ARC
8
DEFAULT_255_1_388
10
13.6484368
20
102.1131606
40
0.3206412
50
52.7381828
51
62.4979144
0
ARC
8
DEFAULT_255_1_388
10
13.4926121
20
101.8199236
40
0.6527035
50
62.2517425
51
68.1219454
0
ARC
8
DEFAULT_255_1_388
10
13.2991609
20
101.3444951
40
1.1659797
50
68.006043
51
71.8055127
0
ARC
8
DEFAULT_255_1_388
10
13.0971517
20
100.7386723
40
1.8045908
50
71.718361
51
73.9260743
0
LINE
8
DEFAULT_255_1_388
10
14.2383329
20
102.3480214
11
14.2383329
21
102.3787426
0
LINE
8
DEFAULT_255_1_388
10
15.0678051
20
102.3968139
11
15.0678051
21
102.3272395
0
LINE
8
DEFAULT_255_1_388
10
15.0678051
20
102.3272395
11
14.4054923
21
102.3272395
0
LINE
8
DEFAULT_255_1_388
10
14.9530524
20
102.1365874
11
15.0551552
21
102.0570737
0
LINE
8
DEFAULT_255_1_388
10
14.4109137
20
102.4645813
11
14.9006457
21
102.4645813
0
LINE
8
DEFAULT_255_1_388
10
14.9006457
20
102.4645813
11
14.9006457
21
102.4772312
0
ARC
8
DEFAULT_255_1_388
10
14.681509
20
102.360521
40
0.4923176
50
252.326534
51
270.5809615
0
ARC
8
DEFAULT_255_1_388
10
14.6584555
20
102.277194
40
0.4059384
50
223.3000488
51
251.8562489
0
ARC
8
DEFAULT_255_1_388
10
14.6822335
20
102.3002898
40
0.4390832
50
190.9374369
51
223.3654369
0
ARC
8
DEFAULT_255_1_388
10
14.8763012
20
102.3441598
40
0.63798
50
179.6531919
51
191.4988561
0
ARC
8
DEFAULT_255_1_388
10
14.8900039
20
102.3823571
40
0.6516811
50
167.4005523
51
180.3177836
0
ARC
8
DEFAULT_255_1_388
10
14.7716711
20
102.4073853
40
0.5307402
50
154.1835149
51
167.2508278
0
ARC
8
DEFAULT_255_1_388
10
14.7006302
20
102.4447925
40
0.4505076
50
134.3150225
51
154.5315008
0
ARC
8
DEFAULT_255_1_388
10
14.6761637
20
102.466255
40
0.4180662
50
122.8617482
51
133.9707159
0
ARC
8
DEFAULT_255_1_388
10
14.6645244
20
102.4912882
40
0.3907416
50
89.8248474
51
123.4199325
0
ARC
8
DEFAULT_255_1_388
10
14.6701542
20
102.4185352
40
0.4635141
50
74.7874349
51
90.5482648
0
ARC
8
DEFAULT_255_1_388
10
14.7032006
20
102.5405987
40
0.3370565
50
39.8178888
51
74.7634383
0
ARC
8
DEFAULT_255_1_388
10
14.6455248
20
102.4956356
40
0.4101553
50
16.8990848
51
39.4830125
0
ARC
8
DEFAULT_255_1_388
10
14.4323862
20
102.4273711
40
0.6339427
50
4.9634768
51
17.2027767
0
ARC
8
DEFAULT_255_1_388
10
14.1603267
20
102.39866
40
0.9074803
50
359.8834402
51
5.2832409
0
ARC
8
DEFAULT_255_1_388
10
14.8395625
20
102.3346981
40
0.4341343
50
180.9844233
51
194.9402766
0
ARC
8
DEFAULT_255_1_388
10
14.7214791
20
102.302417
40
0.3117211
50
194.8030557
51
222.0412897
0
ARC
8
DEFAULT_255_1_388
10
14.6872663
20
102.2684715
40
0.2635903
50
221.541578
51
268.8616004
0
ARC
8
DEFAULT_255_1_388
10
14.6954783
20
102.344528
40
0.3398611
50
267.7321071
51
270.009808
0
ARC
8
DEFAULT_255_1_388
10
14.6974847
20
102.3672178
40
0.3625561
50
269.6921218
51
280.4122297
0
ARC
8
DEFAULT_255_1_388
10
14.7173258
20
102.2638767
40
0.2573323
50
280.2257165
51
298.633539
0
ARC
8
DEFAULT_255_1_388
10
14.7298672
20
102.2374578
40
0.2281403
50
299.0485543
51
300.4624141
0
ARC
8
DEFAULT_255_1_388
10
14.6539652
20
102.3639796
40
0.3756797
50
300.6578578
51
322.037749
0
ARC
8
DEFAULT_255_1_388
10
14.6169174
20
102.3963266
40
0.4247956
50
321.671786
51
322.3059078
0
ARC
8
DEFAULT_255_1_388
10
14.7192737
20
102.2669267
40
0.3960488
50
276.9729088
51
328.0035579
0
ARC
8
DEFAULT_255_1_388
10
14.6881207
20
102.4334609
40
0.5652345
50
269.8358003
51
278.0581296
0
ARC
8
DEFAULT_255_1_388
10
14.6625506
20
102.517282
40
0.2274263
50
89.2017936
51
117.2852353
0
ARC
8
DEFAULT_255_1_388
10
14.6685257
20
102.5125637
40
0.2343798
50
118.0546404
51
137.4544511
0
ARC
8
DEFAULT_255_1_388
10
14.7106901
20
102.4742556
40
0.2913471
50
137.5109688
51
158.8516701
0
ARC
8
DEFAULT_255_1_388
10
14.8387001
20
102.4225902
40
0.4293804
50
158.5845496
51
170.1719753
0
ARC
8
DEFAULT_255_1_388
10
14.9703337
20
102.3964519
40
0.5635533
50
169.8378964
51
173.0563877
0
ARC
8
DEFAULT_255_1_388
10
14.4418621
20
102.4539187
40
0.4593755
50
2.9089079
51
12.88469
0
ARC
8
DEFAULT_255_1_388
10
14.596054
20
102.4902082
40
0.3009753
50
12.6957404
51
28.6405841
0
ARC
8
DEFAULT_255_1_388
10
14.6570037
20
102.5217577
40
0.232366
50
29.016559
51
41.1492981
0
ARC
8
DEFAULT_255_1_388
10
14.6798016
20
102.541608
40
0.2021373
50
41.1646967
51
85.001362
0
ARC
8
DEFAULT_255_1_388
10
14.666202
20
102.4589775
40
0.2857091
50
83.728216
51
90.0968824
0
LINE
8
DEFAULT_255_1_388
10
15.7337321
20
102.8693781
11
15.7337321
21
102.713965
0
LINE
8
DEFAULT_255_1_388
10
15.4283273
20
102.5802375
11
15.4283273
21
101.8863
0
LINE
8
DEFAULT_255_1_388
10
15.4283273
20
101.8863
11
15.2611679
21
101.8863
0
LINE
8
DEFAULT_255_1_388
10
15.2611679
20
101.8863
11
15.2611679
21
102.8639567
0
LINE
8
DEFAULT_255_1_388
10
15.2611679
20
102.8639567
11
15.4238095
21
102.8639567
0
LINE
8
DEFAULT_255_1_388
10
15.4238095
20
102.8639567
11
15.4265202
21
102.7510112
0
ARC
8
DEFAULT_255_1_388
10
15.6587481
20
102.2573068
40
0.4627735
50
80.6751522
51
86.893806
0
ARC
8
DEFAULT_255_1_388
10
15.651931
20
102.1481103
40
0.5721798
50
86.8046851
51
90.0423898
0
ARC
8
DEFAULT_255_1_388
10
15.647773
20
102.4248197
40
0.2954939
50
89.2758283
51
106.6212906
0
ARC
8
DEFAULT_255_1_388
10
15.6247755
20
102.5084009
40
0.2088351
50
107.1347109
51
157.6456887
0
ARC
8
DEFAULT_255_1_388
10
15.7015817
20
102.4656908
40
0.296292
50
155.6557383
51
157.256838
0
ARC
8
DEFAULT_255_1_388
10
15.6795431
20
102.5967472
40
0.296341
50
127.8167201
51
148.6300223
0
ARC
8
DEFAULT_255_1_388
10
15.6510178
20
102.6260066
40
0.2557782
50
91.3329934
51
126.7875218
0
ARC
8
DEFAULT_255_1_388
10
15.6595566
20
102.5456718
40
0.3363561
50
89.9858247
51
92.4688453
0
ARC
8
DEFAULT_255_1_388
10
15.6605059
20
102.5765114
40
0.3055179
50
85.3587643
51
90.1624243
0
ARC
8
DEFAULT_255_1_388
10
15.6700124
20
102.6894458
40
0.1921848
50
78.4019195
51
85.4592653
0
ARC
8
DEFAULT_255_1_388
10
15.6863185
20
102.7672142
40
0.1127267
50
67.7849217
51
78.573798
0
ARC
8
DEFAULT_255_1_388
10
15.6984819
20
102.7987374
40
0.0789473
50
63.4805074
51
67.3074739
0
LINE
8
DEFAULT_255_1_388
10
16.0689545
20
102.8639567
11
16.0689545
21
101.8863
0
LINE
8
DEFAULT_255_1_388
10
16.0689545
20
101.8863
11
15.9017951
21
101.8863
0
LINE
8
DEFAULT_255_1_388
10
15.9017951
20
101.8863
11
15.9017951
21
102.8639567
0
LINE
8
DEFAULT_255_1_388
10
15.9017951
20
102.8639567
11
16.0689545
21
102.8639567
0
ARC
8
DEFAULT_255_1_388
10
15.9983313
20
103.1243428
40
0.1100948
50
161.4148232
51
180.5532607
0
ARC
8
DEFAULT_255_1_388
10
15.9843623
20
103.1281875
40
0.0956324
50
138.1830164
51
160.9307633
0
ARC
8
DEFAULT_255_1_388
10
15.971981
20
103.1389313
40
0.0792417
50
104.6371663
51
138.0036136
0
ARC
8
DEFAULT_255_1_388
10
15.9840349
20
103.0976963
40
0.1221906
50
92.0601206
51
105.2198859
0
ARC
8
DEFAULT_255_1_388
10
15.9866713
20
103.0588583
40
0.161103
50
89.9790681
51
92.5006086
0
ARC
8
DEFAULT_255_1_388
10
15.9877889
20
103.0844998
40
0.1354654
50
78.0234649
51
90.4478111
0
ARC
8
DEFAULT_255_1_388
10
15.9981473
20
103.1310203
40
0.0878096
50
55.0521508
51
78.336297
0
ARC
8
DEFAULT_255_1_388
10
16.0038008
20
103.1405168
40
0.0767913
50
42.0506198
51
54.4508489
0
ARC
8
DEFAULT_255_1_388
10
15.988604
20
103.1265821
40
0.0974091
50
1.7493657
51
42.1498724
0
ARC
8
DEFAULT_255_1_388
10
15.9599946
20
103.1233166
40
0.1261276
50
359.9832635
51
2.8353994
0
ARC
8
DEFAULT_255_1_388
10
15.9786356
20
103.1222412
40
0.1074916
50
342.1062453
51
0.5535864
0
ARC
8
DEFAULT_255_1_388
10
15.994678
20
103.1178197
40
0.0908695
50
316.7110111
51
341.6513114
0
ARC
8
DEFAULT_255_1_388
10
16.0022212
20
103.1110607
40
0.0807447
50
285.4398289
51
316.5320129
0
ARC
8
DEFAULT_255_1_388
10
15.9898383
20
103.1522023
40
0.1237022
50
272.3543902
51
285.8951677
0
ARC
8
DEFAULT_255_1_388
10
15.9868093
20
103.1937742
40
0.1653687
50
269.9725761
51
272.8112722
0
ARC
8
DEFAULT_255_1_388
10
15.9857145
20
103.1686727
40
0.1402709
50
258.8433431
51
270.4148607
0
ARC
8
DEFAULT_255_1_388
10
15.9755925
20
103.1196739
40
0.0902407
50
238.54281
51
259.1289544
0
ARC
8
DEFAULT_255_1_388
10
15.9679246
20
103.1057694
40
0.0743817
50
222.5056676
51
237.9918132
0
ARC
8
DEFAULT_255_1_388
10
15.982284
20
103.1188295
40
0.0937918
50
184.1070774
51
222.4604165
0
ARC
8
DEFAULT_255_1_388
10
16.0125253
20
103.1231538
40
0.1242838
50
179.9419581
51
185.0970785
0
LINE
8
DEFAULT_255_1_388
10
16.293942
20
102.3480214
11
16.293942
21
102.3787426
0
LINE
8
DEFAULT_255_1_388
10
17.1234142
20
102.3968139
11
17.1234142
21
102.3272395
0
LINE
8
DEFAULT_255_1_388
10
17.1234142
20
102.3272395
11
16.4611015
21
102.3272395
0
LINE
8
DEFAULT_255_1_388
10
17.0086615
20
102.1365874
11
17.1107643
21
102.0570737
0
LINE
8
DEFAULT_255_1_388
10
16.4665229
20
102.4645813
11
16.9562548
21
102.4645813
0
LINE
8
DEFAULT_255_1_388
10
16.9562548
20
102.4645813
11
16.9562548
21
102.4772312
0
ARC
8
DEFAULT_255_1_388
10
16.7371181
20
102.360521
40
0.4923176
50
252.326534
51
270.5809615
0
ARC
8
DEFAULT_255_1_388
10
16.7140646
20
102.277194
40
0.4059384
50
223.3000488
51
251.8562489
0
ARC
8
DEFAULT_255_1_388
10
16.7378426
20
102.3002898
40
0.4390832
50
190.9374369
51
223.3654369
0
ARC
8
DEFAULT_255_1_388
10
16.9319104
20
102.3441598
40
0.63798
50
179.6531919
51
191.4988561
0
ARC
8
DEFAULT_255_1_388
10
16.9456131
20
102.3823571
40
0.6516811
50
167.4005523
51
180.3177836
0
ARC
8
DEFAULT_255_1_388
10
16.8272802
20
102.4073853
40
0.5307402
50
154.1835149
51
167.2508278
0
ARC
8
DEFAULT_255_1_388
10
16.7562393
20
102.4447925
40
0.4505076
50
134.3150225
51
154.5315008
0
ARC
8
DEFAULT_255_1_388
10
16.7317728
20
102.466255
40
0.4180662
50
122.8617482
51
133.9707159
0
ARC
8
DEFAULT_255_1_388
10
16.7201335
20
102.4912882
40
0.3907416
50
89.8248474
51
123.4199325
0
ARC
8
DEFAULT_255_1_388
10
16.7257633
20
102.4185352
40
0.4635141
50
74.7874349
51
90.5482648
0
ARC
8
DEFAULT_255_1_388
10
16.7588097
20
102.5405987
40
0.3370565
50
39.8178888
51
74.7634383
0
ARC
8
DEFAULT_255_1_388
10
16.7011339
20
102.4956356
40
0.4101553
50
16.8990848
51
39.4830125
0
ARC
8
DEFAULT_255_1_388
10
16.4879954
20
102.4273711
40
0.6339427
50
4.9634768
51
17.2027767
0
ARC
8
DEFAULT_255_1_388
10
16.2159359
20
102.39866
40
0.9074803
50
359.8834402
51
5.2832409
0
ARC
8
DEFAULT_255_1_388
10
16.8951716
20
102.3346981
40
0.4341343
50
180.9844233
51
194.9402766
0
ARC
8
DEFAULT_255_1_388
10
16.7770882
20
102.302417
40
0.3117211
50
194.8030557
51
222.0412897
0
ARC
8
DEFAULT_255_1_388
10
16.7428754
20
102.2684715
40
0.2635903
50
221.541578
51
268.8616004
0
ARC
8
DEFAULT_255_1_388
10
16.7510875
20
102.344528
40
0.3398611
50
267.7321071
51
270.009808
0
ARC
8
DEFAULT_255_1_388
10
16.7530938
20
102.3672178
40
0.3625561
50
269.6921218
51
280.4122297
0
ARC
8
DEFAULT_255_1_388
10
16.772935
20
102.2638767
40
0.2573323
50
280.2257165
51
298.633539
0
ARC
8
DEFAULT_255_1_388
10
16.7854764
20
102.2374578
40
0.2281403
50
299.0485543
51
300.4624141
0
ARC
8
DEFAULT_255_1_388
10
16.7095744
20
102.3639796
40
0.3756797
50
300.6578578
51
322.037749
0
ARC
8
DEFAULT_255_1_388
10
16.6725265
20
102.3963266
40
0.4247956
50
321.671786
51
322.3059078
0
ARC
8
DEFAULT_255_1_388
10
16.7748828
20
102.2669267
40
0.3960488
50
276.9729088
51
328.0035579
0
ARC
8
DEFAULT_255_1_388
10
16.7437299
20
102.4334609
40
0.5652345
50
269.8358003
51
278.0581296
0
ARC
8
DEFAULT_255_1_388
10
16.7181598
20
102.517282
40
0.2274263
50
89.2017936
51
117.2852353
0
ARC
8
DEFAULT_255_1_388
10
16.7241348
20
102.5125637
40
0.2343798
50
118.0546404
51
137.4544511
0
ARC
8
DEFAULT_255_1_388
10
16.7662992
20
102.4742556
40
0.2913471
50
137.5109688
51
158.8516701
0
ARC
8
DEFAULT_255_1_388
10
16.8943093
20
102.4225902
40
0.4293804
50
158.5845496
51
170.1719753
0
ARC
8
DEFAULT_255_1_388
10
17.0259428
20
102.3964519
40
0.5635533
50
169.8378964
51
173.0563877
0
ARC
8
DEFAULT_255_1_388
10
16.4974712
20
102.4539187
40
0.4593755
50
2.9089079
51
12.88469
0
ARC
8
DEFAULT_255_1_388
10
16.6516631
20
102.4902082
40
0.3009753
50
12.6957404
51
28.6405841
0
ARC
8
DEFAULT_255_1_388
10
16.7126128
20
102.5217577
40
0.232366
50
29.016559
51
41.1492981
0
ARC
8
DEFAULT_255_1_388
10
16.7354107
20
102.541608
40
0.2021373
50
41.1646967
51
85.001362
0
ARC
8
DEFAULT_255_1_388
10
16.7218111
20
102.4589775
40
0.2857091
50
83.728216
51
90.0968824
0
LINE
8
DEFAULT_255_1_388
10
18.0441464
20
102.5766232
11
17.8760834
21
102.5766232
0
LINE
8
DEFAULT_255_1_388
10
17.2761166
20
102.187187
11
17.443276
21
102.187187
0
ARC
8
DEFAULT_255_1_388
10
17.7424125
20
102.1472935
40
0.1436198
50
359.3335374
51
18.5869869
0
ARC
8
DEFAULT_255_1_388
10
17.7658864
20
102.1535015
40
0.1194022
50
19.3538149
51
54.6486387
0
ARC
8
DEFAULT_255_1_388
10
17.7091852
20
102.0753077
40
0.2159877
50
54.3821575
51
65.0627557
0
ARC
8
DEFAULT_255_1_388
10
17.6227199
20
101.8934032
40
0.4173927
50
64.8282172
51
71.4204388
0
ARC
8
DEFAULT_255_1_388
10
17.5212094
20
101.5955782
40
0.7320403
50
71.3166092
51
75.8005927
0
ARC
8
DEFAULT_255_1_388
10
17.426598
20
101.2310881
40
1.108605
50
75.6810806
51
78.0063886
0
ARC
8
DEFAULT_255_1_388
10
17.9270569
20
103.591253
40
1.3040363
50
254.69024
51
258.0465557
0
ARC
8
DEFAULT_255_1_388
10
17.8102438
20
103.1682742
40
0.8652254
50
249.9010634
51
254.7555005
0
ARC
8
DEFAULT_255_1_388
10
17.697349
20
102.861668
40
0.5384962
50
243.3097375
51
249.970939
0
ARC
8
DEFAULT_255_1_388
10
17.6265904
20
102.7205721
40
0.380652
50
234.4047808
51
243.2861752
0
ARC
8
DEFAULT_255_1_388
10
17.556554
20
102.6238645
40
0.2612502
50
220.8665526
51
234.5497192
0
ARC
8
DEFAULT_255_1_388
10
17.5180538
20
102.5888203
40
0.2092097
50
214.3063391
51
220.5075055
0
ARC
8
DEFAULT_255_1_388
10
17.5151652
20
102.5853577
40
0.2048755
50
186.9131438
51
213.9617385
0
ARC
8
DEFAULT_255_1_388
10
17.5750042
20
102.5950431
40
0.2654563
50
179.8802037
51
187.4338578
0
ARC
8
DEFAULT_255_1_388
10
17.5576007
20
102.5973049
40
0.2480581
50
132.0053393
51
180.3942351
0
ARC
8
DEFAULT_255_1_388
10
17.631492
20
102.5290997
40
0.3483116
50
129.2317021
51
133.5294826
0
ARC
8
DEFAULT_255_1_388
10
17.6374889
20
102.5185383
40
0.360291
50
100.440976
51
128.9081567
0
ARC
8
DEFAULT_255_1_388
10
17.6683006
20
102.3739357
40
0.5080996
50
89.6985063
51
100.9029043
0
ARC
8
DEFAULT_255_1_388
10
17.6747161
20
102.3558739
40
0.5261675
50
77.6967144
51
90.4074623
0
ARC
8
DEFAULT_255_1_388
10
17.7119513
20
102.5164503
40
0.3613511
50
50.7278431
51
78.0397473
0
ARC
8
DEFAULT_255_1_388
10
17.7619556
20
102.5747173
40
0.2845966
50
25.754382
51
51.0957456
0
ARC
8
DEFAULT_255_1_388
10
17.7620923
20
102.5803311
40
0.2820785
50
359.2468358
51
24.7393861
0
ARC
8
DEFAULT_255_1_388
10
17.7300811
20
102.5771204
40
0.1460032
50
359.8048924
51
45.1543866
0
ARC
8
DEFAULT_255_1_388
10
17.6842544
20
102.5379291
40
0.2061641
50
43.8053172
51
49.625485
0
ARC
8
DEFAULT_255_1_388
10
17.6851987
20
102.5380849
40
0.2054344
50
49.7979696
51
82.121802
0
ARC
8
DEFAULT_255_1_388
10
17.671807
20
102.4653473
40
0.2793404
50
81.4458692
51
90.1707936
0
ARC
8
DEFAULT_255_1_388
10
17.6690646
20
102.4061478
40
0.3385438
50
89.6768097
51
99.1267111
0
ARC
8
DEFAULT_255_1_388
10
17.6497628
20
102.5224405
40
0.2206627
50
98.9679878
51
113.4573418
0
ARC
8
DEFAULT_255_1_388
10
17.6277309
20
102.5751193
40
0.1635691
50
113.7230234
51
127.4758155
0
ARC
8
DEFAULT_255_1_388
10
17.6087891
20
102.5976433
40
0.1341757
50
126.9086647
51
150.3160891
0
ARC
8
DEFAULT_255_1_388
10
17.6034222
20
102.603368
40
0.1266992
50
151.363328
51
180.0701537
0
ARC
8
DEFAULT_255_1_388
10
17.6344443
20
102.601023
40
0.1577364
50
179.2045432
51
180.0012892
0
ARC
8
DEFAULT_255_1_388
10
17.5975554
20
102.5995515
40
0.1208564
50
179.3040542
51
198.4225767
0
ARC
8
DEFAULT_255_1_388
10
17.5759696
20
102.5939337
40
0.0986126
50
199.2893055
51
238.6036855
0
ARC
8
DEFAULT_255_1_388
10
17.6437789
20
102.7003752
40
0.2248082
50
237.9844191
51
246.8751643
0
ARC
8
DEFAULT_255_1_388
10
17.7402649
20
102.9210861
40
0.4656832
50
246.6226408
51
251.8174794
0
ARC
8
DEFAULT_255_1_388
10
17.8563116
20
103.2695909
40
0.8329993
50
251.7140983
51
255.0775146
0
ARC
8
DEFAULT_255_1_388
10
17.991264
20
103.7722708
40
1.3534786
50
255.0370864
51
257.4701577
0
ARC
8
DEFAULT_255_1_388
10
17.4165185
20
101.1828535
40
1.298957
50
73.6835762
51
77.5015749
0
ARC
8
DEFAULT_255_1_388
10
17.5390099
20
101.5990699
40
0.8650912
50
68.7042835
51
73.7249997
0
ARC
8
DEFAULT_255_1_388
10
17.6405663
20
101.8607853
40
0.584363
50
63.5907059
51
68.6622978
0
ARC
8
DEFAULT_255_1_388
10
17.7273405
20
102.0338157
40
0.3907955
50
54.7106507
51
63.7018033
0
ARC
8
DEFAULT_255_1_388
10
17.7975792
20
102.1319287
40
0.2701345
50
41.0624597
51
54.8488532
0
ARC
8
DEFAULT_255_1_388
10
17.8359571
20
102.1671439
40
0.2180695
50
34.4952722
51
40.7097584
0
ARC
8
DEFAULT_255_1_388
10
17.8412536
20
102.1726204
40
0.2106083
50
9.3761233
51
34.0834046
0
ARC
8
DEFAULT_255_1_388
10
17.7677664
20
102.1585174
40
0.2854177
50
359.7695264
51
9.7660556
0
ARC
8
DEFAULT_255_1_388
10
17.7899958
20
102.1536841
40
0.2632121
50
335.8653103
51
0.8022272
0
ARC
8
DEFAULT_255_1_388
10
17.7984363
20
102.1551951
40
0.2561728
50
307.7357819
51
334.7849324
0
ARC
8
DEFAULT_255_1_388
10
17.7539004
20
102.2051553
40
0.3229737
50
307.0217048
51
308.5596894
0
ARC
8
DEFAULT_255_1_388
10
17.7243588
20
102.2493063
40
0.3760237
50
282.9361285
51
306.5649033
0
ARC
8
DEFAULT_255_1_388
10
17.683665
20
102.4143871
40
0.5460314
50
271.1026197
51
283.2199962
0
ARC
8
DEFAULT_255_1_388
10
17.6764839
20
102.5544744
40
0.6862456
50
269.9926344
51
271.4770056
0
ARC
8
DEFAULT_255_1_388
10
17.6735409
20
102.4327633
40
0.5645418
50
259.0723633
51
270.2897324
0
ARC
8
DEFAULT_255_1_388
10
17.6496633
20
102.3070887
40
0.4366198
50
245.4965026
51
259.0225745
0
ARC
8
DEFAULT_255_1_388
10
17.618385
20
102.2416491
40
0.3641037
50
228.9686619
51
245.7042678
0
ARC
8
DEFAULT_255_1_388
10
17.5885125
20
102.2048573
40
0.3167435
50
214.4015391
51
228.6759028
0
ARC
8
DEFAULT_255_1_388
10
17.5559622
20
102.1870429
40
0.2798456
50
179.9704983
51
215.1574389
0
ARC
8
DEFAULT_255_1_388
10
17.6347834
20
102.1953148
40
0.1916798
50
182.430239
51
203.0329751
0
ARC
8
DEFAULT_255_1_388
10
17.614043
20
102.1889675
40
0.1701248
50
203.7987464
51
232.5483345
0
ARC
8
DEFAULT_255_1_388
10
17.6451515
20
102.2285049
40
0.2204299
50
232.3784541
51
256.3934343
0
ARC
8
DEFAULT_255_1_388
10
17.6710662
20
102.3286359
40
0.3238512
50
256.1048329
51
268.4627478
0
ARC
8
DEFAULT_255_1_388
10
17.6763081
20
102.4190297
40
0.4143627
50
268.0734924
51
270.0121004
0
ARC
8
DEFAULT_255_1_388
10
17.67838
20
102.3876191
40
0.3829573
50
269.7031202
51
278.8338867
0
ARC
8
DEFAULT_255_1_388
10
17.6988664
20
102.2604553
40
0.2541568
50
278.6727378
51
292.82331
0
ARC
8
DEFAULT_255_1_388
10
17.721421
20
102.2040546
40
0.1934264
50
293.1457581
51
303.6656964
0
ARC
8
DEFAULT_255_1_388
10
17.7512284
20
102.1617159
40
0.1416713
50
303.1245849
51
321.7434683
0
ARC
8
DEFAULT_255_1_388
10
17.7721365
20
102.143378
40
0.1139081
50
322.4747616
51
1.1293039
0
LINE
8
DEFAULT_255_2_778
10
9.3932417
20
92.4718488
11
10.7161417
21
92.4718488
0
LINE
8
DEFAULT_255_2_778
10
10.7161417
20
92.4718488
11
10.7161417
21
51.4614488
0
LINE
8
DEFAULT_255_2_778
10
10.7161417
20
46.1697488
11
10.7161417
21
5.1593488
0
LINE
8
DEFAULT_255_2_778
10
10.7161417
20
5.1593488
11
9.3932417
21
5.1593488
0
LINE
8
DEFAULT_255_2_778
10
9.3932834
20
51.4614333
11
12.0390834
21
51.4614333
0
LINE
8
DEFAULT_255_2_778
10
12.0390834
20
51.4614333
11
12.0390834
21
46.1697333
0
LINE
8
DEFAULT_255_2_778
10
12.0390834
20
46.1697333
11
9.3932834
21
46.1697333
0
LINE
8
DEFAULT_255_2_778
10
9.3932834
20
46.1697333
11
9.3932834
21
51.4614333
0
LINE
8
DEFAULT_255_2_778
10
10.187
20
46.6989666
11
10.187
21
50.9322666
0
LINE
8
DEFAULT_255_2_778
10
9.9224167
20
50.138575
11
10.1870167
21
50.932275
0
LINE
8
DEFAULT_255_2_778
10
10.1870167
20
50.932275
11
10.4516167
21
50.138575
0
LINE
8
DEFAULT_255_2_778
10
10.4516167
20
50.138575
11
9.9224167
21
50.138575
0
LINE
8
DEFAULT_255_2_778
10
11.2453
20
50.9322666
11
11.2453
21
46.6989666
0
LINE
8
DEFAULT_255_2_778
10
10.9807167
20
47.492675
11
11.2453167
21
46.698975
0
LINE
8
DEFAULT_255_2_778
10
11.2453167
20
46.698975
11
11.5099167
21
47.492675
0
LINE
8
DEFAULT_255_2_778
10
11.5099167
20
47.492675
11
10.9807167
21
47.492675
0
LINE
8
DEFAULT_255_2_778
10
19.9765417
20
92.4718492
11
18.6536417
21
92.4718492
0
LINE
8
DEFAULT_255_2_778
10
18.6536417
20
92.4718492
11
18.6536417
21
67.3364492
0
LINE
8
DEFAULT_255_2_778
10
18.6536417
20
62.0447492
11
18.6536417
21
36.9093492
0
LINE
8
DEFAULT_255_2_778
10
18.6536417
20
36.9093492
11
19.9765417
21
36.9093492
0
LINE
8
DEFAULT_255_2_778
10
17.3307834
20
67.3364333
11
19.9765834
21
67.3364333
0
LINE
8
DEFAULT_255_2_778
10
19.9765834
20
67.3364333
11
19.9765834
21
62.0447333
0
LINE
8
DEFAULT_255_2_778
10
19.9765834
20
62.0447333
11
17.3307834
21
62.0447333
0
LINE
8
DEFAULT_255_2_778
10
17.3307834
20
62.0447333
11
17.3307834
21
67.3364333
0
LINE
8
DEFAULT_255_2_778
10
18.1245
20
62.5739666
11
18.1245
21
66.8072666
0
LINE
8
DEFAULT_255_2_778
10
17.8599167
20
66.013575
11
18.1245167
21
66.807275
0
LINE
8
DEFAULT_255_2_778
10
18.1245167
20
66.807275
11
18.3891167
21
66.013575
0
LINE
8
DEFAULT_255_2_778
10
18.3891167
20
66.013575
11
17.8599167
21
66.013575
0
LINE
8
DEFAULT_255_2_778
10
19.1828
20
66.8072666
11
19.1828
21
62.5739666
0
LINE
8
DEFAULT_255_2_778
10
18.9182167
20
63.367675
11
19.1828167
21
62.573975
0
LINE
8
DEFAULT_255_2_778
10
19.1828167
20
62.573975
11
19.4474167
21
63.367675
0
LINE
8
DEFAULT_255_2_778
10
19.4474167
20
63.367675
11
18.9182167
21
63.367675
0
LINE
8
DEFAULT_255_1_388
10
4.8809318
20
100.0383382
11
4.8809318
21
99.9019
0
LINE
8
DEFAULT_255_1_388
10
4.8809318
20
99.9019
11
4.0189313
21
99.9019
0
LINE
8
DEFAULT_255_1_388
10
4.0189313
20
99.9019
11
4.0189313
21
100.0220741
0
LINE
8
DEFAULT_255_1_388
10
4.0189313
20
100.0220741
11
4.4743278
21
100.5280702
0
LINE
8
DEFAULT_255_1_388
10
4.1607909
20
100.8298607
11
3.9936315
21
100.8298607
0
LINE
8
DEFAULT_255_1_388
10
4.5728163
20
100.420546
11
4.2204262
21
100.0383382
0
LINE
8
DEFAULT_255_1_388
10
4.2204262
20
100.0383382
11
4.8809318
21
100.0383382
0
ARC
8
DEFAULT_255_1_388
10
2.9567337
20
101.8700983
40
2.0258655
50
318.5132526
51
320.7829045
0
ARC
8
DEFAULT_255_1_388
10
3.5515294
20
101.3859929
40
1.2589638
50
320.7372878
51
323.9739031
0
ARC
8
DEFAULT_255_1_388
10
3.9924226
20
101.0665554
40
0.7145141
50
323.8962701
51
328.64194
0
ARC
8
DEFAULT_255_1_388
10
4.2226484
20
100.9245545
40
0.4440242
50
328.8294576
51
331.7891185
0
ARC
8
DEFAULT_255_1_388
10
4.3348804
20
100.8666374
40
0.3177517
50
331.4254512
51
352.9365785
0
ARC
8
DEFAULT_255_1_388
10
4.3501804
20
100.863205
40
0.3021496
50
353.2257659
51
0.0166158
0
ARC
8
DEFAULT_255_1_388
10
4.3738564
20
100.8657894
40
0.2784847
50
359.486299
51
15.9343185
0
ARC
8
DEFAULT_255_1_388
10
4.4308831
20
100.8811269
40
0.2194403
50
16.1712913
51
43.5286088
0
ARC
8
DEFAULT_255_1_388
10
4.4395776
20
100.8898191
40
0.2071504
50
43.4417391
51
83.1661095
0
ARC
8
DEFAULT_255_1_388
10
4.4244937
20
100.8069316
40
0.2912888
50
82.160179
51
90.1505708
0
ARC
8
DEFAULT_255_1_388
10
4.4209418
20
100.7465279
40
0.3517025
50
89.5460741
51
102.5418361
0
ARC
8
DEFAULT_255_1_388
10
4.3936138
20
100.8624933
40
0.2325748
50
102.1738499
51
129.206123
0
ARC
8
DEFAULT_255_1_388
10
4.3847592
20
100.8764664
40
0.2161591
50
129.72865
51
135.753947
0
ARC
8
DEFAULT_255_1_388
10
4.3984074
20
100.8655728
40
0.2335433
50
136.1757367
51
166.3673339
0
ARC
8
DEFAULT_255_1_388
10
4.5116762
20
100.8352148
40
0.3507873
50
165.9090694
51
178.8684636
0
ARC
8
DEFAULT_255_1_388
10
4.6092534
20
100.8299263
40
0.4484624
50
178.4391136
51
180.0083808
0
ARC
8
DEFAULT_255_1_388
10
4.4513235
20
100.8343197
40
0.4577138
50
163.2878482
51
180.5581842
0
ARC
8
DEFAULT_255_1_388
10
4.3611276
20
100.8591393
40
0.3641968
50
133.4540601
51
162.947111
0
ARC
8
DEFAULT_255_1_388
10
4.3812158
20
100.8377789
40
0.3935189
50
100.7869829
51
133.4382499
0
ARC
8
DEFAULT_255_1_388
10
4.4203403
20
100.6635399
40
0.5720313
50
89.660664
51
101.3702276
0
ARC
8
DEFAULT_255_1_388
10
4.4278012
20
100.6704263
40
0.5651495
50
78.2172678
51
90.412935
0
ARC
8
DEFAULT_255_1_388
10
4.4677478
20
100.8531511
40
0.378122
50
55.9269121
51
78.4888449
0
ARC
8
DEFAULT_255_1_388
10
4.4898193
20
100.8912187
40
0.3342379
50
47.929771
51
55.4049217
0
ARC
8
DEFAULT_255_1_388
10
4.5012723
20
100.9028618
40
0.3179217
50
4.334829
51
48.0560205
0
ARC
8
DEFAULT_255_1_388
10
4.3780525
20
100.8837487
40
0.442341
50
359.9251713
51
5.5971671
0
ARC
8
DEFAULT_255_1_388
10
4.426268
20
100.8900728
40
0.3941854
50
337.8914027
51
358.9967534
0
ARC
8
DEFAULT_255_1_388
10
4.121025
20
101.0078295
40
0.7213271
50
326.9132501
51
338.3508308
0
ARC
8
DEFAULT_255_1_388
10
3.6726362
20
101.2952105
40
1.2538973
50
319.6471833
51
327.0959558
0
ARC
8
DEFAULT_255_1_388
10
3.241302
20
101.651005
40
1.8129975
50
317.2588228
51
319.9045804
0
LINE
8
DEFAULT_255_1_388
10
5.7637143
20
101.2174898
11
5.7637143
21
100.343743
0
LINE
8
DEFAULT_255_1_388
10
5.7637143
20
100.343743
11
5.9462343
21
100.343743
0
LINE
8
DEFAULT_255_1_388
10
5.9462343
20
100.343743
11
5.9462343
21
100.2073048
0
LINE
8
DEFAULT_255_1_388
10
5.9462343
20
100.2073048
11
5.7637143
21
100.2073048
0
LINE
8
DEFAULT_255_1_388
10
5.7637143
20
100.2073048
11
5.7637143
21
99.9019
0
LINE
8
DEFAULT_255_1_388
10
5.7637143
20
99.9019
11
5.5956513
21
99.9019
0
LINE
8
DEFAULT_255_1_388
10
5.5956513
20
99.9019
11
5.5956513
21
100.2073048
0
LINE
8
DEFAULT_255_1_388
10
5.5956513
20
100.2073048
11
4.996588
21
100.2073048
0
LINE
8
DEFAULT_255_1_388
10
4.996588
20
100.2073048
11
4.996588
21
100.3057933
0
LINE
8
DEFAULT_255_1_388
10
4.996588
20
100.3057933
11
5.5857121
21
101.2174898
0
LINE
8
DEFAULT_255_1_388
10
5.5857121
20
101.2174898
11
5.7637143
21
101.2174898
0
LINE
8
DEFAULT_255_1_388
10
5.5757729
20
100.9527455
11
5.1863366
21
100.343743
0
LINE
8
DEFAULT_255_1_388
10
5.1863366
20
100.343743
11
5.5956513
21
100.343743
0
LINE
8
DEFAULT_255_1_388
10
5.5956513
20
100.343743
11
5.5956513
21
100.988888
0
LINE
8
DEFAULT_255_1_388
10
5.5956513
20
100.988888
11
5.5757729
21
100.9527455
0
LINE
8
DEFAULT_255_1_388
10
6.201943
20
101.2174898
11
6.5760187
21
100.1323089
0
LINE
8
DEFAULT_255_1_388
10
6.5760187
20
100.1323089
11
6.9519015
21
101.2174898
0
LINE
8
DEFAULT_255_1_388
10
6.9519015
20
101.2174898
11
7.14165
21
101.2174898
0
LINE
8
DEFAULT_255_1_388
10
7.14165
20
101.2174898
11
6.6537252
21
99.9019
0
LINE
8
DEFAULT_255_1_388
10
6.6537252
20
99.9019
11
6.5001193
21
99.9019
0
LINE
8
DEFAULT_255_1_388
10
6.5001193
20
99.9019
11
6.013098
21
101.2174898
0
LINE
8
DEFAULT_255_1_388
10
6.013098
20
101.2174898
11
6.201943
21
101.2174898
0
LINE
8
DEFAULT_255_1_388
10
4.4976985
20
5.9738148
11
4.4976985
21
4.6519
0
LINE
8
DEFAULT_255_1_388
10
4.4976985
20
4.6519
11
4.3296355
21
4.6519
0
LINE
8
DEFAULT_255_1_388
10
4.3296355
20
4.6519
11
4.3296355
21
5.765995
0
LINE
8
DEFAULT_255_1_388
10
4.3296355
20
5.765995
11
3.992606
21
5.6422066
0
LINE
8
DEFAULT_255_1_388
10
3.992606
20
5.6422066
11
3.992606
21
5.7940055
0
LINE
8
DEFAULT_255_1_388
10
3.992606
20
5.7940055
11
4.4714951
21
5.9738148
0
LINE
8
DEFAULT_255_1_388
10
4.4714951
20
5.9738148
11
4.4976985
21
5.9738148
0
LINE
8
DEFAULT_255_1_388
10
5.5367976
20
5.9738148
11
5.5367976
21
4.6519
0
LINE
8
DEFAULT_255_1_388
10
5.5367976
20
4.6519
11
5.3687346
21
4.6519
0
LINE
8
DEFAULT_255_1_388
10
5.3687346
20
4.6519
11
5.3687346
21
5.765995
0
LINE
8
DEFAULT_255_1_388
10
5.3687346
20
5.765995
11
5.0317051
21
5.6422066
0
LINE
8
DEFAULT_255_1_388
10
5.0317051
20
5.6422066
11
5.0317051
21
5.7940055
0
LINE
8
DEFAULT_255_1_388
10
5.0317051
20
5.7940055
11
5.5105942
21
5.9738148
0
LINE
8
DEFAULT_255_1_388
10
5.5105942
20
5.9738148
11
5.5367976
21
5.9738148
0
LINE
8
DEFAULT_255_1_388
10
4.5050985
20
13.9113148
11
4.5050985
21
12.5894
0
LINE
8
DEFAULT_255_1_388
10
4.5050985
20
12.5894
11
4.3370355
21
12.5894
0
LINE
8
DEFAULT_255_1_388
10
4.3370355
20
12.5894
11
4.3370355
21
13.703495
0
LINE
8
DEFAULT_255_1_388
10
4.3370355
20
13.703495
11
4.000006
21
13.5797066
0
LINE
8
DEFAULT_255_1_388
10
4.000006
20
13.5797066
11
4.000006
21
13.7315055
0
LINE
8
DEFAULT_255_1_388
10
4.000006
20
13.7315055
11
4.4788951
21
13.9113148
0
LINE
8
DEFAULT_255_1_388
10
4.4788951
20
13.9113148
11
4.5050985
21
13.9113148
0
LINE
8
DEFAULT_255_1_388
10
5.8197848
20
13.367369
11
5.8197848
21
13.1505135
0
LINE
8
DEFAULT_255_1_388
10
4.989409
20
13.1279244
11
4.989409
21
13.3511048
0
LINE
8
DEFAULT_255_1_388
10
5.6526253
20
13.1053353
11
5.6526253
21
13.3791153
0
LINE
8
DEFAULT_255_1_388
10
5.1565685
20
13.3917652
11
5.1565685
21
13.1243102
0
ARC
8
DEFAULT_255_1_388
10
4.4420182
20
13.1450118
40
1.3777776
50
353.8440855
51
0.2287917
0
ARC
8
DEFAULT_255_1_388
10
4.9639199
20
13.0867414
40
0.852639
50
344.4934746
51
353.9763743
0
ARC
8
DEFAULT_255_1_388
10
5.3006006
20
12.9910191
40
0.5026273
50
329.2803599
51
344.7473406
0
ARC
8
DEFAULT_255_1_388
10
5.4121502
20
12.9298038
40
0.3754848
50
324.9361395
51
328.6153007
0
ARC
8
DEFAULT_255_1_388
10
5.4547152
20
12.9000586
40
0.3235566
50
280.5801797
51
324.9173226
0
ARC
8
DEFAULT_255_1_388
10
5.409578
20
13.0880236
40
0.5167077
50
269.5979457
51
281.6732777
0
ARC
8
DEFAULT_255_1_388
10
5.4014684
20
13.0745113
40
0.5032026
50
256.6228565
51
270.5105488
0
ARC
8
DEFAULT_255_1_388
10
5.3562427
20
12.9003345
40
0.3233092
50
215.8618351
51
257.2787793
0
ARC
8
DEFAULT_255_1_388
10
5.4711134
20
12.9774106
40
0.4615831
50
197.9695203
51
215.2622745
0
ARC
8
DEFAULT_255_1_388
10
5.7506809
20
13.0717641
40
0.7566307
50
187.8816486
51
198.2346584
0
ARC
8
DEFAULT_255_1_388
10
6.1960048
20
13.1360453
40
1.2065653
50
180.8977266
51
188.0054894
0
ARC
8
DEFAULT_255_1_388
10
6.5010261
20
13.14754
40
1.5117443
50
180.7434591
51
181.152202
0
ARC
8
DEFAULT_255_1_388
10
6.3335257
20
13.3565371
40
1.3441277
50
173.7674302
51
180.2315596
0
ARC
8
DEFAULT_255_1_388
10
5.8253126
20
13.4139779
40
0.8326847
50
164.3058537
51
173.9000553
0
ARC
8
DEFAULT_255_1_388
10
5.4977126
20
13.5083652
40
0.4917711
50
148.7922028
51
164.5682288
0
ARC
8
DEFAULT_255_1_388
10
5.3907864
20
13.5680457
40
0.3694204
50
144.5883979
51
148.1161588
0
ARC
8
DEFAULT_255_1_388
10
5.3520609
20
13.5950667
40
0.322202
50
101.6440149
51
144.5142619
0
ARC
8
DEFAULT_255_1_388
10
5.3998801
20
13.4050337
40
0.5180451
50
89.528284
51
102.5820197
0
ARC
8
DEFAULT_255_1_388
10
5.4087793
20
13.4006376
40
0.5224441
50
77.0437914
51
90.508231
0
ARC
8
DEFAULT_255_1_388
10
5.4540047
20
13.5854272
40
0.3322297
50
48.2777708
51
77.4996087
0
ARC
8
DEFAULT_255_1_388
10
5.4621787
20
13.5999557
40
0.315966
50
36.3141586
51
47.6307332
0
ARC
8
DEFAULT_255_1_388
10
5.3644509
20
13.5341159
40
0.4337313
50
18.2931065
51
35.6770203
0
ARC
8
DEFAULT_255_1_388
10
5.078335
20
13.4359107
40
0.7362203
50
8.0246996
51
18.5605636
0
ARC
8
DEFAULT_255_1_388
10
4.6099705
20
13.3667432
40
1.2096583
50
1.127539
51
8.1718423
0
ARC
8
DEFAULT_255_1_388
10
4.2450839
20
13.3524374
40
1.5747719
50
0.5432713
51
1.38669
0
ARC
8
DEFAULT_255_1_388
10
4.4508217
20
13.3831163
40
1.2018103
50
359.8092569
51
4.9408001
0
ARC
8
DEFAULT_255_1_388
10
4.9244799
20
13.42539
40
0.7262727
50
4.8364937
51
12.2906017
0
ARC
8
DEFAULT_255_1_388
10
5.2344263
20
13.4944485
40
0.4087324
50
12.0806994
51
23.8171225
0
ARC
8
DEFAULT_255_1_388
10
5.3664659
20
13.5503508
40
0.2653719
50
24.2874621
51
31.3934353
0
ARC
8
DEFAULT_255_1_388
10
5.4255095
20
13.5889822
40
0.1948607
50
30.7407708
51
82.4658033
0
ARC
8
DEFAULT_255_1_388
10
5.4052756
20
13.4896017
40
0.2961198
50
81.1057101
51
90.2187368
0
ARC
8
DEFAULT_255_1_388
10
5.4012568
20
13.5186421
40
0.2670929
50
89.380395
51
105.6763916
0
ARC
8
DEFAULT_255_1_388
10
5.380629
20
13.593632
40
0.1893189
50
105.7980655
51
149.7387869
0
ARC
8
DEFAULT_255_1_388
10
5.500343
20
13.5216719
40
0.3289892
50
149.4208441
51
163.628295
0
ARC
8
DEFAULT_255_1_388
10
5.735566
20
13.4499345
40
0.5749004
50
163.3764549
51
172.141138
0
ARC
8
DEFAULT_255_1_388
10
6.1068381
20
13.3967582
40
0.9499585
50
172.0258462
51
178.0705453
0
ARC
8
DEFAULT_255_1_388
10
6.4489934
20
13.3805682
40
1.2924734
50
177.8639301
51
179.5036263
0
ARC
8
DEFAULT_255_1_388
10
6.3270953
20
13.1202151
40
1.170534
50
179.7995545
51
185.246089
0
ARC
8
DEFAULT_255_1_388
10
5.8722546
20
13.0771404
40
0.7136613
50
185.1411911
51
193.0082205
0
ARC
8
DEFAULT_255_1_388
10
5.5748806
20
13.0068441
40
0.4080987
50
192.7897338
51
205.2507384
0
ARC
8
DEFAULT_255_1_388
10
5.4571016
20
12.9542538
40
0.2791522
50
205.8001921
51
211.2545876
0
ARC
8
DEFAULT_255_1_388
10
5.3982555
20
12.9148132
40
0.2084074
50
210.3789935
51
238.4007996
0
ARC
8
DEFAULT_255_1_388
10
5.3960641
20
12.9200786
40
0.2117943
50
239.6521916
51
265.9793852
0
ARC
8
DEFAULT_255_1_388
10
5.405649
20
12.9957358
40
0.2879689
50
265.1324455
51
270.0603288
0
ARC
8
DEFAULT_255_1_388
10
5.4088867
20
12.9592418
40
0.2514919
50
269.3314378
51
287.2180039
0
ARC
8
DEFAULT_255_1_388
10
5.424395
20
12.9026291
40
0.1928357
50
287.7957942
51
329.0808983
0
ARC
8
DEFAULT_255_1_388
10
5.3166707
20
12.9698651
40
0.319808
50
328.6635261
51
343.3325043
0
ARC
8
DEFAULT_255_1_388
10
5.0722165
20
13.0460195
40
0.5758408
50
343.0498092
51
351.9392499
0
ARC
8
DEFAULT_255_1_388
10
4.6821487
20
13.1035205
40
0.9701202
50
351.8071632
51
357.7957897
0
ARC
8
DEFAULT_255_1_388
10
4.3186964
20
13.1223724
40
1.3340376
50
357.5870923
51
359.2682493
0
LINE
8
DEFAULT_255_1_388
10
4.7637215
20
21.3166153
11
4.7637215
21
21.2678229
0
LINE
8
DEFAULT_255_1_388
10
4.1538155
20
20.5259964
11
4.1212872
21
20.5259964
0
LINE
8
DEFAULT_255_1_388
10
4.1212872
20
20.5259964
11
4.1212872
21
20.6669525
0
LINE
8
DEFAULT_255_1_388
10
4.1212872
20
20.6669525
11
4.1565262
21
20.6669525
0
LINE
8
DEFAULT_255_1_388
10
4.5965621
20
21.284087
11
4.5965621
21
21.3509508
0
ARC
8
DEFAULT_255_1_388
10
4.2822713
20
21.3679877
40
0.4089973
50
297.4036461
51
320.0168133
0
ARC
8
DEFAULT_255_1_388
10
4.3148893
20
21.3053072
40
0.3383378
50
270.2631886
51
297.3852322
0
ARC
8
DEFAULT_255_1_388
10
4.3110569
20
21.3590343
40
0.3920983
50
269.9969069
51
270.7871389
0
ARC
8
DEFAULT_255_1_388
10
4.3081892
20
21.3572737
40
0.3903482
50
254.5997295
51
270.4178147
0
ARC
8
DEFAULT_255_1_388
10
4.2921424
20
21.2937693
40
0.3248657
50
236.4717231
51
254.3539376
0
ARC
8
DEFAULT_255_1_388
10
4.3097155
20
21.3173999
40
0.3542746
50
208.4727261
51
236.2134628
0
ARC
8
DEFAULT_255_1_388
10
4.3815919
20
21.3613676
40
0.4384402
50
204.3450776
51
209.0455365
0
ARC
8
DEFAULT_255_1_388
10
4.4580295
20
21.39378
40
0.5214459
50
183.9375459
51
204.1275509
0
ARC
8
DEFAULT_255_1_388
10
4.5602601
20
21.4047863
40
0.6242037
50
179.9652726
51
184.3010611
0
ARC
8
DEFAULT_255_1_388
10
4.5332146
20
21.4085004
40
0.5971675
50
166.7585952
51
180.3200491
0
ARC
8
DEFAULT_255_1_388
10
4.4379954
20
21.4291979
40
0.4997418
50
154.6954866
51
166.5679151
0
ARC
8
DEFAULT_255_1_388
10
4.3420194
20
21.4775411
40
0.3923208
50
136.3325251
51
155.0871367
0
ARC
8
DEFAULT_255_1_388
10
4.3104114
20
21.5046271
40
0.3507618
50
121.2365985
51
135.9680081
0
ARC
8
DEFAULT_255_1_388
10
4.3262178
20
21.4753541
40
0.3839917
50
96.8454764
51
120.9881329
0
ARC
8
DEFAULT_255_1_388
10
4.3425984
20
21.3700942
40
0.4904679
50
89.887204
51
97.2797758
0
ARC
8
DEFAULT_255_1_388
10
4.3484957
20
21.4418652
40
0.418725
50
70.6505767
51
90.6748382
0
ARC
8
DEFAULT_255_1_388
10
4.3632654
20
21.4996091
40
0.3593866
50
36.7493297
51
69.8220487
0
ARC
8
DEFAULT_255_1_388
10
4.2509001
20
21.4120446
40
0.5018201
50
15.3958155
51
37.0841102
0
ARC
8
DEFAULT_255_1_388
10
4.0113286
20
21.3422111
40
0.7513436
50
3.9487796
51
15.6798517
0
ARC
8
DEFAULT_255_1_388
10
3.7411928
20
21.317881
40
1.0225293
50
359.9290791
51
4.266464
0
ARC
8
DEFAULT_255_1_388
10
3.2230845
20
21.2603372
40
1.5406551
50
352.8365702
51
0.2783851
0
ARC
8
DEFAULT_255_1_388
10
3.8179076
20
21.1830664
40
0.9408425
50
341.8359339
51
352.9884057
0
ARC
8
DEFAULT_255_1_388
10
4.1800063
20
21.0610144
40
0.5587481
50
322.8579243
51
342.1527461
0
ARC
8
DEFAULT_255_1_388
10
4.2771755
20
20.994735
40
0.4413099
50
319.3348471
51
322.100194
0
ARC
8
DEFAULT_255_1_388
10
4.2423687
20
21.0296814
40
0.4904992
50
285.954114
51
318.8878716
0
ARC
8
DEFAULT_255_1_388
10
4.1606124
20
21.2895865
40
0.7628991
50
272.9280841
51
286.4924389
0
ARC
8
DEFAULT_255_1_388
10
4.1392428
20
21.543024
40
1.017132
50
270.8209173
51
273.4010121
0
ARC
8
DEFAULT_255_1_388
10
4.1492451
20
21.3382073
40
0.6712943
50
270.6214576
51
281.4062333
0
ARC
8
DEFAULT_255_1_388
10
4.1976176
20
21.106925
40
0.4350167
50
281.1852583
51
299.0622058
0
ARC
8
DEFAULT_255_1_388
10
4.2396421
20
21.0258138
40
0.3437146
50
299.5068171
51
313.1200142
0
ARC
8
DEFAULT_255_1_388
10
4.2421158
20
21.0168959
40
0.3355418
50
313.8525725
51
338.5989631
0
ARC
8
DEFAULT_255_1_388
10
4.0594286
20
21.0919576
40
0.5330317
50
338.2523315
51
351.2431701
0
ARC
8
DEFAULT_255_1_388
10
3.7882037
20
21.1380494
40
0.8081235
50
350.940933
51
357.6690137
0
ARC
8
DEFAULT_255_1_388
10
4.3383917
20
21.3633048
40
0.2581236
50
269.9447107
51
306.8249644
0
ARC
8
DEFAULT_255_1_388
10
4.3117219
20
21.410906
40
0.3122948
50
305.5071046
51
327.0773808
0
ARC
8
DEFAULT_255_1_388
10
4.3250271
20
21.4002445
40
0.2953369
50
327.4106457
51
336.8396801
0
ARC
8
DEFAULT_255_1_388
10
3.9769984
20
21.3545932
40
0.6195743
50
359.663158
51
10.1176387
0
ARC
8
DEFAULT_255_1_388
10
4.1742747
20
21.3910922
40
0.4189561
50
9.9431549
51
26.7699242
0
ARC
8
DEFAULT_255_1_388
10
4.2414733
20
21.4220796
40
0.3450125
50
27.2018067
51
34.6833639
0
ARC
8
DEFAULT_255_1_388
10
4.2965346
20
21.463456
40
0.2762035
50
34.124913
51
50.30709
0
ARC
8
DEFAULT_255_1_388
10
4.3467829
20
21.5235741
40
0.1978518
50
50.3850304
51
90.6705051
0
ARC
8
DEFAULT_255_1_388
10
4.3415223
20
21.4893074
40
0.2321235
50
89.2729817
51
111.9140267
0
ARC
8
DEFAULT_255_1_388
10
4.339331
20
21.5051308
40
0.2166604
50
112.9381864
51
142.5320936
0
ARC
8
DEFAULT_255_1_388
10
4.4007799
20
21.4552392
40
0.2957902
50
142.1024021
51
166.3835244
0
ARC
8
DEFAULT_255_1_388
10
4.5336769
20
21.4209213
40
0.4330361
50
166.1100968
51
178.6653563
0
ARC
8
DEFAULT_255_1_388
10
4.6518695
20
21.4143061
40
0.5513642
50
178.2641888
51
180.010994
0
ARC
8
DEFAULT_255_1_388
10
4.5613196
20
21.4111136
40
0.4608248
50
179.6162225
51
191.8786013
0
ARC
8
DEFAULT_255_1_388
10
4.4240506
20
21.380759
40
0.3202502
50
191.6192934
51
215.2970746
0
ARC
8
DEFAULT_255_1_388
10
4.4001161
20
21.3664963
40
0.2924827
50
215.7258926
51
216.5355437
0
ARC
8
DEFAULT_255_1_388
10
4.3412782
20
21.3191919
40
0.2170661
50
215.7486606
51
239.9728403
0
ARC
8
DEFAULT_255_1_388
10
4.3333947
20
21.3134838
40
0.208217
50
241.065081
51
269.280972
0
ARC
8
DEFAULT_255_1_388
10
4.3381106
20
21.3690327
40
0.2638514
50
268.4083352
51
270.0069622
0
ARC
8
DEFAULT_255_1_388
10
4.4353818
20
29.433772
40
0.3175098
50
338.8762533
51
0.5167111
0
ARC
8
DEFAULT_255_1_388
10
4.4543412
20
29.42866
40
0.2979894
50
325.8415285
51
338.4793574
0
ARC
8
DEFAULT_255_1_388
10
4.4104046
20
29.4591242
40
0.351452
50
296.7587686
51
325.7536481
0
ARC
8
DEFAULT_255_1_388
10
4.3775673
20
29.5145363
40
0.4157374
50
296.0927901
51
297.3613472
0
ARC
8
DEFAULT_255_1_388
10
4.4069869
20
28.7762593
40
0.395855
50
47.9007294
51
67.1948823
0
ARC
8
DEFAULT_255_1_388
10
4.4290511
20
28.8039599
40
0.360516
50
35.2363914
51
47.551141
0
ARC
8
DEFAULT_255_1_388
10
4.4584915
20
28.8236093
40
0.3251343
50
359.2759765
51
35.4014143
0
ARC
8
DEFAULT_255_1_388
10
4.3746841
20
28.8153787
40
0.4089365
50
343.1293083
51
0.5775513
0
ARC
8
DEFAULT_255_1_388
10
4.4561955
20
28.7929336
40
0.3244269
50
310.8496669
51
342.7449331
0
ARC
8
DEFAULT_255_1_388
10
4.4091829
20
28.8465913
40
0.3957651
50
281.5472888
51
310.9170406
0
ARC
8
DEFAULT_255_1_388
10
4.3690704
20
29.0212814
40
0.5749654
50
269.619248
51
281.9789564
0
ARC
8
DEFAULT_255_1_388
10
4.3609482
20
29.0213776
40
0.5750649
50
257.4585678
51
270.4285689
0
ARC
8
DEFAULT_255_1_388
10
4.3181002
20
28.8409741
40
0.389671
50
228.7554326
51
257.8484789
0
ARC
8
DEFAULT_255_1_388
10
4.2832487
20
28.7990228
40
0.335154
50
184.0104975
51
228.5071184
0
ARC
8
DEFAULT_255_1_388
10
4.414088
20
28.818943
40
0.4671891
50
179.9315832
51
185.3253753
0
ARC
8
DEFAULT_255_1_388
10
4.2817392
20
28.8231592
40
0.33486
50
145.6796023
51
180.6259786
0
ARC
8
DEFAULT_255_1_388
10
4.3001158
20
28.8103271
40
0.3572723
50
115.5537685
51
145.6415986
0
ARC
8
DEFAULT_255_1_388
10
4.3384202
20
28.7417087
40
0.4357296
50
113.243307
51
116.2057839
0
ARC
8
DEFAULT_255_1_388
10
4.3212854
20
29.4614379
40
0.3549126
50
222.9549744
51
244.1370481
0
ARC
8
DEFAULT_255_1_388
10
4.3075497
20
29.4460378
40
0.3343711
50
213.3436887
51
222.6274467
0
ARC
8
DEFAULT_255_1_388
10
4.2859566
20
29.4313653
40
0.3082678
50
180.431584
51
213.271499
0
ARC
8
DEFAULT_255_1_388
10
4.3494565
20
29.4366296
40
0.3718363
50
179.9991191
51
181.1690594
0
ARC
8
DEFAULT_255_1_388
10
4.3967021
20
29.4405072
40
0.4190996
50
164.6186169
51
180.529336
0
ARC
8
DEFAULT_255_1_388
10
4.295667
20
29.467678
40
0.3144772
50
132.2455553
51
164.5090724
0
ARC
8
DEFAULT_255_1_388
10
4.3279649
20
29.431107
40
0.3632644
50
100.7053914
51
132.1386381
0
ARC
8
DEFAULT_255_1_388
10
4.362271
20
29.2761118
40
0.5219578
50
89.6730358
51
101.2451698
0
ARC
8
DEFAULT_255_1_388
10
4.3692701
20
29.2957648
40
0.5023124
50
76.287748
51
90.4586006
0
ARC
8
DEFAULT_255_1_388
10
4.4037203
20
29.4332671
40
0.3605639
50
47.8240511
51
76.4266241
0
ARC
8
DEFAULT_255_1_388
10
4.4287587
20
29.4625599
40
0.3220463
50
6.9168387
51
47.6262497
0
ARC
8
DEFAULT_255_1_388
10
4.295304
20
29.4379004
40
0.4575765
50
359.8415968
51
7.9697453
0
ARC
8
DEFAULT_255_1_388
10
4.333731
20
28.8258519
40
0.2827228
50
359.445363
51
16.9256873
0
ARC
8
DEFAULT_255_1_388
10
4.3864744
20
28.8403781
40
0.2280396
50
17.2920767
51
45.4630727
0
ARC
8
DEFAULT_255_1_388
10
4.3803879
20
28.8351324
40
0.2360485
50
45.30305
51
83.1920945
0
ARC
8
DEFAULT_255_1_388
10
4.3642624
20
28.7449473
40
0.3275527
50
82.2612665
51
90.1434275
0
ARC
8
DEFAULT_255_1_388
10
4.36079
20
28.7711869
40
0.3013237
50
89.4956434
51
104.8580688
0
ARC
8
DEFAULT_255_1_388
10
4.340909
20
28.8465455
40
0.2233867
50
104.8856641
51
135.244616
0
ARC
8
DEFAULT_255_1_388
10
4.3465079
20
28.8415352
40
0.2308906
50
135.3399546
51
172.1044062
0
ARC
8
DEFAULT_255_1_388
10
4.4372603
20
28.8241667
40
0.3232034
50
171.2645637
51
180.186429
0
ARC
8
DEFAULT_255_1_388
10
4.4182608
20
28.8205426
40
0.304213
50
179.5154935
51
193.6464289
0
ARC
8
DEFAULT_255_1_388
10
4.3264284
20
28.7971473
40
0.209456
50
193.3540274
51
225.8258581
0
ARC
8
DEFAULT_255_1_388
10
4.3310156
20
28.8051076
40
0.2183738
50
226.4180634
51
255.8552336
0
ARC
8
DEFAULT_255_1_388
10
4.3598623
20
28.9104521
40
0.3275812
50
255.4654104
51
268.7987425
0
ARC
8
DEFAULT_255_1_388
10
4.3651799
20
29.0046545
40
0.4218877
50
268.3449238
51
270.0094605
0
ARC
8
DEFAULT_255_1_388
10
4.3678032
20
28.9278094
40
0.3450519
50
269.5759586
51
282.0820163
0
ARC
8
DEFAULT_255_1_388
10
4.3931069
20
28.8159363
40
0.2303642
50
281.752014
51
306.6056188
0
ARC
8
DEFAULT_255_1_388
10
4.4041877
20
28.7977802
40
0.2091906
50
307.1346085
51
314.027845
0
ARC
8
DEFAULT_255_1_388
10
4.4001389
20
28.8007459
40
0.2141385
50
314.2552483
51
350.1694025
0
ARC
8
DEFAULT_255_1_388
10
4.3043626
20
28.8215175
40
0.312082
50
349.4140529
51
0.2933014
0
ARC
8
DEFAULT_255_1_388
10
4.3628903
20
29.4018924
40
0.2588377
50
89.477747
51
105.729729
0
ARC
8
DEFAULT_255_1_388
10
4.3475823
20
29.4587367
40
0.1999733
50
105.9233417
51
135.1660906
0
ARC
8
DEFAULT_255_1_388
10
4.3498854
20
29.4571412
40
0.2027322
50
135.3052302
51
168.9883645
0
ARC
8
DEFAULT_255_1_388
10
4.442987
20
29.4357996
40
0.2982129
50
168.3801673
51
180.3602268
0
ARC
8
DEFAULT_255_1_388
10
4.4172987
20
29.4315622
40
0.2725291
50
179.5033122
51
194.9125571
0
ARC
8
DEFAULT_255_1_388
10
4.3514394
20
29.4142427
40
0.204431
50
194.9720816
51
224.194444
0
ARC
8
DEFAULT_255_1_388
10
4.3482759
20
29.4116635
40
0.2003651
50
224.2962453
51
262.015664
0
ARC
8
DEFAULT_255_1_388
10
4.3642763
20
29.4939315
40
0.2840925
50
261.1245923
51
270.1962896
0
ARC
8
DEFAULT_255_1_388
10
4.3676244
20
29.4728859
40
0.2630559
50
269.4827276
51
285.0987215
0
ARC
8
DEFAULT_255_1_388
10
4.384968
20
29.4078175
40
0.1957162
50
285.1585357
51
315.9484501
0
ARC
8
DEFAULT_255_1_388
10
4.3749554
20
29.4170315
40
0.2093195
50
316.0413965
51
351.916092
0
ARC
8
DEFAULT_255_1_388
10
4.2924928
20
29.4329323
40
0.2932279
50
351.105835
51
0.1939062
0
ARC
8
DEFAULT_255_1_388
10
4.3220562
20
29.4363224
40
0.2636739
50
359.4789618
51
16.0678224
0
ARC
8
DEFAULT_255_1_388
10
4.3756034
20
29.4507721
40
0.2082215
50
16.3252067
51
44.7913869
0
ARC
8
DEFAULT_255_1_388
10
4.3736096
20
29.450832
40
0.2095992
50
44.3957814
51
88.2499162
0
ARC
8
DEFAULT_255_1_388
10
4.3653431
20
29.3820006
40
0.2787189
50
86.9833854
51
90.0192215
0
LINE
8
DEFAULT_255_1_388
10
4.8043819
20
37.7174898
11
4.8043819
21
37.6235191
0
LINE
8
DEFAULT_255_1_388
10
4.8043819
20
37.6235191
11
4.2595325
21
36.4019
0
LINE
8
DEFAULT_255_1_388
10
4.2595325
20
36.4019
11
4.084241
21
36.4019
0
LINE
8
DEFAULT_255_1_388
10
4.084241
20
36.4019
11
4.6272833
21
37.580148
0
LINE
8
DEFAULT_255_1_388
10
4.6272833
20
37.580148
11
3.9152745
21
37.580148
0
LINE
8
DEFAULT_255_1_388
10
3.9152745
20
37.580148
11
3.9152745
21
37.7174898
0
LINE
8
DEFAULT_255_1_388
10
3.9152745
20
37.7174898
11
4.8043819
21
37.7174898
0
LINE
8
DEFAULT_255_1_388
10
4.5812015
20
45.6558934
11
4.6110191
21
45.6558934
0
LINE
8
DEFAULT_255_1_388
10
4.6110191
20
45.6558934
11
4.6110191
21
45.5140338
0
LINE
8
DEFAULT_255_1_388
10
4.6110191
20
45.5140338
11
4.5802979
21
45.5140338
0
LINE
8
DEFAULT_255_1_388
10
3.9649705
20
44.8399747
11
3.9649705
21
44.9041278
0
LINE
8
DEFAULT_255_1_388
10
4.1330335
20
44.8824422
11
4.1330335
21
44.8209999
0
ARC
8
DEFAULT_255_1_388
10
4.5861871
20
44.9517826
40
0.562282
50
90.6001079
51
104.5146616
0
ARC
8
DEFAULT_255_1_388
10
4.542483
20
45.11431
40
0.3939917
50
104.2855758
51
133.8630124
0
ARC
8
DEFAULT_255_1_388
10
4.5609083
20
45.1021243
40
0.4155734
50
134.5304124
51
161.6210222
0
ARC
8
DEFAULT_255_1_388
10
4.7469015
20
45.0365421
40
0.6127682
50
161.2850533
51
174.2074364
0
ARC
8
DEFAULT_255_1_388
10
4.9058582
20
45.0146437
40
0.7731446
50
173.7817938
51
174.9251711
0
ARC
8
DEFAULT_255_1_388
10
4.3932775
20
44.859127
40
0.3412588
50
95.8332067
51
138.995412
0
ARC
8
DEFAULT_255_1_388
10
4.4184056
20
44.7152695
40
0.4870358
50
89.8755506
51
97.0540979
0
ARC
8
DEFAULT_255_1_388
10
4.4237445
20
44.8092841
40
0.3930432
50
71.6407016
51
90.6240821
0
ARC
8
DEFAULT_255_1_388
10
4.4406838
20
44.8716433
40
0.3285421
50
39.6368051
51
71.0190743
0
ARC
8
DEFAULT_255_1_388
10
4.3690746
20
44.8097586
40
0.4231706
50
10.6588054
51
39.9044509
0
ARC
8
DEFAULT_255_1_388
10
4.1949291
20
44.7719223
40
0.60133
50
359.6827842
51
11.1326896
0
ARC
8
DEFAULT_255_1_388
10
4.1904627
20
44.7639715
40
0.6058047
50
347.2485908
51
0.4371098
0
ARC
8
DEFAULT_255_1_388
10
4.3780413
20
44.7188379
40
0.4128987
50
318.1408565
51
347.6118497
0
ARC
8
DEFAULT_255_1_388
10
4.4146009
20
44.6887903
40
0.3656244
50
275.6342406
51
317.824739
0
ARC
8
DEFAULT_255_1_388
10
4.389753
20
44.8349827
40
0.513655
50
269.8872513
51
276.7916069
0
ARC
8
DEFAULT_255_1_388
10
4.3835723
20
44.7196181
40
0.398323
50
246.9139443
51
270.7436787
0
ARC
8
DEFAULT_255_1_388
10
4.3842919
20
44.7036044
40
0.3839368
50
218.1665534
51
245.8780431
0
ARC
8
DEFAULT_255_1_388
10
4.4832291
20
44.7863903
40
0.5128958
50
191.4115343
51
218.6077624
0
ARC
8
DEFAULT_255_1_388
10
4.7012607
20
44.8352777
40
0.7363054
50
179.6344971
51
191.7836758
0
ARC
8
DEFAULT_255_1_388
10
5.3292482
20
44.9116495
40
1.3642984
50
171.4523743
51
180.3158856
0
ARC
8
DEFAULT_255_1_388
10
4.8348209
20
44.9885895
40
0.8639311
50
157.9802296
51
171.6246761
0
ARC
8
DEFAULT_255_1_388
10
4.5857559
20
45.0879038
40
0.5958004
50
141.4299236
51
157.8541251
0
ARC
8
DEFAULT_255_1_388
10
4.5135643
20
45.1389746
40
0.5075416
50
102.871586
51
140.8564533
0
ARC
8
DEFAULT_255_1_388
10
4.5864195
20
44.8644943
40
0.7914163
50
90.377773
51
103.5868422
0
ARC
8
DEFAULT_255_1_388
10
4.3908717
20
44.7964543
40
0.2667015
50
89.8751238
51
126.2072139
0
ARC
8
DEFAULT_255_1_388
10
4.3960188
20
44.7790847
40
0.2838229
50
124.9742447
51
144.8960197
0
ARC
8
DEFAULT_255_1_388
10
4.3762433
20
44.7951981
40
0.2583845
50
145.2974778
51
160.2660922
0
ARC
8
DEFAULT_255_1_388
10
4.7218921
20
44.8174151
40
0.5888695
50
179.6512124
51
190.285571
0
ARC
8
DEFAULT_255_1_388
10
4.5313401
20
44.7814968
40
0.3949683
50
190.0944895
51
207.5099647
0
ARC
8
DEFAULT_255_1_388
10
4.4676982
20
44.7512177
40
0.3245464
50
207.9585471
51
216.325377
0
ARC
8
DEFAULT_255_1_388
10
4.4294619
20
44.7197712
40
0.2751259
50
215.7661336
51
232.5457193
0
ARC
8
DEFAULT_255_1_388
10
4.3863735
20
44.6650273
40
0.2054668
50
232.8005815
51
270.6605497
0
ARC
8
DEFAULT_255_1_388
10
4.391516
20
44.7059853
40
0.2464268
50
269.3550767
51
288.474612
0
ARC
8
DEFAULT_255_1_388
10
4.4019667
20
44.6666721
40
0.2058436
50
289.1831976
51
322.9685307
0
ARC
8
DEFAULT_255_1_388
10
4.3331768
20
44.7209279
40
0.2934408
50
322.6007085
51
346.5183319
0
ARC
8
DEFAULT_255_1_388
10
4.2029524
20
44.7541434
40
0.4278249
50
346.2584622
51
358.7739592
0
ARC
8
DEFAULT_255_1_388
10
4.08781
20
44.7603829
40
0.5430876
50
358.3757628
51
0.0082477
0
ARC
8
DEFAULT_255_1_388
10
4.1734918
20
44.7634856
40
0.4574157
50
359.6211417
51
11.28403
0
ARC
8
DEFAULT_255_1_388
10
4.3171524
20
44.7934535
40
0.3106708
50
11.0483152
51
31.8145585
0
ARC
8
DEFAULT_255_1_388
10
4.3519229
20
44.8123045
40
0.2711963
50
32.3028554
51
38.0820598
0
ARC
8
DEFAULT_255_1_388
10
4.3992462
20
44.8551717
40
0.2075566
50
36.8249851
51
85.741667
0
ARC
8
DEFAULT_255_1_388
10
4.3916875
20
44.7988065
40
0.2643487
50
85.0150021
51
90.050843
0
LINE
8
DEFAULT_255_1_388
10
4.1655618
20
52.9021666
11
4.0318343
21
52.9365021
0
LINE
8
DEFAULT_255_1_388
10
4.0318343
20
52.9365021
11
4.098698
21
53.5924898
0
LINE
8
DEFAULT_255_1_388
10
4.098698
20
53.5924898
11
4.7727571
21
53.5924898
0
LINE
8
DEFAULT_255_1_388
10
4.7727571
20
53.5924898
11
4.7727571
21
53.4379803
0
LINE
8
DEFAULT_255_1_388
10
4.7727571
20
53.4379803
11
4.2405577
21
53.4379803
0
LINE
8
DEFAULT_255_1_388
10
4.2405577
20
53.4379803
11
4.2008008
21
53.0792652
0
LINE
8
DEFAULT_255_1_388
10
3.9848489
20
52.6229652
11
4.1429727
21
52.6229652
0
LINE
8
DEFAULT_255_1_388
10
4.2098365
20
52.9383092
11
4.1655618
21
52.9021666
0
ARC
8
DEFAULT_255_1_388
10
4.4094622
20
52.7215241
40
0.4141476
50
93.7181681
51
120.253934
0
ARC
8
DEFAULT_255_1_388
10
4.4200674
20
52.6306284
40
0.5055616
50
89.9660471
51
94.2495185
0
ARC
8
DEFAULT_255_1_388
10
4.4246496
20
52.6969154
40
0.4392953
50
73.8045384
51
90.5585736
0
ARC
8
DEFAULT_255_1_388
10
4.4510754
20
52.793452
40
0.3392225
50
41.3071072
51
73.543002
0
ARC
8
DEFAULT_255_1_388
10
4.4042574
20
52.7531461
40
0.4009977
50
13.5075837
51
41.2174839
0
ARC
8
DEFAULT_255_1_388
10
4.2195671
20
52.7047907
40
0.5918864
50
1.1330171
51
13.8830737
0
ARC
8
DEFAULT_255_1_388
10
4.0599317
20
52.6962522
40
0.7516787
50
359.9925091
51
1.5431298
0
ARC
8
DEFAULT_255_1_388
10
4.2043932
20
52.6916027
40
0.6072343
50
347.8572712
51
0.4294349
0
ARC
8
DEFAULT_255_1_388
10
4.4013066
20
52.6469898
40
0.4053482
50
323.6727442
51
348.1674594
0
ARC
8
DEFAULT_255_1_388
10
4.4344031
20
52.6268175
40
0.3667495
50
316.8171818
51
323.1486802
0
ARC
8
DEFAULT_255_1_388
10
4.4413155
20
52.6226612
40
0.358869
50
281.839603
51
316.5458142
0
ARC
8
DEFAULT_255_1_388
10
4.3990442
20
52.7976363
40
0.5388223
50
269.5770964
51
282.4214641
0
ARC
8
DEFAULT_255_1_388
10
4.3910363
20
52.773593
40
0.5147801
50
256.2425863
51
270.4486481
0
ARC
8
DEFAULT_255_1_388
10
4.3573891
20
52.6386124
40
0.3756708
50
228.9024379
51
256.33135
0
ARC
8
DEFAULT_255_1_388
10
4.3490871
20
52.6255054
40
0.360344
50
193.7536029
51
228.5272638
0
ARC
8
DEFAULT_255_1_388
10
4.4883436
20
52.6663463
40
0.5053599
50
184.9244437
51
194.4976052
0
ARC
8
DEFAULT_255_1_388
10
4.5100077
20
52.6703722
40
0.3700839
50
187.3596909
51
198.6733728
0
ARC
8
DEFAULT_255_1_388
10
4.3919321
20
52.6294373
40
0.2451195
50
198.4453795
51
217.7945479
0
ARC
8
DEFAULT_255_1_388
10
4.3586493
20
52.6058563
40
0.2043754
50
218.2887146
51
228.5613203
0
ARC
8
DEFAULT_255_1_388
10
4.36965
20
52.6206902
40
0.2227819
50
228.9652423
51
258.1237049
0
ARC
8
DEFAULT_255_1_388
10
4.3927937
20
52.7197964
40
0.3245374
50
257.7260585
51
270.4013717
0
ARC
8
DEFAULT_255_1_388
10
4.3978435
20
52.6697255
40
0.2744726
50
269.4204315
51
286.420998
0
ARC
8
DEFAULT_255_1_388
10
4.4145491
20
52.6090705
40
0.2115721
50
286.7250065
51
320.6004665
0
ARC
8
DEFAULT_255_1_388
10
4.3714407
20
52.6440527
40
0.2670878
50
320.6712228
51
344.5440474
0
ARC
8
DEFAULT_255_1_388
10
4.241312
20
52.6822394
40
0.4026927
50
344.241448
51
356.735803
0
ARC
8
DEFAULT_255_1_388
10
4.1009428
20
52.6938656
40
0.5435085
50
356.3547471
51
0.0507222
0
ARC
8
DEFAULT_255_1_388
10
4.2511693
20
52.6973812
40
0.3932934
50
359.5579289
51
12.9534322
0
ARC
8
DEFAULT_255_1_388
10
4.3698533
20
52.7261586
40
0.2711827
50
12.6489751
51
41.608121
0
ARC
8
DEFAULT_255_1_388
10
4.3957693
20
52.7481946
40
0.2371737
50
41.7851122
51
85.9892156
0
ARC
8
DEFAULT_255_1_388
10
4.3819003
20
52.6566738
40
0.3295244
50
84.6965848
51
90.0672125
0
ARC
8
DEFAULT_255_1_388
10
4.379257
20
52.5815118
40
0.4046926
50
89.6804991
51
99.161352
0
ARC
8
DEFAULT_255_1_388
10
4.3561579
20
52.7195848
40
0.2647044
50
98.9836248
51
113.8905702
0
ARC
8
DEFAULT_255_1_388
10
4.3303254
20
52.7805118
40
0.1985386
50
114.195234
51
127.3641866
0
LINE
8
DEFAULT_255_1_388
10
4.9253151
20
61.5299898
11
4.9253151
21
60.656243
0
LINE
8
DEFAULT_255_1_388
10
4.9253151
20
60.656243
11
5.1078352
21
60.656243
0
LINE
8
DEFAULT_255_1_388
10
5.1078352
20
60.656243
11
5.1078352
21
60.5198048
0
LINE
8
DEFAULT_255_1_388
10
5.1078352
20
60.5198048
11
4.9253151
21
60.5198048
0
LINE
8
DEFAULT_255_1_388
10
4.9253151
20
60.5198048
11
4.9253151
21
60.2144
0
LINE
8
DEFAULT_255_1_388
10
4.9253151
20
60.2144
11
4.7572521
21
60.2144
0
LINE
8
DEFAULT_255_1_388
10
4.7572521
20
60.2144
11
4.7572521
21
60.5198048
0
LINE
8
DEFAULT_255_1_388
10
4.7572521
20
60.5198048
11
4.1581889
21
60.5198048
0
LINE
8
DEFAULT_255_1_388
10
4.1581889
20
60.5198048
11
4.1581889
21
60.6182933
0
LINE
8
DEFAULT_255_1_388
10
4.1581889
20
60.6182933
11
4.7473129
21
61.5299898
0
LINE
8
DEFAULT_255_1_388
10
4.7473129
20
61.5299898
11
4.9253151
21
61.5299898
0
LINE
8
DEFAULT_255_1_388
10
4.7373737
20
61.2652455
11
4.3479375
21
60.656243
0
LINE
8
DEFAULT_255_1_388
10
4.3479375
20
60.656243
11
4.7572521
21
60.656243
0
LINE
8
DEFAULT_255_1_388
10
4.7572521
20
60.656243
11
4.7572521
21
61.301388
0
LINE
8
DEFAULT_255_1_388
10
4.7572521
20
61.301388
11
4.7373737
21
61.2652455
0
LINE
8
DEFAULT_255_1_388
10
4.1980901
20
68.7545775
11
4.1980901
21
68.8910157
0
LINE
8
DEFAULT_255_1_388
10
4.1980901
20
68.8910157
11
4.3236856
21
68.8910157
0
LINE
8
DEFAULT_255_1_388
10
4.1095408
20
69.1223282
11
3.9423814
21
69.1223282
0
LINE
8
DEFAULT_255_1_388
10
3.9306351
20
68.4988688
11
4.098698
21
68.4988688
0
LINE
8
DEFAULT_255_1_388
10
4.3236856
20
68.7545775
11
4.1980901
21
68.7545775
0
ARC
8
DEFAULT_255_1_388
10
4.3204082
20
69.2726922
40
0.3816905
50
270.491971
51
281.8953028
0
ARC
8
DEFAULT_255_1_388
10
4.3475509
20
69.1487199
40
0.2547877
50
281.6690378
51
301.2943765
0
ARC
8
DEFAULT_255_1_388
10
4.3666961
20
69.1136926
40
0.2149197
50
301.7834992
51
311.754567
0
ARC
8
DEFAULT_255_1_388
10
4.3770002
20
69.102265
40
0.1995326
50
311.7325027
51
354.2803031
0
ARC
8
DEFAULT_255_1_388
10
4.2952418
20
69.116328
40
0.2823461
50
353.0941646
51
0.1174696
0
ARC
8
DEFAULT_255_1_388
10
4.2433976
20
69.1216874
40
0.3342238
50
359.1804452
51
15.0452323
0
ARC
8
DEFAULT_255_1_388
10
4.3948034
20
69.1658546
40
0.1765747
50
13.957816
51
77.6713812
0
ARC
8
DEFAULT_255_1_388
10
4.351327
20
69.0100464
40
0.3381982
50
76.111571
51
90.7028736
0
ARC
8
DEFAULT_255_1_388
10
4.3446682
20
69.040825
40
0.3074046
50
89.5321574
51
103.5319393
0
ARC
8
DEFAULT_255_1_388
10
4.3221066
20
69.1307443
40
0.2147041
50
103.2930114
51
133.5619756
0
ARC
8
DEFAULT_255_1_388
10
4.3171007
20
69.1374351
40
0.2064084
50
133.8349761
51
173.5343225
0
ARC
8
DEFAULT_255_1_388
10
4.3984665
20
69.1230144
40
0.2889266
50
172.5097183
51
180.1360699
0
ARC
8
DEFAULT_255_1_388
10
4.2914429
20
69.126888
40
0.3490913
50
155.3483706
51
180.7484035
0
ARC
8
DEFAULT_255_1_388
10
4.2859404
20
69.1236519
40
0.3454798
50
131.5745177
51
154.4799474
0
ARC
8
DEFAULT_255_1_388
10
4.3211687
20
69.0880422
40
0.3955058
50
96.9874487
51
131.9690874
0
ARC
8
DEFAULT_255_1_388
10
4.345858
20
68.9479407
40
0.537622
50
89.8592909
51
97.7827481
0
ARC
8
DEFAULT_255_1_388
10
4.3512689
20
68.918436
40
0.5671399
50
78.3654493
51
90.4132586
0
ARC
8
DEFAULT_255_1_388
10
4.391533
20
69.1050918
40
0.3762034
50
56.6229818
51
78.6387103
0
ARC
8
DEFAULT_255_1_388
10
4.4157159
20
69.1473846
40
0.3275964
50
47.0254604
51
56.085558
0
ARC
8
DEFAULT_255_1_388
10
4.417941
20
69.1518189
40
0.3228382
50
10.9207523
51
46.777927
0
ARC
8
DEFAULT_255_1_388
10
4.2645004
20
69.1163401
40
0.4802559
50
359.6364235
51
11.6087615
0
ARC
8
DEFAULT_255_1_388
10
4.470917
20
69.1146404
40
0.273833
50
332.3549969
51
359.7179765
0
ARC
8
DEFAULT_255_1_388
10
4.397757
20
69.1493285
40
0.3547505
50
325.2332381
51
332.8746682
0
ARC
8
DEFAULT_255_1_388
10
4.4149153
20
69.1373763
40
0.3338396
50
292.9803892
51
325.2391113
0
ARC
8
DEFAULT_255_1_388
10
4.3838349
20
69.1978679
40
0.4016959
50
292.542178
51
293.6931461
0
ARC
8
DEFAULT_255_1_388
10
4.4281921
20
68.4713036
40
0.372079
50
57.643292
51
72.8626085
0
ARC
8
DEFAULT_255_1_388
10
4.4680755
20
68.5359273
40
0.2961455
50
36.7246661
51
57.4701329
0
ARC
8
DEFAULT_255_1_388
10
4.4667912
20
68.537347
40
0.2963321
50
8.054535
51
36.3561529
0
ARC
8
DEFAULT_255_1_388
10
4.3697585
20
68.5199073
40
0.3948682
50
359.8316595
51
8.5873361
0
ARC
8
DEFAULT_255_1_388
10
4.3275059
20
68.514497
40
0.4371398
50
343.9831631
51
0.557075
0
ARC
8
DEFAULT_255_1_388
10
4.4272108
20
68.4871963
40
0.3337749
50
311.6358204
51
343.7652116
0
ARC
8
DEFAULT_255_1_388
10
4.3846362
20
68.5351955
40
0.3979351
50
279.7829743
51
311.625622
0
ARC
8
DEFAULT_255_1_388
10
4.3507497
20
68.6968642
40
0.5630417
50
269.7285092
51
280.3857694
0
ARC
8
DEFAULT_255_1_388
10
4.343781
20
68.6922241
40
0.5584119
50
256.6827433
51
270.4412869
0
ARC
8
DEFAULT_255_1_388
10
4.3056797
20
68.5364698
40
0.3980715
50
229.4223821
51
256.8554507
0
ARC
8
DEFAULT_255_1_388
10
4.259035
20
68.4839683
40
0.3278564
50
181.8183354
51
229.6455015
0
ARC
8
DEFAULT_255_1_388
10
4.375996
20
68.4986825
40
0.4453611
50
179.9760419
51
183.2330638
0
ARC
8
DEFAULT_255_1_388
10
4.3566512
20
68.4963781
40
0.2579652
50
179.4467996
51
196.2871626
0
ARC
8
DEFAULT_255_1_388
10
4.3017966
20
68.4813709
40
0.2011057
50
196.5661293
51
227.7059371
0
ARC
8
DEFAULT_255_1_388
10
4.3202573
20
68.5020155
40
0.2287994
50
227.7653015
51
257.8763321
0
ARC
8
DEFAULT_255_1_388
10
4.3455656
20
68.6080961
40
0.3378385
50
257.4583525
51
270.4267406
0
ARC
8
DEFAULT_255_1_388
10
4.3506906
20
68.640723
40
0.3704652
50
269.5965319
51
280.8788143
0
ARC
8
DEFAULT_255_1_388
10
4.3765134
20
68.5117529
40
0.2389415
50
280.6347277
51
299.8594068
0
ARC
8
DEFAULT_255_1_388
10
4.3979903
20
68.4709736
40
0.19289
50
300.3575552
51
314.5515667
0
ARC
8
DEFAULT_255_1_388
10
4.3886579
20
68.4778025
40
0.204312
50
315.0730962
51
345.0429362
0
ARC
8
DEFAULT_255_1_388
10
4.2848087
20
68.5080539
40
0.31246
50
344.598526
51
357.9270698
0
ARC
8
DEFAULT_255_1_388
10
4.1838391
20
68.5149705
40
0.4136265
50
357.4755098
51
0.0224936
0
ARC
8
DEFAULT_255_1_388
10
4.2991269
20
68.5177099
40
0.2983498
50
359.5051035
51
13.4236939
0
ARC
8
DEFAULT_255_1_388
10
4.3966359
20
68.5426637
40
0.1977186
50
12.9497905
51
48.7550905
0
ARC
8
DEFAULT_255_1_388
10
4.3761281
20
68.5146373
40
0.2323321
50
49.509109
51
72.1832965
0
ARC
8
DEFAULT_255_1_388
10
4.3358749
20
68.3951632
40
0.358397
50
71.9008458
51
84.3555134
0
ARC
8
DEFAULT_255_1_388
10
4.3177144
20
68.2419712
40
0.512641
50
84.019632
51
89.3326067
0
LINE
8
DEFAULT_255_1_388
10
4.8170318
20
76.2258382
11
4.8170318
21
76.0894
0
LINE
8
DEFAULT_255_1_388
10
4.8170318
20
76.0894
11
3.9550313
21
76.0894
0
LINE
8
DEFAULT_255_1_388
10
3.9550313
20
76.0894
11
3.9550313
21
76.2095741
0
LINE
8
DEFAULT_255_1_388
10
3.9550313
20
76.2095741
11
4.4104278
21
76.7155702
0
LINE
8
DEFAULT_255_1_388
10
4.0968909
20
77.0173607
11
3.9297315
21
77.0173607
0
LINE
8
DEFAULT_255_1_388
10
4.5089163
20
76.608046
11
4.1565262
21
76.2258382
0
LINE
8
DEFAULT_255_1_388
10
4.1565262
20
76.2258382
11
4.8170318
21
76.2258382
0
ARC
8
DEFAULT_255_1_388
10
2.8928337
20
78.0575983
40
2.0258655
50
318.5132526
51
320.7829045
0
ARC
8
DEFAULT_255_1_388
10
3.4876294
20
77.5734929
40
1.2589638
50
320.7372878
51
323.9739031
0
ARC
8
DEFAULT_255_1_388
10
3.9285226
20
77.2540554
40
0.7145141
50
323.8962701
51
328.64194
0
ARC
8
DEFAULT_255_1_388
10
4.1587484
20
77.1120545
40
0.4440242
50
328.8294576
51
331.7891185
0
ARC
8
DEFAULT_255_1_388
10
4.2709804
20
77.0541374
40
0.3177517
50
331.4254512
51
352.9365785
0
ARC
8
DEFAULT_255_1_388
10
4.2862804
20
77.050705
40
0.3021496
50
353.2257659
51
0.0166158
0
ARC
8
DEFAULT_255_1_388
10
4.3099564
20
77.0532894
40
0.2784847
50
359.486299
51
15.9343185
0
ARC
8
DEFAULT_255_1_388
10
4.3669831
20
77.0686269
40
0.2194403
50
16.1712913
51
43.5286088
0
ARC
8
DEFAULT_255_1_388
10
4.3756776
20
77.0773191
40
0.2071504
50
43.4417391
51
83.1661095
0
ARC
8
DEFAULT_255_1_388
10
4.3605937
20
76.9944316
40
0.2912888
50
82.160179
51
90.1505708
0
ARC
8
DEFAULT_255_1_388
10
4.3570418
20
76.9340279
40
0.3517025
50
89.5460741
51
102.5418361
0
ARC
8
DEFAULT_255_1_388
10
4.3297138
20
77.0499933
40
0.2325748
50
102.1738499
51
129.206123
0
ARC
8
DEFAULT_255_1_388
10
4.3208592
20
77.0639664
40
0.2161591
50
129.72865
51
135.753947
0
ARC
8
DEFAULT_255_1_388
10
4.3345074
20
77.0530728
40
0.2335433
50
136.1757367
51
166.3673339
0
ARC
8
DEFAULT_255_1_388
10
4.4477762
20
77.0227148
40
0.3507873
50
165.9090694
51
178.8684636
0
ARC
8
DEFAULT_255_1_388
10
4.5453534
20
77.0174263
40
0.4484624
50
178.4391136
51
180.0083808
0
ARC
8
DEFAULT_255_1_388
10
4.3874235
20
77.0218197
40
0.4577138
50
163.2878482
51
180.5581842
0
ARC
8
DEFAULT_255_1_388
10
4.2972276
20
77.0466393
40
0.3641968
50
133.4540601
51
162.947111
0
ARC
8
DEFAULT_255_1_388
10
4.3173158
20
77.0252789
40
0.3935189
50
100.7869829
51
133.4382499
0
ARC
8
DEFAULT_255_1_388
10
4.3564403
20
76.8510399
40
0.5720313
50
89.660664
51
101.3702276
0
ARC
8
DEFAULT_255_1_388
10
4.3639012
20
76.8579263
40
0.5651495
50
78.2172678
51
90.412935
0
ARC
8
DEFAULT_255_1_388
10
4.4038478
20
77.0406511
40
0.378122
50
55.9269121
51
78.4888449
0
ARC
8
DEFAULT_255_1_388
10
4.4259193
20
77.0787187
40
0.3342379
50
47.929771
51
55.4049217
0
ARC
8
DEFAULT_255_1_388
10
4.4373723
20
77.0903618
40
0.3179217
50
4.334829
51
48.0560205
0
ARC
8
DEFAULT_255_1_388
10
4.3141525
20
77.0712487
40
0.442341
50
359.9251713
51
5.5971671
0
ARC
8
DEFAULT_255_1_388
10
4.362368
20
77.0775728
40
0.3941854
50
337.8914027
51
358.9967534
0
ARC
8
DEFAULT_255_1_388
10
4.057125
20
77.1953295
40
0.7213271
50
326.9132501
51
338.3508308
0
ARC
8
DEFAULT_255_1_388
10
3.6087362
20
77.4827105
40
1.2538973
50
319.6471833
51
327.0959558
0
ARC
8
DEFAULT_255_1_388
10
3.177402
20
77.838505
40
1.8129975
50
317.2588228
51
319.9045804
0
LINE
8
DEFAULT_255_1_388
10
4.4961985
20
85.3488148
11
4.4961985
21
84.0269
0
LINE
8
DEFAULT_255_1_388
10
4.4961985
20
84.0269
11
4.3281355
21
84.0269
0
LINE
8
DEFAULT_255_1_388
10
4.3281355
20
84.0269
11
4.3281355
21
85.140995
0
LINE
8
DEFAULT_255_1_388
10
4.3281355
20
85.140995
11
3.991106
21
85.0172066
0
LINE
8
DEFAULT_255_1_388
10
3.991106
20
85.0172066
11
3.991106
21
85.1690055
0
LINE
8
DEFAULT_255_1_388
10
3.991106
20
85.1690055
11
4.4699951
21
85.3488148
0
LINE
8
DEFAULT_255_1_388
10
4.4699951
20
85.3488148
11
4.4961985
21
85.3488148
0
LINE
8
DEFAULT_255_1_388
10
4.7799856
20
92.742369
11
4.7799856
21
92.5255135
0
LINE
8
DEFAULT_255_1_388
10
3.9496099
20
92.5029244
11
3.9496099
21
92.7261048
0
LINE
8
DEFAULT_255_1_388
10
4.6128262
20
92.4803353
11
4.6128262
21
92.7541153
0
LINE
8
DEFAULT_255_1_388
10
4.1167693
20
92.7667652
11
4.1167693
21
92.4993102
0
ARC
8
DEFAULT_255_1_388
10
3.402219
20
92.5200118
40
1.3777776
50
353.8440855
51
0.2287917
0
ARC
8
DEFAULT_255_1_388
10
3.9241208
20
92.4617414
40
0.852639
50
344.4934746
51
353.9763743
0
ARC
8
DEFAULT_255_1_388
10
4.2608015
20
92.3660191
40
0.5026273
50
329.2803599
51
344.7473406
0
ARC
8
DEFAULT_255_1_388
10
4.3723511
20
92.3048038
40
0.3754848
50
324.9361395
51
328.6153007
0
ARC
8
DEFAULT_255_1_388
10
4.4149161
20
92.2750586
40
0.3235566
50
280.5801797
51
324.9173226
0
ARC
8
DEFAULT_255_1_388
10
4.3697789
20
92.4630236
40
0.5167077
50
269.5979457
51
281.6732777
0
ARC
8
DEFAULT_255_1_388
10
4.3616693
20
92.4495113
40
0.5032026
50
256.6228565
51
270.5105488
0
ARC
8
DEFAULT_255_1_388
10
4.3164435
20
92.2753345
40
0.3233092
50
215.8618351
51
257.2787793
0
ARC
8
DEFAULT_255_1_388
10
4.4313142
20
92.3524106
40
0.4615831
50
197.9695203
51
215.2622745
0
ARC
8
DEFAULT_255_1_388
10
4.7108818
20
92.4467641
40
0.7566307
50
187.8816486
51
198.2346584
0
ARC
8
DEFAULT_255_1_388
10
5.1562056
20
92.5110453
40
1.2065653
50
180.8977266
51
188.0054894
0
ARC
8
DEFAULT_255_1_388
10
5.461227
20
92.52254
40
1.5117443
50
180.7434591
51
181.152202
0
ARC
8
DEFAULT_255_1_388
10
5.2937266
20
92.7315371
40
1.3441277
50
173.7674302
51
180.2315596
0
ARC
8
DEFAULT_255_1_388
10
4.7855135
20
92.7889779
40
0.8326847
50
164.3058537
51
173.9000553
0
ARC
8
DEFAULT_255_1_388
10
4.4579135
20
92.8833652
40
0.4917711
50
148.7922028
51
164.5682288
0
ARC
8
DEFAULT_255_1_388
10
4.3509872
20
92.9430457
40
0.3694204
50
144.5883979
51
148.1161588
0
ARC
8
DEFAULT_255_1_388
10
4.3122618
20
92.9700667
40
0.322202
50
101.6440149
51
144.5142619
0
ARC
8
DEFAULT_255_1_388
10
4.360081
20
92.7800337
40
0.5180451
50
89.528284
51
102.5820197
0
ARC
8
DEFAULT_255_1_388
10
4.3689802
20
92.7756376
40
0.5224441
50
77.0437914
51
90.508231
0
ARC
8
DEFAULT_255_1_388
10
4.4142055
20
92.9604272
40
0.3322297
50
48.2777708
51
77.4996087
0
ARC
8
DEFAULT_255_1_388
10
4.4223795
20
92.9749557
40
0.315966
50
36.3141586
51
47.6307332
0
ARC
8
DEFAULT_255_1_388
10
4.3246518
20
92.9091159
40
0.4337313
50
18.2931065
51
35.6770203
0
ARC
8
DEFAULT_255_1_388
10
4.0385358
20
92.8109107
40
0.7362203
50
8.0246996
51
18.5605636
0
ARC
8
DEFAULT_255_1_388
10
3.5701714
20
92.7417432
40
1.2096583
50
1.127539
51
8.1718423
0
ARC
8
DEFAULT_255_1_388
10
3.2052847
20
92.7274374
40
1.5747719
50
0.5432713
51
1.38669
0
ARC
8
DEFAULT_255_1_388
10
3.4110226
20
92.7581163
40
1.2018103
50
359.8092569
51
4.9408001
0
ARC
8
DEFAULT_255_1_388
10
3.8846807
20
92.80039
40
0.7262727
50
4.8364937
51
12.2906017
0
ARC
8
DEFAULT_255_1_388
10
4.1946272
20
92.8694485
40
0.4087324
50
12.0806994
51
23.8171225
0
ARC
8
DEFAULT_255_1_388
10
4.3266668
20
92.9253508
40
0.2653719
50
24.2874621
51
31.3934353
0
ARC
8
DEFAULT_255_1_388
10
4.3857104
20
92.9639822
40
0.1948607
50
30.7407708
51
82.4658033
0
ARC
8
DEFAULT_255_1_388
10
4.3654765
20
92.8646017
40
0.2961198
50
81.1057101
51
90.2187368
0
ARC
8
DEFAULT_255_1_388
10
4.3614577
20
92.8936421
40
0.2670929
50
89.380395
51
105.6763916
0
ARC
8
DEFAULT_255_1_388
10
4.3408299
20
92.968632
40
0.1893189
50
105.7980655
51
149.7387869
0
ARC
8
DEFAULT_255_1_388
10
4.4605439
20
92.8966719
40
0.3289892
50
149.4208441
51
163.628295
0
ARC
8
DEFAULT_255_1_388
10
4.6957668
20
92.8249345
40
0.5749004
50
163.3764549
51
172.141138
0
ARC
8
DEFAULT_255_1_388
10
5.067039
20
92.7717582
40
0.9499585
50
172.0258462
51
178.0705453
0
ARC
8
DEFAULT_255_1_388
10
5.4091943
20
92.7555682
40
1.2924734
50
177.8639301
51
179.5036263
0
ARC
8
DEFAULT_255_1_388
10
5.2872961
20
92.4952151
40
1.170534
50
179.7995545
51
185.246089
0
ARC
8
DEFAULT_255_1_388
10
4.8324554
20
92.4521404
40
0.7136613
50
185.1411911
51
193.0082205
0
ARC
8
DEFAULT_255_1_388
10
4.5350815
20
92.3818441
40
0.4080987
50
192.7897338
51
205.2507384
0
ARC
8
DEFAULT_255_1_388
10
4.4173025
20
92.3292538
40
0.2791522
50
205.8001921
51
211.2545876
0
ARC
8
DEFAULT_255_1_388
10
4.3584564
20
92.2898132
40
0.2084074
50
210.3789935
51
238.4007996
0
ARC
8
DEFAULT_255_1_388
10
4.356265
20
92.2950786
40
0.2117943
50
239.6521916
51
265.9793852
0
ARC
8
DEFAULT_255_1_388
10
4.3658499
20
92.3707358
40
0.2879689
50
265.1324455
51
270.0603288
0
ARC
8
DEFAULT_255_1_388
10
4.3690876
20
92.3342418
40
0.2514919
50
269.3314378
51
287.2180039
0
ARC
8
DEFAULT_255_1_388
10
4.3845958
20
92.2776291
40
0.1928357
50
287.7957942
51
329.0808983
0
ARC
8
DEFAULT_255_1_388
10
4.2768715
20
92.3448651
40
0.319808
50
328.6635261
51
343.3325043
0
ARC
8
DEFAULT_255_1_388
10
4.0324174
20
92.4210195
40
0.5758408
50
343.0498092
51
351.9392499
0
ARC
8
DEFAULT_255_1_388
10
3.6423496
20
92.4785205
40
0.9701202
50
351.8071632
51
357.7957897
0
ARC
8
DEFAULT_255_1_388
10
3.2788973
20
92.4973724
40
1.3340376
50
357.5870923
51
359.2682493
0
LINE
8
DEFAULT_255_1_388
10
21.7506342
20
100.5569842
11
21.7506342
21
100.0744808
0
LINE
8
DEFAULT_255_1_388
10
20.7368349
20
100.4964454
11
20.7368349
21
100.6111981
0
LINE
8
DEFAULT_255_1_388
10
21.7506342
20
100.8316678
11
21.5771498
21
100.8316678
0
LINE
8
DEFAULT_255_1_388
10
20.9112228
20
100.6157159
11
20.9112228
21
100.5081917
0
LINE
8
DEFAULT_255_1_388
10
21.5780534
20
100.1205626
11
21.5780534
21
100.4160282
0
LINE
8
DEFAULT_255_1_388
10
21.5780534
20
100.4160282
11
21.2735521
21
100.4160282
0
LINE
8
DEFAULT_255_1_388
10
21.2735521
20
100.4160282
11
21.2735521
21
100.5569842
0
LINE
8
DEFAULT_255_1_388
10
21.2735521
20
100.5569842
11
21.7506342
21
100.5569842
0
ARC
8
DEFAULT_255_1_388
10
21.4320942
20
100.2987284
40
0.3895571
50
295.8437277
51
324.8549962
0
ARC
8
DEFAULT_255_1_388
10
21.3853325
20
100.3833619
40
0.4861381
50
291.5691164
51
296.4556269
0
ARC
8
DEFAULT_255_1_388
10
21.3278327
20
100.5369801
40
0.6501442
50
278.6622213
51
291.3047061
0
ARC
8
DEFAULT_255_1_388
10
21.2896359
20
100.7786557
40
0.8948168
50
270.0200506
51
278.7494673
0
ARC
8
DEFAULT_255_1_388
10
21.2852563
20
100.9632453
40
1.0794166
50
270.0022372
51
270.2490917
0
ARC
8
DEFAULT_255_1_388
10
21.2810456
20
100.4673827
40
0.5835695
50
253.5785313
51
270.4175629
0
ARC
8
DEFAULT_255_1_388
10
21.2615452
20
100.3918625
40
0.5056241
50
238.8203954
51
253.2788387
0
ARC
8
DEFAULT_255_1_388
10
21.2593367
20
100.3861224
40
0.4995712
50
206.7883476
51
238.696262
0
ARC
8
DEFAULT_255_1_388
10
21.3468763
20
100.4385847
40
0.6014056
50
206.1137778
51
207.4912776
0
ARC
8
DEFAULT_255_1_388
10
21.4135599
20
100.4669284
40
0.6737692
50
188.6922336
51
205.782076
0
ARC
8
DEFAULT_255_1_388
10
21.6223958
20
100.5024455
40
0.8855812
50
180.3881972
51
188.9218085
0
ARC
8
DEFAULT_255_1_388
10
21.7605116
20
100.6175622
40
1.0236965
50
170.2024645
51
180.3561986
0
ARC
8
DEFAULT_255_1_388
10
21.4046266
20
100.6812101
40
0.6621746
50
154.2856519
51
170.3893388
0
ARC
8
DEFAULT_255_1_388
10
21.260423
20
100.7472192
40
0.5036209
50
139.8400879
51
153.9334639
0
ARC
8
DEFAULT_255_1_388
10
21.2200133
20
100.7795716
40
0.4518751
50
98.4190017
51
139.6707015
0
ARC
8
DEFAULT_255_1_388
10
21.2627101
20
100.5719755
40
0.6635912
50
89.7660128
51
99.4415389
0
ARC
8
DEFAULT_255_1_388
10
21.2700497
20
100.5793517
40
0.6562258
50
78.0552044
51
90.4042252
0
ARC
8
DEFAULT_255_1_388
10
21.3155561
20
100.7839661
40
0.4466287
50
54.6380186
51
78.3338577
0
ARC
8
DEFAULT_255_1_388
10
21.3369859
20
100.8200444
40
0.4048184
50
50.0313964
51
54.1562739
0
ARC
8
DEFAULT_255_1_388
10
21.3248753
20
100.8091798
40
0.4209308
50
18.1092229
51
49.7179911
0
ARC
8
DEFAULT_255_1_388
10
21.1609833
20
100.7491399
40
0.5953982
50
7.967396
51
18.698492
0
ARC
8
DEFAULT_255_1_388
10
21.1779094
20
100.7630236
40
0.4050986
50
9.7558763
51
27.3214087
0
ARC
8
DEFAULT_255_1_388
10
21.3047559
20
100.8264087
40
0.2633168
50
27.736147
51
84.5257861
0
ARC
8
DEFAULT_255_1_388
10
21.2678968
20
100.6414988
40
0.4513019
50
82.1064239
51
90.1997295
0
ARC
8
DEFAULT_255_1_388
10
21.2622985
20
100.6986501
40
0.3941684
50
89.4148952
51
105.5824837
0
ARC
8
DEFAULT_255_1_388
10
21.2333865
20
100.8039043
40
0.2850167
50
105.6678541
51
144.2649156
0
ARC
8
DEFAULT_255_1_388
10
21.3338758
20
100.7324024
40
0.4083468
50
144.3560675
51
162.8564185
0
ARC
8
DEFAULT_255_1_388
10
21.56832
20
100.6571083
40
0.6545749
50
162.6076338
51
173.6779811
0
ARC
8
DEFAULT_255_1_388
10
21.9127315
20
100.6152422
40
1.0015089
50
173.4670996
51
179.9729015
0
ARC
8
DEFAULT_255_1_388
10
21.6980186
20
100.5034636
40
0.78681
50
179.6556955
51
190.007958
0
ARC
8
DEFAULT_255_1_388
10
21.4374468
20
100.455666
40
0.5218997
50
189.8117884
51
206.6795375
0
ARC
8
DEFAULT_255_1_388
10
21.3423914
20
100.4113514
40
0.4170788
50
207.1031171
51
217.7074698
0
ARC
8
DEFAULT_255_1_388
10
21.2710344
20
100.3492596
40
0.3226945
50
216.7345117
51
265.6812141
0
ARC
8
DEFAULT_255_1_388
10
21.2857486
20
100.451003
40
0.4253149
50
264.7367524
51
270.0610826
0
ARC
8
DEFAULT_255_1_388
10
21.2883672
20
100.7705173
40
0.7448321
50
269.8334494
51
276.0538364
0
ARC
8
DEFAULT_255_1_388
10
21.3116534
20
100.5565924
40
0.5296446
50
275.9894423
51
284.4615914
0
ARC
8
DEFAULT_255_1_388
10
21.3338047
20
100.463357
40
0.4338353
50
284.7038488
51
286.4938196
0
ARC
8
DEFAULT_255_1_388
10
21.3797196
20
100.3154371
40
0.2789738
50
286.0770429
51
304.2629628
0
ARC
8
DEFAULT_255_1_388
10
21.3947354
20
100.290868
40
0.2502188
50
304.5886247
51
317.1074126
0
LINE
8
DEFAULT_255_1_388
10
23.0508634
20
101.2174898
11
23.0508634
21
99.9019
0
LINE
8
DEFAULT_255_1_388
10
23.0508634
20
99.9019
11
22.8764755
21
99.9019
0
LINE
8
DEFAULT_255_1_388
10
22.8764755
20
99.9019
11
22.2141627
21
100.9156993
0
LINE
8
DEFAULT_255_1_388
10
22.2141627
20
100.9156993
11
22.2141627
21
99.9019
0
LINE
8
DEFAULT_255_1_388
10
22.2141627
20
99.9019
11
22.0397748
21
99.9019
0
LINE
8
DEFAULT_255_1_388
10
22.0397748
20
99.9019
11
22.0397748
21
101.2174898
0
LINE
8
DEFAULT_255_1_388
10
22.0397748
20
101.2174898
11
22.2141627
21
101.2174898
0
LINE
8
DEFAULT_255_1_388
10
22.2141627
20
101.2174898
11
22.8782826
21
100.1991727
0
LINE
8
DEFAULT_255_1_388
10
22.8782826
20
100.1991727
11
22.8782826
21
101.2174898
0
LINE
8
DEFAULT_255_1_388
10
22.8782826
20
101.2174898
11
23.0508634
21
101.2174898
0
LINE
8
DEFAULT_255_1_388
10
23.7231154
20
99.9019
11
23.3589789
21
99.9019
0
LINE
8
DEFAULT_255_1_388
10
23.3589789
20
99.9019
11
23.3589789
21
101.2174898
0
LINE
8
DEFAULT_255_1_388
10
23.3589789
20
101.2174898
11
23.7303439
21
101.2174898
0
LINE
8
DEFAULT_255_1_388
10
24.3104323
20
100.6039696
11
24.3104323
21
100.5199381
0
LINE
8
DEFAULT_255_1_388
10
23.7348617
20
101.0747267
11
23.5324633
21
101.0747267
0
LINE
8
DEFAULT_255_1_388
10
23.5324633
20
101.0747267
11
23.5324633
21
100.0437596
0
LINE
8
DEFAULT_255_1_388
10
23.5324633
20
100.0437596
11
23.7149833
21
100.0437596
0
LINE
8
DEFAULT_255_1_388
10
24.138755
20
100.5235523
11
24.138755
21
100.6003553
0
ARC
8
DEFAULT_255_1_388
10
23.7347234
20
100.5576436
40
0.6598608
50
75.4100343
51
90.3802731
0
ARC
8
DEFAULT_255_1_388
10
23.7605479
20
100.6652691
40
0.5492049
50
60.1455157
51
75.1889627
0
ARC
8
DEFAULT_255_1_388
10
23.7784071
20
100.6963914
40
0.5133226
50
26.525419
51
60.1451222
0
ARC
8
DEFAULT_255_1_388
10
23.6523857
20
100.6295642
40
0.6559324
50
7.4029944
51
26.832209
0
ARC
8
DEFAULT_255_1_388
10
23.4730254
20
100.6016229
40
0.8374103
50
0.1605597
51
7.7176135
0
ARC
8
DEFAULT_255_1_388
10
23.4914654
20
100.5156321
40
0.8189782
50
348.7289744
51
0.30125
0
ARC
8
DEFAULT_255_1_388
10
23.6778118
20
100.4786156
40
0.628991
50
333.0706936
51
348.7181455
0
ARC
8
DEFAULT_255_1_388
10
23.7865747
20
100.4195449
40
0.5052808
50
299.2531435
51
333.4571133
0
ARC
8
DEFAULT_255_1_388
10
23.7459777
20
100.4966629
40
0.5924066
50
278.1072193
51
299.0340218
0
ARC
8
DEFAULT_255_1_388
10
23.7171826
20
100.6662979
40
0.7644209
50
270.4446841
51
278.4508355
0
ARC
8
DEFAULT_255_1_388
10
23.719531
20
100.56173
40
0.5179903
50
269.4969684
51
284.0204874
0
ARC
8
DEFAULT_255_1_388
10
23.7595028
20
100.4081415
40
0.3592968
50
283.7699076
51
318.1557121
0
ARC
8
DEFAULT_255_1_388
10
23.7215573
20
100.4365399
40
0.4065308
50
318.7417595
51
343.687252
0
ARC
8
DEFAULT_255_1_388
10
23.5186152
20
100.4999275
40
0.6191194
50
343.3324891
51
355.8548594
0
ARC
8
DEFAULT_255_1_388
10
23.282519
20
100.5223719
40
0.856237
50
355.4988754
51
0.0789913
0
ARC
8
DEFAULT_255_1_388
10
23.3705989
20
100.605108
40
0.7681709
50
359.6455047
51
9.8607559
0
ARC
8
DEFAULT_255_1_388
10
23.6361712
20
100.6530664
40
0.498312
50
9.6573037
51
26.1931522
0
ARC
8
DEFAULT_255_1_388
10
23.7405787
20
100.7015587
40
0.3832303
50
26.5777895
51
40.1533752
0
ARC
8
DEFAULT_255_1_388
10
23.7693452
20
100.724002
40
0.3467742
50
40.3839958
51
80.1430923
0
ARC
8
DEFAULT_255_1_388
10
23.7325708
20
100.5609486
40
0.5137832
50
79.2153636
51
89.7445174
0
LINE
8
DEFAULT_255_1_388
10
24.3856819
20
37.7174898
11
24.3856819
21
37.6235191
0
LINE
8
DEFAULT_255_1_388
10
24.3856819
20
37.6235191
11
23.8408325
21
36.4019
0
LINE
8
DEFAULT_255_1_388
10
23.8408325
20
36.4019
11
23.665541
21
36.4019
0
LINE
8
DEFAULT_255_1_388
10
23.665541
20
36.4019
11
24.2085833
21
37.580148
0
LINE
8
DEFAULT_255_1_388
10
24.2085833
20
37.580148
11
23.4965745
21
37.580148
0
LINE
8
DEFAULT_255_1_388
10
23.4965745
20
37.580148
11
23.4965745
21
37.7174898
0
LINE
8
DEFAULT_255_1_388
10
23.4965745
20
37.7174898
11
24.3856819
21
37.7174898
0
LINE
8
DEFAULT_255_1_388
10
24.1625015
20
45.6558934
11
24.1923191
21
45.6558934
0
LINE
8
DEFAULT_255_1_388
10
24.1923191
20
45.6558934
11
24.1923191
21
45.5140338
0
LINE
8
DEFAULT_255_1_388
10
24.1923191
20
45.5140338
11
24.1615979
21
45.5140338
0
LINE
8
DEFAULT_255_1_388
10
23.5462705
20
44.8399747
11
23.5462705
21
44.9041278
0
LINE
8
DEFAULT_255_1_388
10
23.7143335
20
44.8824422
11
23.7143335
21
44.8209999
0
ARC
8
DEFAULT_255_1_388
10
24.1674871
20
44.9517826
40
0.562282
50
90.6001079
51
104.5146616
0
ARC
8
DEFAULT_255_1_388
10
24.123783
20
45.11431
40
0.3939917
50
104.2855758
51
133.8630124
0
ARC
8
DEFAULT_255_1_388
10
24.1422083
20
45.1021243
40
0.4155734
50
134.5304124
51
161.6210222
0
ARC
8
DEFAULT_255_1_388
10
24.3282015
20
45.0365421
40
0.6127682
50
161.2850533
51
174.2074364
0
ARC
8
DEFAULT_255_1_388
10
24.4871582
20
45.0146437
40
0.7731446
50
173.7817938
51
174.9251711
0
ARC
8
DEFAULT_255_1_388
10
23.9745775
20
44.859127
40
0.3412588
50
95.8332067
51
138.995412
0
ARC
8
DEFAULT_255_1_388
10
23.9997056
20
44.7152695
40
0.4870358
50
89.8755506
51
97.0540979
0
ARC
8
DEFAULT_255_1_388
10
24.0050445
20
44.8092841
40
0.3930432
50
71.6407016
51
90.6240821
0
ARC
8
DEFAULT_255_1_388
10
24.0219838
20
44.8716433
40
0.3285421
50
39.6368051
51
71.0190743
0
ARC
8
DEFAULT_255_1_388
10
23.9503746
20
44.8097586
40
0.4231706
50
10.6588054
51
39.9044509
0
ARC
8
DEFAULT_255_1_388
10
23.7762291
20
44.7719223
40
0.60133
50
359.6827842
51
11.1326896
0
ARC
8
DEFAULT_255_1_388
10
23.7717627
20
44.7639715
40
0.6058047
50
347.2485908
51
0.4371098
0
ARC
8
DEFAULT_255_1_388
10
23.9593413
20
44.7188379
40
0.4128987
50
318.1408565
51
347.6118497
0
ARC
8
DEFAULT_255_1_388
10
23.9959009
20
44.6887903
40
0.3656244
50
275.6342406
51
317.824739
0
ARC
8
DEFAULT_255_1_388
10
23.971053
20
44.8349827
40
0.513655
50
269.8872513
51
276.7916069
0
ARC
8
DEFAULT_255_1_388
10
23.9648723
20
44.7196181
40
0.398323
50
246.9139443
51
270.7436787
0
ARC
8
DEFAULT_255_1_388
10
23.9655919
20
44.7036044
40
0.3839368
50
218.1665534
51
245.8780431
0
ARC
8
DEFAULT_255_1_388
10
24.0645291
20
44.7863903
40
0.5128958
50
191.4115343
51
218.6077624
0
ARC
8
DEFAULT_255_1_388
10
24.2825607
20
44.8352777
40
0.7363054
50
179.6344971
51
191.7836758
0
ARC
8
DEFAULT_255_1_388
10
24.9105482
20
44.9116495
40
1.3642984
50
171.4523743
51
180.3158856
0
ARC
8
DEFAULT_255_1_388
10
24.4161209
20
44.9885895
40
0.8639311
50
157.9802296
51
171.6246761
0
ARC
8
DEFAULT_255_1_388
10
24.1670559
20
45.0879038
40
0.5958004
50
141.4299236
51
157.8541251
0
ARC
8
DEFAULT_255_1_388
10
24.0948643
20
45.1389746
40
0.5075416
50
102.871586
51
140.8564533
0
ARC
8
DEFAULT_255_1_388
10
24.1677195
20
44.8644943
40
0.7914163
50
90.377773
51
103.5868422
0
ARC
8
DEFAULT_255_1_388
10
23.9721717
20
44.7964543
40
0.2667015
50
89.8751238
51
126.2072139
0
ARC
8
DEFAULT_255_1_388
10
23.9773188
20
44.7790847
40
0.2838229
50
124.9742447
51
144.8960197
0
ARC
8
DEFAULT_255_1_388
10
23.9575433
20
44.7951981
40
0.2583845
50
145.2974778
51
160.2660922
0
ARC
8
DEFAULT_255_1_388
10
24.3031921
20
44.8174151
40
0.5888695
50
179.6512124
51
190.285571
0
ARC
8
DEFAULT_255_1_388
10
24.1126401
20
44.7814968
40
0.3949683
50
190.0944895
51
207.5099647
0
ARC
8
DEFAULT_255_1_388
10
24.0489982
20
44.7512177
40
0.3245464
50
207.9585471
51
216.325377
0
ARC
8
DEFAULT_255_1_388
10
24.0107619
20
44.7197712
40
0.2751259
50
215.7661336
51
232.5457193
0
ARC
8
DEFAULT_255_1_388
10
23.9676735
20
44.6650273
40
0.2054668
50
232.8005815
51
270.6605497
0
ARC
8
DEFAULT_255_1_388
10
23.972816
20
44.7059853
40
0.2464268
50
269.3550767
51
288.474612
0
ARC
8
DEFAULT_255_1_388
10
23.9832667
20
44.6666721
40
0.2058436
50
289.1831976
51
322.9685307
0
ARC
8
DEFAULT_255_1_388
10
23.9144768
20
44.7209279
40
0.2934408
50
322.6007085
51
346.5183319
0
ARC
8
DEFAULT_255_1_388
10
23.7842524
20
44.7541434
40
0.4278249
50
346.2584622
51
358.7739592
0
ARC
8
DEFAULT_255_1_388
10
23.66911
20
44.7603829
40
0.5430876
50
358.3757628
51
0.0082477
0
ARC
8
DEFAULT_255_1_388
10
23.7547918
20
44.7634856
40
0.4574157
50
359.6211417
51
11.28403
0
ARC
8
DEFAULT_255_1_388
10
23.8984524
20
44.7934535
40
0.3106708
50
11.0483152
51
31.8145585
0
ARC
8
DEFAULT_255_1_388
10
23.9332229
20
44.8123045
40
0.2711963
50
32.3028554
51
38.0820598
0
ARC
8
DEFAULT_255_1_388
10
23.9805462
20
44.8551717
40
0.2075566
50
36.8249851
51
85.741667
0
ARC
8
DEFAULT_255_1_388
10
23.9729875
20
44.7988065
40
0.2643487
50
85.0150021
51
90.050843
0
LINE
8
DEFAULT_255_1_388
10
23.7468618
20
52.9021666
11
23.6131343
21
52.9365021
0
LINE
8
DEFAULT_255_1_388
10
23.6131343
20
52.9365021
11
23.679998
21
53.5924898
0
LINE
8
DEFAULT_255_1_388
10
23.679998
20
53.5924898
11
24.3540571
21
53.5924898
0
LINE
8
DEFAULT_255_1_388
10
24.3540571
20
53.5924898
11
24.3540571
21
53.4379803
0
LINE
8
DEFAULT_255_1_388
10
24.3540571
20
53.4379803
11
23.8218577
21
53.4379803
0
LINE
8
DEFAULT_255_1_388
10
23.8218577
20
53.4379803
11
23.7821008
21
53.0792652
0
LINE
8
DEFAULT_255_1_388
10
23.5661489
20
52.6229652
11
23.7242727
21
52.6229652
0
LINE
8
DEFAULT_255_1_388
10
23.7911365
20
52.9383092
11
23.7468618
21
52.9021666
0
ARC
8
DEFAULT_255_1_388
10
23.9907622
20
52.7215241
40
0.4141476
50
93.7181681
51
120.253934
0
ARC
8
DEFAULT_255_1_388
10
24.0013674
20
52.6306284
40
0.5055616
50
89.9660471
51
94.2495185
0
ARC
8
DEFAULT_255_1_388
10
24.0059496
20
52.6969154
40
0.4392953
50
73.8045384
51
90.5585736
0
ARC
8
DEFAULT_255_1_388
10
24.0323754
20
52.793452
40
0.3392225
50
41.3071072
51
73.543002
0
ARC
8
DEFAULT_255_1_388
10
23.9855574
20
52.7531461
40
0.4009977
50
13.5075837
51
41.2174839
0
ARC
8
DEFAULT_255_1_388
10
23.8008671
20
52.7047907
40
0.5918864
50
1.1330171
51
13.8830737
0
ARC
8
DEFAULT_255_1_388
10
23.6412317
20
52.6962522
40
0.7516787
50
359.9925091
51
1.5431298
0
ARC
8
DEFAULT_255_1_388
10
23.7856932
20
52.6916027
40
0.6072343
50
347.8572712
51
0.4294349
0
ARC
8
DEFAULT_255_1_388
10
23.9826066
20
52.6469898
40
0.4053482
50
323.6727442
51
348.1674594
0
ARC
8
DEFAULT_255_1_388
10
24.0157031
20
52.6268175
40
0.3667495
50
316.8171818
51
323.1486802
0
ARC
8
DEFAULT_255_1_388
10
24.0226155
20
52.6226612
40
0.358869
50
281.839603
51
316.5458142
0
ARC
8
DEFAULT_255_1_388
10
23.9803442
20
52.7976363
40
0.5388223
50
269.5770964
51
282.4214641
0
ARC
8
DEFAULT_255_1_388
10
23.9723363
20
52.773593
40
0.5147801
50
256.2425863
51
270.4486481
0
ARC
8
DEFAULT_255_1_388
10
23.9386891
20
52.6386124
40
0.3756708
50
228.9024379
51
256.33135
0
ARC
8
DEFAULT_255_1_388
10
23.9303871
20
52.6255054
40
0.360344
50
193.7536029
51
228.5272638
0
ARC
8
DEFAULT_255_1_388
10
24.0696436
20
52.6663463
40
0.5053599
50
184.9244437
51
194.4976052
0
ARC
8
DEFAULT_255_1_388
10
24.0913077
20
52.6703722
40
0.3700839
50
187.3596909
51
198.6733728
0
ARC
8
DEFAULT_255_1_388
10
23.9732321
20
52.6294373
40
0.2451195
50
198.4453795
51
217.7945479
0
ARC
8
DEFAULT_255_1_388
10
23.9399493
20
52.6058563
40
0.2043754
50
218.2887146
51
228.5613203
0
ARC
8
DEFAULT_255_1_388
10
23.95095
20
52.6206902
40
0.2227819
50
228.9652423
51
258.1237049
0
ARC
8
DEFAULT_255_1_388
10
23.9740937
20
52.7197964
40
0.3245374
50
257.7260585
51
270.4013717
0
ARC
8
DEFAULT_255_1_388
10
23.9791435
20
52.6697255
40
0.2744726
50
269.4204315
51
286.420998
0
ARC
8
DEFAULT_255_1_388
10
23.9958491
20
52.6090705
40
0.2115721
50
286.7250065
51
320.6004665
0
ARC
8
DEFAULT_255_1_388
10
23.9527407
20
52.6440527
40
0.2670878
50
320.6712228
51
344.5440474
0
ARC
8
DEFAULT_255_1_388
10
23.822612
20
52.6822394
40
0.4026927
50
344.241448
51
356.735803
0
ARC
8
DEFAULT_255_1_388
10
23.6822428
20
52.6938656
40
0.5435085
50
356.3547471
51
0.0507222
0
ARC
8
DEFAULT_255_1_388
10
23.8324693
20
52.6973812
40
0.3932934
50
359.5579289
51
12.9534322
0
ARC
8
DEFAULT_255_1_388
10
23.9511533
20
52.7261586
40
0.2711827
50
12.6489751
51
41.608121
0
ARC
8
DEFAULT_255_1_388
10
23.9770693
20
52.7481946
40
0.2371737
50
41.7851122
51
85.9892156
0
ARC
8
DEFAULT_255_1_388
10
23.9632003
20
52.6566738
40
0.3295244
50
84.6965848
51
90.0672125
0
ARC
8
DEFAULT_255_1_388
10
23.960557
20
52.5815118
40
0.4046926
50
89.6804991
51
99.161352
0
ARC
8
DEFAULT_255_1_388
10
23.9374579
20
52.7195848
40
0.2647044
50
98.9836248
51
113.8905702
0
ARC
8
DEFAULT_255_1_388
10
23.9116254
20
52.7805118
40
0.1985386
50
114.195234
51
127.3641866
0
LINE
8
DEFAULT_255_1_388
10
23.9774151
20
61.5299898
11
23.9774151
21
60.656243
0
LINE
8
DEFAULT_255_1_388
10
23.9774151
20
60.656243
11
24.1599352
21
60.656243
0
LINE
8
DEFAULT_255_1_388
10
24.1599352
20
60.656243
11
24.1599352
21
60.5198048
0
LINE
8
DEFAULT_255_1_388
10
24.1599352
20
60.5198048
11
23.9774151
21
60.5198048
0
LINE
8
DEFAULT_255_1_388
10
23.9774151
20
60.5198048
11
23.9774151
21
60.2144
0
LINE
8
DEFAULT_255_1_388
10
23.9774151
20
60.2144
11
23.8093521
21
60.2144
0
LINE
8
DEFAULT_255_1_388
10
23.8093521
20
60.2144
11
23.8093521
21
60.5198048
0
LINE
8
DEFAULT_255_1_388
10
23.8093521
20
60.5198048
11
23.2102889
21
60.5198048
0
LINE
8
DEFAULT_255_1_388
10
23.2102889
20
60.5198048
11
23.2102889
21
60.6182933
0
LINE
8
DEFAULT_255_1_388
10
23.2102889
20
60.6182933
11
23.7994129
21
61.5299898
0
LINE
8
DEFAULT_255_1_388
10
23.7994129
20
61.5299898
11
23.9774151
21
61.5299898
0
LINE
8
DEFAULT_255_1_388
10
23.7894737
20
61.2652455
11
23.4000375
21
60.656243
0
LINE
8
DEFAULT_255_1_388
10
23.4000375
20
60.656243
11
23.8093521
21
60.656243
0
LINE
8
DEFAULT_255_1_388
10
23.8093521
20
60.656243
11
23.8093521
21
61.301388
0
LINE
8
DEFAULT_255_1_388
10
23.8093521
20
61.301388
11
23.7894737
21
61.2652455
0
LINE
8
DEFAULT_255_1_388
10
23.7793901
20
68.7545775
11
23.7793901
21
68.8910157
0
LINE
8
DEFAULT_255_1_388
10
23.7793901
20
68.8910157
11
23.9049856
21
68.8910157
0
LINE
8
DEFAULT_255_1_388
10
23.6908408
20
69.1223282
11
23.5236814
21
69.1223282
0
LINE
8
DEFAULT_255_1_388
10
23.5119351
20
68.4988688
11
23.679998
21
68.4988688
0
LINE
8
DEFAULT_255_1_388
10
23.9049856
20
68.7545775
11
23.7793901
21
68.7545775
0
ARC
8
DEFAULT_255_1_388
10
23.9017082
20
69.2726922
40
0.3816905
50
270.491971
51
281.8953028
0
ARC
8
DEFAULT_255_1_388
10
23.9288509
20
69.1487199
40
0.2547877
50
281.6690378
51
301.2943765
0
ARC
8
DEFAULT_255_1_388
10
23.9479961
20
69.1136926
40
0.2149197
50
301.7834992
51
311.754567
0
ARC
8
DEFAULT_255_1_388
10
23.9583002
20
69.102265
40
0.1995326
50
311.7325027
51
354.2803031
0
ARC
8
DEFAULT_255_1_388
10
23.8765418
20
69.116328
40
0.2823461
50
353.0941646
51
0.1174696
0
ARC
8
DEFAULT_255_1_388
10
23.8246976
20
69.1216874
40
0.3342238
50
359.1804452
51
15.0452323
0
ARC
8
DEFAULT_255_1_388
10
23.9761034
20
69.1658546
40
0.1765747
50
13.957816
51
77.6713812
0
ARC
8
DEFAULT_255_1_388
10
23.932627
20
69.0100464
40
0.3381982
50
76.111571
51
90.7028736
0
ARC
8
DEFAULT_255_1_388
10
23.9259682
20
69.040825
40
0.3074046
50
89.5321574
51
103.5319393
0
ARC
8
DEFAULT_255_1_388
10
23.9034066
20
69.1307443
40
0.2147041
50
103.2930114
51
133.5619756
0
ARC
8
DEFAULT_255_1_388
10
23.8984007
20
69.1374351
40
0.2064084
50
133.8349761
51
173.5343225
0
ARC
8
DEFAULT_255_1_388
10
23.9797665
20
69.1230144
40
0.2889266
50
172.5097183
51
180.1360699
0
ARC
8
DEFAULT_255_1_388
10
23.8727429
20
69.126888
40
0.3490913
50
155.3483706
51
180.7484035
0
ARC
8
DEFAULT_255_1_388
10
23.8672404
20
69.1236519
40
0.3454798
50
131.5745177
51
154.4799474
0
ARC
8
DEFAULT_255_1_388
10
23.9024687
20
69.0880422
40
0.3955058
50
96.9874487
51
131.9690874
0
ARC
8
DEFAULT_255_1_388
10
23.927158
20
68.9479407
40
0.537622
50
89.8592909
51
97.7827481
0
ARC
8
DEFAULT_255_1_388
10
23.9325689
20
68.918436
40
0.5671399
50
78.3654493
51
90.4132586
0
ARC
8
DEFAULT_255_1_388
10
23.972833
20
69.1050918
40
0.3762034
50
56.6229818
51
78.6387103
0
ARC
8
DEFAULT_255_1_388
10
23.9970159
20
69.1473846
40
0.3275964
50
47.0254604
51
56.085558
0
ARC
8
DEFAULT_255_1_388
10
23.999241
20
69.1518189
40
0.3228382
50
10.9207523
51
46.777927
0
ARC
8
DEFAULT_255_1_388
10
23.8458004
20
69.1163401
40
0.4802559
50
359.6364235
51
11.6087615
0
ARC
8
DEFAULT_255_1_388
10
24.052217
20
69.1146404
40
0.273833
50
332.3549969
51
359.7179765
0
ARC
8
DEFAULT_255_1_388
10
23.979057
20
69.1493285
40
0.3547505
50
325.2332381
51
332.8746682
0
ARC
8
DEFAULT_255_1_388
10
23.9962153
20
69.1373763
40
0.3338396
50
292.9803892
51
325.2391113
0
ARC
8
DEFAULT_255_1_388
10
23.9651349
20
69.1978679
40
0.4016959
50
292.542178
51
293.6931461
0
ARC
8
DEFAULT_255_1_388
10
24.0094921
20
68.4713036
40
0.372079
50
57.643292
51
72.8626085
0
ARC
8
DEFAULT_255_1_388
10
24.0493755
20
68.5359273
40
0.2961455
50
36.7246661
51
57.4701329
0
ARC
8
DEFAULT_255_1_388
10
24.0480912
20
68.537347
40
0.2963321
50
8.054535
51
36.3561529
0
ARC
8
DEFAULT_255_1_388
10
23.9510585
20
68.5199073
40
0.3948682
50
359.8316595
51
8.5873361
0
ARC
8
DEFAULT_255_1_388
10
23.9088059
20
68.514497
40
0.4371398
50
343.9831631
51
0.557075
0
ARC
8
DEFAULT_255_1_388
10
24.0085108
20
68.4871963
40
0.3337749
50
311.6358204
51
343.7652116
0
ARC
8
DEFAULT_255_1_388
10
23.9659362
20
68.5351955
40
0.3979351
50
279.7829743
51
311.625622
0
ARC
8
DEFAULT_255_1_388
10
23.9320497
20
68.6968642
40
0.5630417
50
269.7285092
51
280.3857694
0
ARC
8
DEFAULT_255_1_388
10
23.925081
20
68.6922241
40
0.5584119
50
256.6827433
51
270.4412869
0
ARC
8
DEFAULT_255_1_388
10
23.8869797
20
68.5364698
40
0.3980715
50
229.4223821
51
256.8554507
0
ARC
8
DEFAULT_255_1_388
10
23.840335
20
68.4839683
40
0.3278564
50
181.8183354
51
229.6455015
0
ARC
8
DEFAULT_255_1_388
10
23.957296
20
68.4986825
40
0.4453611
50
179.9760419
51
183.2330638
0
ARC
8
DEFAULT_255_1_388
10
23.9379512
20
68.4963781
40
0.2579652
50
179.4467996
51
196.2871626
0
ARC
8
DEFAULT_255_1_388
10
23.8830966
20
68.4813709
40
0.2011057
50
196.5661293
51
227.7059371
0
ARC
8
DEFAULT_255_1_388
10
23.9015573
20
68.5020155
40
0.2287994
50
227.7653015
51
257.8763321
0
ARC
8
DEFAULT_255_1_388
10
23.9268656
20
68.6080961
40
0.3378385
50
257.4583525
51
270.4267406
0
ARC
8
DEFAULT_255_1_388
10
23.9319906
20
68.640723
40
0.3704652
50
269.5965319
51
280.8788143
0
ARC
8
DEFAULT_255_1_388
10
23.9578134
20
68.5117529
40
0.2389415
50
280.6347277
51
299.8594068
0
ARC
8
DEFAULT_255_1_388
10
23.9792903
20
68.4709736
40
0.19289
50
300.3575552
51
314.5515667
0
ARC
8
DEFAULT_255_1_388
10
23.9699579
20
68.4778025
40
0.204312
50
315.0730962
51
345.0429362
0
ARC
8
DEFAULT_255_1_388
10
23.8661087
20
68.5080539
40
0.31246
50
344.598526
51
357.9270698
0
ARC
8
DEFAULT_255_1_388
10
23.7651391
20
68.5149705
40
0.4136265
50
357.4755098
51
0.0224936
0
ARC
8
DEFAULT_255_1_388
10
23.8804269
20
68.5177099
40
0.2983498
50
359.5051035
51
13.4236939
0
ARC
8
DEFAULT_255_1_388
10
23.9779359
20
68.5426637
40
0.1977186
50
12.9497905
51
48.7550905
0
ARC
8
DEFAULT_255_1_388
10
23.9574281
20
68.5146373
40
0.2323321
50
49.509109
51
72.1832965
0
ARC
8
DEFAULT_255_1_388
10
23.9171749
20
68.3951632
40
0.358397
50
71.9008458
51
84.3555134
0
ARC
8
DEFAULT_255_1_388
10
23.8990144
20
68.2419712
40
0.512641
50
84.019632
51
89.3326067
0
LINE
8
DEFAULT_255_1_388
10
24.3983318
20
76.2258382
11
24.3983318
21
76.0894
0
LINE
8
DEFAULT_255_1_388
10
24.3983318
20
76.0894
11
23.5363313
21
76.0894
0
LINE
8
DEFAULT_255_1_388
10
23.5363313
20
76.0894
11
23.5363313
21
76.2095741
0
LINE
8
DEFAULT_255_1_388
10
23.5363313
20
76.2095741
11
23.9917278
21
76.7155702
0
LINE
8
DEFAULT_255_1_388
10
23.6781909
20
77.0173607
11
23.5110315
21
77.0173607
0
LINE
8
DEFAULT_255_1_388
10
24.0902163
20
76.608046
11
23.7378262
21
76.2258382
0
LINE
8
DEFAULT_255_1_388
10
23.7378262
20
76.2258382
11
24.3983318
21
76.2258382
0
ARC
8
DEFAULT_255_1_388
10
22.4741337
20
78.0575983
40
2.0258655
50
318.5132526
51
320.7829045
0
ARC
8
DEFAULT_255_1_388
10
23.0689294
20
77.5734929
40
1.2589638
50
320.7372878
51
323.9739031
0
ARC
8
DEFAULT_255_1_388
10
23.5098226
20
77.2540554
40
0.7145141
50
323.8962701
51
328.64194
0
ARC
8
DEFAULT_255_1_388
10
23.7400484
20
77.1120545
40
0.4440242
50
328.8294576
51
331.7891185
0
ARC
8
DEFAULT_255_1_388
10
23.8522804
20
77.0541374
40
0.3177517
50
331.4254512
51
352.9365785
0
ARC
8
DEFAULT_255_1_388
10
23.8675804
20
77.050705
40
0.3021496
50
353.2257659
51
0.0166158
0
ARC
8
DEFAULT_255_1_388
10
23.8912564
20
77.0532894
40
0.2784847
50
359.486299
51
15.9343185
0
ARC
8
DEFAULT_255_1_388
10
23.9482831
20
77.0686269
40
0.2194403
50
16.1712913
51
43.5286088
0
ARC
8
DEFAULT_255_1_388
10
23.9569776
20
77.0773191
40
0.2071504
50
43.4417391
51
83.1661095
0
ARC
8
DEFAULT_255_1_388
10
23.9418937
20
76.9944316
40
0.2912888
50
82.160179
51
90.1505708
0
ARC
8
DEFAULT_255_1_388
10
23.9383418
20
76.9340279
40
0.3517025
50
89.5460741
51
102.5418361
0
ARC
8
DEFAULT_255_1_388
10
23.9110138
20
77.0499933
40
0.2325748
50
102.1738499
51
129.206123
0
ARC
8
DEFAULT_255_1_388
10
23.9021592
20
77.0639664
40
0.2161591
50
129.72865
51
135.753947
0
ARC
8
DEFAULT_255_1_388
10
23.9158074
20
77.0530728
40
0.2335433
50
136.1757367
51
166.3673339
0
ARC
8
DEFAULT_255_1_388
10
24.0290762
20
77.0227148
40
0.3507873
50
165.9090694
51
178.8684636
0
ARC
8
DEFAULT_255_1_388
10
24.1266534
20
77.0174263
40
0.4484624
50
178.4391136
51
180.0083808
0
ARC
8
DEFAULT_255_1_388
10
23.9687235
20
77.0218197
40
0.4577138
50
163.2878482
51
180.5581842
0
ARC
8
DEFAULT_255_1_388
10
23.8785276
20
77.0466393
40
0.3641968
50
133.4540601
51
162.947111
0
ARC
8
DEFAULT_255_1_388
10
23.8986158
20
77.0252789
40
0.3935189
50
100.7869829
51
133.4382499
0
ARC
8
DEFAULT_255_1_388
10
23.9377403
20
76.8510399
40
0.5720313
50
89.660664
51
101.3702276
0
ARC
8
DEFAULT_255_1_388
10
23.9452012
20
76.8579263
40
0.5651495
50
78.2172678
51
90.412935
0
ARC
8
DEFAULT_255_1_388
10
23.9851478
20
77.0406511
40
0.378122
50
55.9269121
51
78.4888449
0
ARC
8
DEFAULT_255_1_388
10
24.0072193
20
77.0787187
40
0.3342379
50
47.929771
51
55.4049217
0
ARC
8
DEFAULT_255_1_388
10
24.0186723
20
77.0903618
40
0.3179217
50
4.334829
51
48.0560205
0
ARC
8
DEFAULT_255_1_388
10
23.8954525
20
77.0712487
40
0.442341
50
359.9251713
51
5.5971671
0
ARC
8
DEFAULT_255_1_388
10
23.943668
20
77.0775728
40
0.3941854
50
337.8914027
51
358.9967534
0
ARC
8
DEFAULT_255_1_388
10
23.638425
20
77.1953295
40
0.7213271
50
326.9132501
51
338.3508308
0
ARC
8
DEFAULT_255_1_388
10
23.1900362
20
77.4827105
40
1.2538973
50
319.6471833
51
327.0959558
0
ARC
8
DEFAULT_255_1_388
10
22.758702
20
77.838505
40
1.8129975
50
317.2588228
51
319.9045804
0
LINE
8
DEFAULT_255_1_388
10
24.0939985
20
85.3488148
11
24.0939985
21
84.0269
0
LINE
8
DEFAULT_255_1_388
10
24.0939985
20
84.0269
11
23.9259355
21
84.0269
0
LINE
8
DEFAULT_255_1_388
10
23.9259355
20
84.0269
11
23.9259355
21
85.140995
0
LINE
8
DEFAULT_255_1_388
10
23.9259355
20
85.140995
11
23.588906
21
85.0172066
0
LINE
8
DEFAULT_255_1_388
10
23.588906
20
85.0172066
11
23.588906
21
85.1690055
0
LINE
8
DEFAULT_255_1_388
10
23.588906
20
85.1690055
11
24.0677951
21
85.3488148
0
LINE
8
DEFAULT_255_1_388
10
24.0677951
20
85.3488148
11
24.0939985
21
85.3488148
0
LINE
8
DEFAULT_255_1_388
10
24.3612856
20
92.742369
11
24.3612856
21
92.5255135
0
LINE
8
DEFAULT_255_1_388
10
23.5309099
20
92.5029244
11
23.5309099
21
92.7261048
0
LINE
8
DEFAULT_255_1_388
10
24.1941262
20
92.4803353
11
24.1941262
21
92.7541153
0
LINE
8
DEFAULT_255_1_388
10
23.6980693
20
92.7667652
11
23.6980693
21
92.4993102
0
ARC
8
DEFAULT_255_1_388
10
22.983519
20
92.5200118
40
1.3777776
50
353.8440855
51
0.2287917
0
ARC
8
DEFAULT_255_1_388
10
23.5054208
20
92.4617414
40
0.852639
50
344.4934746
51
353.9763743
0
ARC
8
DEFAULT_255_1_388
10
23.8421015
20
92.3660191
40
0.5026273
50
329.2803599
51
344.7473406
0
ARC
8
DEFAULT_255_1_388
10
23.9536511
20
92.3048038
40
0.3754848
50
324.9361395
51
328.6153007
0
ARC
8
DEFAULT_255_1_388
10
23.9962161
20
92.2750586
40
0.3235566
50
280.5801797
51
324.9173226
0
ARC
8
DEFAULT_255_1_388
10
23.9510789
20
92.4630236
40
0.5167077
50
269.5979457
51
281.6732777
0
ARC
8
DEFAULT_255_1_388
10
23.9429693
20
92.4495113
40
0.5032026
50
256.6228565
51
270.5105488
0
ARC
8
DEFAULT_255_1_388
10
23.8977435
20
92.2753345
40
0.3233092
50
215.8618351
51
257.2787793
0
ARC
8
DEFAULT_255_1_388
10
24.0126142
20
92.3524106
40
0.4615831
50
197.9695203
51
215.2622745
0
ARC
8
DEFAULT_255_1_388
10
24.2921818
20
92.4467641
40
0.7566307
50
187.8816486
51
198.2346584
0
ARC
8
DEFAULT_255_1_388
10
24.7375056
20
92.5110453
40
1.2065653
50
180.8977266
51
188.0054894
0
ARC
8
DEFAULT_255_1_388
10
25.042527
20
92.52254
40
1.5117443
50
180.7434591
51
181.152202
0
ARC
8
DEFAULT_255_1_388
10
24.8750266
20
92.7315371
40
1.3441277
50
173.7674302
51
180.2315596
0
ARC
8
DEFAULT_255_1_388
10
24.3668135
20
92.7889779
40
0.8326847
50
164.3058537
51
173.9000553
0
ARC
8
DEFAULT_255_1_388
10
24.0392135
20
92.8833652
40
0.4917711
50
148.7922028
51
164.5682288
0
ARC
8
DEFAULT_255_1_388
10
23.9322872
20
92.9430457
40
0.3694204
50
144.5883979
51
148.1161588
0
ARC
8
DEFAULT_255_1_388
10
23.8935618
20
92.9700667
40
0.322202
50
101.6440149
51
144.5142619
0
ARC
8
DEFAULT_255_1_388
10
23.941381
20
92.7800337
40
0.5180451
50
89.528284
51
102.5820197
0
ARC
8
DEFAULT_255_1_388
10
23.9502802
20
92.7756376
40
0.5224441
50
77.0437914
51
90.508231
0
ARC
8
DEFAULT_255_1_388
10
23.9955055
20
92.9604272
40
0.3322297
50
48.2777708
51
77.4996087
0
ARC
8
DEFAULT_255_1_388
10
24.0036795
20
92.9749557
40
0.315966
50
36.3141586
51
47.6307332
0
ARC
8
DEFAULT_255_1_388
10
23.9059518
20
92.9091159
40
0.4337313
50
18.2931065
51
35.6770203
0
ARC
8
DEFAULT_255_1_388
10
23.6198358
20
92.8109107
40
0.7362203
50
8.0246996
51
18.5605636
0
ARC
8
DEFAULT_255_1_388
10
23.1514714
20
92.7417432
40
1.2096583
50
1.127539
51
8.1718423
0
ARC
8
DEFAULT_255_1_388
10
22.7865847
20
92.7274374
40
1.5747719
50
0.5432713
51
1.38669
0
ARC
8
DEFAULT_255_1_388
10
22.9923226
20
92.7581163
40
1.2018103
50
359.8092569
51
4.9408001
0
ARC
8
DEFAULT_255_1_388
10
23.4659807
20
92.80039
40
0.7262727
50
4.8364937
51
12.2906017
0
ARC
8
DEFAULT_255_1_388
10
23.7759272
20
92.8694485
40
0.4087324
50
12.0806994
51
23.8171225
0
ARC
8
DEFAULT_255_1_388
10
23.9079668
20
92.9253508
40
0.2653719
50
24.2874621
51
31.3934353
0
ARC
8
DEFAULT_255_1_388
10
23.9670104
20
92.9639822
40
0.1948607
50
30.7407708
51
82.4658033
0
ARC
8
DEFAULT_255_1_388
10
23.9467765
20
92.8646017
40
0.2961198
50
81.1057101
51
90.2187368
0
ARC
8
DEFAULT_255_1_388
10
23.9427577
20
92.8936421
40
0.2670929
50
89.380395
51
105.6763916
0
ARC
8
DEFAULT_255_1_388
10
23.9221299
20
92.968632
40
0.1893189
50
105.7980655
51
149.7387869
0
ARC
8
DEFAULT_255_1_388
10
24.0418439
20
92.8966719
40
0.3289892
50
149.4208441
51
163.628295
0
ARC
8
DEFAULT_255_1_388
10
24.2770668
20
92.8249345
40
0.5749004
50
163.3764549
51
172.141138
0
ARC
8
DEFAULT_255_1_388
10
24.648339
20
92.7717582
40
0.9499585
50
172.0258462
51
178.0705453
0
ARC
8
DEFAULT_255_1_388
10
24.9904943
20
92.7555682
40
1.2924734
50
177.8639301
51
179.5036263
0
ARC
8
DEFAULT_255_1_388
10
24.8685961
20
92.4952151
40
1.170534
50
179.7995545
51
185.246089
0
ARC
8
DEFAULT_255_1_388
10
24.4137554
20
92.4521404
40
0.7136613
50
185.1411911
51
193.0082205
0
ARC
8
DEFAULT_255_1_388
10
24.1163815
20
92.3818441
40
0.4080987
50
192.7897338
51
205.2507384
0
ARC
8
DEFAULT_255_1_388
10
23.9986025
20
92.3292538
40
0.2791522
50
205.8001921
51
211.2545876
0
ARC
8
DEFAULT_255_1_388
10
23.9397564
20
92.2898132
40
0.2084074
50
210.3789935
51
238.4007996
0
ARC
8
DEFAULT_255_1_388
10
23.937565
20
92.2950786
40
0.2117943
50
239.6521916
51
265.9793852
0
ARC
8
DEFAULT_255_1_388
10
23.9471499
20
92.3707358
40
0.2879689
50
265.1324455
51
270.0603288
0
ARC
8
DEFAULT_255_1_388
10
23.9503876
20
92.3342418
40
0.2514919
50
269.3314378
51
287.2180039
0
ARC
8
DEFAULT_255_1_388
10
23.9658958
20
92.2776291
40
0.1928357
50
287.7957942
51
329.0808983
0
ARC
8
DEFAULT_255_1_388
10
23.8581715
20
92.3448651
40
0.319808
50
328.6635261
51
343.3325043
0
ARC
8
DEFAULT_255_1_388
10
23.6137174
20
92.4210195
40
0.5758408
50
343.0498092
51
351.9392499
0
ARC
8
DEFAULT_255_1_388
10
23.2236496
20
92.4785205
40
0.9701202
50
351.8071632
51
357.7957897
0
ARC
8
DEFAULT_255_1_388
10
22.8601973
20
92.4973724
40
1.3340376
50
357.5870923
51
359.2682493
0
ENDSEC
0
EOF