0
SECTION
2
HEADER
9
$MEASUREMENT
70
1
0
ENDSEC
0
SECTION
2
TABLES
0
TABLE
2
LTYPE
0
LTYPE
72
65
70
64
2
CONTINUOUS
3
______
73
0
40
0
0
ENDTAB
0
TABLE
2
LAYER
0
LAYER
2
DEFAULT_255_2_778
70
0
62
255
6
CONTINUOUS
0
ENDTAB
0
ENDSEC
0
SECTION
2
ENTITIES
0
LINE
8
DEFAULT_255_2_778
10
38.430171
20
39.833905
11
42.730171
21
39.833905
0
LINE
8
DEFAULT_255_2_778
10
42.730171
20
39.833905
11
42.730171
21
69.833905
0
LINE
8
DEFAULT_255_2_778
10
42.730171
20
69.833905
11
38.430171
21
69.833905
0
LINE
8
DEFAULT_255_2_778
10
5.280271
20
48.483905
11
5.280271
21
61.183905
0
LINE
8
DEFAULT_255_2_778
10
5.280271
20
61.183905
11
3.280271
21
61.183905
0
LINE
8
DEFAULT_255_2_778
10
3.280271
20
61.183905
11
3.280271
21
48.483905
0
LINE
8
DEFAULT_255_2_778
10
3.280271
20
48.483905
11
5.280271
21
48.483905
0
LINE
8
DEFAULT_255_2_778
10
2.030171
20
38.233905
11
0.230171
21
38.233905
0
LINE
8
DEFAULT_255_2_778
10
34.730271
20
10.333905
11
35.230271
21
10.333905
0
LINE
8
DEFAULT_255_2_778
10
20.510171
20
39.283805
11
20.510171
21
39.093805
0
LINE
8
DEFAULT_255_2_778
10
78.630171
20
29.233905
11
81.430271
21
29.233905
0
LINE
8
DEFAULT_255_2_778
10
81.430271
20
29.233905
11
81.430271
21
20.633905
0
LINE
8
DEFAULT_255_2_778
10
81.430271
20
20.633905
11
78.630171
21
20.633905
0
LINE
8
DEFAULT_255_2_778
10
78.630171
20
20.633905
11
78.630171
21
29.233905
0
LINE
8
DEFAULT_255_2_778
10
85.050071
20
37.333805
11
83.429971
21
40.033905
0
LINE
8
DEFAULT_255_2_778
10
83.429971
20
40.033905
11
82.429871
21
40.033905
0
LINE
8
DEFAULT_255_2_778
10
82.429871
20
40.033905
11
82.229871
21
37.833905
0
LINE
8
DEFAULT_255_2_778
10
81.230271
20
37.833905
11
83.030171
21
37.833905
0
LINE
8
DEFAULT_255_2_778
10
83.030171
20
37.833905
11
83.030171
21
37.333805
0
LINE
8
DEFAULT_255_2_778
10
2.030171
20
71.433905
11
0.230171
21
71.433905
0
LINE
8
DEFAULT_255_2_778
10
20.510171
20
70.574005
11
20.510171
21
70.384005
0
LINE
8
DEFAULT_255_2_778
10
34.730271
20
99.333905
11
35.230271
21
99.333905
0
LINE
8
DEFAULT_255_2_778
10
81.430271
20
89.033905
11
78.630171
21
89.033905
0
LINE
8
DEFAULT_255_2_778
10
78.630171
20
89.033905
11
78.630171
21
80.433905
0
LINE
8
DEFAULT_255_2_778
10
78.630171
20
80.433905
11
81.430271
21
80.433905
0
LINE
8
DEFAULT_255_2_778
10
81.430271
20
80.433905
11
81.430271
21
89.033905
0
ARC
8
DEFAULT_255_2_778
10
80.341554
20
67.8438878
40
1.5029106
50
6.5392294
51
14.9957493
0
ARC
8
DEFAULT_255_2_778
10
80.3478774
20
67.8447352
40
1.4965318
50
0.0000446
51
6.5345682
0
ARC
8
DEFAULT_255_2_778
10
80.3440664
20
67.844802
40
1.5003429
50
306.2049945
51
359.997493
0
LINE
8
DEFAULT_255_2_778
10
81.230283
20
70.334062
11
81.793283
21
68.232762
0
LINE
8
DEFAULT_255_2_778
10
83.230183
20
72.833862
11
83.230183
21
70.303862
0
LINE
8
DEFAULT_255_2_778
10
83.230183
20
70.303862
11
85.230183
21
70.303862
0
LINE
8
DEFAULT_255_2_778
10
85.230183
20
70.303862
11
85.230183
21
109.833962
0
LINE
8
DEFAULT_255_2_778
10
85.230183
20
109.833962
11
77.230283
21
109.833962
0
LINE
8
DEFAULT_255_2_778
10
77.230283
20
109.833962
11
77.230283
21
99.834062
0
LINE
8
DEFAULT_255_2_778
10
77.230283
20
99.834062
11
75.430283
21
99.834062
0
LINE
8
DEFAULT_255_2_778
10
75.430283
20
99.834062
11
75.430283
21
99.333962
0
LINE
8
DEFAULT_255_2_778
10
75.430283
20
99.333962
11
73.430283
21
99.333962
0
LINE
8
DEFAULT_255_2_778
10
73.430283
20
99.333962
11
73.430283
21
99.834062
0
LINE
8
DEFAULT_255_2_778
10
73.430283
20
99.834062
11
71.430383
21
99.834062
0
LINE
8
DEFAULT_255_2_778
10
71.430383
20
99.834062
11
71.430383
21
99.333962
0
LINE
8
DEFAULT_255_2_778
10
71.430383
20
99.333962
11
69.430383
21
99.333962
0
LINE
8
DEFAULT_255_2_778
10
69.430383
20
99.333962
11
69.430383
21
99.834062
0
LINE
8
DEFAULT_255_2_778
10
69.430383
20
99.834062
11
67.430383
21
99.834062
0
LINE
8
DEFAULT_255_2_778
10
67.430383
20
99.834062
11
67.430383
21
99.333962
0
LINE
8
DEFAULT_255_2_778
10
67.430383
20
99.333962
11
49.430483
21
99.333962
0
LINE
8
DEFAULT_255_2_778
10
49.430483
20
99.333962
11
49.430483
21
99.834062
0
LINE
8
DEFAULT_255_2_778
10
49.430483
20
99.834062
11
47.430483
21
99.834062
0
LINE
8
DEFAULT_255_2_778
10
47.430483
20
99.834062
11
47.430483
21
99.333962
0
LINE
8
DEFAULT_255_2_778
10
47.430483
20
99.333962
11
45.430583
21
99.333962
0
LINE
8
DEFAULT_255_2_778
10
45.430583
20
99.333962
11
45.430583
21
99.834062
0
LINE
8
DEFAULT_255_2_778
10
45.430583
20
99.834062
11
43.430583
21
99.834062
0
LINE
8
DEFAULT_255_2_778
10
43.430583
20
99.834062
11
43.430583
21
99.333962
0
LINE
8
DEFAULT_255_2_778
10
43.430583
20
99.333962
11
41.430583
21
99.333962
0
LINE
8
DEFAULT_255_2_778
10
41.430583
20
99.333962
11
41.430583
21
99.834062
0
LINE
8
DEFAULT_255_2_778
10
41.430583
20
99.834062
11
35.230583
21
99.834062
0
LINE
8
DEFAULT_255_2_778
10
35.230583
20
99.834062
11
35.230583
21
85.434062
0
LINE
8
DEFAULT_255_2_778
10
35.230583
20
85.434062
11
38.430483
21
81.434162
0
LINE
8
DEFAULT_255_2_778
10
38.430483
20
81.434162
11
38.430483
21
28.234062
0
LINE
8
DEFAULT_255_2_778
10
38.430483
20
28.234062
11
35.230583
21
24.234162
0
LINE
8
DEFAULT_255_2_778
10
35.230583
20
24.234162
11
35.230583
21
9.834162
0
LINE
8
DEFAULT_255_2_778
10
35.230583
20
9.834162
11
41.430583
21
9.834162
0
LINE
8
DEFAULT_255_2_778
10
41.430583
20
9.834162
11
41.430583
21
10.334262
0
LINE
8
DEFAULT_255_2_778
10
41.430583
20
10.334262
11
43.430583
21
10.334262
0
LINE
8
DEFAULT_255_2_778
10
43.430583
20
10.334262
11
43.430583
21
9.834162
0
LINE
8
DEFAULT_255_2_778
10
43.430583
20
9.834162
11
45.430583
21
9.834162
0
LINE
8
DEFAULT_255_2_778
10
45.430583
20
9.834162
11
45.430583
21
10.334262
0
LINE
8
DEFAULT_255_2_778
10
45.430583
20
10.334262
11
47.430483
21
10.334262
0
LINE
8
DEFAULT_255_2_778
10
47.430483
20
10.334262
11
47.430483
21
9.834162
0
LINE
8
DEFAULT_255_2_778
10
47.430483
20
9.834162
11
49.430483
21
9.834162
0
LINE
8
DEFAULT_255_2_778
10
49.430483
20
9.834162
11
49.430483
21
10.334262
0
LINE
8
DEFAULT_255_2_778
10
49.430483
20
10.334262
11
67.430383
21
10.334262
0
LINE
8
DEFAULT_255_2_778
10
67.430383
20
10.334262
11
67.430383
21
9.834162
0
LINE
8
DEFAULT_255_2_778
10
67.430383
20
9.834162
11
69.430383
21
9.834162
0
LINE
8
DEFAULT_255_2_778
10
69.430383
20
9.834162
11
69.430383
21
10.334262
0
LINE
8
DEFAULT_255_2_778
10
69.430383
20
10.334262
11
71.430383
21
10.334262
0
LINE
8
DEFAULT_255_2_778
10
71.430383
20
10.334262
11
71.430383
21
9.834162
0
LINE
8
DEFAULT_255_2_778
10
71.430383
20
9.834162
11
73.430283
21
9.834162
0
LINE
8
DEFAULT_255_2_778
10
73.430283
20
9.834162
11
73.430283
21
10.334262
0
LINE
8
DEFAULT_255_2_778
10
73.430283
20
10.334262
11
75.430283
21
10.334262
0
LINE
8
DEFAULT_255_2_778
10
75.430283
20
10.334262
11
75.430283
21
9.834162
0
LINE
8
DEFAULT_255_2_778
10
75.430283
20
9.834162
11
77.230283
21
9.834162
0
LINE
8
DEFAULT_255_2_778
10
77.230283
20
9.834162
11
77.230283
21
-0.165738
0
LINE
8
DEFAULT_255_2_778
10
77.230283
20
-0.165738
11
85.230183
21
-0.165738
0
LINE
8
DEFAULT_255_2_778
10
85.230183
20
-0.165738
11
85.230183
21
37.333862
0
LINE
8
DEFAULT_255_2_778
10
85.230183
20
37.333862
11
81.230283
21
37.333862
0
LINE
8
DEFAULT_255_2_778
10
81.230283
20
37.333862
11
81.230283
21
72.833862
0
LINE
8
DEFAULT_255_2_778
10
81.230283
20
72.833862
11
85.230183
21
72.833862
0
LINE
8
DEFAULT_255_2_778
10
49.430283
20
9.833862
11
67.430083
21
9.833862
0
LINE
8
DEFAULT_255_2_778
10
49.4302659
20
99.834
11
67.4301659
21
99.834
0
LINE
8
DEFAULT_255_2_778
10
9.2803073
20
67.6638249
11
7.2803073
21
67.6638249
0
LINE
8
DEFAULT_255_2_778
10
7.2803073
20
67.6638249
11
7.2803073
21
62.1838249
0
LINE
8
DEFAULT_255_2_778
10
7.2803073
20
62.1838249
11
9.2803073
21
62.1838249
0
LINE
8
DEFAULT_255_2_778
10
9.2803073
20
62.1838249
11
9.2803073
21
67.6638249
0
LINE
8
DEFAULT_255_2_778
10
5.2803073
20
67.6638249
11
3.2803073
21
67.6638249
0
LINE
8
DEFAULT_255_2_778
10
3.2803073
20
67.6638249
11
3.2803073
21
62.1838249
0
LINE
8
DEFAULT_255_2_778
10
3.2803073
20
62.1838249
11
5.2803073
21
62.1838249
0
LINE
8
DEFAULT_255_2_778
10
5.2803073
20
62.1838249
11
5.2803073
21
67.6638249
0
LINE
8
DEFAULT_255_2_778
10
13.2302073
20
67.6638249
11
11.2302073
21
67.6638249
0
LINE
8
DEFAULT_255_2_778
10
11.2302073
20
67.6638249
11
11.2302073
21
62.1838249
0
LINE
8
DEFAULT_255_2_778
10
11.2302073
20
62.1838249
11
13.2302073
21
62.1838249
0
LINE
8
DEFAULT_255_2_778
10
13.2302073
20
62.1838249
11
13.2302073
21
67.6638249
0
LINE
8
DEFAULT_255_2_778
10
17.2302073
20
67.6638249
11
15.2302073
21
67.6638249
0
LINE
8
DEFAULT_255_2_778
10
15.2302073
20
67.6638249
11
15.2302073
21
62.1838249
0
LINE
8
DEFAULT_255_2_778
10
15.2302073
20
62.1838249
11
17.2302073
21
62.1838249
0
LINE
8
DEFAULT_255_2_778
10
17.2302073
20
62.1838249
11
17.2302073
21
67.6638249
0
LINE
8
DEFAULT_255_2_778
10
9.2803073
20
47.4838249
11
7.2803073
21
47.4838249
0
LINE
8
DEFAULT_255_2_778
10
7.2803073
20
47.4838249
11
7.2803073
21
42.0038249
0
LINE
8
DEFAULT_255_2_778
10
7.2803073
20
42.0038249
11
9.2803073
21
42.0038249
0
LINE
8
DEFAULT_255_2_778
10
9.2803073
20
42.0038249
11
9.2803073
21
47.4838249
0
LINE
8
DEFAULT_255_2_778
10
5.2803073
20
42.0038249
11
5.2803073
21
47.4838249
0
LINE
8
DEFAULT_255_2_778
10
5.2803073
20
47.4838249
11
3.2803073
21
47.4838249
0
LINE
8
DEFAULT_255_2_778
10
3.2803073
20
47.4838249
11
3.2803073
21
42.0038249
0
LINE
8
DEFAULT_255_2_778
10
3.2803073
20
42.0038249
11
5.2803073
21
42.0038249
0
LINE
8
DEFAULT_255_2_778
10
17.2302073
20
47.4838249
11
15.2302073
21
47.4838249
0
LINE
8
DEFAULT_255_2_778
10
15.2302073
20
47.4838249
11
15.2302073
21
42.0038249
0
LINE
8
DEFAULT_255_2_778
10
15.2302073
20
42.0038249
11
17.2302073
21
42.0038249
0
LINE
8
DEFAULT_255_2_778
10
17.2302073
20
42.0038249
11
17.2302073
21
47.4838249
0
LINE
8
DEFAULT_255_2_778
10
13.2302073
20
47.4838249
11
11.2302073
21
47.4838249
0
LINE
8
DEFAULT_255_2_778
10
11.2302073
20
47.4838249
11
11.2302073
21
42.0038249
0
LINE
8
DEFAULT_255_2_778
10
11.2302073
20
42.0038249
11
13.2302073
21
42.0038249
0
LINE
8
DEFAULT_255_2_778
10
13.2302073
20
42.0038249
11
13.2302073
21
47.4838249
0
LINE
8
DEFAULT_255_2_778
10
17.2302105
20
61.1838621
11
15.2302105
21
61.1838621
0
LINE
8
DEFAULT_255_2_778
10
15.2302105
20
61.1838621
11
15.2302105
21
48.4838621
0
LINE
8
DEFAULT_255_2_778
10
15.2302105
20
48.4838621
11
17.2302105
21
48.4838621
0
LINE
8
DEFAULT_255_2_778
10
17.2302105
20
48.4838621
11
17.2302105
21
61.1838621
0
LINE
8
DEFAULT_255_2_778
10
23.5302105
20
70.5739621
11
23.5302105
21
39.0938621
0
LINE
8
DEFAULT_255_2_778
10
37.9301255
20
81.2587352
11
34.7303255
21
85.2586352
0
LINE
8
DEFAULT_255_2_778
10
34.7303255
20
85.2586352
11
34.7303255
21
99.8340352
0
LINE
8
DEFAULT_255_2_778
10
34.7303255
20
99.8340352
11
0.2302255
21
99.8340352
0
LINE
8
DEFAULT_255_2_778
10
0.2302255
20
99.8340352
11
0.2302255
21
9.8341352
0
LINE
8
DEFAULT_255_2_778
10
0.2302255
20
9.8341352
11
34.7303255
21
9.8341352
0
LINE
8
DEFAULT_255_2_778
10
34.7303255
20
9.8341352
11
34.7303255
21
24.4095352
0
LINE
8
DEFAULT_255_2_778
10
34.7303255
20
24.4095352
11
37.9301255
21
28.4095352
0
LINE
8
DEFAULT_255_2_778
10
37.9301255
20
28.4095352
11
37.9301255
21
81.2587352
0
LINE
8
DEFAULT_255_2_778
10
2.0301618
20
39.0938621
11
25.5492618
21
39.0938621
0
LINE
8
DEFAULT_255_2_778
10
25.5492618
20
39.0938621
11
25.5492618
21
70.5739621
0
LINE
8
DEFAULT_255_2_778
10
25.5492618
20
70.5739621
11
2.0301618
21
70.5739621
0
LINE
8
DEFAULT_255_2_778
10
13.2301251
20
61.1838998
11
11.2302251
21
61.1838998
0
LINE
8
DEFAULT_255_2_778
10
11.2302251
20
61.1838998
11
11.2302251
21
48.4838998
0
LINE
8
DEFAULT_255_2_778
10
11.2302251
20
48.4838998
11
13.2301251
21
48.4838998
0
LINE
8
DEFAULT_255_2_778
10
13.2301251
20
48.4838998
11
13.2301251
21
61.1838998
0
LINE
8
DEFAULT_255_2_778
10
9.2802251
20
61.1838998
11
7.2802251
21
61.1838998
0
LINE
8
DEFAULT_255_2_778
10
7.2802251
20
61.1838998
11
7.2802251
21
48.4838998
0
LINE
8
DEFAULT_255_2_778
10
7.2802251
20
48.4838998
11
9.2802251
21
48.4838998
0
LINE
8
DEFAULT_255_2_778
10
9.2802251
20
48.4838998
11
9.2802251
21
61.1838998
0
LINE
8
DEFAULT_255_2_778
10
0.230218
20
36.8338005
11
2.030218
21
36.8338005
0
LINE
8
DEFAULT_255_2_778
10
2.030218
20
36.8338005
11
2.030218
21
39.2838005
0
LINE
8
DEFAULT_255_2_778
10
2.030218
20
39.2838005
11
23.230218
21
39.2838005
0
LINE
8
DEFAULT_255_2_778
10
23.230218
20
39.2838005
11
23.230218
21
70.3838005
0
LINE
8
DEFAULT_255_2_778
10
23.230218
20
70.3838005
11
2.030218
21
70.3838005
0
LINE
8
DEFAULT_255_2_778
10
2.030218
20
70.3838005
11
2.030218
21
72.8338005
0
LINE
8
DEFAULT_255_2_778
10
2.030218
20
72.8338005
11
0.230218
21
72.8338005
0
ENDSEC
0
EOF