0
SECTION
2
HEADER
9
$MEASUREMENT
70
1
0
ENDSEC
0
SECTION
2
TABLES
0
TABLE
2
LTYPE
0
LTYPE
72
65
70
64
2
CONTINUOUS
3
______
73
0
40
0
0
ENDTAB
0
TABLE
2
LAYER
0
LAYER
2
DEFAULT_255_2_778
70
0
62
255
6
CONTINUOUS
0
ENDTAB
0
ENDSEC
0
SECTION
2
ENTITIES
0
LINE
8
DEFAULT_255_2_778
10
195.263386
20
72.0344068
11
186.263386
21
72.0344068
0
LINE
8
DEFAULT_255_2_778
10
186.263386
20
72.0344068
11
186.263386
21
38.6344068
0
LINE
8
DEFAULT_255_2_778
10
186.263386
20
38.6344068
11
195.263386
21
38.6344068
0
LINE
8
DEFAULT_255_2_778
10
0.263386
20
39.0644068
11
23.763386
21
39.0644068
0
LINE
8
DEFAULT_255_2_778
10
23.763386
20
39.0644068
11
23.763386
21
71.7343068
0
LINE
8
DEFAULT_255_2_778
10
23.763386
20
71.7343068
11
0.263386
21
71.7343068
0
LINE
8
DEFAULT_255_2_778
10
113.903286
20
36.7842068
11
113.903286
21
71.0842068
0
LINE
8
DEFAULT_255_2_778
10
113.903286
20
71.0842068
11
112.103286
21
72.8842068
0
LINE
8
DEFAULT_255_2_778
10
112.103286
20
72.8842068
11
103.953286
21
72.8842068
0
LINE
8
DEFAULT_255_2_778
10
1.037265
20
39.2342282
11
22.763265
21
39.2342282
0
LINE
8
DEFAULT_255_2_778
10
22.763265
20
39.2342282
11
22.763265
21
71.4343282
0
LINE
8
DEFAULT_255_2_778
10
22.763265
20
71.4343282
11
1.037265
21
71.4343282
0
LINE
8
DEFAULT_255_2_778
10
184.263365
20
4.8344282
11
184.263365
21
35.9344282
0
LINE
8
DEFAULT_255_2_778
10
184.263365
20
35.9344282
11
43.763265
21
35.9344282
0
LINE
8
DEFAULT_255_2_778
10
43.763265
20
35.9344282
11
43.763265
21
9.8343282
0
LINE
8
DEFAULT_255_2_778
10
181.423265
20
27.8405282
11
181.423265
21
9.9404282
0
LINE
8
DEFAULT_255_2_778
10
181.423265
20
9.9404282
11
46.323365
21
9.9404282
0
LINE
8
DEFAULT_255_2_778
10
46.323365
20
9.9404282
11
46.323365
21
27.8405282
0
LINE
8
DEFAULT_255_2_778
10
46.323365
20
27.8405282
11
181.423265
21
27.8405282
0
LINE
8
DEFAULT_255_2_778
10
4.363365
20
39.0644282
11
4.363365
21
36.6344282
0
LINE
8
DEFAULT_255_2_778
10
4.363365
20
36.6344282
11
9.363465
21
36.6344282
0
LINE
8
DEFAULT_255_2_778
10
9.363465
20
36.6344282
11
9.363465
21
39.0644282
0
LINE
8
DEFAULT_255_2_778
10
195.263386
20
9.8343693
11
0.263386
21
9.8343693
0
LINE
8
DEFAULT_255_2_778
10
0.663386
20
39.0641693
11
0.663386
21
45.3342693
0
LINE
8
DEFAULT_255_2_778
10
0.663386
20
45.3342693
11
2.663386
21
45.3342693
0
ARC
8
DEFAULT_255_2_778
10
48.2633036
20
23.034012
40
3.1995959
50
179.9936782
51
232.4569818
0
ARC
8
DEFAULT_255_2_778
10
48.2653962
20
23.0337872
40
3.2016885
50
127.5614682
51
179.9896595
0
ARC
8
DEFAULT_255_2_778
10
48.2634348
20
23.0346181
40
2.749927
50
134.8685852
51
180.0052746
0
ARC
8
DEFAULT_255_2_778
10
48.2650356
20
23.034777
40
2.7515278
50
180.0085799
51
225.1175621
0
LINE
8
DEFAULT_255_2_778
10
48.1133078
20
9.934365
11
48.1133078
21
9.940665
0
LINE
8
DEFAULT_255_2_778
10
46.3133078
20
9.934365
11
46.3133078
21
11.259365
0
LINE
8
DEFAULT_255_2_778
10
45.3135078
20
12.134365
11
46.3136078
21
12.134365
0
LINE
8
DEFAULT_255_2_778
10
46.3136078
20
12.134365
11
46.3136078
21
20.497065
0
LINE
8
DEFAULT_255_2_778
10
46.3136078
20
25.571765
11
46.3136078
21
28.934565
0
LINE
8
DEFAULT_255_2_778
10
45.8233078
20
12.134365
11
45.8233078
21
11.259365
0
LINE
8
DEFAULT_255_2_778
10
45.8233078
20
11.259365
11
46.3234078
21
11.259365
0
LINE
8
DEFAULT_255_2_778
10
26.1534078
20
28.224465
11
26.1534078
21
19.924465
0
LINE
8
DEFAULT_255_2_778
10
26.1534078
20
19.924465
11
41.3135078
21
19.924465
0
LINE
8
DEFAULT_255_2_778
10
41.3135078
20
19.924465
11
41.3135078
21
28.224465
0
LINE
8
DEFAULT_255_2_778
10
14.3633078
20
39.234265
11
14.3633078
21
39.164165
0
LINE
8
DEFAULT_255_2_778
10
14.3633078
20
39.164165
11
20.5633078
21
39.164165
0
LINE
8
DEFAULT_255_2_778
10
20.5633078
20
39.164165
11
20.5633078
21
39.234265
0
LINE
8
DEFAULT_255_2_778
10
30.3634078
20
43.834365
11
28.1634078
21
43.834365
0
LINE
8
DEFAULT_255_2_778
10
28.1634078
20
43.834365
11
28.1634078
21
42.034365
0
LINE
8
DEFAULT_255_2_778
10
28.1634078
20
42.034365
11
30.3634078
21
42.034365
0
LINE
8
DEFAULT_255_2_778
10
30.3634078
20
42.034365
11
30.3634078
21
43.834365
0
LINE
8
DEFAULT_255_2_778
10
30.3634078
20
47.834265
11
30.3634078
21
49.634265
0
LINE
8
DEFAULT_255_2_778
10
30.3634078
20
49.634265
11
28.1634078
21
49.634265
0
LINE
8
DEFAULT_255_2_778
10
28.1634078
20
49.634265
11
28.1634078
21
47.834265
0
LINE
8
DEFAULT_255_2_778
10
28.1634078
20
47.834265
11
30.3634078
21
47.834265
0
LINE
8
DEFAULT_255_2_778
10
28.1634078
20
53.634465
11
30.3634078
21
53.634465
0
LINE
8
DEFAULT_255_2_778
10
30.3634078
20
53.634465
11
30.3634078
21
55.434465
0
LINE
8
DEFAULT_255_2_778
10
30.3634078
20
55.434465
11
28.1634078
21
55.434465
0
LINE
8
DEFAULT_255_2_778
10
28.1634078
20
55.434465
11
28.1634078
21
53.634465
0
LINE
8
DEFAULT_255_2_778
10
46.3133147
20
20.1343404
11
46.3234147
21
20.1343404
0
LINE
8
DEFAULT_255_2_778
10
46.3234147
20
12.4092404
11
46.3133147
21
12.4092404
0
LINE
8
DEFAULT_255_2_778
10
51.9135147
20
27.8405404
11
51.9135147
21
28.9343404
0
LINE
8
DEFAULT_255_2_778
10
64.4632521
20
33.1342927
11
64.4632521
21
35.1342927
0
LINE
8
DEFAULT_255_2_778
10
64.4632521
20
35.1342927
11
61.0633521
21
35.1342927
0
LINE
8
DEFAULT_255_2_778
10
61.0633521
20
35.1342927
11
61.0633521
21
33.1342927
0
LINE
8
DEFAULT_255_2_778
10
61.0633521
20
33.1342927
11
64.4632521
21
33.1342927
0
LINE
8
DEFAULT_255_2_778
10
68.6634521
20
33.1342927
11
72.0633521
21
33.1342927
0
LINE
8
DEFAULT_255_2_778
10
72.0633521
20
33.1342927
11
72.0633521
21
35.1342927
0
LINE
8
DEFAULT_255_2_778
10
72.0633521
20
35.1342927
11
68.6634521
21
35.1342927
0
LINE
8
DEFAULT_255_2_778
10
68.6634521
20
35.1342927
11
68.6634521
21
33.1342927
0
LINE
8
DEFAULT_255_2_778
10
140.4631521
20
33.1342927
11
140.4631521
21
35.1342927
0
LINE
8
DEFAULT_255_2_778
10
140.4631521
20
35.1342927
11
137.0632521
21
35.1342927
0
LINE
8
DEFAULT_255_2_778
10
137.0632521
20
35.1342927
11
137.0632521
21
33.1342927
0
LINE
8
DEFAULT_255_2_778
10
137.0632521
20
33.1342927
11
140.4631521
21
33.1342927
0
LINE
8
DEFAULT_255_2_778
10
110.0633521
20
33.1342927
11
110.0633521
21
35.1342927
0
LINE
8
DEFAULT_255_2_778
10
110.0633521
20
35.1342927
11
106.6634521
21
35.1342927
0
LINE
8
DEFAULT_255_2_778
10
106.6634521
20
35.1342927
11
106.6634521
21
33.1342927
0
LINE
8
DEFAULT_255_2_778
10
106.6634521
20
33.1342927
11
110.0633521
21
33.1342927
0
LINE
8
DEFAULT_255_2_778
10
103.9533544
20
36.7844822
11
117.9032544
21
36.7844822
0
LINE
8
DEFAULT_255_2_778
10
117.9032544
20
36.7844822
11
117.9032544
21
38.0843822
0
LINE
8
DEFAULT_255_2_778
10
117.9032544
20
38.0843822
11
115.6532544
21
40.7344822
0
LINE
8
DEFAULT_255_2_778
10
115.6532544
20
40.7344822
11
113.9032544
21
40.7344822
0
LINE
8
DEFAULT_255_2_778
10
83.4632521
20
30.5344927
11
83.4632521
21
32.5344927
0
LINE
8
DEFAULT_255_2_778
10
83.4632521
20
32.5344927
11
80.0633521
21
32.5344927
0
LINE
8
DEFAULT_255_2_778
10
80.0633521
20
32.5344927
11
80.0633521
21
30.5344927
0
LINE
8
DEFAULT_255_2_778
10
80.0633521
20
30.5344927
11
83.4632521
21
30.5344927
0
LINE
8
DEFAULT_255_2_778
10
76.2633521
20
33.1342927
11
79.6632521
21
33.1342927
0
LINE
8
DEFAULT_255_2_778
10
79.6632521
20
33.1342927
11
79.6632521
21
35.1342927
0
LINE
8
DEFAULT_255_2_778
10
79.6632521
20
35.1342927
11
76.2633521
21
35.1342927
0
LINE
8
DEFAULT_255_2_778
10
76.2633521
20
35.1342927
11
76.2633521
21
33.1342927
0
LINE
8
DEFAULT_255_2_778
10
83.8632521
20
35.1342927
11
83.8632521
21
33.1342927
0
LINE
8
DEFAULT_255_2_778
10
83.8632521
20
33.1342927
11
87.2631521
21
33.1342927
0
LINE
8
DEFAULT_255_2_778
10
87.2631521
20
33.1342927
11
87.2631521
21
35.1342927
0
LINE
8
DEFAULT_255_2_778
10
87.2631521
20
35.1342927
11
83.8632521
21
35.1342927
0
LINE
8
DEFAULT_255_2_778
10
102.4632521
20
33.1342927
11
102.4632521
21
35.1342927
0
LINE
8
DEFAULT_255_2_778
10
102.4632521
20
35.1342927
11
99.0633521
21
35.1342927
0
LINE
8
DEFAULT_255_2_778
10
99.0633521
20
35.1342927
11
99.0633521
21
33.1342927
0
LINE
8
DEFAULT_255_2_778
10
99.0633521
20
33.1342927
11
102.4632521
21
33.1342927
0
LINE
8
DEFAULT_255_2_778
10
95.2633521
20
30.5344927
11
98.6632521
21
30.5344927
0
LINE
8
DEFAULT_255_2_778
10
98.6632521
20
30.5344927
11
98.6632521
21
32.5344927
0
LINE
8
DEFAULT_255_2_778
10
98.6632521
20
32.5344927
11
95.2633521
21
32.5344927
0
LINE
8
DEFAULT_255_2_778
10
95.2633521
20
32.5344927
11
95.2633521
21
30.5344927
0
LINE
8
DEFAULT_255_2_778
10
91.4634521
20
33.1342927
11
94.8633521
21
33.1342927
0
LINE
8
DEFAULT_255_2_778
10
94.8633521
20
33.1342927
11
94.8633521
21
35.1342927
0
LINE
8
DEFAULT_255_2_778
10
94.8633521
20
35.1342927
11
91.4634521
21
35.1342927
0
LINE
8
DEFAULT_255_2_778
10
91.4634521
20
35.1342927
11
91.4634521
21
33.1342927
0
LINE
8
DEFAULT_255_2_778
10
103.9533397
20
36.8842
11
113.9032397
21
36.8842
0
LINE
8
DEFAULT_255_2_778
10
125.2634521
20
33.1342927
11
125.2634521
21
35.1342927
0
LINE
8
DEFAULT_255_2_778
10
125.2634521
20
35.1342927
11
121.8635521
21
35.1342927
0
LINE
8
DEFAULT_255_2_778
10
121.8635521
20
35.1342927
11
121.8635521
21
33.1342927
0
LINE
8
DEFAULT_255_2_778
10
121.8635521
20
33.1342927
11
125.2634521
21
33.1342927
0
LINE
8
DEFAULT_255_2_778
10
117.6632521
20
33.1342927
11
117.6632521
21
35.1342927
0
LINE
8
DEFAULT_255_2_778
10
117.6632521
20
35.1342927
11
114.2633521
21
35.1342927
0
LINE
8
DEFAULT_255_2_778
10
114.2633521
20
35.1342927
11
114.2633521
21
33.1342927
0
LINE
8
DEFAULT_255_2_778
10
114.2633521
20
33.1342927
11
117.6632521
21
33.1342927
0
LINE
8
DEFAULT_255_2_778
10
110.4634521
20
30.5344927
11
113.8633521
21
30.5344927
0
LINE
8
DEFAULT_255_2_778
10
113.8633521
20
30.5344927
11
113.8633521
21
32.5344927
0
LINE
8
DEFAULT_255_2_778
10
113.8633521
20
32.5344927
11
110.4634521
21
32.5344927
0
LINE
8
DEFAULT_255_2_778
10
110.4634521
20
32.5344927
11
110.4634521
21
30.5344927
0
LINE
8
DEFAULT_255_2_778
10
118.0632521
20
30.5344927
11
121.4631521
21
30.5344927
0
LINE
8
DEFAULT_255_2_778
10
121.4631521
20
30.5344927
11
121.4631521
21
32.5344927
0
LINE
8
DEFAULT_255_2_778
10
121.4631521
20
32.5344927
11
118.0632521
21
32.5344927
0
LINE
8
DEFAULT_255_2_778
10
118.0632521
20
32.5344927
11
118.0632521
21
30.5344927
0
LINE
8
DEFAULT_255_2_778
10
132.8632521
20
33.1342927
11
132.8632521
21
35.1342927
0
LINE
8
DEFAULT_255_2_778
10
132.8632521
20
35.1342927
11
129.4633521
21
35.1342927
0
LINE
8
DEFAULT_255_2_778
10
129.4633521
20
35.1342927
11
129.4633521
21
33.1342927
0
LINE
8
DEFAULT_255_2_778
10
129.4633521
20
33.1342927
11
132.8632521
21
33.1342927
0
LINE
8
DEFAULT_255_2_778
10
133.2633521
20
30.5344927
11
136.6632521
21
30.5344927
0
LINE
8
DEFAULT_255_2_778
10
136.6632521
20
30.5344927
11
136.6632521
21
32.5344927
0
LINE
8
DEFAULT_255_2_778
10
136.6632521
20
32.5344927
11
133.2633521
21
32.5344927
0
LINE
8
DEFAULT_255_2_778
10
133.2633521
20
32.5344927
11
133.2633521
21
30.5344927
0
ARC
8
DEFAULT_255_2_778
10
189.2759048
20
4.8316133
40
5.0125825
50
179.9670691
51
193.6931949
0
ARC
8
DEFAULT_255_2_778
10
189.2397253
20
4.8263386
40
4.9761839
50
193.7328001
51
214.6222403
0
ARC
8
DEFAULT_255_2_778
10
189.2735666
20
4.8451049
40
5.0146961
50
214.5790021
51
250.3714918
0
ARC
8
DEFAULT_255_2_778
10
189.2546183
20
4.8111432
40
4.976347
50
250.4456259
51
265.7010334
0
ARC
8
DEFAULT_255_2_778
10
189.263496
20
4.9049137
40
5.0705195
50
265.6804273
51
269.9991766
0
ARC
8
DEFAULT_255_2_778
10
190.2670496
20
4.8463306
40
5.0119375
50
269.9608294
51
283.6891521
0
ARC
8
DEFAULT_255_2_778
10
190.2722945
20
4.8102528
40
4.9756446
50
283.7287879
51
304.6210568
0
ARC
8
DEFAULT_255_2_778
10
190.2534978
20
4.8441519
40
5.0142217
50
304.5777343
51
340.3745846
0
ARC
8
DEFAULT_255_2_778
10
190.287598
20
4.8251487
40
4.9757241
50
340.4488115
51
355.7065712
0
ARC
8
DEFAULT_255_2_778
10
190.1938629
20
4.8340141
40
5.0698602
50
355.6859683
51
0.0054274
0
ARC
8
DEFAULT_255_2_778
10
190.2509577
20
104.837179
40
5.0127662
50
359.9670282
51
13.6935323
0
ARC
8
DEFAULT_255_2_778
10
190.2873227
20
104.8424991
40
4.9761766
50
13.7331376
51
34.6235899
0
ARC
8
DEFAULT_255_2_778
10
190.2535651
20
104.8237862
40
5.0145897
50
34.5803817
51
70.3748308
0
ARC
8
DEFAULT_255_2_778
10
190.272495
20
104.8577047
40
4.9762879
50
70.4489591
51
85.7050526
0
ARC
8
DEFAULT_255_2_778
10
190.2636162
20
104.7638536
40
5.0705408
50
85.6844275
51
90.003312
0
ARC
8
DEFAULT_255_2_778
10
189.2603331
20
104.8214273
40
5.0129678
50
89.9669691
51
103.6923962
0
ARC
8
DEFAULT_255_2_778
10
189.2549442
20
104.858039
40
4.9761222
50
103.7318964
51
124.6216186
0
ARC
8
DEFAULT_255_2_778
10
189.2736167
20
104.8243662
40
5.0144426
50
124.5785944
51
160.3725926
0
ARC
8
DEFAULT_255_2_778
10
189.2401264
20
104.8431295
40
4.9765999
50
160.4465478
51
175.7014566
0
ARC
8
DEFAULT_255_2_778
10
189.3341049
20
104.8342246
40
5.0709818
50
175.6807139
51
179.9992124
0
LINE
8
DEFAULT_255_2_778
10
189.2634231
20
-0.1656057
11
190.2636231
21
-0.1656057
0
LINE
8
DEFAULT_255_2_778
10
195.2637231
20
4.8344943
11
195.2637231
21
104.8342943
0
LINE
8
DEFAULT_255_2_778
10
190.2633231
20
109.8343943
11
189.2632231
21
109.8343943
0
LINE
8
DEFAULT_255_2_778
10
181.7133231
20
9.9343943
11
181.7133231
21
11.2593943
0
LINE
8
DEFAULT_255_2_778
10
181.9234231
20
12.1343943
11
181.9234231
21
11.2593943
0
LINE
8
DEFAULT_255_2_778
10
181.9234231
20
11.2593943
11
181.4233231
21
11.2593943
0
LINE
8
DEFAULT_255_2_778
10
174.6632521
20
30.5344927
11
174.6632521
21
32.5344927
0
LINE
8
DEFAULT_255_2_778
10
174.6632521
20
32.5344927
11
171.2633521
21
32.5344927
0
LINE
8
DEFAULT_255_2_778
10
171.2633521
20
32.5344927
11
171.2633521
21
30.5344927
0
LINE
8
DEFAULT_255_2_778
10
171.2633521
20
30.5344927
11
174.6632521
21
30.5344927
0
LINE
8
DEFAULT_255_2_778
10
159.4631521
20
30.5344927
11
159.4631521
21
32.5344927
0
LINE
8
DEFAULT_255_2_778
10
159.4631521
20
32.5344927
11
156.0632521
21
32.5344927
0
LINE
8
DEFAULT_255_2_778
10
156.0632521
20
32.5344927
11
156.0632521
21
30.5344927
0
LINE
8
DEFAULT_255_2_778
10
156.0632521
20
30.5344927
11
159.4631521
21
30.5344927
0
LINE
8
DEFAULT_255_2_778
10
144.6634521
20
33.1342927
11
148.0633521
21
33.1342927
0
LINE
8
DEFAULT_255_2_778
10
148.0633521
20
33.1342927
11
148.0633521
21
35.1342927
0
LINE
8
DEFAULT_255_2_778
10
148.0633521
20
35.1342927
11
144.6634521
21
35.1342927
0
LINE
8
DEFAULT_255_2_778
10
144.6634521
20
35.1342927
11
144.6634521
21
33.1342927
0
LINE
8
DEFAULT_255_2_778
10
148.4633521
20
30.5344927
11
151.8632521
21
30.5344927
0
LINE
8
DEFAULT_255_2_778
10
151.8632521
20
30.5344927
11
151.8632521
21
32.5344927
0
LINE
8
DEFAULT_255_2_778
10
151.8632521
20
32.5344927
11
148.4633521
21
32.5344927
0
LINE
8
DEFAULT_255_2_778
10
148.4633521
20
32.5344927
11
148.4633521
21
30.5344927
0
LINE
8
DEFAULT_255_2_778
10
152.2633521
20
33.1342927
11
155.6632521
21
33.1342927
0
LINE
8
DEFAULT_255_2_778
10
155.6632521
20
33.1342927
11
155.6632521
21
35.1342927
0
LINE
8
DEFAULT_255_2_778
10
155.6632521
20
35.1342927
11
152.2633521
21
35.1342927
0
LINE
8
DEFAULT_255_2_778
10
152.2633521
20
35.1342927
11
152.2633521
21
33.1342927
0
LINE
8
DEFAULT_255_2_778
10
163.2633521
20
35.1342927
11
159.8634521
21
35.1342927
0
LINE
8
DEFAULT_255_2_778
10
159.8634521
20
35.1342927
11
159.8634521
21
33.1342927
0
LINE
8
DEFAULT_255_2_778
10
159.8634521
20
33.1342927
11
163.2633521
21
33.1342927
0
LINE
8
DEFAULT_255_2_778
10
163.2633521
20
33.1342927
11
163.2633521
21
35.1342927
0
LINE
8
DEFAULT_255_2_778
10
167.4633521
20
33.1342927
11
170.8632521
21
33.1342927
0
LINE
8
DEFAULT_255_2_778
10
170.8632521
20
33.1342927
11
170.8632521
21
35.1342927
0
LINE
8
DEFAULT_255_2_778
10
170.8632521
20
35.1342927
11
167.4633521
21
35.1342927
0
LINE
8
DEFAULT_255_2_778
10
167.4633521
20
35.1342927
11
167.4633521
21
33.1342927
0
ARC
8
DEFAULT_255_2_778
10
179.7635043
20
15.6340023
40
3.1997424
50
301.2475353
51
355.0838592
0
ARC
8
DEFAULT_255_2_778
10
179.7559134
20
15.6343953
40
3.2073389
50
355.0884839
51
356.8568276
0
ARC
8
DEFAULT_255_2_778
10
179.7575964
20
15.6346444
40
3.2056721
50
356.8507338
51
359.9993588
0
ARC
8
DEFAULT_255_2_778
10
179.7626012
20
15.6341268
40
3.2006674
50
0.0086227
51
52.4484591
0
LINE
8
DEFAULT_255_2_778
10
181.7133274
20
18.1716331
11
181.7133274
21
28.9343331
0
ARC
8
DEFAULT_255_2_778
10
179.7631958
20
15.6345477
40
2.7502626
50
307.130884
51
359.9943606
0
ARC
8
DEFAULT_255_2_778
10
179.7635292
20
15.6340721
40
2.7499292
50
0.0042687
51
52.8725676
0
LINE
8
DEFAULT_255_2_778
10
181.4233583
20
18.934377
11
181.7133583
21
18.934377
0
LINE
8
DEFAULT_255_2_778
10
181.7133583
20
12.409177
11
181.4233583
21
12.409177
0
LINE
8
DEFAULT_255_2_778
10
175.0632521
20
33.1342927
11
178.4631521
21
33.1342927
0
LINE
8
DEFAULT_255_2_778
10
178.4631521
20
33.1342927
11
178.4631521
21
35.1342927
0
LINE
8
DEFAULT_255_2_778
10
178.4631521
20
35.1342927
11
175.0632521
21
35.1342927
0
LINE
8
DEFAULT_255_2_778
10
175.0632521
20
35.1342927
11
175.0632521
21
33.1342927
0
ARC
8
DEFAULT_255_2_778
10
5.2505995
20
104.8371748
40
5.0126874
50
359.9670756
51
13.6924625
0
ARC
8
DEFAULT_255_2_778
10
5.2868038
20
104.8424588
40
4.9762624
50
13.732025
51
34.6205008
0
ARC
8
DEFAULT_255_2_778
10
5.253123
20
104.8238166
40
5.0145723
50
34.5771507
51
70.3692284
0
ARC
8
DEFAULT_255_2_778
10
5.2721147
20
104.8578659
40
4.9761259
50
70.4434798
51
85.6989767
0
ARC
8
DEFAULT_255_2_778
10
5.263229
20
104.7640118
40
5.0703824
50
85.6783882
51
89.9970952
0
ARC
8
DEFAULT_255_2_778
10
5.2600513
20
104.8220597
40
5.0123358
50
89.9607375
51
103.6883257
0
ARC
8
DEFAULT_255_2_778
10
5.2546923
20
104.8585794
40
4.9755863
50
103.7278838
51
124.6204207
0
ARC
8
DEFAULT_255_2_778
10
5.2733924
20
104.8248535
40
5.0139661
50
124.5773176
51
160.3756931
0
ARC
8
DEFAULT_255_2_778
10
5.2397793
20
104.8436668
40
4.975991
50
160.4497488
51
175.7069664
0
ARC
8
DEFAULT_255_2_778
10
5.3338486
20
104.8347698
40
5.0704627
50
175.6862845
51
180.0053733
0
ARC
8
DEFAULT_255_2_778
10
5.2754999
20
4.8310654
40
5.012115
50
179.9608021
51
193.6886287
0
ARC
8
DEFAULT_255_2_778
10
5.2392552
20
4.825777
40
4.9756495
50
193.7282297
51
214.6203754
0
ARC
8
DEFAULT_255_2_778
10
5.2730282
20
4.8444933
40
5.0140772
50
214.5771201
51
250.374917
0
ARC
8
DEFAULT_255_2_778
10
5.2541194
20
4.8106443
40
4.9758479
50
250.4490919
51
265.706775
0
ARC
8
DEFAULT_255_2_778
10
5.2630052
20
4.9045752
40
5.0701808
50
265.6861043
51
270.0054335
0
ARC
8
DEFAULT_255_2_778
10
5.2669183
20
4.8465514
40
5.0121582
50
269.9607648
51
283.6888491
0
ARC
8
DEFAULT_255_2_778
10
5.2722339
20
4.8101986
40
4.9755814
50
283.728442
51
304.6211021
0
ARC
8
DEFAULT_255_2_778
10
5.2534534
20
4.8440506
40
5.0141106
50
304.5779318
51
340.3753607
0
ARC
8
DEFAULT_255_2_778
10
5.2873177
20
4.8251428
40
4.9758672
50
340.4494684
51
355.7067627
0
ARC
8
DEFAULT_255_2_778
10
5.1934441
20
4.8340194
40
5.0701421
50
355.6861485
51
0.0053671
0
LINE
8
DEFAULT_255_2_778
10
179.913386
20
28.9342943
11
179.913386
21
27.8405943
0
LINE
8
DEFAULT_255_2_778
10
193.263386
20
38.6344943
11
193.263386
21
38.7643943
0
LINE
8
DEFAULT_255_2_778
10
10.263286
20
99.8344943
11
10.263286
21
104.8342943
0
LINE
8
DEFAULT_255_2_778
10
0.263386
20
104.8342943
11
0.263386
21
4.8344943
0
LINE
8
DEFAULT_255_2_778
10
10.263586
20
4.8344943
11
10.263586
21
9.8345943
0
LINE
8
DEFAULT_255_2_778
10
195.263386
20
99.8344943
11
0.263386
21
99.8344943
0
LINE
8
DEFAULT_255_2_778
10
0.663448
20
75.5343402
11
0.663448
21
81.6842402
0
LINE
8
DEFAULT_255_2_778
10
0.663448
20
81.6842402
11
2.663448
21
81.6842402
0
LINE
8
DEFAULT_255_2_778
10
2.663448
20
81.6842402
11
2.663448
21
97.7344402
0
LINE
8
DEFAULT_255_2_778
10
0.663448
20
71.7343402
11
0.663448
21
65.3343402
0
LINE
8
DEFAULT_255_2_778
10
0.663448
20
65.3343402
11
2.663448
21
65.3343402
0
LINE
8
DEFAULT_255_2_778
10
8.363348
20
71.7343402
11
8.363348
21
71.4343402
0
LINE
8
DEFAULT_255_2_778
10
2.6634403
20
75.6343182
11
2.6634403
21
81.6842182
0
LINE
8
DEFAULT_255_2_778
10
0.6634403
20
97.8344182
11
0.6634403
21
91.6844182
0
LINE
8
DEFAULT_255_2_778
10
0.6634403
20
91.6844182
11
2.6634403
21
91.6844182
0
LINE
8
DEFAULT_255_2_778
10
53.4631403
20
79.1342182
11
24.7632403
21
79.1342182
0
LINE
8
DEFAULT_255_2_778
10
30.3634403
20
65.2343182
11
30.3634403
21
67.0343182
0
LINE
8
DEFAULT_255_2_778
10
30.3634403
20
67.0343182
11
28.1634403
21
67.0343182
0
LINE
8
DEFAULT_255_2_778
10
28.1634403
20
67.0343182
11
28.1634403
21
65.2343182
0
LINE
8
DEFAULT_255_2_778
10
28.1634403
20
65.2343182
11
30.3634403
21
65.2343182
0
LINE
8
DEFAULT_255_2_778
10
28.1634403
20
59.4344182
11
30.3634403
21
59.4344182
0
LINE
8
DEFAULT_255_2_778
10
30.3634403
20
59.4344182
11
30.3634403
21
61.2343182
0
LINE
8
DEFAULT_255_2_778
10
30.3634403
20
61.2343182
11
28.1634403
21
61.2343182
0
LINE
8
DEFAULT_255_2_778
10
28.1634403
20
61.2343182
11
28.1634403
21
59.4344182
0
LINE
8
DEFAULT_255_2_778
10
30.3634403
20
71.0342182
11
30.3634403
21
72.8342182
0
LINE
8
DEFAULT_255_2_778
10
30.3634403
20
72.8342182
11
28.1634403
21
72.8342182
0
LINE
8
DEFAULT_255_2_778
10
28.1634403
20
72.8342182
11
28.1634403
21
71.0342182
0
LINE
8
DEFAULT_255_2_778
10
28.1634403
20
71.0342182
11
30.3634403
21
71.0342182
0
ARC
8
DEFAULT_255_2_778
10
29.2634028
20
86.0319423
40
2.7518044
50
130.8524853
51
145.8222916
0
ARC
8
DEFAULT_255_2_778
10
29.2613245
20
86.0362898
40
2.7476438
50
145.8729476
51
172.368343
0
ARC
8
DEFAULT_255_2_778
10
29.2755517
20
86.0329173
40
2.7621931
50
172.3381997
51
179.9987753
0
ARC
8
DEFAULT_255_2_778
10
29.2708161
20
86.0329627
40
2.7574576
50
179.9997157
51
181.683623
0
ARC
8
DEFAULT_255_2_778
10
29.2549906
20
86.031645
40
2.7416004
50
181.6658143
51
200.7629441
0
ARC
8
DEFAULT_255_2_778
10
29.2598368
20
86.0348368
40
2.7472635
50
200.7893586
51
213.5018595
0
ARC
8
DEFAULT_255_2_778
10
29.2949823
20
86.0568719
40
2.7887331
50
213.480807
51
215.5769994
0
LINE
8
DEFAULT_255_2_778
10
27.3134096
20
83.4342966
11
27.3134096
21
80.1343966
0
LINE
8
DEFAULT_255_2_778
10
24.7633096
20
99.1343966
11
191.8633096
21
99.1343966
0
ARC
8
DEFAULT_255_2_778
10
29.2624333
20
86.0325284
40
3.2010107
50
127.5119346
51
142.2478425
0
ARC
8
DEFAULT_255_2_778
10
29.2608602
20
86.0369644
40
3.197052
50
142.2934402
51
167.7413222
0
ARC
8
DEFAULT_255_2_778
10
29.2750099
20
86.0322006
40
3.2118911
50
167.711873
51
179.9953075
0
ARC
8
DEFAULT_255_2_778
10
29.2639367
20
86.0324377
40
3.2008179
50
179.9995348
51
182.8452417
0
ARC
8
DEFAULT_255_2_778
10
29.2488466
20
86.0312271
40
3.1856863
50
182.8369689
51
197.5460582
0
ARC
8
DEFAULT_255_2_778
10
29.2598699
20
86.0355612
40
3.1975034
50
197.5605574
51
208.3411813
0
ARC
8
DEFAULT_255_2_778
10
29.2973547
20
86.0548861
40
3.239669
50
208.3272761
51
210.8325728
0
LINE
8
DEFAULT_255_2_778
10
27.4633525
20
88.934355
11
27.3132525
21
88.934355
0
LINE
8
DEFAULT_255_2_778
10
27.4635525
20
83.434255
11
26.7634525
21
83.434255
0
LINE
8
DEFAULT_255_2_778
10
26.7634525
20
83.434255
11
26.7634525
21
84.434355
0
LINE
8
DEFAULT_255_2_778
10
26.7634525
20
84.434355
11
27.4635525
21
84.434355
0
LINE
8
DEFAULT_255_2_778
10
29.1132525
20
99.134355
11
29.1132525
21
99.128055
0
LINE
8
DEFAULT_255_2_778
10
27.3132688
20
97.8093562
11
27.3132688
21
99.1343562
0
LINE
8
DEFAULT_255_2_778
10
26.9632688
20
96.9343562
11
26.9632688
21
97.8093562
0
LINE
8
DEFAULT_255_2_778
10
26.9632688
20
97.8093562
11
27.4633688
21
97.8093562
0
LINE
8
DEFAULT_255_2_778
10
27.3132688
20
96.6594562
11
27.4633688
21
96.6594562
0
LINE
8
DEFAULT_255_2_778
10
53.0633521
20
74.2344114
11
53.0633521
21
76.5344114
0
LINE
8
DEFAULT_255_2_778
10
53.0633521
20
76.5344114
11
49.6634521
21
76.5344114
0
LINE
8
DEFAULT_255_2_778
10
49.6634521
20
76.5344114
11
49.6634521
21
74.2344114
0
LINE
8
DEFAULT_255_2_778
10
49.6634521
20
74.2344114
11
53.0633521
21
74.2344114
0
LINE
8
DEFAULT_255_2_778
10
53.4634521
20
79.3343052
11
53.4634521
21
77.1343052
0
LINE
8
DEFAULT_255_2_778
10
53.4634521
20
77.1343052
11
56.8633521
21
77.1343052
0
LINE
8
DEFAULT_255_2_778
10
56.8633521
20
77.1343052
11
56.8633521
21
79.3343052
0
LINE
8
DEFAULT_255_2_778
10
56.8633521
20
79.3343052
11
53.4634521
21
79.3343052
0
LINE
8
DEFAULT_255_2_778
10
61.0633521
20
79.3343052
11
61.0633521
21
77.1343052
0
LINE
8
DEFAULT_255_2_778
10
61.0633521
20
77.1343052
11
64.4632521
21
77.1343052
0
LINE
8
DEFAULT_255_2_778
10
64.4632521
20
77.1343052
11
64.4632521
21
79.3343052
0
LINE
8
DEFAULT_255_2_778
10
64.4632521
20
79.3343052
11
61.0633521
21
79.3343052
0
LINE
8
DEFAULT_255_2_778
10
68.6634521
20
79.3343052
11
68.6634521
21
77.1343052
0
LINE
8
DEFAULT_255_2_778
10
68.6634521
20
77.1343052
11
72.0633521
21
77.1343052
0
LINE
8
DEFAULT_255_2_778
10
72.0633521
20
77.1343052
11
72.0633521
21
79.3343052
0
LINE
8
DEFAULT_255_2_778
10
72.0633521
20
79.3343052
11
68.6634521
21
79.3343052
0
LINE
8
DEFAULT_255_2_778
10
140.4631521
20
77.1343052
11
140.4631521
21
79.3343052
0
LINE
8
DEFAULT_255_2_778
10
140.4631521
20
79.3343052
11
137.0632521
21
79.3343052
0
LINE
8
DEFAULT_255_2_778
10
137.0632521
20
79.3343052
11
137.0632521
21
77.1343052
0
LINE
8
DEFAULT_255_2_778
10
137.0632521
20
77.1343052
11
140.4631521
21
77.1343052
0
LINE
8
DEFAULT_255_2_778
10
110.0633521
20
77.1343052
11
110.0633521
21
79.3343052
0
LINE
8
DEFAULT_255_2_778
10
110.0633521
20
79.3343052
11
106.6634521
21
79.3343052
0
LINE
8
DEFAULT_255_2_778
10
106.6634521
20
79.3343052
11
106.6634521
21
77.1343052
0
LINE
8
DEFAULT_255_2_778
10
106.6634521
20
77.1343052
11
110.0633521
21
77.1343052
0
LINE
8
DEFAULT_255_2_778
10
76.2633521
20
79.3343052
11
76.2633521
21
77.1343052
0
LINE
8
DEFAULT_255_2_778
10
76.2633521
20
77.1343052
11
79.6632521
21
77.1343052
0
LINE
8
DEFAULT_255_2_778
10
79.6632521
20
77.1343052
11
79.6632521
21
79.3343052
0
LINE
8
DEFAULT_255_2_778
10
79.6632521
20
79.3343052
11
76.2633521
21
79.3343052
0
LINE
8
DEFAULT_255_2_778
10
83.8632521
20
79.3343052
11
83.8632521
21
77.1343052
0
LINE
8
DEFAULT_255_2_778
10
83.8632521
20
77.1343052
11
87.2631521
21
77.1343052
0
LINE
8
DEFAULT_255_2_778
10
87.2631521
20
77.1343052
11
87.2631521
21
79.3343052
0
LINE
8
DEFAULT_255_2_778
10
87.2631521
20
79.3343052
11
83.8632521
21
79.3343052
0
LINE
8
DEFAULT_255_2_778
10
102.4632521
20
77.1343052
11
102.4632521
21
79.3343052
0
LINE
8
DEFAULT_255_2_778
10
102.4632521
20
79.3343052
11
99.0633521
21
79.3343052
0
LINE
8
DEFAULT_255_2_778
10
99.0633521
20
79.3343052
11
99.0633521
21
77.1343052
0
LINE
8
DEFAULT_255_2_778
10
99.0633521
20
77.1343052
11
102.4632521
21
77.1343052
0
LINE
8
DEFAULT_255_2_778
10
91.4634521
20
79.3343052
11
91.4634521
21
77.1343052
0
LINE
8
DEFAULT_255_2_778
10
91.4634521
20
77.1343052
11
94.8633521
21
77.1343052
0
LINE
8
DEFAULT_255_2_778
10
94.8633521
20
77.1343052
11
94.8633521
21
79.3343052
0
LINE
8
DEFAULT_255_2_778
10
94.8633521
20
79.3343052
11
91.4634521
21
79.3343052
0
LINE
8
DEFAULT_255_2_778
10
125.2634521
20
77.1343052
11
125.2634521
21
79.3343052
0
LINE
8
DEFAULT_255_2_778
10
125.2634521
20
79.3343052
11
121.8635521
21
79.3343052
0
LINE
8
DEFAULT_255_2_778
10
121.8635521
20
79.3343052
11
121.8635521
21
77.1343052
0
LINE
8
DEFAULT_255_2_778
10
121.8635521
20
77.1343052
11
125.2634521
21
77.1343052
0
LINE
8
DEFAULT_255_2_778
10
117.6632521
20
77.1343052
11
117.6632521
21
79.3343052
0
LINE
8
DEFAULT_255_2_778
10
117.6632521
20
79.3343052
11
114.2633521
21
79.3343052
0
LINE
8
DEFAULT_255_2_778
10
114.2633521
20
79.3343052
11
114.2633521
21
77.1343052
0
LINE
8
DEFAULT_255_2_778
10
114.2633521
20
77.1343052
11
117.6632521
21
77.1343052
0
LINE
8
DEFAULT_255_2_778
10
132.8632521
20
77.1343052
11
132.8632521
21
79.3343052
0
LINE
8
DEFAULT_255_2_778
10
132.8632521
20
79.3343052
11
129.4633521
21
79.3343052
0
LINE
8
DEFAULT_255_2_778
10
129.4633521
20
79.3343052
11
129.4633521
21
77.1343052
0
LINE
8
DEFAULT_255_2_778
10
129.4633521
20
77.1343052
11
132.8632521
21
77.1343052
0
LINE
8
DEFAULT_255_2_778
10
144.6634521
20
79.3343052
11
144.6634521
21
77.1343052
0
LINE
8
DEFAULT_255_2_778
10
144.6634521
20
77.1343052
11
148.0633521
21
77.1343052
0
LINE
8
DEFAULT_255_2_778
10
148.0633521
20
77.1343052
11
148.0633521
21
79.3343052
0
LINE
8
DEFAULT_255_2_778
10
148.0633521
20
79.3343052
11
144.6634521
21
79.3343052
0
LINE
8
DEFAULT_255_2_778
10
152.2633521
20
79.3343052
11
152.2633521
21
77.1343052
0
LINE
8
DEFAULT_255_2_778
10
152.2633521
20
77.1343052
11
155.6632521
21
77.1343052
0
LINE
8
DEFAULT_255_2_778
10
155.6632521
20
77.1343052
11
155.6632521
21
79.3343052
0
LINE
8
DEFAULT_255_2_778
10
155.6632521
20
79.3343052
11
152.2633521
21
79.3343052
0
LINE
8
DEFAULT_255_2_778
10
159.8634521
20
79.3343052
11
159.8634521
21
77.1343052
0
LINE
8
DEFAULT_255_2_778
10
159.8634521
20
77.1343052
11
163.2633521
21
77.1343052
0
LINE
8
DEFAULT_255_2_778
10
163.2633521
20
77.1343052
11
163.2633521
21
79.3343052
0
LINE
8
DEFAULT_255_2_778
10
163.2633521
20
79.3343052
11
159.8634521
21
79.3343052
0
LINE
8
DEFAULT_255_2_778
10
167.4633628
20
77.1343052
11
170.8632628
21
77.1343052
0
LINE
8
DEFAULT_255_2_778
10
170.8632628
20
77.1343052
11
170.8632628
21
79.3343052
0
LINE
8
DEFAULT_255_2_778
10
170.8632628
20
79.3343052
11
167.4633628
21
79.3343052
0
LINE
8
DEFAULT_255_2_778
10
167.4633628
20
79.3343052
11
167.4633628
21
77.1343052
0
LINE
8
DEFAULT_255_2_778
10
191.8632628
20
79.1343052
11
186.0632628
21
79.1343052
0
LINE
8
DEFAULT_255_2_778
10
175.0632628
20
77.1343052
11
178.4631628
21
77.1343052
0
LINE
8
DEFAULT_255_2_778
10
178.4631628
20
77.1343052
11
178.4631628
21
79.3343052
0
LINE
8
DEFAULT_255_2_778
10
178.4631628
20
79.3343052
11
175.0632628
21
79.3343052
0
LINE
8
DEFAULT_255_2_778
10
175.0632628
20
79.3343052
11
175.0632628
21
77.1343052
0
LINE
8
DEFAULT_255_2_778
10
182.6634521
20
79.3343052
11
182.6634521
21
77.1343052
0
LINE
8
DEFAULT_255_2_778
10
182.6634521
20
77.1343052
11
186.0633521
21
77.1343052
0
LINE
8
DEFAULT_255_2_778
10
186.0633521
20
77.1343052
11
186.0633521
21
79.3343052
0
LINE
8
DEFAULT_255_2_778
10
186.0633521
20
79.3343052
11
182.6634521
21
79.3343052
0
ARC
8
DEFAULT_255_2_778
10
187.3577336
20
86.039777
40
2.757732
50
324.398601
51
336.2710491
0
ARC
8
DEFAULT_255_2_778
10
187.376465
20
86.0304193
40
2.7368187
50
336.2925879
51
353.2339976
0
ARC
8
DEFAULT_255_2_778
10
187.3600194
20
86.0328508
40
2.7534365
50
353.2240718
51
358.3133816
0
ARC
8
DEFAULT_255_2_778
10
187.3551961
20
86.0330476
40
2.7582634
50
358.3122438
51
0.0001405
0
ARC
8
DEFAULT_255_2_778
10
187.3601396
20
86.0342873
40
2.7533202
50
359.9743436
51
32.5579636
0
ARC
8
DEFAULT_255_2_778
10
187.3682682
20
86.0358413
40
2.7456343
50
32.6219172
51
48.1118914
0
ARC
8
DEFAULT_255_2_778
10
187.3378546
20
86.0043335
40
2.7893972
50
48.0789366
51
49.12115
0
ARC
8
DEFAULT_255_2_778
10
187.3631849
20
86.0347118
40
3.2003965
50
321.3755605
51
359.996875
0
ARC
8
DEFAULT_255_2_778
10
187.3631609
20
86.0345062
40
3.2004205
50
0.0005576
51
5.5986187
0
ARC
8
DEFAULT_255_2_778
10
187.3587328
20
86.034111
40
3.2048659
50
5.597926
51
6.9116985
0
ARC
8
DEFAULT_255_2_778
10
187.3637462
20
86.0346534
40
3.1998238
50
6.9128604
51
52.454104
0
LINE
8
DEFAULT_255_2_778
10
193.2634084
20
71.9642831
11
193.2634084
21
72.0343831
0
LINE
8
DEFAULT_255_2_778
10
189.1635147
20
83.4342559
11
189.8636147
21
83.4342559
0
LINE
8
DEFAULT_255_2_778
10
189.8636147
20
83.4342559
11
189.8636147
21
84.4343559
0
LINE
8
DEFAULT_255_2_778
10
189.8636147
20
84.4343559
11
189.1635147
21
84.4343559
0
LINE
8
DEFAULT_255_2_778
10
189.6635147
20
96.9343559
11
189.6635147
21
97.8092559
0
LINE
8
DEFAULT_255_2_778
10
189.6635147
20
97.8092559
11
189.1635147
21
97.8092559
0
LINE
8
DEFAULT_255_2_778
10
189.1635147
20
88.9343559
11
189.3135147
21
88.9343559
0
LINE
8
DEFAULT_255_2_778
10
189.3135147
20
80.1343559
11
189.3135147
21
83.4342559
0
LINE
8
DEFAULT_255_2_778
10
184.2634147
20
99.8341559
11
184.2634147
21
104.8342559
0
LINE
8
DEFAULT_255_2_778
10
187.5135147
20
99.1279559
11
187.5135147
21
99.1343559
0
LINE
8
DEFAULT_255_2_778
10
189.3135147
20
97.8092559
11
189.3135147
21
99.1343559
0
LINE
8
DEFAULT_255_2_778
10
189.1634906
20
96.6594
11
189.3134906
21
96.6594
0
ARC
8
DEFAULT_255_2_778
10
48.6496466
20
44.8356486
40
0.9962403
50
138.3561595
51
180.0837306
0
ARC
8
DEFAULT_255_2_778
10
48.6522384
20
44.8366578
40
0.9975096
50
91.7301295
51
138.4984071
0
ARC
8
DEFAULT_255_2_778
10
48.6533976
20
44.815437
40
1.0187558
50
89.9994546
51
91.7592604
0
ARC
8
DEFAULT_255_2_778
10
48.6548632
20
44.8379534
40
0.9962403
50
48.3561595
51
90.0837306
0
ARC
8
DEFAULT_255_2_778
10
48.6558725
20
44.8353616
40
0.9975096
50
1.7301295
51
48.4984071
0
ARC
8
DEFAULT_255_2_778
10
48.6346517
20
44.8342024
40
1.0187558
50
359.9994546
51
1.7592604
0
ARC
8
DEFAULT_255_2_778
10
48.6571681
20
44.8327368
40
0.9962403
50
318.3561595
51
0.0837306
0
ARC
8
DEFAULT_255_2_778
10
48.6545762
20
44.8317275
40
0.9975096
50
271.7301295
51
318.4984071
0
ARC
8
DEFAULT_255_2_778
10
48.653417
20
44.8529483
40
1.0187558
50
269.9994546
51
271.7592604
0
ARC
8
DEFAULT_255_2_778
10
48.6519514
20
44.8304319
40
0.9962403
50
228.3561595
51
270.0837306
0
ARC
8
DEFAULT_255_2_778
10
48.6509422
20
44.8330238
40
0.9975096
50
181.7301295
51
228.4984071
0
ARC
8
DEFAULT_255_2_778
10
48.672163
20
44.834183
40
1.0187558
50
179.9994546
51
181.7592604
0
LINE
8
DEFAULT_255_2_778
10
47.6534073
20
44.8341927
11
47.6534073
21
44.8341927
0
ARC
8
DEFAULT_255_2_778
10
63.0496466
20
54.4357486
40
0.9962403
50
138.3561595
51
180.0837306
0
ARC
8
DEFAULT_255_2_778
10
63.0522384
20
54.4367578
40
0.9975096
50
91.7301295
51
138.4984071
0
ARC
8
DEFAULT_255_2_778
10
63.0533976
20
54.415537
40
1.0187558
50
89.9994546
51
91.7592604
0
ARC
8
DEFAULT_255_2_778
10
63.0548632
20
54.4380534
40
0.9962403
50
48.3561595
51
90.0837306
0
ARC
8
DEFAULT_255_2_778
10
63.0558725
20
54.4354616
40
0.9975096
50
1.7301295
51
48.4984071
0
ARC
8
DEFAULT_255_2_778
10
63.0346517
20
54.4343024
40
1.0187558
50
359.9994546
51
1.7592604
0
ARC
8
DEFAULT_255_2_778
10
63.0571681
20
54.4328368
40
0.9962403
50
318.3561595
51
0.0837306
0
ARC
8
DEFAULT_255_2_778
10
63.0545762
20
54.4318275
40
0.9975096
50
271.7301295
51
318.4984071
0
ARC
8
DEFAULT_255_2_778
10
63.053417
20
54.4530483
40
1.0187558
50
269.9994546
51
271.7592604
0
ARC
8
DEFAULT_255_2_778
10
63.0519514
20
54.4305319
40
0.9962403
50
228.3561595
51
270.0837306
0
ARC
8
DEFAULT_255_2_778
10
63.0509422
20
54.4331238
40
0.9975096
50
181.7301295
51
228.4984071
0
ARC
8
DEFAULT_255_2_778
10
63.072163
20
54.434283
40
1.0187558
50
179.9994546
51
181.7592604
0
LINE
8
DEFAULT_255_2_778
10
62.0534073
20
54.4342927
11
62.0534073
21
54.4342927
0
ARC
8
DEFAULT_255_2_778
10
88.7496466
20
44.8356486
40
0.9962403
50
138.3561595
51
180.0837306
0
ARC
8
DEFAULT_255_2_778
10
88.7522384
20
44.8366578
40
0.9975096
50
91.7301295
51
138.4984071
0
ARC
8
DEFAULT_255_2_778
10
88.7533976
20
44.815437
40
1.0187558
50
89.9994546
51
91.7592604
0
ARC
8
DEFAULT_255_2_778
10
88.7548632
20
44.8379534
40
0.9962403
50
48.3561595
51
90.0837306
0
ARC
8
DEFAULT_255_2_778
10
88.7558725
20
44.8353616
40
0.9975096
50
1.7301295
51
48.4984071
0
ARC
8
DEFAULT_255_2_778
10
88.7346517
20
44.8342024
40
1.0187558
50
359.9994546
51
1.7592604
0
ARC
8
DEFAULT_255_2_778
10
88.7571681
20
44.8327368
40
0.9962403
50
318.3561595
51
0.0837306
0
ARC
8
DEFAULT_255_2_778
10
88.7545762
20
44.8317275
40
0.9975096
50
271.7301295
51
318.4984071
0
ARC
8
DEFAULT_255_2_778
10
88.753417
20
44.8529483
40
1.0187558
50
269.9994546
51
271.7592604
0
ARC
8
DEFAULT_255_2_778
10
88.7519514
20
44.8304319
40
0.9962403
50
228.3561595
51
270.0837306
0
ARC
8
DEFAULT_255_2_778
10
88.7509422
20
44.8330238
40
0.9975096
50
181.7301295
51
228.4984071
0
ARC
8
DEFAULT_255_2_778
10
88.772163
20
44.834183
40
1.0187558
50
179.9994546
51
181.7592604
0
LINE
8
DEFAULT_255_2_778
10
87.7534073
20
44.8341927
11
87.7534073
21
44.8341927
0
ARC
8
DEFAULT_255_2_778
10
103.1496466
20
54.4357486
40
0.9962403
50
138.3561595
51
180.0837306
0
ARC
8
DEFAULT_255_2_778
10
103.1522384
20
54.4367578
40
0.9975096
50
91.7301295
51
138.4984071
0
ARC
8
DEFAULT_255_2_778
10
103.1533976
20
54.415537
40
1.0187558
50
89.9994546
51
91.7592604
0
ARC
8
DEFAULT_255_2_778
10
103.1548632
20
54.4380534
40
0.9962403
50
48.3561595
51
90.0837306
0
ARC
8
DEFAULT_255_2_778
10
103.1558725
20
54.4354616
40
0.9975096
50
1.7301295
51
48.4984071
0
ARC
8
DEFAULT_255_2_778
10
103.1346517
20
54.4343024
40
1.0187558
50
359.9994546
51
1.7592604
0
ARC
8
DEFAULT_255_2_778
10
103.1571681
20
54.4328368
40
0.9962403
50
318.3561595
51
0.0837306
0
ARC
8
DEFAULT_255_2_778
10
103.1545762
20
54.4318275
40
0.9975096
50
271.7301295
51
318.4984071
0
ARC
8
DEFAULT_255_2_778
10
103.153417
20
54.4530483
40
1.0187558
50
269.9994546
51
271.7592604
0
ARC
8
DEFAULT_255_2_778
10
103.1519514
20
54.4305319
40
0.9962403
50
228.3561595
51
270.0837306
0
ARC
8
DEFAULT_255_2_778
10
103.1509422
20
54.4331238
40
0.9975096
50
181.7301295
51
228.4984071
0
ARC
8
DEFAULT_255_2_778
10
103.172163
20
54.434283
40
1.0187558
50
179.9994546
51
181.7592604
0
LINE
8
DEFAULT_255_2_778
10
102.1534073
20
54.4342927
11
102.1534073
21
54.4342927
0
LINE
8
DEFAULT_255_2_778
10
63.0533067
20
55.4344773
11
42.8534067
21
55.4344773
0
LINE
8
DEFAULT_255_2_778
10
42.8534067
20
55.4344773
11
42.8534067
21
49.6345773
0
LINE
8
DEFAULT_255_2_778
10
48.6533067
20
43.8343773
11
68.8532067
21
43.8343773
0
LINE
8
DEFAULT_255_2_778
10
68.8532067
20
43.8343773
11
68.8532067
21
49.6342773
0
LINE
8
DEFAULT_255_2_778
10
103.1533067
20
55.4344773
11
82.9534067
21
55.4344773
0
LINE
8
DEFAULT_255_2_778
10
82.9534067
20
55.4344773
11
82.9534067
21
49.6345773
0
LINE
8
DEFAULT_255_2_778
10
88.7533067
20
43.8343773
11
108.9532067
21
43.8343773
0
LINE
8
DEFAULT_255_2_778
10
108.9532067
20
43.8343773
11
108.9532067
21
49.6342773
0
LINE
8
DEFAULT_255_2_778
10
87.9532067
20
72.7842773
11
78.0033067
21
72.7842773
0
LINE
8
DEFAULT_255_2_778
10
78.0033067
20
72.7842773
11
78.0033067
21
36.8842773
0
LINE
8
DEFAULT_255_2_778
10
78.0033067
20
36.8842773
11
87.9532067
21
36.8842773
0
LINE
8
DEFAULT_255_2_778
10
47.8532067
20
72.7842773
11
37.9033067
21
72.7842773
0
LINE
8
DEFAULT_255_2_778
10
37.9033067
20
72.7842773
11
37.9033067
21
36.8842773
0
LINE
8
DEFAULT_255_2_778
10
37.9033067
20
36.8842773
11
47.8532067
21
36.8842773
0
LINE
8
DEFAULT_255_2_778
10
2.2634067
20
39.0641773
11
2.2634067
21
39.2342773
0
LINE
8
DEFAULT_255_2_778
10
2.3634067
20
39.2342773
11
2.3634067
21
39.0641773
0
LINE
8
DEFAULT_255_2_778
10
2.8635067
20
39.2342773
11
2.8635067
21
39.0641773
0
LINE
8
DEFAULT_255_2_778
10
46.3136067
20
11.2344773
11
45.3135067
21
11.2344773
0
ARC
8
DEFAULT_255_2_778
10
27.4096479
20
27.4229297
40
0.9964361
50
179.9166792
51
221.6442336
0
ARC
8
DEFAULT_255_2_778
10
27.4122534
20
27.4219179
40
0.997714
50
221.501386
51
268.2693554
0
ARC
8
DEFAULT_255_2_778
10
27.4134031
20
27.4433025
40
1.0191238
50
268.2410549
51
270.0005447
0
ARC
8
DEFAULT_255_2_778
10
40.1148364
20
27.4204595
40
0.9962817
50
269.9181321
51
311.647603
0
ARC
8
DEFAULT_255_2_778
10
40.1157321
20
27.4232244
40
0.9977557
50
311.5036522
51
358.2691355
0
ARC
8
DEFAULT_255_2_778
10
40.0943891
20
27.4243691
40
1.0191238
50
358.2410549
51
0.0005447
0
LINE
8
DEFAULT_255_2_778
10
46.3136128
20
12.8343788
11
45.3135128
21
12.8343788
0
LINE
8
DEFAULT_255_2_778
10
45.3135128
20
12.8343788
11
45.3135128
21
9.9342788
0
LINE
8
DEFAULT_255_2_778
10
55.7134128
20
9.9342788
11
55.7134128
21
9.9406788
0
LINE
8
DEFAULT_255_2_778
10
54.5133128
20
9.9406788
11
54.5133128
21
9.9342788
0
LINE
8
DEFAULT_255_2_778
10
63.3133128
20
9.9342788
11
63.3133128
21
9.9406788
0
LINE
8
DEFAULT_255_2_778
10
62.1135128
20
9.9406788
11
62.1135128
21
9.9342788
0
LINE
8
DEFAULT_255_2_778
10
70.9135128
20
9.9342788
11
70.9135128
21
9.9406788
0
LINE
8
DEFAULT_255_2_778
10
69.7133128
20
9.9406788
11
69.7133128
21
9.9342788
0
LINE
8
DEFAULT_255_2_778
10
42.7134128
20
28.3244788
11
42.7134128
21
35.8243788
0
LINE
8
DEFAULT_255_2_778
10
42.7134128
20
35.8243788
11
24.8133128
21
35.8243788
0
LINE
8
DEFAULT_255_2_778
10
24.8133128
20
35.8243788
11
24.8133128
21
28.3244788
0
LINE
8
DEFAULT_255_2_778
10
24.8133128
20
28.3244788
11
26.4132128
21
28.3244788
0
LINE
8
DEFAULT_255_2_778
10
26.4132128
20
28.3244788
11
26.4132128
21
27.4243788
0
LINE
8
DEFAULT_255_2_778
10
27.4134128
20
26.4241788
11
40.1134128
21
26.4241788
0
LINE
8
DEFAULT_255_2_778
10
41.1135128
20
27.4243788
11
41.1135128
21
28.3244788
0
LINE
8
DEFAULT_255_2_778
10
41.1135128
20
28.3244788
11
42.7134128
21
28.3244788
0
LINE
8
DEFAULT_255_2_778
10
10.8634128
20
39.0641788
11
10.8634128
21
39.2342788
0
LINE
8
DEFAULT_255_2_778
10
13.7635128
20
39.2342788
11
13.7635128
21
39.0641788
0
LINE
8
DEFAULT_255_2_778
10
22.1635128
20
39.0641788
11
22.1635128
21
39.2342788
0
LINE
8
DEFAULT_255_2_778
10
21.1634128
20
39.0641788
11
21.1634128
21
39.2342788
0
LINE
8
DEFAULT_255_2_778
10
43.7633128
20
28.9342788
11
184.2634128
21
28.9342788
0
LINE
8
DEFAULT_255_2_778
10
43.763252
20
29.8343873
11
184.263352
21
29.8343873
0
LINE
8
DEFAULT_255_2_778
10
184.263352
20
29.3342873
11
43.763252
21
29.3342873
0
LINE
8
DEFAULT_255_2_778
10
46.323352
20
27.6843873
11
46.313352
21
27.6843873
0
LINE
8
DEFAULT_255_2_778
10
46.313352
20
26.3841873
11
46.323352
21
26.3841873
0
LINE
8
DEFAULT_255_2_778
10
45.853452
20
38.8841873
11
65.853552
21
38.8841873
0
LINE
8
DEFAULT_255_2_778
10
63.8534105
20
38.8845444
11
63.8534105
21
36.1844444
0
LINE
8
DEFAULT_255_2_778
10
63.8534105
20
36.1844444
11
47.8535105
21
36.1844444
0
LINE
8
DEFAULT_255_2_778
10
47.8535105
20
36.1844444
11
47.8535105
21
38.8845444
0
LINE
8
DEFAULT_255_2_778
10
65.8536105
20
36.8845444
11
65.8536105
21
40.2844444
0
LINE
8
DEFAULT_255_2_778
10
65.8536105
20
40.2844444
11
45.8535105
21
40.2844444
0
LINE
8
DEFAULT_255_2_778
10
45.8535105
20
40.2844444
11
45.8535105
21
36.8845444
0
LINE
8
DEFAULT_255_2_778
10
78.5134105
20
9.9343444
11
78.5134105
21
9.9407444
0
LINE
8
DEFAULT_255_2_778
10
77.3135105
20
9.9407444
11
77.3135105
21
9.9343444
0
LINE
8
DEFAULT_255_2_778
10
86.1133105
20
9.9343444
11
86.1133105
21
9.9407444
0
LINE
8
DEFAULT_255_2_778
10
84.9134105
20
9.9407444
11
84.9134105
21
9.9343444
0
LINE
8
DEFAULT_255_2_778
10
92.5133105
20
9.9407444
11
92.5133105
21
9.9343444
0
LINE
8
DEFAULT_255_2_778
10
93.7134105
20
9.9343444
11
93.7134105
21
9.9407444
0
LINE
8
DEFAULT_255_2_778
10
101.3133105
20
9.9343444
11
101.3133105
21
9.9407444
0
LINE
8
DEFAULT_255_2_778
10
100.1135105
20
9.9407444
11
100.1135105
21
9.9343444
0
LINE
8
DEFAULT_255_2_778
10
108.9135105
20
9.9343444
11
108.9135105
21
9.9407444
0
LINE
8
DEFAULT_255_2_778
10
107.7133105
20
9.9407444
11
107.7133105
21
9.9343444
0
LINE
8
DEFAULT_255_2_778
10
116.5134105
20
9.9343444
11
116.5134105
21
9.9407444
0
LINE
8
DEFAULT_255_2_778
10
115.3135105
20
9.9407444
11
115.3135105
21
9.9343444
0
LINE
8
DEFAULT_255_2_778
10
124.1133105
20
9.9343444
11
124.1133105
21
9.9407444
0
LINE
8
DEFAULT_255_2_778
10
122.9134105
20
9.9407444
11
122.9134105
21
9.9343444
0
LINE
8
DEFAULT_255_2_778
10
85.9535105
20
38.8842444
11
105.9536105
21
38.8842444
0
LINE
8
DEFAULT_255_2_778
10
103.9534128
20
38.8845444
11
103.9534128
21
36.1844444
0
LINE
8
DEFAULT_255_2_778
10
103.9534128
20
36.1844444
11
87.9535128
21
36.1844444
0
LINE
8
DEFAULT_255_2_778
10
87.9535128
20
36.1844444
11
87.9535128
21
38.8845444
0
LINE
8
DEFAULT_255_2_778
10
105.9536128
20
36.8845444
11
105.9536128
21
40.2844444
0
LINE
8
DEFAULT_255_2_778
10
105.9536128
20
40.2844444
11
85.9535128
21
40.2844444
0
LINE
8
DEFAULT_255_2_778
10
85.9535128
20
40.2844444
11
85.9535128
21
36.8845444
0
LINE
8
DEFAULT_255_2_778
10
146.9135128
20
9.9343444
11
146.9135128
21
9.9407444
0
LINE
8
DEFAULT_255_2_778
10
154.5134128
20
9.9343444
11
154.5134128
21
9.9407444
0
LINE
8
DEFAULT_255_2_778
10
153.3135128
20
9.9407444
11
153.3135128
21
9.9343444
0
LINE
8
DEFAULT_255_2_778
10
162.1135128
20
9.9343444
11
162.1135128
21
9.9407444
0
LINE
8
DEFAULT_255_2_778
10
160.9134128
20
9.9407444
11
160.9134128
21
9.9343444
0
LINE
8
DEFAULT_255_2_778
10
169.7134128
20
9.9343444
11
169.7134128
21
9.9407444
0
LINE
8
DEFAULT_255_2_778
10
168.5133128
20
9.9407444
11
168.5133128
21
9.9343444
0
LINE
8
DEFAULT_255_2_778
10
179.9134128
20
9.9407444
11
179.9134128
21
9.9343444
0
LINE
8
DEFAULT_255_2_778
10
176.1134128
20
9.9407444
11
176.1134128
21
9.9343444
0
LINE
8
DEFAULT_255_2_778
10
182.7135128
20
12.1343444
11
181.7133128
21
12.1343444
0
LINE
8
DEFAULT_255_2_778
10
181.7133128
20
12.1343444
11
181.7133128
21
13.0971444
0
LINE
8
DEFAULT_255_2_778
10
181.7133128
20
11.2345444
11
182.7135128
21
11.2345444
0
LINE
8
DEFAULT_255_2_778
10
181.7133459
20
12.8344508
11
182.7134459
21
12.8344508
0
LINE
8
DEFAULT_255_2_778
10
182.7134459
20
12.8344508
11
182.7134459
21
9.9343508
0
LINE
8
DEFAULT_255_2_778
10
181.4233459
20
26.3842508
11
181.7133459
21
26.3842508
0
LINE
8
DEFAULT_255_2_778
10
181.7133459
20
27.6844508
11
181.4233459
21
27.6844508
0
LINE
8
DEFAULT_255_2_778
10
75.8633521
20
74.2344114
11
75.8633521
21
76.5344114
0
LINE
8
DEFAULT_255_2_778
10
75.8633521
20
76.5344114
11
72.4634521
21
76.5344114
0
LINE
8
DEFAULT_255_2_778
10
72.4634521
20
76.5344114
11
72.4634521
21
74.2344114
0
LINE
8
DEFAULT_255_2_778
10
72.4634521
20
74.2344114
11
75.8633521
21
74.2344114
0
LINE
8
DEFAULT_255_2_778
10
76.2634136
20
79.1344382
11
72.0634136
21
79.1344382
0
LINE
8
DEFAULT_255_2_778
10
1.0373136
20
75.6343382
11
22.7633136
21
75.6343382
0
LINE
8
DEFAULT_255_2_778
10
22.7633136
20
75.6343382
11
22.7633136
21
97.7344382
0
LINE
8
DEFAULT_255_2_778
10
22.7633136
20
97.7344382
11
1.0373136
21
97.7344382
0
LINE
8
DEFAULT_255_2_778
10
0.2634136
20
75.5345382
11
23.7634136
21
75.5345382
0
LINE
8
DEFAULT_255_2_778
10
23.7634136
20
75.5345382
11
23.7634136
21
97.8344382
0
LINE
8
DEFAULT_255_2_778
10
23.7634136
20
97.8344382
11
0.2634136
21
97.8344382
0
LINE
8
DEFAULT_255_2_778
10
0.8635037
20
91.6844825
11
0.8635037
21
81.6845825
0
LINE
8
DEFAULT_255_2_778
10
1.9830037
20
81.6845825
11
1.9830037
21
91.6844825
0
LINE
8
DEFAULT_255_2_778
10
2.6635037
20
39.2342825
11
2.6635037
21
71.4343825
0
LINE
8
DEFAULT_255_2_778
10
0.8635037
20
65.3343825
11
0.8635037
21
45.3342825
0
LINE
8
DEFAULT_255_2_778
10
1.9830037
20
45.3342825
11
1.9830037
21
65.3343825
0
LINE
8
DEFAULT_255_2_778
10
2.2634037
20
75.5343825
11
2.2634037
21
75.6343825
0
LINE
8
DEFAULT_255_2_778
10
2.2634037
20
71.4343825
11
2.2634037
21
71.7343825
0
LINE
8
DEFAULT_255_2_778
10
2.3634037
20
75.6343825
11
2.3634037
21
75.5343825
0
LINE
8
DEFAULT_255_2_778
10
2.2634037
20
97.7344825
11
2.2634037
21
97.8344825
0
LINE
8
DEFAULT_255_2_778
10
2.3634037
20
97.8344825
11
2.3634037
21
97.7344825
0
LINE
8
DEFAULT_255_2_778
10
191.8633037
20
99.8344825
11
191.8633037
21
74.0344825
0
LINE
8
DEFAULT_255_2_778
10
191.8633037
20
74.0344825
11
24.7633037
21
74.0344825
0
LINE
8
DEFAULT_255_2_778
10
189.1635137
20
99.1282632
11
189.1635137
21
81.2281632
0
LINE
8
DEFAULT_255_2_778
10
189.1635137
20
81.2281632
11
27.4634137
21
81.2281632
0
LINE
8
DEFAULT_255_2_778
10
27.4634137
20
81.2281632
11
27.4634137
21
99.1282632
0
LINE
8
DEFAULT_255_2_778
10
27.4634137
20
99.1282632
11
189.1635137
21
99.1282632
0
LINE
8
DEFAULT_255_2_778
10
24.7633137
20
73.6343632
11
33.9134137
21
73.6343632
0
LINE
8
DEFAULT_255_2_778
10
24.7633097
20
99.8344658
11
24.7633097
21
38.9845658
0
LINE
8
DEFAULT_255_2_778
10
24.7633097
20
38.9845658
11
33.9134097
21
38.9845658
0
LINE
8
DEFAULT_255_2_778
10
33.9134097
20
38.9845658
11
33.9134097
21
74.0344658
0
LINE
8
DEFAULT_255_2_778
10
9.7133097
20
75.6343658
11
9.7133097
21
75.5343658
0
LINE
8
DEFAULT_255_2_778
10
8.6634097
20
75.6343658
11
8.6634097
21
75.5343658
0
LINE
8
DEFAULT_255_2_778
10
15.6135097
20
75.5343658
11
15.6135097
21
75.6343658
0
LINE
8
DEFAULT_255_2_778
10
16.6633097
20
75.5343658
11
16.6633097
21
75.6343658
0
LINE
8
DEFAULT_255_2_778
10
21.1634097
20
71.4343658
11
21.1634097
21
71.7343658
0
LINE
8
DEFAULT_255_2_778
10
21.1634097
20
75.5343658
11
21.1634097
21
75.6343658
0
LINE
8
DEFAULT_255_2_778
10
22.1635097
20
75.5343658
11
22.1635097
21
75.6343658
0
LINE
8
DEFAULT_255_2_778
10
22.1635097
20
71.4343658
11
22.1635097
21
71.7343658
0
LINE
8
DEFAULT_255_2_778
10
22.1635097
20
97.7344658
11
22.1635097
21
97.8344658
0
LINE
8
DEFAULT_255_2_778
10
21.1634097
20
97.7344658
11
21.1634097
21
97.8344658
0
LINE
8
DEFAULT_255_2_778
10
20.6633097
20
97.7344658
11
20.6633097
21
97.8344658
0
LINE
8
DEFAULT_255_2_778
10
26.51345
20
83.3342
11
27.31355
21
83.3342
0
ARC
8
DEFAULT_255_2_778
10
29.2324503
20
86.0144048
40
3.1631853
50
210.8056417
51
218.6929356
0
LINE
8
DEFAULT_255_2_778
10
27.3135604
20
81.4345508
11
26.5134604
21
81.4345508
0
LINE
8
DEFAULT_255_2_778
10
26.5134604
20
81.4345508
11
26.5155604
21
84.3944508
0
LINE
8
DEFAULT_255_2_778
10
27.4633604
20
82.6844508
11
27.3133604
21
82.6844508
0
LINE
8
DEFAULT_255_2_778
10
27.3133604
20
81.3842508
11
27.4633604
21
81.3842508
0
LINE
8
DEFAULT_255_2_778
10
26.3134604
20
99.1343508
11
26.3134604
21
96.2342508
0
LINE
8
DEFAULT_255_2_778
10
26.3134604
20
96.2342508
11
27.3135604
21
96.2342508
0
LINE
8
DEFAULT_255_2_778
10
26.3134604
20
97.8344508
11
27.3135604
21
97.8344508
0
LINE
8
DEFAULT_255_2_778
10
26.3135116
20
96.9343478
11
27.3136116
21
96.9343478
0
LINE
8
DEFAULT_255_2_778
10
27.3136116
20
96.9343478
11
27.3136116
21
88.5716478
0
LINE
8
DEFAULT_255_2_778
10
35.5133116
20
99.1343478
11
35.5133116
21
99.1280478
0
LINE
8
DEFAULT_255_2_778
10
36.7135116
20
99.1280478
11
36.7135116
21
99.1343478
0
LINE
8
DEFAULT_255_2_778
10
61.0633021
20
79.1345
11
56.8633021
21
79.1345
0
LINE
8
DEFAULT_255_2_778
10
60.6632521
20
74.2344114
11
60.6632521
21
76.5344114
0
LINE
8
DEFAULT_255_2_778
10
60.6632521
20
76.5344114
11
57.2633521
21
76.5344114
0
LINE
8
DEFAULT_255_2_778
10
57.2633521
20
76.5344114
11
57.2633521
21
74.2344114
0
LINE
8
DEFAULT_255_2_778
10
57.2633521
20
74.2344114
11
60.6632521
21
74.2344114
0
LINE
8
DEFAULT_255_2_778
10
68.2631521
20
74.2344114
11
68.2631521
21
76.5344114
0
LINE
8
DEFAULT_255_2_778
10
68.2631521
20
76.5344114
11
64.8632521
21
76.5344114
0
LINE
8
DEFAULT_255_2_778
10
64.8632521
20
76.5344114
11
64.8632521
21
74.2344114
0
LINE
8
DEFAULT_255_2_778
10
64.8632521
20
74.2344114
11
68.2631521
21
74.2344114
0
LINE
8
DEFAULT_255_2_778
10
68.6635021
20
79.1345
11
64.4635021
21
79.1345
0
LINE
8
DEFAULT_255_2_778
10
65.8535409
20
70.7842364
11
45.8534409
21
70.7842364
0
LINE
8
DEFAULT_255_2_778
10
63.8533409
20
70.7842364
11
63.8533409
21
73.4843364
0
LINE
8
DEFAULT_255_2_778
10
63.8533409
20
73.4843364
11
47.8534409
21
73.4843364
0
LINE
8
DEFAULT_255_2_778
10
47.8534409
20
73.4843364
11
47.8534409
21
70.7842364
0
LINE
8
DEFAULT_255_2_778
10
65.8535409
20
72.7845479
11
65.8535409
21
69.3846479
0
LINE
8
DEFAULT_255_2_778
10
65.8535409
20
69.3846479
11
45.8534409
21
69.3846479
0
LINE
8
DEFAULT_255_2_778
10
45.8534409
20
69.3846479
11
45.8534409
21
72.7845479
0
LINE
8
DEFAULT_255_2_778
10
63.8533931
20
72.7842533
11
71.8032931
21
72.7842533
0
LINE
8
DEFAULT_255_2_778
10
71.8032931
20
72.7842533
11
73.8032931
21
70.7842533
0
LINE
8
DEFAULT_255_2_778
10
73.8032931
20
70.7842533
11
73.8032931
21
36.8842533
0
LINE
8
DEFAULT_255_2_778
10
73.8032931
20
36.8842533
11
63.8533931
21
36.8842533
0
LINE
8
DEFAULT_255_2_778
10
43.1134931
20
99.1343533
11
43.1134931
21
99.1280533
0
LINE
8
DEFAULT_255_2_778
10
44.3133931
20
99.1280533
11
44.3133931
21
99.1343533
0
LINE
8
DEFAULT_255_2_778
10
50.7133931
20
99.1343533
11
50.7133931
21
99.1280533
0
LINE
8
DEFAULT_255_2_778
10
51.9134931
20
99.1280533
11
51.9134931
21
99.1343533
0
LINE
8
DEFAULT_255_2_778
10
58.3132931
20
99.1343533
11
58.3132931
21
99.1280533
0
LINE
8
DEFAULT_255_2_778
10
59.5133931
20
99.1280533
11
59.5133931
21
99.1343533
0
LINE
8
DEFAULT_255_2_778
10
67.1132931
20
99.1280533
11
67.1132931
21
99.1343533
0
LINE
8
DEFAULT_255_2_778
10
65.9133931
20
99.1343533
11
65.9133931
21
99.1280533
0
LINE
8
DEFAULT_255_2_778
10
91.0633521
20
74.2344114
11
91.0633521
21
76.5344114
0
LINE
8
DEFAULT_255_2_778
10
91.0633521
20
76.5344114
11
87.6634521
21
76.5344114
0
LINE
8
DEFAULT_255_2_778
10
87.6634521
20
76.5344114
11
87.6634521
21
74.2344114
0
LINE
8
DEFAULT_255_2_778
10
87.6634521
20
74.2344114
11
91.0633521
21
74.2344114
0
LINE
8
DEFAULT_255_2_778
10
91.4634021
20
79.1345
11
87.2634021
21
79.1345
0
LINE
8
DEFAULT_255_2_778
10
83.8633021
20
79.1345
11
79.6633021
21
79.1345
0
LINE
8
DEFAULT_255_2_778
10
83.4632521
20
74.2344114
11
83.4632521
21
76.5344114
0
LINE
8
DEFAULT_255_2_778
10
83.4632521
20
76.5344114
11
80.0633521
21
76.5344114
0
LINE
8
DEFAULT_255_2_778
10
80.0633521
20
76.5344114
11
80.0633521
21
74.2344114
0
LINE
8
DEFAULT_255_2_778
10
80.0633521
20
74.2344114
11
83.4632521
21
74.2344114
0
LINE
8
DEFAULT_255_2_778
10
95.2633521
20
74.2344114
11
98.6632521
21
74.2344114
0
LINE
8
DEFAULT_255_2_778
10
98.6632521
20
74.2344114
11
98.6632521
21
76.5344114
0
LINE
8
DEFAULT_255_2_778
10
98.6632521
20
76.5344114
11
95.2633521
21
76.5344114
0
LINE
8
DEFAULT_255_2_778
10
95.2633521
20
76.5344114
11
95.2633521
21
74.2344114
0
LINE
8
DEFAULT_255_2_778
10
99.0633021
20
79.1345
11
94.8633021
21
79.1345
0
LINE
8
DEFAULT_255_2_778
10
102.8635521
20
74.2344114
11
106.2634521
21
74.2344114
0
LINE
8
DEFAULT_255_2_778
10
106.2634521
20
74.2344114
11
106.2634521
21
76.5344114
0
LINE
8
DEFAULT_255_2_778
10
106.2634521
20
76.5344114
11
102.8635521
21
76.5344114
0
LINE
8
DEFAULT_255_2_778
10
102.8635521
20
76.5344114
11
102.8635521
21
74.2344114
0
LINE
8
DEFAULT_255_2_778
10
106.6635021
20
79.1345
11
102.4635021
21
79.1345
0
LINE
8
DEFAULT_255_2_778
10
105.9535409
20
70.7842364
11
85.9534409
21
70.7842364
0
LINE
8
DEFAULT_255_2_778
10
103.9533409
20
70.7842364
11
103.9533409
21
73.4843364
0
LINE
8
DEFAULT_255_2_778
10
103.9533409
20
73.4843364
11
87.9534409
21
73.4843364
0
LINE
8
DEFAULT_255_2_778
10
87.9534409
20
73.4843364
11
87.9534409
21
70.7842364
0
LINE
8
DEFAULT_255_2_778
10
105.9535515
20
72.7844746
11
105.9535515
21
69.3846746
0
LINE
8
DEFAULT_255_2_778
10
105.9535515
20
69.3846746
11
85.9534515
21
69.3846746
0
LINE
8
DEFAULT_255_2_778
10
85.9534515
20
69.3846746
11
85.9534515
21
72.7844746
0
LINE
8
DEFAULT_255_2_778
10
74.7133515
20
99.1280746
11
74.7133515
21
99.1343746
0
LINE
8
DEFAULT_255_2_778
10
73.5132515
20
99.1343746
11
73.5132515
21
99.1280746
0
LINE
8
DEFAULT_255_2_778
10
81.1134515
20
99.1343746
11
81.1134515
21
99.1280746
0
LINE
8
DEFAULT_255_2_778
10
82.3132515
20
99.1280746
11
82.3132515
21
99.1343746
0
LINE
8
DEFAULT_255_2_778
10
88.7133468
20
99.134375
11
88.7133468
21
99.128075
0
LINE
8
DEFAULT_255_2_778
10
89.9134468
20
99.128075
11
89.9134468
21
99.134375
0
LINE
8
DEFAULT_255_2_778
10
96.3135468
20
99.134375
11
96.3135468
21
99.128075
0
LINE
8
DEFAULT_255_2_778
10
97.5133468
20
99.128075
11
97.5133468
21
99.134375
0
LINE
8
DEFAULT_255_2_778
10
103.9133468
20
99.134375
11
103.9133468
21
99.128075
0
LINE
8
DEFAULT_255_2_778
10
105.1132468
20
99.128075
11
105.1132468
21
99.134375
0
LINE
8
DEFAULT_255_2_778
10
110.4634521
20
74.2344114
11
113.8633521
21
74.2344114
0
LINE
8
DEFAULT_255_2_778
10
113.8633521
20
74.2344114
11
113.8633521
21
76.5344114
0
LINE
8
DEFAULT_255_2_778
10
113.8633521
20
76.5344114
11
110.4634521
21
76.5344114
0
LINE
8
DEFAULT_255_2_778
10
110.4634521
20
76.5344114
11
110.4634521
21
74.2344114
0
LINE
8
DEFAULT_255_2_778
10
114.2634021
20
79.1345
11
110.0634021
21
79.1345
0
LINE
8
DEFAULT_255_2_778
10
118.0632521
20
74.2344114
11
121.4631521
21
74.2344114
0
LINE
8
DEFAULT_255_2_778
10
121.4631521
20
74.2344114
11
121.4631521
21
76.5344114
0
LINE
8
DEFAULT_255_2_778
10
121.4631521
20
76.5344114
11
118.0632521
21
76.5344114
0
LINE
8
DEFAULT_255_2_778
10
118.0632521
20
76.5344114
11
118.0632521
21
74.2344114
0
LINE
8
DEFAULT_255_2_778
10
121.8635021
20
79.1345
11
117.6635021
21
79.1345
0
LINE
8
DEFAULT_255_2_778
10
125.6634521
20
74.2344114
11
129.0633521
21
74.2344114
0
LINE
8
DEFAULT_255_2_778
10
129.0633521
20
74.2344114
11
129.0633521
21
76.5344114
0
LINE
8
DEFAULT_255_2_778
10
129.0633521
20
76.5344114
11
125.6634521
21
76.5344114
0
LINE
8
DEFAULT_255_2_778
10
125.6634521
20
76.5344114
11
125.6634521
21
74.2344114
0
LINE
8
DEFAULT_255_2_778
10
129.4634021
20
79.1345
11
125.2634021
21
79.1345
0
LINE
8
DEFAULT_255_2_778
10
133.2633521
20
74.2344114
11
136.6632521
21
74.2344114
0
LINE
8
DEFAULT_255_2_778
10
136.6632521
20
74.2344114
11
136.6632521
21
76.5344114
0
LINE
8
DEFAULT_255_2_778
10
136.6632521
20
76.5344114
11
133.2633521
21
76.5344114
0
LINE
8
DEFAULT_255_2_778
10
133.2633521
20
76.5344114
11
133.2633521
21
74.2344114
0
LINE
8
DEFAULT_255_2_778
10
137.0633021
20
79.1345
11
132.8633021
21
79.1345
0
LINE
8
DEFAULT_255_2_778
10
111.5132555
20
99.134375
11
111.5132555
21
99.128075
0
LINE
8
DEFAULT_255_2_778
10
112.7133555
20
99.128075
11
112.7133555
21
99.134375
0
LINE
8
DEFAULT_255_2_778
10
120.3132555
20
99.128075
11
120.3132555
21
99.134375
0
LINE
8
DEFAULT_255_2_778
10
119.1134555
20
99.134375
11
119.1134555
21
99.128075
0
LINE
8
DEFAULT_255_2_778
10
126.7132555
20
99.134375
11
126.7132555
21
99.128075
0
LINE
8
DEFAULT_255_2_778
10
127.9134555
20
99.128075
11
127.9134555
21
99.134375
0
LINE
8
DEFAULT_255_2_778
10
134.3134555
20
99.134375
11
134.3134555
21
99.128075
0
LINE
8
DEFAULT_255_2_778
10
135.5133555
20
99.128075
11
135.5133555
21
99.134375
0
LINE
8
DEFAULT_255_2_778
10
174.6632521
20
74.2344114
11
174.6632521
21
76.5344114
0
LINE
8
DEFAULT_255_2_778
10
174.6632521
20
76.5344114
11
171.2633521
21
76.5344114
0
LINE
8
DEFAULT_255_2_778
10
171.2633521
20
76.5344114
11
171.2633521
21
74.2344114
0
LINE
8
DEFAULT_255_2_778
10
171.2633521
20
74.2344114
11
174.6632521
21
74.2344114
0
LINE
8
DEFAULT_255_2_778
10
175.0633021
20
79.1345
11
170.8633021
21
79.1345
0
LINE
8
DEFAULT_255_2_778
10
159.4631521
20
74.2344114
11
159.4631521
21
76.5344114
0
LINE
8
DEFAULT_255_2_778
10
159.4631521
20
76.5344114
11
156.0632521
21
76.5344114
0
LINE
8
DEFAULT_255_2_778
10
156.0632521
20
76.5344114
11
156.0632521
21
74.2344114
0
LINE
8
DEFAULT_255_2_778
10
156.0632521
20
74.2344114
11
159.4631521
21
74.2344114
0
LINE
8
DEFAULT_255_2_778
10
159.8635021
20
79.1345
11
155.6635021
21
79.1345
0
LINE
8
DEFAULT_255_2_778
10
140.8634521
20
74.2344114
11
144.2633521
21
74.2344114
0
LINE
8
DEFAULT_255_2_778
10
144.2633521
20
74.2344114
11
144.2633521
21
76.5344114
0
LINE
8
DEFAULT_255_2_778
10
144.2633521
20
76.5344114
11
140.8634521
21
76.5344114
0
LINE
8
DEFAULT_255_2_778
10
140.8634521
20
76.5344114
11
140.8634521
21
74.2344114
0
LINE
8
DEFAULT_255_2_778
10
144.6634021
20
79.1345
11
140.4634021
21
79.1345
0
LINE
8
DEFAULT_255_2_778
10
148.4633521
20
74.2344114
11
151.8632521
21
74.2344114
0
LINE
8
DEFAULT_255_2_778
10
151.8632521
20
74.2344114
11
151.8632521
21
76.5344114
0
LINE
8
DEFAULT_255_2_778
10
151.8632521
20
76.5344114
11
148.4633521
21
76.5344114
0
LINE
8
DEFAULT_255_2_778
10
148.4633521
20
76.5344114
11
148.4633521
21
74.2344114
0
LINE
8
DEFAULT_255_2_778
10
152.2633021
20
79.1345
11
148.0633021
21
79.1345
0
LINE
8
DEFAULT_255_2_778
10
167.4634021
20
79.1345
11
163.2634021
21
79.1345
0
LINE
8
DEFAULT_255_2_778
10
167.0633521
20
74.2344114
11
167.0633521
21
76.5344114
0
LINE
8
DEFAULT_255_2_778
10
167.0633521
20
76.5344114
11
163.6634521
21
76.5344114
0
LINE
8
DEFAULT_255_2_778
10
163.6634521
20
76.5344114
11
163.6634521
21
74.2344114
0
LINE
8
DEFAULT_255_2_778
10
163.6634521
20
74.2344114
11
167.0633521
21
74.2344114
0
LINE
8
DEFAULT_255_2_778
10
143.1135096
20
99.1280279
11
143.1135096
21
99.1343279
0
LINE
8
DEFAULT_255_2_778
10
141.9134096
20
99.1343279
11
141.9134096
21
99.1280279
0
LINE
8
DEFAULT_255_2_778
10
150.7134096
20
99.1280279
11
150.7134096
21
99.1343279
0
LINE
8
DEFAULT_255_2_778
10
149.5133096
20
99.1343279
11
149.5133096
21
99.1280279
0
LINE
8
DEFAULT_255_2_778
10
157.1134096
20
99.1343279
11
157.1134096
21
99.1280279
0
LINE
8
DEFAULT_255_2_778
10
158.3133096
20
99.1280279
11
158.3133096
21
99.1343279
0
LINE
8
DEFAULT_255_2_778
10
165.9135096
20
99.1280279
11
165.9135096
21
99.1343279
0
LINE
8
DEFAULT_255_2_778
10
164.7133096
20
99.1343279
11
164.7133096
21
99.1280279
0
LINE
8
DEFAULT_255_2_778
10
191.8633096
20
80.1343279
11
24.7633096
21
80.1343279
0
LINE
8
DEFAULT_255_2_778
10
24.7633096
20
79.6342279
11
191.8633096
21
79.6342279
0
LINE
8
DEFAULT_255_2_778
10
182.6634021
20
79.1345
11
178.4634021
21
79.1345
0
LINE
8
DEFAULT_255_2_778
10
182.2633521
20
74.2344114
11
182.2633521
21
76.5344114
0
LINE
8
DEFAULT_255_2_778
10
182.2633521
20
76.5344114
11
178.8634521
21
76.5344114
0
LINE
8
DEFAULT_255_2_778
10
178.8634521
20
76.5344114
11
178.8634521
21
74.2344114
0
LINE
8
DEFAULT_255_2_778
10
178.8634521
20
74.2344114
11
182.2633521
21
74.2344114
0
LINE
8
DEFAULT_255_2_778
10
190.11355
20
83.3342
11
189.31345
21
83.3342
0
LINE
8
DEFAULT_255_2_778
10
190.1135375
20
84.3944154
11
190.1135375
21
81.4345154
0
LINE
8
DEFAULT_255_2_778
10
190.1135375
20
81.4345154
11
189.3134375
21
81.4345154
0
LINE
8
DEFAULT_255_2_778
10
190.3135375
20
99.1343154
11
190.3135375
21
96.2342154
0
LINE
8
DEFAULT_255_2_778
10
190.3135375
20
96.2342154
11
189.3134375
21
96.2342154
0
LINE
8
DEFAULT_255_2_778
10
189.3134375
20
96.2342154
11
189.3134375
21
88.5713154
0
LINE
8
DEFAULT_255_2_778
10
190.3135375
20
96.9343154
11
189.3134375
21
96.9343154
0
LINE
8
DEFAULT_255_2_778
10
189.3134375
20
96.9343154
11
189.3134375
21
96.2342154
0
LINE
8
DEFAULT_255_2_778
10
189.3134336
20
97.8344508
11
190.3135336
21
97.8344508
0
LINE
8
DEFAULT_255_2_778
10
189.3134336
20
82.6844508
11
189.1634336
21
82.6844508
0
LINE
8
DEFAULT_255_2_778
10
189.1634336
20
81.3842508
11
189.3134336
21
81.3842508
0
LINE
8
DEFAULT_255_2_778
10
173.5133336
20
99.1280508
11
173.5133336
21
99.1343508
0
LINE
8
DEFAULT_255_2_778
10
172.3134336
20
99.1343508
11
172.3134336
21
99.1280508
0
LINE
8
DEFAULT_255_2_778
10
179.9133336
20
99.1343508
11
179.9133336
21
99.1280508
0
LINE
8
DEFAULT_255_2_778
10
181.1134336
20
99.1280508
11
181.1134336
21
99.1343508
0
ARC
8
DEFAULT_255_2_778
10
43.8496466
20
49.6357486
40
0.9962403
50
138.3561595
51
180.0837306
0
ARC
8
DEFAULT_255_2_778
10
43.8522384
20
49.6367578
40
0.9975096
50
91.7301295
51
138.4984071
0
ARC
8
DEFAULT_255_2_778
10
43.8533976
20
49.615537
40
1.0187558
50
89.9994546
51
91.7592604
0
ARC
8
DEFAULT_255_2_778
10
43.8548632
20
49.6380534
40
0.9962403
50
48.3561595
51
90.0837306
0
ARC
8
DEFAULT_255_2_778
10
43.8558725
20
49.6354616
40
0.9975096
50
1.7301295
51
48.4984071
0
ARC
8
DEFAULT_255_2_778
10
43.8346517
20
49.6343024
40
1.0187558
50
359.9994546
51
1.7592604
0
ARC
8
DEFAULT_255_2_778
10
43.8571681
20
49.6328368
40
0.9962403
50
318.3561595
51
0.0837306
0
ARC
8
DEFAULT_255_2_778
10
43.8545762
20
49.6318275
40
0.9975096
50
271.7301295
51
318.4984071
0
ARC
8
DEFAULT_255_2_778
10
43.853417
20
49.6530483
40
1.0187558
50
269.9994546
51
271.7592604
0
ARC
8
DEFAULT_255_2_778
10
43.8519514
20
49.6305319
40
0.9962403
50
228.3561595
51
270.0837306
0
ARC
8
DEFAULT_255_2_778
10
43.8509422
20
49.6331238
40
0.9975096
50
181.7301295
51
228.4984071
0
ARC
8
DEFAULT_255_2_778
10
43.872163
20
49.634283
40
1.0187558
50
179.9994546
51
181.7592604
0
LINE
8
DEFAULT_255_2_778
10
42.8534073
20
49.6342927
11
42.8534073
21
49.6342927
0
ARC
8
DEFAULT_255_2_778
10
43.8496466
20
44.8356486
40
0.9962403
50
138.3561595
51
180.0837306
0
ARC
8
DEFAULT_255_2_778
10
43.8522384
20
44.8366578
40
0.9975096
50
91.7301295
51
138.4984071
0
ARC
8
DEFAULT_255_2_778
10
43.8533976
20
44.815437
40
1.0187558
50
89.9994546
51
91.7592604
0
ARC
8
DEFAULT_255_2_778
10
43.8548632
20
44.8379534
40
0.9962403
50
48.3561595
51
90.0837306
0
ARC
8
DEFAULT_255_2_778
10
43.8558725
20
44.8353616
40
0.9975096
50
1.7301295
51
48.4984071
0
ARC
8
DEFAULT_255_2_778
10
43.8346517
20
44.8342024
40
1.0187558
50
359.9994546
51
1.7592604
0
ARC
8
DEFAULT_255_2_778
10
43.8571681
20
44.8327368
40
0.9962403
50
318.3561595
51
0.0837306
0
ARC
8
DEFAULT_255_2_778
10
43.8545762
20
44.8317275
40
0.9975096
50
271.7301295
51
318.4984071
0
ARC
8
DEFAULT_255_2_778
10
43.853417
20
44.8529483
40
1.0187558
50
269.9994546
51
271.7592604
0
ARC
8
DEFAULT_255_2_778
10
43.8519514
20
44.8304319
40
0.9962403
50
228.3561595
51
270.0837306
0
ARC
8
DEFAULT_255_2_778
10
43.8509422
20
44.8330238
40
0.9975096
50
181.7301295
51
228.4984071
0
ARC
8
DEFAULT_255_2_778
10
43.872163
20
44.834183
40
1.0187558
50
179.9994546
51
181.7592604
0
LINE
8
DEFAULT_255_2_778
10
42.8534073
20
44.8341927
11
42.8534073
21
44.8341927
0
ARC
8
DEFAULT_255_2_778
10
67.8497466
20
54.4357486
40
0.9962403
50
138.3561595
51
180.0837306
0
ARC
8
DEFAULT_255_2_778
10
67.8523384
20
54.4367578
40
0.9975096
50
91.7301295
51
138.4984071
0
ARC
8
DEFAULT_255_2_778
10
67.8534976
20
54.415537
40
1.0187558
50
89.9994546
51
91.7592604
0
ARC
8
DEFAULT_255_2_778
10
67.8549632
20
54.4380534
40
0.9962403
50
48.3561595
51
90.0837306
0
ARC
8
DEFAULT_255_2_778
10
67.8559725
20
54.4354616
40
0.9975096
50
1.7301295
51
48.4984071
0
ARC
8
DEFAULT_255_2_778
10
67.8347517
20
54.4343024
40
1.0187558
50
359.9994546
51
1.7592604
0
ARC
8
DEFAULT_255_2_778
10
67.8572681
20
54.4328368
40
0.9962403
50
318.3561595
51
0.0837306
0
ARC
8
DEFAULT_255_2_778
10
67.8546762
20
54.4318275
40
0.9975096
50
271.7301295
51
318.4984071
0
ARC
8
DEFAULT_255_2_778
10
67.853517
20
54.4530483
40
1.0187558
50
269.9994546
51
271.7592604
0
ARC
8
DEFAULT_255_2_778
10
67.8520514
20
54.4305319
40
0.9962403
50
228.3561595
51
270.0837306
0
ARC
8
DEFAULT_255_2_778
10
67.8510422
20
54.4331238
40
0.9975096
50
181.7301295
51
228.4984071
0
ARC
8
DEFAULT_255_2_778
10
67.872263
20
54.434283
40
1.0187558
50
179.9994546
51
181.7592604
0
LINE
8
DEFAULT_255_2_778
10
66.8535073
20
54.4342927
11
66.8535073
21
54.4342927
0
ARC
8
DEFAULT_255_2_778
10
67.8497466
20
54.4357486
40
0.9962403
50
138.3561595
51
180.0837306
0
ARC
8
DEFAULT_255_2_778
10
67.8523384
20
54.4367578
40
0.9975096
50
91.7301295
51
138.4984071
0
ARC
8
DEFAULT_255_2_778
10
67.8534976
20
54.415537
40
1.0187558
50
89.9994546
51
91.7592604
0
ARC
8
DEFAULT_255_2_778
10
67.8549632
20
54.4380534
40
0.9962403
50
48.3561595
51
90.0837306
0
ARC
8
DEFAULT_255_2_778
10
67.8559725
20
54.4354616
40
0.9975096
50
1.7301295
51
48.4984071
0
ARC
8
DEFAULT_255_2_778
10
67.8347517
20
54.4343024
40
1.0187558
50
359.9994546
51
1.7592604
0
ARC
8
DEFAULT_255_2_778
10
67.8572681
20
54.4328368
40
0.9962403
50
318.3561595
51
0.0837306
0
ARC
8
DEFAULT_255_2_778
10
67.8546762
20
54.4318275
40
0.9975096
50
271.7301295
51
318.4984071
0
ARC
8
DEFAULT_255_2_778
10
67.853517
20
54.4530483
40
1.0187558
50
269.9994546
51
271.7592604
0
ARC
8
DEFAULT_255_2_778
10
67.8520514
20
54.4305319
40
0.9962403
50
228.3561595
51
270.0837306
0
ARC
8
DEFAULT_255_2_778
10
67.8510422
20
54.4331238
40
0.9975096
50
181.7301295
51
228.4984071
0
ARC
8
DEFAULT_255_2_778
10
67.872263
20
54.434283
40
1.0187558
50
179.9994546
51
181.7592604
0
LINE
8
DEFAULT_255_2_778
10
66.8535073
20
54.4342927
11
66.8535073
21
54.4342927
0
ARC
8
DEFAULT_255_2_778
10
67.8497466
20
49.6357486
40
0.9962403
50
138.3561595
51
180.0837306
0
ARC
8
DEFAULT_255_2_778
10
67.8523384
20
49.6367578
40
0.9975096
50
91.7301295
51
138.4984071
0
ARC
8
DEFAULT_255_2_778
10
67.8534976
20
49.615537
40
1.0187558
50
89.9994546
51
91.7592604
0
ARC
8
DEFAULT_255_2_778
10
67.8549632
20
49.6380534
40
0.9962403
50
48.3561595
51
90.0837306
0
ARC
8
DEFAULT_255_2_778
10
67.8559725
20
49.6354616
40
0.9975096
50
1.7301295
51
48.4984071
0
ARC
8
DEFAULT_255_2_778
10
67.8347517
20
49.6343024
40
1.0187558
50
359.9994546
51
1.7592604
0
ARC
8
DEFAULT_255_2_778
10
67.8572681
20
49.6328368
40
0.9962403
50
318.3561595
51
0.0837306
0
ARC
8
DEFAULT_255_2_778
10
67.8546762
20
49.6318275
40
0.9975096
50
271.7301295
51
318.4984071
0
ARC
8
DEFAULT_255_2_778
10
67.853517
20
49.6530483
40
1.0187558
50
269.9994546
51
271.7592604
0
ARC
8
DEFAULT_255_2_778
10
67.8520514
20
49.6305319
40
0.9962403
50
228.3561595
51
270.0837306
0
ARC
8
DEFAULT_255_2_778
10
67.8510422
20
49.6331238
40
0.9975096
50
181.7301295
51
228.4984071
0
ARC
8
DEFAULT_255_2_778
10
67.872263
20
49.634283
40
1.0187558
50
179.9994546
51
181.7592604
0
LINE
8
DEFAULT_255_2_778
10
66.8535073
20
49.6342927
11
66.8535073
21
49.6342927
0
ARC
8
DEFAULT_255_2_778
10
83.9495466
20
49.6357486
40
0.9962403
50
138.3561595
51
180.0837306
0
ARC
8
DEFAULT_255_2_778
10
83.9521384
20
49.6367578
40
0.9975096
50
91.7301295
51
138.4984071
0
ARC
8
DEFAULT_255_2_778
10
83.9532976
20
49.615537
40
1.0187558
50
89.9994546
51
91.7592604
0
ARC
8
DEFAULT_255_2_778
10
83.9547632
20
49.6380534
40
0.9962403
50
48.3561595
51
90.0837306
0
ARC
8
DEFAULT_255_2_778
10
83.9557725
20
49.6354616
40
0.9975096
50
1.7301295
51
48.4984071
0
ARC
8
DEFAULT_255_2_778
10
83.9345517
20
49.6343024
40
1.0187558
50
359.9994546
51
1.7592604
0
ARC
8
DEFAULT_255_2_778
10
83.9570681
20
49.6328368
40
0.9962403
50
318.3561595
51
0.0837306
0
ARC
8
DEFAULT_255_2_778
10
83.9544762
20
49.6318275
40
0.9975096
50
271.7301295
51
318.4984071
0
ARC
8
DEFAULT_255_2_778
10
83.953317
20
49.6530483
40
1.0187558
50
269.9994546
51
271.7592604
0
ARC
8
DEFAULT_255_2_778
10
83.9518514
20
49.6305319
40
0.9962403
50
228.3561595
51
270.0837306
0
ARC
8
DEFAULT_255_2_778
10
83.9508422
20
49.6331238
40
0.9975096
50
181.7301295
51
228.4984071
0
ARC
8
DEFAULT_255_2_778
10
83.972063
20
49.634283
40
1.0187558
50
179.9994546
51
181.7592604
0
LINE
8
DEFAULT_255_2_778
10
82.9533073
20
49.6342927
11
82.9533073
21
49.6342927
0
ARC
8
DEFAULT_255_2_778
10
83.9495466
20
44.8356486
40
0.9962403
50
138.3561595
51
180.0837306
0
ARC
8
DEFAULT_255_2_778
10
83.9521384
20
44.8366578
40
0.9975096
50
91.7301295
51
138.4984071
0
ARC
8
DEFAULT_255_2_778
10
83.9532976
20
44.815437
40
1.0187558
50
89.9994546
51
91.7592604
0
ARC
8
DEFAULT_255_2_778
10
83.9547632
20
44.8379534
40
0.9962403
50
48.3561595
51
90.0837306
0
ARC
8
DEFAULT_255_2_778
10
83.9557725
20
44.8353616
40
0.9975096
50
1.7301295
51
48.4984071
0
ARC
8
DEFAULT_255_2_778
10
83.9345517
20
44.8342024
40
1.0187558
50
359.9994546
51
1.7592604
0
ARC
8
DEFAULT_255_2_778
10
83.9570681
20
44.8327368
40
0.9962403
50
318.3561595
51
0.0837306
0
ARC
8
DEFAULT_255_2_778
10
83.9544762
20
44.8317275
40
0.9975096
50
271.7301295
51
318.4984071
0
ARC
8
DEFAULT_255_2_778
10
83.953317
20
44.8529483
40
1.0187558
50
269.9994546
51
271.7592604
0
ARC
8
DEFAULT_255_2_778
10
83.9518514
20
44.8304319
40
0.9962403
50
228.3561595
51
270.0837306
0
ARC
8
DEFAULT_255_2_778
10
83.9508422
20
44.8330238
40
0.9975096
50
181.7301295
51
228.4984071
0
ARC
8
DEFAULT_255_2_778
10
83.972063
20
44.834183
40
1.0187558
50
179.9994546
51
181.7592604
0
LINE
8
DEFAULT_255_2_778
10
82.9533073
20
44.8341927
11
82.9533073
21
44.8341927
0
ARC
8
DEFAULT_255_2_778
10
107.9496466
20
54.4357486
40
0.9962403
50
138.3561595
51
180.0837306
0
ARC
8
DEFAULT_255_2_778
10
107.9522384
20
54.4367578
40
0.9975096
50
91.7301295
51
138.4984071
0
ARC
8
DEFAULT_255_2_778
10
107.9533976
20
54.415537
40
1.0187558
50
89.9994546
51
91.7592604
0
ARC
8
DEFAULT_255_2_778
10
107.9548632
20
54.4380534
40
0.9962403
50
48.3561595
51
90.0837306
0
ARC
8
DEFAULT_255_2_778
10
107.9558725
20
54.4354616
40
0.9975096
50
1.7301295
51
48.4984071
0
ARC
8
DEFAULT_255_2_778
10
107.9346517
20
54.4343024
40
1.0187558
50
359.9994546
51
1.7592604
0
ARC
8
DEFAULT_255_2_778
10
107.9571681
20
54.4328368
40
0.9962403
50
318.3561595
51
0.0837306
0
ARC
8
DEFAULT_255_2_778
10
107.9545762
20
54.4318275
40
0.9975096
50
271.7301295
51
318.4984071
0
ARC
8
DEFAULT_255_2_778
10
107.953417
20
54.4530483
40
1.0187558
50
269.9994546
51
271.7592604
0
ARC
8
DEFAULT_255_2_778
10
107.9519514
20
54.4305319
40
0.9962403
50
228.3561595
51
270.0837306
0
ARC
8
DEFAULT_255_2_778
10
107.9509422
20
54.4331238
40
0.9975096
50
181.7301295
51
228.4984071
0
ARC
8
DEFAULT_255_2_778
10
107.972163
20
54.434283
40
1.0187558
50
179.9994546
51
181.7592604
0
LINE
8
DEFAULT_255_2_778
10
106.9534073
20
54.4342927
11
106.9534073
21
54.4342927
0
ARC
8
DEFAULT_255_2_778
10
107.9496466
20
54.4357486
40
0.9962403
50
138.3561595
51
180.0837306
0
ARC
8
DEFAULT_255_2_778
10
107.9522384
20
54.4367578
40
0.9975096
50
91.7301295
51
138.4984071
0
ARC
8
DEFAULT_255_2_778
10
107.9533976
20
54.415537
40
1.0187558
50
89.9994546
51
91.7592604
0
ARC
8
DEFAULT_255_2_778
10
107.9548632
20
54.4380534
40
0.9962403
50
48.3561595
51
90.0837306
0
ARC
8
DEFAULT_255_2_778
10
107.9558725
20
54.4354616
40
0.9975096
50
1.7301295
51
48.4984071
0
ARC
8
DEFAULT_255_2_778
10
107.9346517
20
54.4343024
40
1.0187558
50
359.9994546
51
1.7592604
0
ARC
8
DEFAULT_255_2_778
10
107.9571681
20
54.4328368
40
0.9962403
50
318.3561595
51
0.0837306
0
ARC
8
DEFAULT_255_2_778
10
107.9545762
20
54.4318275
40
0.9975096
50
271.7301295
51
318.4984071
0
ARC
8
DEFAULT_255_2_778
10
107.953417
20
54.4530483
40
1.0187558
50
269.9994546
51
271.7592604
0
ARC
8
DEFAULT_255_2_778
10
107.9519514
20
54.4305319
40
0.9962403
50
228.3561595
51
270.0837306
0
ARC
8
DEFAULT_255_2_778
10
107.9509422
20
54.4331238
40
0.9975096
50
181.7301295
51
228.4984071
0
ARC
8
DEFAULT_255_2_778
10
107.972163
20
54.434283
40
1.0187558
50
179.9994546
51
181.7592604
0
LINE
8
DEFAULT_255_2_778
10
106.9534073
20
54.4342927
11
106.9534073
21
54.4342927
0
ARC
8
DEFAULT_255_2_778
10
107.9496466
20
49.6357486
40
0.9962403
50
138.3561595
51
180.0837306
0
ARC
8
DEFAULT_255_2_778
10
107.9522384
20
49.6367578
40
0.9975096
50
91.7301295
51
138.4984071
0
ARC
8
DEFAULT_255_2_778
10
107.9533976
20
49.615537
40
1.0187558
50
89.9994546
51
91.7592604
0
ARC
8
DEFAULT_255_2_778
10
107.9548632
20
49.6380534
40
0.9962403
50
48.3561595
51
90.0837306
0
ARC
8
DEFAULT_255_2_778
10
107.9558725
20
49.6354616
40
0.9975096
50
1.7301295
51
48.4984071
0
ARC
8
DEFAULT_255_2_778
10
107.9346517
20
49.6343024
40
1.0187558
50
359.9994546
51
1.7592604
0
ARC
8
DEFAULT_255_2_778
10
107.9571681
20
49.6328368
40
0.9962403
50
318.3561595
51
0.0837306
0
ARC
8
DEFAULT_255_2_778
10
107.9545762
20
49.6318275
40
0.9975096
50
271.7301295
51
318.4984071
0
ARC
8
DEFAULT_255_2_778
10
107.953417
20
49.6530483
40
1.0187558
50
269.9994546
51
271.7592604
0
ARC
8
DEFAULT_255_2_778
10
107.9519514
20
49.6305319
40
0.9962403
50
228.3561595
51
270.0837306
0
ARC
8
DEFAULT_255_2_778
10
107.9509422
20
49.6331238
40
0.9975096
50
181.7301295
51
228.4984071
0
ARC
8
DEFAULT_255_2_778
10
107.972163
20
49.634283
40
1.0187558
50
179.9994546
51
181.7592604
0
LINE
8
DEFAULT_255_2_778
10
106.9534073
20
49.6342927
11
106.9534073
21
49.6342927
0
ARC
8
DEFAULT_255_2_778
10
190.7695249
20
4.8373714
40
2.2438108
50
359.927066
51
22.1959334
0
ARC
8
DEFAULT_255_2_778
10
190.761574
20
4.8319645
40
2.253216
50
22.246856
51
79.7581538
0
ARC
8
DEFAULT_255_2_778
10
190.7643044
20
4.8203785
40
2.2641369
50
79.8782785
51
90.0245604
0
ARC
8
DEFAULT_255_2_778
10
189.757078
20
4.8373675
40
2.2436459
50
157.8022412
51
180.0728393
0
ARC
8
DEFAULT_255_2_778
10
189.765305
20
4.8318215
40
2.2533595
50
100.2415647
51
157.7507056
0
ARC
8
DEFAULT_255_2_778
10
189.7625648
20
4.8203245
40
2.2641909
50
89.9754772
51
100.1216009
0
ARC
8
DEFAULT_255_2_778
10
190.7693857
20
4.8316446
40
2.24395
50
337.8047627
51
0.0732959
0
ARC
8
DEFAULT_255_2_778
10
190.7616623
20
4.8369779
40
2.2531168
50
280.2400216
51
337.7533834
0
ARC
8
DEFAULT_255_2_778
10
190.7643089
20
4.8488043
40
2.2642893
50
269.9753292
51
280.1209194
0
ARC
8
DEFAULT_255_2_778
10
189.7572172
20
4.8316485
40
2.2437852
50
179.9267988
51
202.1970627
0
ARC
8
DEFAULT_255_2_778
10
189.7652168
20
4.837121
40
2.2532603
50
202.2490552
51
259.7602599
0
ARC
8
DEFAULT_255_2_778
10
189.7625604
20
4.8488583
40
2.2643433
50
259.8792012
51
270.0246333
0
ARC
8
DEFAULT_255_2_778
10
5.2678179
20
4.8380502
40
2.2543868
50
158.2386051
51
180.0898428
0
ARC
8
DEFAULT_255_2_778
10
5.2584958
20
4.8390322
40
2.2453665
50
100.4545112
51
158.173688
0
ARC
8
DEFAULT_255_2_778
10
5.2622452
20
4.8050033
40
2.2795122
50
89.9701221
51
100.3919857
0
ARC
8
DEFAULT_255_2_778
10
5.2589138
20
4.8380566
40
2.2545229
50
359.9100005
51
21.7598393
0
ARC
8
DEFAULT_255_2_778
10
5.2684677
20
4.8391378
40
2.2452504
50
21.8245969
51
79.53818
0
ARC
8
DEFAULT_255_2_778
10
5.2646253
20
4.8047488
40
2.2797667
50
79.6001523
51
90.0299435
0
ARC
8
DEFAULT_255_2_778
10
5.2587691
20
4.8309602
40
2.2546676
50
338.2408662
51
0.0903398
0
ARC
8
DEFAULT_255_2_778
10
5.2685572
20
4.8298035
40
2.2451496
50
280.4535565
51
338.1756829
0
ARC
8
DEFAULT_255_2_778
10
5.2646271
20
4.8644671
40
2.2799523
50
269.9700133
51
280.3926283
0
ARC
8
DEFAULT_255_2_778
10
5.2679626
20
4.8309666
40
2.2545315
50
179.9098168
51
201.7606893
0
ARC
8
DEFAULT_255_2_778
10
5.2584073
20
4.8299097
40
2.2452669
50
201.8260389
51
259.547316
0
ARC
8
DEFAULT_255_2_778
10
5.2622463
20
4.8642434
40
2.2797285
50
259.6089824
51
270.0298467
0
ARC
8
DEFAULT_255_2_778
10
5.2678179
20
104.8378502
40
2.2543868
50
158.2386051
51
180.0898428
0
ARC
8
DEFAULT_255_2_778
10
5.2584958
20
104.8388322
40
2.2453665
50
100.4545112
51
158.173688
0
ARC
8
DEFAULT_255_2_778
10
5.2622452
20
104.8048033
40
2.2795122
50
89.9701221
51
100.3919857
0
ARC
8
DEFAULT_255_2_778
10
5.2589138
20
104.8378566
40
2.2545229
50
359.9100005
51
21.7598393
0
ARC
8
DEFAULT_255_2_778
10
5.2684677
20
104.8389378
40
2.2452504
50
21.8245969
51
79.53818
0
ARC
8
DEFAULT_255_2_778
10
5.2646253
20
104.8045488
40
2.2797667
50
79.6001523
51
90.0299435
0
ARC
8
DEFAULT_255_2_778
10
5.2587691
20
104.8307602
40
2.2546676
50
338.2408662
51
0.0903398
0
ARC
8
DEFAULT_255_2_778
10
5.2685572
20
104.8296035
40
2.2451496
50
280.4535565
51
338.1756829
0
ARC
8
DEFAULT_255_2_778
10
5.2646271
20
104.8642671
40
2.2799523
50
269.9700133
51
280.3926283
0
ARC
8
DEFAULT_255_2_778
10
5.2679626
20
104.8307666
40
2.2545315
50
179.9098168
51
201.7606893
0
ARC
8
DEFAULT_255_2_778
10
5.2584073
20
104.8297097
40
2.2452669
50
201.8260389
51
259.547316
0
ARC
8
DEFAULT_255_2_778
10
5.2622463
20
104.8640434
40
2.2797285
50
259.6089824
51
270.0298467
0
ARC
8
DEFAULT_255_2_778
10
189.7606754
20
104.8403971
40
2.2439199
50
89.9270115
51
112.196291
0
ARC
8
DEFAULT_255_2_778
10
189.7660329
20
104.8324966
40
2.2532599
50
112.2465327
51
169.8931397
0
ARC
8
DEFAULT_255_2_778
10
189.7776431
20
104.8352622
40
2.2642095
50
170.0135941
51
180.0239645
0
ARC
8
DEFAULT_255_2_778
10
189.7606701
20
104.8283735
40
2.2440601
50
247.8053156
51
270.07312
0
ARC
8
DEFAULT_255_2_778
10
189.765961
20
104.8360778
40
2.2531931
50
190.2420225
51
247.7547501
0
ARC
8
DEFAULT_255_2_778
10
189.7775452
20
104.8333435
40
2.2641116
50
179.9754109
51
190.121807
0
ARC
8
DEFAULT_255_2_778
10
190.7661991
20
104.8405072
40
2.2438099
50
67.803156
51
90.0731644
0
ARC
8
DEFAULT_255_2_778
10
190.7607639
20
104.8325464
40
2.253235
50
10.2413159
51
67.7516644
0
ARC
8
DEFAULT_255_2_778
10
190.7493039
20
104.8352871
40
2.2640302
50
359.975405
51
10.1214997
0
ARC
8
DEFAULT_255_2_778
10
190.7662045
20
104.8282634
40
2.24395
50
269.9267041
51
292.1952373
0
ARC
8
DEFAULT_255_2_778
10
190.7608712
20
104.8359868
40
2.2531168
50
292.2466166
51
349.7599784
0
ARC
8
DEFAULT_255_2_778
10
190.7490449
20
104.8333402
40
2.2642893
50
349.8790806
51
0.0246708
0
LINE
8
DEFAULT_255_2_778
10
165.7634339
20
9.8343152
11
165.7634339
21
9.1342152
0
LINE
8
DEFAULT_255_2_778
10
158.2632339
20
5.1345152
11
160.7633339
21
5.1345152
0
LINE
8
DEFAULT_255_2_778
10
160.7633339
20
5.1345152
11
163.7634339
21
7.3345152
0
LINE
8
DEFAULT_255_2_778
10
163.7634339
20
7.3345152
11
163.7634339
21
9.1345152
0
LINE
8
DEFAULT_255_2_778
10
163.7634339
20
9.1345152
11
165.7634339
21
9.1345152
0
LINE
8
DEFAULT_255_2_778
10
150.7633339
20
9.8343152
11
150.7633339
21
9.1342152
0
LINE
8
DEFAULT_255_2_778
10
158.2635339
20
5.1345152
11
155.7634339
21
5.1345152
0
LINE
8
DEFAULT_255_2_778
10
155.7634339
20
5.1345152
11
152.7633339
21
7.3345152
0
LINE
8
DEFAULT_255_2_778
10
152.7633339
20
7.3345152
11
152.7633339
21
9.1345152
0
LINE
8
DEFAULT_255_2_778
10
152.7633339
20
9.1345152
11
150.7633339
21
9.1345152
0
LINE
8
DEFAULT_255_2_778
10
190.7633339
20
7.0845152
11
190.2633339
21
7.0845152
0
LINE
8
DEFAULT_255_2_778
10
189.7635339
20
7.0845152
11
190.2635339
21
7.0845152
0
LINE
8
DEFAULT_255_2_778
10
190.7633339
20
2.5845152
11
190.2633339
21
2.5845152
0
LINE
8
DEFAULT_255_2_778
10
189.7635339
20
2.5845152
11
190.2635339
21
2.5845152
0
LINE
8
DEFAULT_255_2_778
10
44.7633339
20
9.8343152
11
44.7633339
21
9.1342152
0
LINE
8
DEFAULT_255_2_778
10
44.7633339
20
9.1342152
11
42.7633339
21
9.1342152
0
LINE
8
DEFAULT_255_2_778
10
42.7633339
20
9.1342152
11
42.7633339
21
7.3343152
0
LINE
8
DEFAULT_255_2_778
10
42.7633339
20
7.3343152
11
39.7632339
21
5.1343152
0
LINE
8
DEFAULT_255_2_778
10
39.7632339
20
5.1343152
11
37.2632339
21
5.1343152
0
LINE
8
DEFAULT_255_2_778
10
29.7633339
20
9.8343152
11
29.7633339
21
9.1342152
0
LINE
8
DEFAULT_255_2_778
10
29.7633339
20
9.1342152
11
31.7633339
21
9.1342152
0
LINE
8
DEFAULT_255_2_778
10
31.7633339
20
9.1342152
11
31.7633339
21
7.3343152
0
LINE
8
DEFAULT_255_2_778
10
31.7633339
20
7.3343152
11
34.7631339
21
5.1343152
0
LINE
8
DEFAULT_255_2_778
10
34.7631339
20
5.1343152
11
37.2632339
21
5.1343152
0
LINE
8
DEFAULT_255_2_778
10
20.5934339
20
70.3345152
11
20.5934339
21
64.3345152
0
LINE
8
DEFAULT_255_2_778
10
20.5934339
20
64.3345152
11
20.5934339
21
58.3346152
0
LINE
8
DEFAULT_255_2_778
10
20.5934339
20
58.3346152
11
14.8633339
21
58.3346152
0
LINE
8
DEFAULT_255_2_778
10
14.8633339
20
58.3346152
11
9.1335339
21
58.3346152
0
LINE
8
DEFAULT_255_2_778
10
9.1335339
20
58.3346152
11
9.1335339
21
64.3345152
0
LINE
8
DEFAULT_255_2_778
10
9.1335339
20
64.3345152
11
9.1335339
21
70.3345152
0
LINE
8
DEFAULT_255_2_778
10
14.8636339
20
59.7464152
11
17.2816339
21
59.7464152
0
LINE
8
DEFAULT_255_2_778
10
17.2816339
20
59.7464152
11
19.1316339
21
61.5963152
0
LINE
8
DEFAULT_255_2_778
10
19.1316339
20
61.5963152
11
19.1316339
21
64.3342152
0
LINE
8
DEFAULT_255_2_778
10
19.1316339
20
64.3342152
11
19.1316339
21
67.0722152
0
LINE
8
DEFAULT_255_2_778
10
19.1316339
20
67.0722152
11
17.2816339
21
68.9221152
0
LINE
8
DEFAULT_255_2_778
10
17.2816339
20
68.9221152
11
14.8636339
21
68.9221152
0
LINE
8
DEFAULT_255_2_778
10
14.8636339
20
68.9221152
11
10.5953339
21
68.9221152
0
LINE
8
DEFAULT_255_2_778
10
10.5953339
20
68.9221152
11
10.5953339
21
64.3342152
0
LINE
8
DEFAULT_255_2_778
10
10.5953339
20
64.3342152
11
10.5953339
21
59.7461152
0
LINE
8
DEFAULT_255_2_778
10
10.5953339
20
59.7461152
11
14.8636339
21
59.7464152
0
LINE
8
DEFAULT_255_2_778
10
16.4635339
20
61.5543152
11
13.2835339
21
61.5543152
0
LINE
8
DEFAULT_255_2_778
10
13.7835339
20
62.0543152
11
15.9634339
21
62.0543152
0
LINE
8
DEFAULT_255_2_778
10
13.7835339
20
66.6544152
11
15.9634339
21
66.6544152
0
LINE
8
DEFAULT_255_2_778
10
15.9634339
20
66.6544152
11
16.4635339
21
67.1544152
0
LINE
8
DEFAULT_255_2_778
10
16.4635339
20
67.1544152
11
13.2835339
21
67.1544152
0
LINE
8
DEFAULT_255_2_778
10
13.2835339
20
67.1544152
11
13.2835339
21
61.5545152
0
LINE
8
DEFAULT_255_2_778
10
13.2835339
20
61.5545152
11
13.7835339
21
62.0546152
0
LINE
8
DEFAULT_255_2_778
10
13.7835339
20
62.0546152
11
13.7835339
21
66.6544152
0
LINE
8
DEFAULT_255_2_778
10
13.7835339
20
66.6544152
11
13.2835339
21
67.1544152
0
LINE
8
DEFAULT_255_2_778
10
15.9634339
20
66.6544152
11
15.9634339
21
62.0543152
0
LINE
8
DEFAULT_255_2_778
10
15.9634339
20
62.0543152
11
16.4635339
21
61.5543152
0
LINE
8
DEFAULT_255_2_778
10
16.4635339
20
61.5543152
11
16.4635339
21
67.1544152
0
LINE
8
DEFAULT_255_2_778
10
20.5833339
20
70.3345152
11
9.1234339
21
70.3345152
0
LINE
8
DEFAULT_255_2_778
10
190.2635339
20
107.0843152
11
189.7635339
21
107.0843152
0
LINE
8
DEFAULT_255_2_778
10
190.2635339
20
102.5843152
11
189.7635339
21
102.5843152
0
LINE
8
DEFAULT_255_2_778
10
190.2633339
20
107.0843152
11
190.7633339
21
107.0843152
0
LINE
8
DEFAULT_255_2_778
10
190.2633339
20
102.5843152
11
190.7633339
21
102.5843152
0
ENDSEC
0
EOF