0
SECTION
2
HEADER
9
$MEASUREMENT
70
1
0
ENDSEC
0
SECTION
2
TABLES
0
TABLE
2
LTYPE
0
LTYPE
72
65
70
64
2
CONTINUOUS
3
______
73
0
40
0
0
ENDTAB
0
TABLE
2
LAYER
0
LAYER
2
DEFAULT_255_2_778
70
0
62
255
6
CONTINUOUS
0
ENDTAB
0
ENDSEC
0
SECTION
2
ENTITIES
0
ARC
8
DEFAULT_255_2_778
10
67.8456414
20
44.8360026
40
0.9962403
50
138.3561595
51
180.0837306
0
ARC
8
DEFAULT_255_2_778
10
67.8482333
20
44.8370118
40
0.9975096
50
91.7301295
51
138.4984071
0
ARC
8
DEFAULT_255_2_778
10
67.8493925
20
44.8157911
40
1.0187558
50
89.9994546
51
91.7592604
0
ARC
8
DEFAULT_255_2_778
10
67.8508581
20
44.8383075
40
0.9962403
50
48.3561595
51
90.0837306
0
ARC
8
DEFAULT_255_2_778
10
67.8518673
20
44.8357156
40
0.9975096
50
1.7301295
51
48.4984071
0
ARC
8
DEFAULT_255_2_778
10
67.8306466
20
44.8345564
40
1.0187558
50
359.9994546
51
1.7592604
0
ARC
8
DEFAULT_255_2_778
10
67.853163
20
44.8330908
40
0.9962403
50
318.3561595
51
0.0837306
0
ARC
8
DEFAULT_255_2_778
10
67.8505711
20
44.8320816
40
0.9975096
50
271.7301295
51
318.4984071
0
ARC
8
DEFAULT_255_2_778
10
67.8494119
20
44.8533023
40
1.0187558
50
269.9994546
51
271.7592604
0
ARC
8
DEFAULT_255_2_778
10
67.8479463
20
44.8307859
40
0.9962403
50
228.3561595
51
270.0837306
0
ARC
8
DEFAULT_255_2_778
10
67.8469371
20
44.8333778
40
0.9975096
50
181.7301295
51
228.4984071
0
ARC
8
DEFAULT_255_2_778
10
67.8681578
20
44.834537
40
1.0187558
50
179.9994546
51
181.7592604
0
LINE
8
DEFAULT_255_2_778
10
30.3594022
20
51.6346467
11
28.1593022
21
51.6346467
0
LINE
8
DEFAULT_255_2_778
10
28.1593022
20
51.6346467
11
28.1593022
21
49.8346467
0
LINE
8
DEFAULT_255_2_778
10
28.1593022
20
49.8346467
11
30.3594022
21
49.8346467
0
LINE
8
DEFAULT_255_2_778
10
30.3594022
20
49.8346467
11
30.3594022
21
51.6346467
0
LINE
8
DEFAULT_255_2_778
10
0.6593022
20
39.3217467
11
22.7595022
21
39.3217467
0
LINE
8
DEFAULT_255_2_778
10
22.7595022
20
39.3217467
11
22.7595022
21
71.5217467
0
LINE
8
DEFAULT_255_2_778
10
22.7595022
20
71.5217467
11
0.6593022
21
71.5217467
0
LINE
8
DEFAULT_255_2_778
10
33.6754022
20
74.0348467
11
24.4753022
21
74.0348467
0
LINE
8
DEFAULT_255_2_778
10
24.4753022
20
74.0348467
11
24.4753022
21
38.9849467
0
LINE
8
DEFAULT_255_2_778
10
24.4753022
20
38.9849467
11
33.6754022
21
38.9849467
0
LINE
8
DEFAULT_255_2_778
10
33.6754022
20
38.9849467
11
33.6754022
21
74.0348467
0
LINE
8
DEFAULT_255_2_778
10
33.6754022
20
74.0348467
11
83.3853022
21
74.0348467
0
LINE
8
DEFAULT_255_2_778
10
83.3853022
20
74.0348467
11
83.3853022
21
99.8348467
0
LINE
8
DEFAULT_255_2_778
10
0.2593022
20
39.1486467
11
23.9022022
21
39.1486467
0
LINE
8
DEFAULT_255_2_778
10
23.9022022
20
39.1486467
11
23.9022022
21
71.8218467
0
LINE
8
DEFAULT_255_2_778
10
23.9022022
20
71.8218467
11
0.2593022
21
71.8218467
0
LINE
8
DEFAULT_255_2_778
10
4.3593022
20
39.1486467
11
4.3593022
21
36.7187467
0
LINE
8
DEFAULT_255_2_778
10
4.3593022
20
36.7187467
11
9.3594022
21
36.7187467
0
LINE
8
DEFAULT_255_2_778
10
9.3594022
20
36.7187467
11
9.3594022
21
39.1486467
0
LINE
8
DEFAULT_255_2_778
10
2.6593022
20
45.4217467
11
0.6593022
21
45.4217467
0
LINE
8
DEFAULT_255_2_778
10
0.6593022
20
45.4217467
11
0.6593022
21
39.1486467
0
LINE
8
DEFAULT_255_2_778
10
0.6593022
20
18.2307467
11
0.6593022
21
12.0307467
0
LINE
8
DEFAULT_255_2_778
10
66.8494022
20
44.8345467
11
66.8494022
21
44.8345467
0
LINE
8
DEFAULT_255_2_778
10
60.7343022
20
30.5346467
11
60.7343022
21
32.5346467
0
LINE
8
DEFAULT_255_2_778
10
60.7343022
20
32.5346467
11
57.3344022
21
32.5346467
0
LINE
8
DEFAULT_255_2_778
10
57.3344022
20
32.5346467
11
57.3344022
21
30.5346467
0
LINE
8
DEFAULT_255_2_778
10
57.3344022
20
30.5346467
11
60.7343022
21
30.5346467
0
LINE
8
DEFAULT_255_2_778
10
72.5341521
20
35.1346927
11
69.1342521
21
35.1346927
0
LINE
8
DEFAULT_255_2_778
10
69.1342521
20
35.1346927
11
69.1342521
21
33.1346927
0
LINE
8
DEFAULT_255_2_778
10
69.1342521
20
33.1346927
11
72.5341521
21
33.1346927
0
LINE
8
DEFAULT_255_2_778
10
72.5341521
20
33.1346927
11
72.5341521
21
35.1346927
0
LINE
8
DEFAULT_255_2_778
10
64.9343521
20
35.1346927
11
61.5344521
21
35.1346927
0
LINE
8
DEFAULT_255_2_778
10
61.5344521
20
35.1346927
11
61.5344521
21
33.1346927
0
LINE
8
DEFAULT_255_2_778
10
61.5344521
20
33.1346927
11
64.9343521
21
33.1346927
0
LINE
8
DEFAULT_255_2_778
10
64.9343521
20
33.1346927
11
64.9343521
21
35.1346927
0
LINE
8
DEFAULT_255_2_778
10
77.2281564
20
38.1348205
11
84.6592564
21
38.1348205
0
LINE
8
DEFAULT_255_2_778
10
84.6592564
20
38.1348205
11
84.6592564
21
38.2348205
0
LINE
8
DEFAULT_255_2_778
10
83.4701564
20
16.7348205
11
81.3201564
21
16.7348205
0
ARC
8
DEFAULT_255_2_778
10
81.2716525
20
4.8312284
40
5.0123358
50
179.9607375
51
193.6883257
0
ARC
8
DEFAULT_255_2_778
10
81.2351328
20
4.8258694
40
4.9755863
50
193.7278838
51
214.6204207
0
ARC
8
DEFAULT_255_2_778
10
81.2688587
20
4.8445696
40
5.0139661
50
214.5773176
51
250.3756931
0
ARC
8
DEFAULT_255_2_778
10
81.2500453
20
4.8109564
40
4.975991
50
250.4497488
51
265.7069664
0
ARC
8
DEFAULT_255_2_778
10
81.2589423
20
4.9050257
40
5.0704627
50
265.6862845
51
270.0053733
0
ARC
8
DEFAULT_255_2_778
10
81.2628468
20
4.846677
40
5.012115
50
269.9608021
51
283.6886287
0
ARC
8
DEFAULT_255_2_778
10
81.2681351
20
4.8104324
40
4.9756495
50
283.7282297
51
304.6203754
0
ARC
8
DEFAULT_255_2_778
10
81.2494189
20
4.8442053
40
5.0140772
50
304.5771201
51
340.374917
0
ARC
8
DEFAULT_255_2_778
10
81.2832679
20
4.8252965
40
4.9758479
50
340.4490919
51
355.706775
0
ARC
8
DEFAULT_255_2_778
10
81.189337
20
4.8341824
40
5.0701808
50
355.6861043
51
0.0054335
0
LINE
8
DEFAULT_255_2_778
10
76.2593179
20
9.8347632
11
76.2593179
21
4.8346632
0
LINE
8
DEFAULT_255_2_778
10
86.2595179
20
4.8346632
11
86.2595179
21
99.8348632
0
LINE
8
DEFAULT_255_2_778
10
86.2595179
20
99.8348632
11
0.2593179
21
99.8348632
0
LINE
8
DEFAULT_255_2_778
10
81.4702073
20
16.7348154
11
81.4702073
21
29.6848154
0
LINE
8
DEFAULT_255_2_778
10
81.4702073
20
29.6848154
11
83.4702073
21
29.6848154
0
LINE
8
DEFAULT_255_2_778
10
42.1341521
20
35.1346927
11
38.7342521
21
35.1346927
0
LINE
8
DEFAULT_255_2_778
10
38.7342521
20
35.1346927
11
38.7342521
21
33.1346927
0
LINE
8
DEFAULT_255_2_778
10
38.7342521
20
33.1346927
11
42.1341521
21
33.1346927
0
LINE
8
DEFAULT_255_2_778
10
42.1341521
20
33.1346927
11
42.1341521
21
35.1346927
0
LINE
8
DEFAULT_255_2_778
10
49.7342521
20
35.1346927
11
46.3343521
21
35.1346927
0
LINE
8
DEFAULT_255_2_778
10
46.3343521
20
35.1346927
11
46.3343521
21
33.1346927
0
LINE
8
DEFAULT_255_2_778
10
46.3343521
20
33.1346927
11
49.7342521
21
33.1346927
0
LINE
8
DEFAULT_255_2_778
10
49.7342521
20
33.1346927
11
49.7342521
21
35.1346927
0
LINE
8
DEFAULT_255_2_778
10
30.3592916
20
44.5348255
11
30.3592916
21
46.3348255
0
LINE
8
DEFAULT_255_2_778
10
30.3592916
20
46.3348255
11
28.1592916
21
46.3348255
0
LINE
8
DEFAULT_255_2_778
10
28.1592916
20
46.3348255
11
28.1592916
21
44.5348255
0
LINE
8
DEFAULT_255_2_778
10
28.1592916
20
44.5348255
11
30.3592916
21
44.5348255
0
LINE
8
DEFAULT_255_2_778
10
21.3023916
20
39.1487255
11
21.3023916
21
39.3218255
0
LINE
8
DEFAULT_255_2_778
10
14.3591916
20
39.3218255
11
14.3591916
21
39.2487255
0
LINE
8
DEFAULT_255_2_778
10
14.3591916
20
39.2487255
11
20.5591916
21
39.2487255
0
LINE
8
DEFAULT_255_2_778
10
20.5591916
20
39.2487255
11
20.5591916
21
39.3218255
0
LINE
8
DEFAULT_255_2_778
10
23.6581916
20
9.9347255
11
83.4701916
21
9.9347255
0
ARC
8
DEFAULT_255_2_778
10
10.0597112
20
20.4804224
40
8.4496789
50
269.9963939
51
278.8280442
0
LINE
8
DEFAULT_255_2_778
10
23.7592794
20
9.9347435
11
23.7592794
21
16.7348435
0
LINE
8
DEFAULT_255_2_778
10
23.7592794
20
16.7348435
11
25.9203794
21
16.7348435
0
LINE
8
DEFAULT_255_2_778
10
25.7592794
20
10.6348435
11
25.7592794
21
9.9347435
0
LINE
8
DEFAULT_255_2_778
10
25.7592794
20
16.7348435
11
25.7592794
21
29.6848435
0
LINE
8
DEFAULT_255_2_778
10
25.7592794
20
29.6848435
11
23.6582794
21
29.6848435
0
LINE
8
DEFAULT_255_2_778
10
81.3201885
20
10.6345612
11
81.3201885
21
28.5346612
0
LINE
8
DEFAULT_255_2_778
10
81.3201885
20
28.5346612
11
49.2201885
21
28.5346612
0
LINE
8
DEFAULT_255_2_778
10
49.2201885
20
28.5346612
11
49.2201885
21
26.5346612
0
LINE
8
DEFAULT_255_2_778
10
49.2201885
20
26.5346612
11
46.9201885
21
26.5346612
0
LINE
8
DEFAULT_255_2_778
10
46.9201885
20
26.5346612
11
46.9201885
21
28.5346612
0
LINE
8
DEFAULT_255_2_778
10
46.9201885
20
28.5346612
11
25.9201885
21
28.5346612
0
LINE
8
DEFAULT_255_2_778
10
25.9201885
20
28.5346612
11
25.9201885
21
10.6345612
0
LINE
8
DEFAULT_255_2_778
10
83.3201885
20
16.7347612
11
83.3201885
21
10.6348612
0
LINE
8
DEFAULT_255_2_778
10
83.3201885
20
10.6348612
11
23.9201885
21
10.6348612
0
LINE
8
DEFAULT_255_2_778
10
23.9201885
20
10.6348612
11
23.9201885
21
16.7347612
0
LINE
8
DEFAULT_255_2_778
10
83.4701885
20
9.8347612
11
83.4701885
21
35.9348612
0
LINE
8
DEFAULT_255_2_778
10
83.4701885
20
35.9348612
11
23.6582885
21
35.9348612
0
LINE
8
DEFAULT_255_2_778
10
23.6582885
20
35.9348612
11
23.6582885
21
9.8347612
0
LINE
8
DEFAULT_255_2_778
10
57.3341885
20
33.1347612
11
57.3341885
21
35.1347612
0
LINE
8
DEFAULT_255_2_778
10
57.3341885
20
35.1347612
11
53.9342885
21
35.1347612
0
LINE
8
DEFAULT_255_2_778
10
53.9342885
20
35.1347612
11
53.9342885
21
33.1347612
0
LINE
8
DEFAULT_255_2_778
10
53.9342885
20
33.1347612
11
57.3341885
21
33.1347612
0
LINE
8
DEFAULT_255_2_778
10
83.4701885
20
29.7848612
11
23.6582885
21
29.7848612
0
LINE
8
DEFAULT_255_2_778
10
83.3852885
20
93.0348612
11
81.3852885
21
93.0348612
0
LINE
8
DEFAULT_255_2_778
10
83.3852885
20
99.7348612
11
12.3533885
21
99.7348612
0
LINE
8
DEFAULT_255_2_778
10
81.3852885
20
99.3848612
11
81.3852885
21
99.7348612
0
LINE
8
DEFAULT_255_2_778
10
61.4613885
20
77.1346612
11
64.8612885
21
77.1346612
0
LINE
8
DEFAULT_255_2_778
10
64.8612885
20
77.1346612
11
64.8612885
21
79.4346612
0
LINE
8
DEFAULT_255_2_778
10
64.8612885
20
79.4346612
11
61.4613885
21
79.4346612
0
LINE
8
DEFAULT_255_2_778
10
61.4613885
20
79.4346612
11
61.4613885
21
77.1346612
0
LINE
8
DEFAULT_255_2_778
10
61.0613521
20
76.5349114
11
57.6614521
21
76.5349114
0
LINE
8
DEFAULT_255_2_778
10
57.6614521
20
76.5349114
11
57.6614521
21
74.2349114
0
LINE
8
DEFAULT_255_2_778
10
57.6614521
20
74.2349114
11
61.0613521
21
74.2349114
0
LINE
8
DEFAULT_255_2_778
10
61.0613521
20
74.2349114
11
61.0613521
21
76.5349114
0
LINE
8
DEFAULT_255_2_778
10
84.6592697
20
71.4347267
11
84.6592697
21
71.5348267
0
LINE
8
DEFAULT_255_2_778
10
84.6592697
20
71.5348267
11
77.2281697
21
71.5348267
0
LINE
8
DEFAULT_255_2_778
10
81.1852697
20
93.2848267
11
83.1852697
21
93.2848267
0
LINE
8
DEFAULT_255_2_778
10
83.1852697
20
93.2848267
11
83.1852697
21
99.3848267
0
LINE
8
DEFAULT_255_2_778
10
83.1852697
20
99.3848267
11
14.3853697
21
99.3848267
0
LINE
8
DEFAULT_255_2_778
10
14.3853697
20
99.3848267
11
14.3853697
21
81.4847267
0
LINE
8
DEFAULT_255_2_778
10
14.3853697
20
81.4847267
11
54.0852697
21
81.4847267
0
LINE
8
DEFAULT_255_2_778
10
54.0852697
20
81.4847267
11
54.0852697
21
83.4849267
0
LINE
8
DEFAULT_255_2_778
10
54.0852697
20
83.4849267
11
56.3853697
21
83.4849267
0
LINE
8
DEFAULT_255_2_778
10
56.3853697
20
83.4849267
11
56.3853697
21
81.4849267
0
LINE
8
DEFAULT_255_2_778
10
56.3853697
20
81.4849267
11
81.1852697
21
81.4849267
0
LINE
8
DEFAULT_255_2_778
10
81.1852697
20
81.4849267
11
81.1852697
21
99.3848267
0
LINE
8
DEFAULT_255_2_778
10
83.3852614
20
80.3348216
11
81.3852614
21
80.3348216
0
LINE
8
DEFAULT_255_2_778
10
81.3852614
20
80.3348216
11
81.3852614
21
93.2848216
0
LINE
8
DEFAULT_255_2_778
10
14.1853614
20
99.7348216
11
14.1853614
21
99.3848216
0
LINE
8
DEFAULT_255_2_778
10
14.1853614
20
93.2848216
11
14.1853614
21
93.0348216
0
LINE
8
DEFAULT_255_2_778
10
14.3853614
20
93.2848216
11
12.3853614
21
93.2848216
0
LINE
8
DEFAULT_255_2_778
10
12.3853614
20
93.2848216
11
12.3853614
21
99.3848216
0
LINE
8
DEFAULT_255_2_778
10
12.3853614
20
99.3848216
11
14.3853614
21
99.3848216
0
LINE
8
DEFAULT_255_2_778
10
49.6612521
20
77.1347114
11
49.6612521
21
79.4347114
0
LINE
8
DEFAULT_255_2_778
10
49.6612521
20
79.4347114
11
46.2613521
21
79.4347114
0
LINE
8
DEFAULT_255_2_778
10
46.2613521
20
79.4347114
11
46.2613521
21
77.1347114
0
LINE
8
DEFAULT_255_2_778
10
46.2613521
20
77.1347114
11
49.6612521
21
77.1347114
0
LINE
8
DEFAULT_255_2_778
10
53.4611521
20
76.5349114
11
50.0612521
21
76.5349114
0
LINE
8
DEFAULT_255_2_778
10
50.0612521
20
76.5349114
11
50.0612521
21
74.2349114
0
LINE
8
DEFAULT_255_2_778
10
50.0612521
20
74.2349114
11
53.4611521
21
74.2349114
0
LINE
8
DEFAULT_255_2_778
10
53.4611521
20
74.2349114
11
53.4611521
21
76.5349114
0
LINE
8
DEFAULT_255_2_778
10
42.0610521
20
79.4347114
11
38.6611521
21
79.4347114
0
LINE
8
DEFAULT_255_2_778
10
38.6611521
20
79.4347114
11
38.6611521
21
77.1347114
0
LINE
8
DEFAULT_255_2_778
10
38.6611521
20
77.1347114
11
42.0610521
21
77.1347114
0
LINE
8
DEFAULT_255_2_778
10
42.0610521
20
77.1347114
11
42.0610521
21
79.4347114
0
LINE
8
DEFAULT_255_2_778
10
38.2611521
20
76.5349114
11
34.8612521
21
76.5349114
0
LINE
8
DEFAULT_255_2_778
10
34.8612521
20
76.5349114
11
34.8612521
21
74.2349114
0
LINE
8
DEFAULT_255_2_778
10
34.8612521
20
74.2349114
11
38.2611521
21
74.2349114
0
LINE
8
DEFAULT_255_2_778
10
38.2611521
20
74.2349114
11
38.2611521
21
76.5349114
0
LINE
8
DEFAULT_255_2_778
10
45.8612521
20
74.2349114
11
45.8612521
21
76.5349114
0
LINE
8
DEFAULT_255_2_778
10
45.8612521
20
76.5349114
11
42.4613521
21
76.5349114
0
LINE
8
DEFAULT_255_2_778
10
42.4613521
20
76.5349114
11
42.4613521
21
74.2349114
0
LINE
8
DEFAULT_255_2_778
10
42.4613521
20
74.2349114
11
45.8612521
21
74.2349114
0
LINE
8
DEFAULT_255_2_778
10
30.3593524
20
71.034715
11
30.3593524
21
72.834715
0
LINE
8
DEFAULT_255_2_778
10
30.3593524
20
72.834715
11
28.1593524
21
72.834715
0
LINE
8
DEFAULT_255_2_778
10
28.1593524
20
72.834715
11
28.1593524
21
71.034715
0
LINE
8
DEFAULT_255_2_778
10
28.1593524
20
71.034715
11
30.3593524
21
71.034715
0
LINE
8
DEFAULT_255_2_778
10
21.3023524
20
71.521815
11
21.3023524
21
71.821915
0
LINE
8
DEFAULT_255_2_778
10
8.4822524
20
71.821915
11
8.4822524
21
71.521815
0
LINE
8
DEFAULT_255_2_778
10
28.1593524
20
60.434715
11
30.3593524
21
60.434715
0
LINE
8
DEFAULT_255_2_778
10
30.3593524
20
60.434715
11
30.3593524
21
62.234715
0
LINE
8
DEFAULT_255_2_778
10
30.3593524
20
62.234715
11
28.1593524
21
62.234715
0
LINE
8
DEFAULT_255_2_778
10
28.1593524
20
62.234715
11
28.1593524
21
60.434715
0
LINE
8
DEFAULT_255_2_778
10
30.3593524
20
65.734915
11
30.3593524
21
67.534815
0
LINE
8
DEFAULT_255_2_778
10
30.3593524
20
67.534815
11
28.1593524
21
67.534815
0
LINE
8
DEFAULT_255_2_778
10
28.1593524
20
67.534815
11
28.1593524
21
65.734915
0
LINE
8
DEFAULT_255_2_778
10
28.1593524
20
65.734915
11
30.3593524
21
65.734915
0
LINE
8
DEFAULT_255_2_778
10
28.1593524
20
55.134915
11
30.3593524
21
55.134915
0
LINE
8
DEFAULT_255_2_778
10
30.3593524
20
55.134915
11
30.3593524
21
56.934815
0
LINE
8
DEFAULT_255_2_778
10
30.3593524
20
56.934815
11
28.1593524
21
56.934815
0
LINE
8
DEFAULT_255_2_778
10
28.1593524
20
56.934815
11
28.1593524
21
55.134915
0
LINE
8
DEFAULT_255_2_778
10
24.4752524
20
73.634815
11
33.6753524
21
73.634815
0
LINE
8
DEFAULT_255_2_778
10
24.4752524
20
74.034915
11
12.3533524
21
74.034915
0
LINE
8
DEFAULT_255_2_778
10
12.3533524
20
74.034915
11
12.3533524
21
99.834915
0
LINE
8
DEFAULT_255_2_778
10
12.3533541
20
93.0348061
11
14.3533541
21
93.0348061
0
LINE
8
DEFAULT_255_2_778
10
14.3533541
20
93.0348061
11
14.3533541
21
80.3348061
0
LINE
8
DEFAULT_255_2_778
10
14.3533541
20
80.3348061
11
12.3533541
21
80.3348061
0
LINE
8
DEFAULT_255_2_778
10
12.3533541
20
80.2348061
11
83.3852541
21
80.2348061
0
LINE
8
DEFAULT_255_2_778
10
57.2611521
20
77.1347114
11
57.2611521
21
79.4347114
0
LINE
8
DEFAULT_255_2_778
10
57.2611521
20
79.4347114
11
53.8612521
21
79.4347114
0
LINE
8
DEFAULT_255_2_778
10
53.8612521
20
79.4347114
11
53.8612521
21
77.1347114
0
LINE
8
DEFAULT_255_2_778
10
53.8612521
20
77.1347114
11
57.2611521
21
77.1347114
0
LINE
8
DEFAULT_255_2_778
10
2.4693502
20
90.3368406
11
0.2592502
21
90.3368406
0
LINE
8
DEFAULT_255_2_778
10
2.2592502
20
71.5218406
11
2.2592502
21
71.8218406
0
LINE
8
DEFAULT_255_2_778
10
0.2592502
20
75.1767406
11
2.4693502
21
75.1767406
0
LINE
8
DEFAULT_255_2_778
10
0.6592502
20
71.8218406
11
0.6592502
21
65.4218406
0
LINE
8
DEFAULT_255_2_778
10
0.6592502
20
65.4218406
11
2.6592502
21
65.4218406
0
LINE
8
DEFAULT_255_2_778
10
16.4591502
20
61.0548406
11
16.4591502
21
66.6547406
0
LINE
8
DEFAULT_255_2_778
10
16.4591502
20
66.6547406
11
13.2791502
21
66.6547406
0
LINE
8
DEFAULT_255_2_778
10
13.2791502
20
66.6547406
11
13.2791502
21
61.0548406
0
LINE
8
DEFAULT_255_2_778
10
13.2791502
20
61.0548406
11
16.4591502
21
61.0548406
0
LINE
8
DEFAULT_255_2_778
10
86.2591502
20
71.4347406
11
77.4591502
21
71.4347406
0
LINE
8
DEFAULT_255_2_778
10
77.4591502
20
71.4347406
11
77.4591502
21
38.2348406
0
LINE
8
DEFAULT_255_2_778
10
77.4591502
20
38.2348406
11
86.2591502
21
38.2348406
0
LINE
8
DEFAULT_255_2_778
10
86.2591502
20
72.8346406
11
77.2281502
21
72.8346406
0
LINE
8
DEFAULT_255_2_778
10
77.2281502
20
72.8346406
11
77.2281502
21
36.8346406
0
LINE
8
DEFAULT_255_2_778
10
77.2281502
20
36.8346406
11
86.2591502
21
36.8346406
0
LINE
8
DEFAULT_255_2_778
10
0.6592502
20
12.1307406
11
19.9593502
21
12.1307406
0
LINE
8
DEFAULT_255_2_778
10
19.9593502
20
12.1307406
11
19.9593502
21
35.9308406
0
LINE
8
DEFAULT_255_2_778
10
19.9593502
20
35.9308406
11
0.6592502
21
35.9308406
0
LINE
8
DEFAULT_255_2_778
10
0.2592502
20
12.0307406
11
20.9591502
21
12.0307406
0
LINE
8
DEFAULT_255_2_778
10
20.9591502
20
12.0307406
11
20.9591502
21
36.0308406
0
LINE
8
DEFAULT_255_2_778
10
20.9591502
20
36.0308406
11
0.2592502
21
36.0308406
0
LINE
8
DEFAULT_255_2_778
10
2.2592502
20
39.1487406
11
2.2592502
21
39.3217406
0
LINE
8
DEFAULT_255_2_778
10
2.3592502
20
39.3217406
11
2.3592502
21
39.1487406
0
LINE
8
DEFAULT_255_2_778
10
2.3592813
20
36.0309619
11
2.3592813
21
35.9308619
0
LINE
8
DEFAULT_255_2_778
10
2.8593813
20
39.3217619
11
2.8593813
21
39.1487619
0
LINE
8
DEFAULT_255_2_778
10
2.2595813
20
35.9308619
11
2.2576813
21
36.0309619
0
LINE
8
DEFAULT_255_2_778
10
7.3093813
20
36.0309619
11
7.3093813
21
35.9308619
0
LINE
8
DEFAULT_255_2_778
10
6.2592813
20
36.0309619
11
6.2592813
21
35.9308619
0
LINE
8
DEFAULT_255_2_778
10
2.6593813
20
39.3217619
11
2.6593813
21
71.5218619
0
LINE
8
DEFAULT_255_2_778
10
0.8593813
20
65.4218619
11
0.8593813
21
45.4217619
0
LINE
8
DEFAULT_255_2_778
10
1.9788813
20
45.4217619
11
1.9788813
21
65.4218619
0
LINE
8
DEFAULT_255_2_778
10
2.6349813
20
29.8362619
11
2.6593813
21
29.8605619
0
LINE
8
DEFAULT_255_2_778
10
2.6593813
20
29.8605619
11
0.6593813
21
29.8309619
0
LINE
8
DEFAULT_255_2_778
10
0.6593542
20
36.0308445
11
0.6593542
21
29.8308445
0
LINE
8
DEFAULT_255_2_778
10
0.6593542
20
29.8308445
11
2.6349542
21
29.8361445
0
LINE
8
DEFAULT_255_2_778
10
2.6349542
20
29.8361445
11
2.6349542
21
18.2257445
0
LINE
8
DEFAULT_255_2_778
10
2.6349542
20
18.2257445
11
0.6593542
21
18.2310445
0
LINE
8
DEFAULT_255_2_778
10
0.6593542
20
18.2310445
11
2.6593542
21
18.2013445
0
LINE
8
DEFAULT_255_2_778
10
2.6593542
20
18.2013445
11
2.6349542
21
18.2257445
0
LINE
8
DEFAULT_255_2_778
10
1.2028542
20
25.5308445
11
1.2028542
21
22.5307445
0
LINE
8
DEFAULT_255_2_778
10
1.0842542
20
22.5307445
11
1.0842542
21
25.5308445
0
LINE
8
DEFAULT_255_2_778
10
2.6593542
20
35.9308445
11
2.6593542
21
12.1307445
0
LINE
8
DEFAULT_255_2_778
10
0.8593542
20
29.8308445
11
0.8593542
21
18.2307445
0
LINE
8
DEFAULT_255_2_778
10
1.9788542
20
18.2254445
11
1.9788542
21
29.8358445
0
LINE
8
DEFAULT_255_2_778
10
0.9075542
20
25.5308445
11
1.6335542
21
25.5308445
0
LINE
8
DEFAULT_255_2_778
10
0.9075542
20
22.5307445
11
1.6335542
21
22.5307445
0
LINE
8
DEFAULT_255_2_778
10
2.2576542
20
12.0307445
11
2.2595542
21
12.1307445
0
LINE
8
DEFAULT_255_2_778
10
2.3592542
20
12.1307445
11
2.3592542
21
12.0307445
0
LINE
8
DEFAULT_255_2_778
10
81.3202542
20
26.9847445
11
81.4702542
21
26.9847445
0
ARC
8
DEFAULT_255_2_778
10
47.8705739
20
24.1360509
40
2.7988601
50
61.165068
51
90.0041611
0
ARC
8
DEFAULT_255_2_778
10
47.8703782
20
24.1340152
40
2.8008956
50
90.000155
51
91.3925327
0
ARC
8
DEFAULT_255_2_778
10
47.8703013
20
24.136202
40
2.7987076
50
91.3920452
51
109.8400993
0
LINE
8
DEFAULT_255_2_778
10
81.4702301
20
28.4846881
11
81.3202301
21
28.4846881
0
LINE
8
DEFAULT_255_2_778
10
81.3202301
20
20.9347881
11
81.4702301
21
20.9347881
0
LINE
8
DEFAULT_255_2_778
10
81.3202301
20
19.7345881
11
81.4702301
21
19.7345881
0
LINE
8
DEFAULT_255_2_778
10
81.4702301
20
18.9347881
11
81.3202301
21
18.9347881
0
LINE
8
DEFAULT_255_2_778
10
77.2282301
20
39.3846881
11
77.4592301
21
39.3846881
0
LINE
8
DEFAULT_255_2_778
10
77.2282301
20
38.4848881
11
77.4592301
21
38.4848881
0
LINE
8
DEFAULT_255_2_778
10
81.4702301
20
9.9346881
11
81.4702301
21
10.6347881
0
LINE
8
DEFAULT_255_2_778
10
77.7592301
20
10.6347881
11
77.7592301
21
9.9346881
0
LINE
8
DEFAULT_255_2_778
10
79.0594301
20
10.6347881
11
79.0594301
21
9.9346881
0
LINE
8
DEFAULT_255_2_778
10
71.3592301
20
9.9346881
11
71.3592301
21
10.6347881
0
LINE
8
DEFAULT_255_2_778
10
70.1593301
20
10.6347881
11
70.1593301
21
9.9346881
0
LINE
8
DEFAULT_255_2_778
10
62.5594301
20
10.6347881
11
62.5594301
21
9.9346881
0
LINE
8
DEFAULT_255_2_778
10
63.7593301
20
9.9346881
11
63.7593301
21
10.6347881
0
LINE
8
DEFAULT_255_2_778
10
54.9593301
20
10.6347881
11
54.9593301
21
9.9346881
0
LINE
8
DEFAULT_255_2_778
10
56.1594301
20
9.9346881
11
56.1594301
21
10.6347881
0
LINE
8
DEFAULT_255_2_778
10
49.2204301
20
27.3347881
11
46.9204301
21
27.3347881
0
LINE
8
DEFAULT_255_2_778
10
19.3593301
20
35.9307881
11
19.3593301
21
36.0307881
0
LINE
8
DEFAULT_255_2_778
10
18.3594301
20
35.9307881
11
18.3594301
21
36.0307881
0
LINE
8
DEFAULT_255_2_778
10
14.2595301
20
35.9307881
11
14.2595301
21
36.0307881
0
LINE
8
DEFAULT_255_2_778
10
13.2093301
20
35.9307881
11
13.2093301
21
36.0307881
0
LINE
8
DEFAULT_255_2_778
10
13.9023301
20
39.3216881
11
13.9023301
21
39.1486881
0
LINE
8
DEFAULT_255_2_778
10
10.8593301
20
39.1486881
11
10.8593301
21
39.3216881
0
LINE
8
DEFAULT_255_2_778
10
25.9204301
20
28.4846881
11
25.7593301
21
28.4846881
0
LINE
8
DEFAULT_255_2_778
10
25.7593301
20
26.9846881
11
25.9204301
21
26.9846881
0
LINE
8
DEFAULT_255_2_778
10
25.9204301
20
18.9347881
11
25.7593301
21
18.9347881
0
LINE
8
DEFAULT_255_2_778
10
25.7592371
20
20.2347569
11
25.9204371
21
20.2347569
0
LINE
8
DEFAULT_255_2_778
10
25.9204371
20
18.5347569
11
25.7592371
21
18.5347569
0
LINE
8
DEFAULT_255_2_778
10
48.5592371
20
9.9347569
11
48.5592371
21
10.6348569
0
LINE
8
DEFAULT_255_2_778
10
47.3593371
20
10.6348569
11
47.3593371
21
9.9347569
0
LINE
8
DEFAULT_255_2_778
10
40.9593371
20
9.9347569
11
40.9593371
21
10.6348569
0
LINE
8
DEFAULT_255_2_778
10
39.7591371
20
10.6348569
11
39.7591371
21
9.9347569
0
LINE
8
DEFAULT_255_2_778
10
33.3591371
20
9.9347569
11
33.3591371
21
10.6348569
0
LINE
8
DEFAULT_255_2_778
10
32.1592371
20
10.6348569
11
32.1592371
21
9.9347569
0
LINE
8
DEFAULT_255_2_778
10
19.3592371
20
12.0307569
11
19.3592371
21
12.1307569
0
LINE
8
DEFAULT_255_2_778
10
18.3591371
20
12.0307569
11
18.3591371
21
12.1307569
0
LINE
8
DEFAULT_255_2_778
10
65.8494371
20
38.8846569
11
45.8493371
21
38.8846569
0
ARC
8
DEFAULT_255_2_778
10
1.6695265
20
89.072684
40
1.0001912
50
90.0053149
51
135.0041129
0
ARC
8
DEFAULT_255_2_778
10
1.6695003
20
89.0726926
40
1.0001666
50
135.0033987
51
180.0009952
0
ARC
8
DEFAULT_255_2_778
10
1.6698496
20
76.3728025
40
1.0005159
50
180.0072863
51
224.9883116
0
ARC
8
DEFAULT_255_2_778
10
1.6695611
20
76.3730909
40
1.0005159
50
225.0116733
51
269.9927046
0
LINE
8
DEFAULT_255_2_778
10
63.8492337
20
38.8846753
11
63.8492337
21
36.1845753
0
LINE
8
DEFAULT_255_2_778
10
63.8492337
20
36.1845753
11
47.8493337
21
36.1845753
0
LINE
8
DEFAULT_255_2_778
10
47.8493337
20
36.1845753
11
47.8493337
21
38.8846753
0
LINE
8
DEFAULT_255_2_778
10
65.8494337
20
36.8849753
11
65.8494337
21
40.2848753
0
LINE
8
DEFAULT_255_2_778
10
65.8494337
20
40.2848753
11
45.8493337
21
40.2848753
0
LINE
8
DEFAULT_255_2_778
10
45.8493337
20
40.2848753
11
45.8493337
21
36.8849753
0
LINE
8
DEFAULT_255_2_778
10
10.0694337
20
73.7726753
11
10.0694337
21
91.6727753
0
LINE
8
DEFAULT_255_2_778
10
10.0694337
20
91.6727753
11
2.5693337
21
91.6727753
0
LINE
8
DEFAULT_255_2_778
10
2.5693337
20
91.6727753
11
2.5693337
21
90.0728753
0
LINE
8
DEFAULT_255_2_778
10
2.5693337
20
90.0728753
11
1.6694337
21
90.0728753
0
LINE
8
DEFAULT_255_2_778
10
0.6693337
20
89.0726753
11
0.6693337
21
76.3726753
0
LINE
8
DEFAULT_255_2_778
10
1.6694337
20
75.3725753
11
2.5695337
21
75.3725753
0
LINE
8
DEFAULT_255_2_778
10
2.5695337
20
75.3725753
11
2.5695337
21
73.7726753
0
LINE
8
DEFAULT_255_2_778
10
2.5695337
20
73.7726753
11
10.0694337
21
73.7726753
0
LINE
8
DEFAULT_255_2_778
10
81.1852337
20
90.7348753
11
81.3852337
21
90.7348753
0
LINE
8
DEFAULT_255_2_778
10
81.1852305
20
91.1348727
11
81.3852305
21
91.1348727
0
LINE
8
DEFAULT_255_2_778
10
74.9852305
20
99.7348727
11
74.9852305
21
99.3848727
0
LINE
8
DEFAULT_255_2_778
10
73.7853305
20
99.3848727
11
73.7853305
21
99.7348727
0
LINE
8
DEFAULT_255_2_778
10
67.3853305
20
99.7348727
11
67.3853305
21
99.3848727
0
LINE
8
DEFAULT_255_2_778
10
66.1852305
20
99.3848727
11
66.1852305
21
99.7348727
0
LINE
8
DEFAULT_255_2_778
10
59.7852305
20
99.7348727
11
59.7852305
21
99.3848727
0
LINE
8
DEFAULT_255_2_778
10
58.5853305
20
99.3848727
11
58.5853305
21
99.7348727
0
LINE
8
DEFAULT_255_2_778
10
81.1852305
20
81.6347727
11
81.3852305
21
81.6347727
0
LINE
8
DEFAULT_255_2_778
10
81.3852334
20
82.9348967
11
81.1852334
21
82.9348967
0
LINE
8
DEFAULT_255_2_778
10
77.4591334
20
70.2848967
11
77.2281334
21
70.2848967
0
LINE
8
DEFAULT_255_2_778
10
77.459215
20
71.1848014
11
77.228215
21
71.1848014
0
LINE
8
DEFAULT_255_2_778
10
55.985315
20
83.4847014
11
55.985315
21
82.1348014
0
LINE
8
DEFAULT_255_2_778
10
55.985315
20
82.1348014
11
56.385415
21
82.1348014
0
LINE
8
DEFAULT_255_2_778
10
54.085315
20
82.1348014
11
54.785415
21
82.1348014
0
LINE
8
DEFAULT_255_2_778
10
54.785415
20
82.1348014
11
54.785415
21
83.4847014
0
LINE
8
DEFAULT_255_2_778
10
63.849215
20
72.7847014
11
71.799215
21
72.7847014
0
LINE
8
DEFAULT_255_2_778
10
71.799215
20
72.7847014
11
73.799215
21
70.7847014
0
LINE
8
DEFAULT_255_2_778
10
73.799215
20
70.7847014
11
73.799215
21
36.8847014
0
LINE
8
DEFAULT_255_2_778
10
73.799215
20
36.8847014
11
63.849215
21
36.8847014
0
LINE
8
DEFAULT_255_2_778
10
65.849515
20
70.7847014
11
45.849415
21
70.7847014
0
LINE
8
DEFAULT_255_2_778
10
63.8492413
20
70.7846444
11
63.8492413
21
73.4847444
0
LINE
8
DEFAULT_255_2_778
10
63.8492413
20
73.4847444
11
47.8493413
21
73.4847444
0
LINE
8
DEFAULT_255_2_778
10
47.8493413
20
73.4847444
11
47.8493413
21
70.7846444
0
LINE
8
DEFAULT_255_2_778
10
65.8494413
20
72.7846444
11
65.8494413
21
69.3847444
0
LINE
8
DEFAULT_255_2_778
10
65.8494413
20
69.3847444
11
45.8493413
21
69.3847444
0
LINE
8
DEFAULT_255_2_778
10
45.8493413
20
69.3847444
11
45.8493413
21
72.7846444
0
LINE
8
DEFAULT_255_2_778
10
52.1853413
20
99.7348444
11
52.1853413
21
99.3848444
0
LINE
8
DEFAULT_255_2_778
10
50.9851413
20
99.3848444
11
50.9851413
21
99.7348444
0
LINE
8
DEFAULT_255_2_778
10
44.5851413
20
99.7348444
11
44.5851413
21
99.3848444
0
LINE
8
DEFAULT_255_2_778
10
43.3852413
20
99.3848444
11
43.3852413
21
99.7348444
0
LINE
8
DEFAULT_255_2_778
10
35.7853413
20
99.3848444
11
35.7853413
21
99.7348444
0
LINE
8
DEFAULT_255_2_778
10
36.9852413
20
99.7348444
11
36.9852413
21
99.3848444
0
LINE
8
DEFAULT_255_2_778
10
29.3853413
20
99.7348444
11
29.3853413
21
99.3848444
0
LINE
8
DEFAULT_255_2_778
10
28.1852413
20
99.3848444
11
28.1852413
21
99.7348444
0
LINE
8
DEFAULT_255_2_778
10
21.7852413
20
99.7348444
11
21.7852413
21
99.3848444
0
LINE
8
DEFAULT_255_2_778
10
20.5853413
20
99.3848444
11
20.5853413
21
99.7348444
0
LINE
8
DEFAULT_255_2_778
10
14.3533413
20
90.7347444
11
14.3853413
21
90.7347444
0
LINE
8
DEFAULT_255_2_778
10
14.353364
20
91.1348821
11
14.385364
21
91.1348821
0
LINE
8
DEFAULT_255_2_778
10
14.385364
20
82.9348821
11
14.353364
21
82.9348821
0
LINE
8
DEFAULT_255_2_778
10
14.353364
20
81.6347821
11
14.385364
21
81.6347821
0
LINE
8
DEFAULT_255_2_778
10
50.759264
20
9.1346821
11
48.759264
21
9.1346821
0
LINE
8
DEFAULT_255_2_778
10
48.759264
20
9.1346821
11
48.759264
21
7.3346821
0
LINE
8
DEFAULT_255_2_778
10
48.759264
20
7.3346821
11
45.759164
21
5.1346821
0
LINE
8
DEFAULT_255_2_778
10
45.759164
20
5.1346821
11
43.259064
21
5.1346821
0
LINE
8
DEFAULT_255_2_778
10
35.759164
20
9.1346821
11
37.759164
21
9.1346821
0
LINE
8
DEFAULT_255_2_778
10
37.759164
20
9.1346821
11
37.759164
21
7.3346821
0
LINE
8
DEFAULT_255_2_778
10
37.759164
20
7.3346821
11
40.759064
21
5.1346821
0
LINE
8
DEFAULT_255_2_778
10
40.759064
20
5.1346821
11
43.259064
21
5.1346821
0
ARC
8
DEFAULT_255_2_778
10
80.7550849
20
4.828467
40
2.2438099
50
247.803156
51
270.0731644
0
ARC
8
DEFAULT_255_2_778
10
80.7605202
20
4.8364278
40
2.253235
50
190.2413159
51
247.7516644
0
ARC
8
DEFAULT_255_2_778
10
80.7719802
20
4.8336871
40
2.2640302
50
179.975405
51
190.1214997
0
ARC
8
DEFAULT_255_2_778
10
80.7517591
20
4.8375152
40
2.2438108
50
157.8040666
51
180.072934
0
ARC
8
DEFAULT_255_2_778
10
80.75971
20
4.8321083
40
2.253216
50
100.2418462
51
157.753144
0
ARC
8
DEFAULT_255_2_778
10
80.7569796
20
4.8205223
40
2.2641369
50
89.9754396
51
100.1217215
0
ARC
8
DEFAULT_255_2_778
10
81.7633011
20
4.8283278
40
2.2436706
50
269.9271976
51
292.19754
0
ARC
8
DEFAULT_255_2_778
10
81.7577922
20
4.836516
40
2.2533342
50
292.248575
51
349.7568595
0
ARC
8
DEFAULT_255_2_778
10
81.7465725
20
4.8336916
40
2.2638779
50
349.8776982
51
0.0244846
0
ARC
8
DEFAULT_255_2_778
10
81.7667813
20
4.8375099
40
2.2436706
50
359.9271976
51
22.19754
0
ARC
8
DEFAULT_255_2_778
10
81.7585931
20
4.832001
40
2.2533342
50
22.248575
51
79.7568595
0
ARC
8
DEFAULT_255_2_778
10
81.7614176
20
4.8207813
40
2.2638779
50
79.8776982
51
90.0244846
0
LINE
8
DEFAULT_255_2_778
10
50.7592502
20
9.834759
11
50.7592502
21
9.134659
0
LINE
8
DEFAULT_255_2_778
10
35.7591502
20
9.834759
11
35.7591502
21
9.134659
0
LINE
8
DEFAULT_255_2_778
10
81.2590502
20
2.584659
11
80.7579502
21
2.584659
0
LINE
8
DEFAULT_255_2_778
10
80.7579502
20
7.084659
11
81.2590502
21
7.084659
0
LINE
8
DEFAULT_255_2_778
10
81.2593502
20
2.584659
11
81.7604502
21
2.584659
0
LINE
8
DEFAULT_255_2_778
10
81.7604502
20
7.084659
11
81.2595502
21
7.084659
0
LINE
8
DEFAULT_255_2_778
10
0.2592502
20
104.838159
11
0.2592502
21
54.834859
0
LINE
8
DEFAULT_255_2_778
10
86.2591502
20
9.834759
11
0.2592502
21
9.834759
0
LINE
8
DEFAULT_255_2_778
10
0.2592502
20
9.834759
11
0.2592502
21
54.834859
0
ARC
8
DEFAULT_255_2_778
10
5.2558468
20
104.8391891
40
2.2545315
50
248.2393107
51
270.0901832
0
ARC
8
DEFAULT_255_2_778
10
5.25479
20
104.8296339
40
2.2452669
50
190.452684
51
248.1739611
0
ARC
8
DEFAULT_255_2_778
10
5.2891236
20
104.8334729
40
2.2797285
50
179.9701533
51
190.3910176
0
ARC
8
DEFAULT_255_2_778
10
5.2640603
20
104.8382154
40
2.2546676
50
158.2408662
51
180.0903398
0
ARC
8
DEFAULT_255_2_778
10
5.2542722
20
104.8393721
40
2.2451496
50
100.4535565
51
158.1756829
0
ARC
8
DEFAULT_255_2_778
10
5.2582022
20
104.8047085
40
2.2799523
50
89.9700133
51
100.3926283
0
ARC
8
DEFAULT_255_2_778
10
5.2629304
20
104.8390444
40
2.2543868
50
269.9101572
51
291.7613949
0
ARC
8
DEFAULT_255_2_778
10
5.2639125
20
104.8297224
40
2.2453665
50
291.826312
51
349.5454888
0
ARC
8
DEFAULT_255_2_778
10
5.2298836
20
104.8334718
40
2.2795122
50
349.6080143
51
0.0298779
0
ARC
8
DEFAULT_255_2_778
10
5.2548668
20
104.8382091
40
2.2545315
50
359.9098168
51
21.7606893
0
ARC
8
DEFAULT_255_2_778
10
5.264422
20
104.8392659
40
2.2452669
50
21.8260389
51
79.547316
0
ARC
8
DEFAULT_255_2_778
10
5.260583
20
104.8049323
40
2.2797285
50
79.6089824
51
90.0298467
0
ARC
8
DEFAULT_255_2_778
10
5.2716301
20
104.8380952
40
5.0123358
50
166.3116743
51
180.0392625
0
ARC
8
DEFAULT_255_2_778
10
5.2351104
20
104.8434542
40
4.9755863
50
145.3795793
51
166.2721162
0
ARC
8
DEFAULT_255_2_778
10
5.2688362
20
104.8247541
40
5.0139661
50
109.6243069
51
145.4226824
0
ARC
8
DEFAULT_255_2_778
10
5.2500229
20
104.8583672
40
4.975991
50
94.2930336
51
109.5502512
0
ARC
8
DEFAULT_255_2_778
10
5.2589199
20
104.7642979
40
5.0704627
50
89.9946267
51
94.3137155
0
ARC
8
DEFAULT_255_2_778
10
5.2471609
20
104.8380952
40
5.0123358
50
359.9607375
51
13.6883257
0
ARC
8
DEFAULT_255_2_778
10
5.2836805
20
104.8434542
40
4.9755863
50
13.7278838
51
34.6204207
0
ARC
8
DEFAULT_255_2_778
10
5.2499547
20
104.8247541
40
5.0139661
50
34.5773176
51
70.3756931
0
ARC
8
DEFAULT_255_2_778
10
5.268768
20
104.8583672
40
4.975991
50
70.4497488
51
85.7069664
0
ARC
8
DEFAULT_255_2_778
10
5.259871
20
104.7642979
40
5.0704627
50
85.6862845
51
90.0053733
0
LINE
8
DEFAULT_255_2_778
10
37.7993955
20
54.8347604
11
37.8994955
21
54.8347604
0
LINE
8
DEFAULT_255_2_778
10
47.8490955
20
72.7848604
11
37.8991955
21
72.7848604
0
LINE
8
DEFAULT_255_2_778
10
37.8991955
20
72.7848604
11
37.8991955
21
54.8350604
0
LINE
8
DEFAULT_255_2_778
10
47.8490955
20
36.8846604
11
37.8991955
21
36.8846604
0
LINE
8
DEFAULT_255_2_778
10
37.8991955
20
36.8846604
11
37.8991955
21
54.8344604
0
LINE
8
DEFAULT_255_2_778
10
14.8592955
20
59.2466604
11
10.5912955
21
59.2466604
0
LINE
8
DEFAULT_255_2_778
10
10.5912955
20
59.2466604
11
10.5912955
21
68.4226604
0
LINE
8
DEFAULT_255_2_778
10
10.5912955
20
68.4226604
11
14.8592955
21
68.4226604
0
LINE
8
DEFAULT_255_2_778
10
14.8592955
20
59.2466604
11
17.2772955
21
59.2466604
0
LINE
8
DEFAULT_255_2_778
10
17.2772955
20
59.2466604
11
19.1272955
21
61.0966604
0
LINE
8
DEFAULT_255_2_778
10
19.1272955
20
61.0966604
11
19.1272955
21
66.5727604
0
LINE
8
DEFAULT_255_2_778
10
19.1272955
20
66.5727604
11
17.2772955
21
68.4226604
0
LINE
8
DEFAULT_255_2_778
10
17.2772955
20
68.4226604
11
14.8592955
21
68.4226604
0
LINE
8
DEFAULT_255_2_778
10
14.8592955
20
57.8348604
11
9.1291955
21
57.8348604
0
LINE
8
DEFAULT_255_2_778
10
9.1291955
20
57.8348604
11
9.1291955
21
69.8347604
0
LINE
8
DEFAULT_255_2_778
10
9.1291955
20
69.8347604
11
14.8592955
21
69.8347604
0
LINE
8
DEFAULT_255_2_778
10
14.8592955
20
57.8348604
11
20.5893955
21
57.8348604
0
LINE
8
DEFAULT_255_2_778
10
20.5893955
20
57.8348604
11
20.5893955
21
69.8347604
0
LINE
8
DEFAULT_255_2_778
10
20.5893955
20
69.8347604
11
14.8592955
21
69.8347604
0
LINE
8
DEFAULT_255_2_778
10
10.2594955
20
99.8348604
11
10.2594955
21
104.8346604
0
ENDSEC
0
EOF