0
SECTION
2
HEADER
9
$MEASUREMENT
70
1
0
ENDSEC
0
SECTION
2
TABLES
0
TABLE
2
LTYPE
0
LTYPE
72
65
70
64
2
CONTINUOUS
3
______
73
0
40
0
0
ENDTAB
0
TABLE
2
LAYER
0
LAYER
2
DEFAULT_255_2_778
70
0
62
255
6
CONTINUOUS
0
ENDTAB
0
ENDSEC
0
SECTION
2
ENTITIES
0
LINE
8
DEFAULT_255_2_778
10
77.4303405
20
43.6342689
11
79.4303405
21
43.6342689
0
LINE
8
DEFAULT_255_2_778
10
79.4303405
20
43.6342689
11
79.4303405
21
14.5843689
0
LINE
8
DEFAULT_255_2_778
10
79.4303405
20
14.5843689
11
77.4303405
21
14.5843689
0
LINE
8
DEFAULT_255_2_778
10
77.4303405
20
14.5843689
11
77.4303405
21
43.6342689
0
LINE
8
DEFAULT_255_2_778
10
85.2302405
20
37.3345689
11
81.2302405
21
37.3345689
0
LINE
8
DEFAULT_255_2_778
10
81.2302405
20
37.3345689
11
81.2302405
21
72.8344689
0
LINE
8
DEFAULT_255_2_778
10
81.2302405
20
72.8344689
11
85.2302405
21
72.8344689
0
LINE
8
DEFAULT_255_2_778
10
18.8301405
20
36.1843689
11
18.8301405
21
31.3842689
0
LINE
8
DEFAULT_255_2_778
10
18.8301405
20
31.3842689
11
16.5301405
21
31.3842689
0
LINE
8
DEFAULT_255_2_778
10
16.5301405
20
31.3842689
11
16.5301405
21
36.1843689
0
LINE
8
DEFAULT_255_2_778
10
16.5301405
20
36.1843689
11
18.8301405
21
36.1843689
0
LINE
8
DEFAULT_255_2_778
10
41.4303405
20
38.3343689
11
43.4303405
21
38.3343689
0
LINE
8
DEFAULT_255_2_778
10
43.4303405
20
38.3343689
11
43.4303405
21
14.5843689
0
LINE
8
DEFAULT_255_2_778
10
43.4303405
20
14.5843689
11
41.4303405
21
14.5843689
0
LINE
8
DEFAULT_255_2_778
10
41.4303405
20
14.5843689
11
41.4303405
21
38.3343689
0
LINE
8
DEFAULT_255_2_778
10
35.2303405
20
10.3343689
11
34.7303405
21
10.3343689
0
LINE
8
DEFAULT_255_2_778
10
81.2302405
20
38.1343323
11
83.0302405
21
38.1343323
0
LINE
8
DEFAULT_255_2_778
10
83.0302405
20
38.1343323
11
83.0302405
21
37.3342323
0
LINE
8
DEFAULT_255_2_778
10
18.8301405
20
73.4843323
11
18.8301405
21
78.2843323
0
LINE
8
DEFAULT_255_2_778
10
18.8301405
20
78.2843323
11
16.5301405
21
78.2843323
0
LINE
8
DEFAULT_255_2_778
10
16.5301405
20
78.2843323
11
16.5301405
21
73.4843323
0
LINE
8
DEFAULT_255_2_778
10
16.5301405
20
73.4843323
11
18.8301405
21
73.4843323
0
LINE
8
DEFAULT_255_2_778
10
83.2302405
20
72.8342323
11
83.2302405
21
70.3341323
0
LINE
8
DEFAULT_255_2_778
10
83.2302405
20
70.3341323
11
85.2302405
21
70.3341323
0
LINE
8
DEFAULT_255_2_778
10
85.2302405
20
70.3341323
11
85.2302405
21
109.8343323
0
LINE
8
DEFAULT_255_2_778
10
85.2302405
20
109.8343323
11
77.2303405
21
109.8343323
0
LINE
8
DEFAULT_255_2_778
10
77.2303405
20
109.8343323
11
77.2303405
21
99.8344323
0
LINE
8
DEFAULT_255_2_778
10
79.1303405
20
47.7665323
11
79.1303405
21
61.9024323
0
LINE
8
DEFAULT_255_2_778
10
79.1303405
20
61.9024323
11
44.9633405
21
61.9024323
0
LINE
8
DEFAULT_255_2_778
10
44.9633405
20
61.9024323
11
44.9633405
21
47.7665323
0
LINE
8
DEFAULT_255_2_778
10
44.9633405
20
47.7665323
11
79.1303405
21
47.7665323
0
LINE
8
DEFAULT_255_2_778
10
43.4303405
20
95.0843323
11
41.4303405
21
95.0843323
0
LINE
8
DEFAULT_255_2_778
10
41.4303405
20
95.0843323
11
41.4303405
21
71.3343323
0
LINE
8
DEFAULT_255_2_778
10
41.4303405
20
71.3343323
11
43.4303405
21
71.3343323
0
LINE
8
DEFAULT_255_2_778
10
43.4303405
20
71.3343323
11
43.4303405
21
95.0843323
0
LINE
8
DEFAULT_255_2_778
10
37.1634405
20
62.8342323
11
33.6963405
21
62.8342323
0
LINE
8
DEFAULT_255_2_778
10
33.6963405
20
62.8342323
11
33.6963405
21
46.8344323
0
LINE
8
DEFAULT_255_2_778
10
33.6963405
20
46.8344323
11
37.1634405
21
46.8344323
0
LINE
8
DEFAULT_255_2_778
10
37.1634405
20
46.8344323
11
37.1634405
21
62.8342323
0
LINE
8
DEFAULT_255_2_778
10
34.7303405
20
99.3343323
11
35.2303405
21
99.3343323
0
LINE
8
DEFAULT_255_2_778
10
79.4303405
20
95.0843323
11
77.4303405
21
95.0843323
0
LINE
8
DEFAULT_255_2_778
10
77.4303405
20
95.0843323
11
77.4303405
21
66.0344323
0
LINE
8
DEFAULT_255_2_778
10
77.4303405
20
66.0344323
11
79.4303405
21
66.0344323
0
LINE
8
DEFAULT_255_2_778
10
79.4303405
20
66.0344323
11
79.4303405
21
95.0843323
0
ARC
8
DEFAULT_255_2_778
10
80.3416149
20
67.8442568
40
1.5029104
50
6.5392294
51
14.9957494
0
ARC
8
DEFAULT_255_2_778
10
80.3480195
20
67.8451158
40
1.4964495
50
0.0000375
51
6.5344783
0
ARC
8
DEFAULT_255_2_778
10
80.3442361
20
67.8451874
40
1.5002329
50
306.2117746
51
359.9973052
0
ARC
8
DEFAULT_255_2_778
10
81.1145108
20
66.7929602
40
0.1961987
50
306.148206
51
306.2521336
0
LINE
8
DEFAULT_255_2_778
10
81.2302438
20
70.3344309
11
81.7933438
21
68.2331309
0
LINE
8
DEFAULT_255_2_778
10
85.2300438
20
99.8344309
11
79.4300438
21
99.8344309
0
LINE
8
DEFAULT_255_2_778
10
79.4300438
20
99.8344309
11
79.4300438
21
99.3343309
0
LINE
8
DEFAULT_255_2_778
10
79.4300438
20
99.3343309
11
77.4300438
21
99.3343309
0
LINE
8
DEFAULT_255_2_778
10
77.4300438
20
99.3343309
11
77.4300438
21
99.8344309
0
LINE
8
DEFAULT_255_2_778
10
77.4300438
20
99.8344309
11
75.4300438
21
99.8344309
0
LINE
8
DEFAULT_255_2_778
10
75.4300438
20
99.8344309
11
75.4300438
21
99.3343309
0
LINE
8
DEFAULT_255_2_778
10
75.4300438
20
99.3343309
11
73.4301438
21
99.3343309
0
LINE
8
DEFAULT_255_2_778
10
73.4301438
20
99.3343309
11
73.4301438
21
99.8344309
0
LINE
8
DEFAULT_255_2_778
10
47.4303438
20
9.8345309
11
47.4303438
21
10.3346309
0
LINE
8
DEFAULT_255_2_778
10
47.4303438
20
10.3346309
11
45.4303438
21
10.3346309
0
LINE
8
DEFAULT_255_2_778
10
45.4303438
20
10.3346309
11
45.4303438
21
9.8345309
0
LINE
8
DEFAULT_255_2_778
10
45.4303438
20
9.8345309
11
43.4303438
21
9.8345309
0
LINE
8
DEFAULT_255_2_778
10
43.4303438
20
9.8345309
11
43.4303438
21
10.3346309
0
LINE
8
DEFAULT_255_2_778
10
43.4303438
20
10.3346309
11
41.4303438
21
10.3346309
0
LINE
8
DEFAULT_255_2_778
10
41.4303438
20
10.3346309
11
41.4303438
21
9.8345309
0
LINE
8
DEFAULT_255_2_778
10
41.4303438
20
9.8345309
11
35.2303438
21
9.8345309
0
LINE
8
DEFAULT_255_2_778
10
35.2303438
20
9.8345309
11
35.2303438
21
37.8343309
0
LINE
8
DEFAULT_255_2_778
10
35.2303438
20
37.8343309
11
42.0304438
21
44.5344309
0
LINE
8
DEFAULT_255_2_778
10
42.0304438
20
44.5344309
11
42.0304438
21
65.1343309
0
LINE
8
DEFAULT_255_2_778
10
42.0304438
20
65.1343309
11
35.2303438
21
71.8343309
0
LINE
8
DEFAULT_255_2_778
10
35.2303438
20
71.8343309
11
35.2303438
21
99.8344309
0
LINE
8
DEFAULT_255_2_778
10
35.2303438
20
99.8344309
11
41.4303438
21
99.8344309
0
LINE
8
DEFAULT_255_2_778
10
41.4303438
20
99.8344309
11
41.4303438
21
99.3343309
0
LINE
8
DEFAULT_255_2_778
10
41.4303438
20
99.3343309
11
43.4303438
21
99.3343309
0
LINE
8
DEFAULT_255_2_778
10
43.4303438
20
99.3343309
11
43.4303438
21
99.8344309
0
LINE
8
DEFAULT_255_2_778
10
43.4303438
20
99.8344309
11
45.4303438
21
99.8344309
0
LINE
8
DEFAULT_255_2_778
10
45.4303438
20
99.8344309
11
45.4303438
21
99.3343309
0
LINE
8
DEFAULT_255_2_778
10
45.4303438
20
99.3343309
11
47.4303438
21
99.3343309
0
LINE
8
DEFAULT_255_2_778
10
47.4303438
20
99.3343309
11
47.4303438
21
99.8344309
0
LINE
8
DEFAULT_255_2_778
10
82.2301438
20
38.1344309
11
82.4301438
21
40.3344309
0
LINE
8
DEFAULT_255_2_778
10
82.4301438
20
40.3344309
11
83.4303438
21
40.3344309
0
LINE
8
DEFAULT_255_2_778
10
83.4303438
20
40.3344309
11
85.2302438
21
37.3343309
0
LINE
8
DEFAULT_255_2_778
10
85.2302438
20
37.3343309
11
85.2302438
21
-0.1656691
0
LINE
8
DEFAULT_255_2_778
10
85.2302438
20
-0.1656691
11
77.2303438
21
-0.1656691
0
LINE
8
DEFAULT_255_2_778
10
77.2303438
20
-0.1656691
11
77.2303438
21
9.8343309
0
LINE
8
DEFAULT_255_2_778
10
77.2303438
20
9.8343309
11
75.4303438
21
9.8343309
0
LINE
8
DEFAULT_255_2_778
10
75.4303438
20
9.8343309
11
75.4303438
21
10.3343309
0
LINE
8
DEFAULT_255_2_778
10
75.4303438
20
10.3343309
11
73.4303438
21
10.3343309
0
LINE
8
DEFAULT_255_2_778
10
73.4303438
20
10.3343309
11
73.4303438
21
9.8343309
0
LINE
8
DEFAULT_255_2_778
10
73.4303438
20
9.8343309
11
71.4303438
21
9.8343309
0
LINE
8
DEFAULT_255_2_778
10
71.4303438
20
9.8343309
11
71.4303438
21
10.3343309
0
LINE
8
DEFAULT_255_2_778
10
71.4303438
20
10.3343309
11
69.4304438
21
10.3343309
0
LINE
8
DEFAULT_255_2_778
10
69.4304438
20
10.3343309
11
69.4304438
21
9.8343309
0
LINE
8
DEFAULT_255_2_778
10
10.2301438
20
39.6343309
11
24.2300438
21
39.6343309
0
LINE
8
DEFAULT_255_2_778
10
24.230002
20
70.0344675
11
10.230102
21
70.0344675
0
LINE
8
DEFAULT_255_2_778
10
51.430202
20
66.0344675
11
77.430302
21
66.0344675
0
LINE
8
DEFAULT_255_2_778
10
77.430302
20
95.0843675
11
51.430202
21
95.0843675
0
LINE
8
DEFAULT_255_2_778
10
77.430302
20
43.6343675
11
51.430202
21
43.6343675
0
LINE
8
DEFAULT_255_2_778
10
51.430202
20
14.5843675
11
77.430302
21
14.5843675
0
LINE
8
DEFAULT_255_2_778
10
73.430302
20
99.8344675
11
47.430302
21
99.8344675
0
LINE
8
DEFAULT_255_2_778
10
69.430402
20
9.8343675
11
47.430302
21
9.8343675
0
LINE
8
DEFAULT_255_2_778
10
6.2302073
20
70.0344475
11
4.2302073
21
70.0344475
0
LINE
8
DEFAULT_255_2_778
10
4.2302073
20
70.0344475
11
4.2302073
21
39.6343475
0
LINE
8
DEFAULT_255_2_778
10
4.2302073
20
39.6343475
11
6.2302073
21
39.6343475
0
LINE
8
DEFAULT_255_2_778
10
6.2302073
20
39.6343475
11
6.2302073
21
70.0344475
0
LINE
8
DEFAULT_255_2_778
10
10.2301073
20
70.0344475
11
8.2301073
21
70.0344475
0
LINE
8
DEFAULT_255_2_778
10
8.2301073
20
70.0344475
11
8.2301073
21
39.6343475
0
LINE
8
DEFAULT_255_2_778
10
8.2301073
20
39.6343475
11
10.2301073
21
39.6343475
0
LINE
8
DEFAULT_255_2_778
10
10.2301073
20
39.6343475
11
10.2301073
21
70.0344475
0
LINE
8
DEFAULT_255_2_778
10
41.5301329
20
64.9250352
11
34.7300329
21
71.6251352
0
LINE
8
DEFAULT_255_2_778
10
34.7300329
20
71.6251352
11
34.7300329
21
99.8344352
0
LINE
8
DEFAULT_255_2_778
10
34.7300329
20
99.8344352
11
0.2302329
21
99.8344352
0
LINE
8
DEFAULT_255_2_778
10
0.2302329
20
99.8344352
11
0.2302329
21
9.8345352
0
LINE
8
DEFAULT_255_2_778
10
0.2302329
20
9.8345352
11
34.7303329
21
9.8345352
0
LINE
8
DEFAULT_255_2_778
10
34.7303329
20
9.8345352
11
34.7303329
21
38.0436352
0
LINE
8
DEFAULT_255_2_778
10
34.7303329
20
38.0436352
11
41.5303329
21
44.7437352
0
LINE
8
DEFAULT_255_2_778
10
41.5303329
20
44.7437352
11
41.5303329
21
64.9250352
0
LINE
8
DEFAULT_255_2_778
10
26.2303073
20
70.0344475
11
24.2303073
21
70.0344475
0
LINE
8
DEFAULT_255_2_778
10
24.2303073
20
70.0344475
11
24.2303073
21
39.6343475
0
LINE
8
DEFAULT_255_2_778
10
24.2303073
20
39.6343475
11
26.2303073
21
39.6343475
0
LINE
8
DEFAULT_255_2_778
10
26.2303073
20
39.6343475
11
26.2303073
21
70.0344475
0
LINE
8
DEFAULT_255_2_778
10
47.4303352
20
95.084403
11
45.4303352
21
95.084403
0
LINE
8
DEFAULT_255_2_778
10
45.4303352
20
95.084403
11
45.4303352
21
66.034503
0
LINE
8
DEFAULT_255_2_778
10
45.4303352
20
66.034503
11
47.4303352
21
66.034503
0
LINE
8
DEFAULT_255_2_778
10
47.4303352
20
66.034503
11
47.4303352
21
95.084403
0
LINE
8
DEFAULT_255_2_778
10
51.4302352
20
95.084403
11
49.4303352
21
95.084403
0
LINE
8
DEFAULT_255_2_778
10
49.4303352
20
95.084403
11
49.4303352
21
66.034503
0
LINE
8
DEFAULT_255_2_778
10
49.4303352
20
66.034503
11
51.4302352
21
66.034503
0
LINE
8
DEFAULT_255_2_778
10
51.4302352
20
66.034503
11
51.4302352
21
95.084403
0
LINE
8
DEFAULT_255_2_778
10
51.4302352
20
43.634303
11
49.4303352
21
43.634303
0
LINE
8
DEFAULT_255_2_778
10
49.4303352
20
43.634303
11
49.4303352
21
14.584403
0
LINE
8
DEFAULT_255_2_778
10
49.4303352
20
14.584403
11
51.4302352
21
14.584403
0
LINE
8
DEFAULT_255_2_778
10
51.4302352
20
14.584403
11
51.4302352
21
43.634303
0
LINE
8
DEFAULT_255_2_778
10
45.4303352
20
43.634303
11
47.4303352
21
43.634303
0
LINE
8
DEFAULT_255_2_778
10
47.4303352
20
43.634303
11
47.4303352
21
14.584403
0
LINE
8
DEFAULT_255_2_778
10
47.4303352
20
14.584403
11
45.4303352
21
14.584403
0
LINE
8
DEFAULT_255_2_778
10
45.4303352
20
14.584403
11
45.4303352
21
43.634303
0
ENDSEC
0
EOF