0
SECTION
2
HEADER
9
$MEASUREMENT
70
1
0
ENDSEC
0
SECTION
2
TABLES
0
TABLE
2
LTYPE
0
LTYPE
72
65
70
64
2
CONTINUOUS
3
______
73
0
40
0
0
ENDTAB
0
TABLE
2
LAYER
0
LAYER
2
DEFAULT_255_2_778
70
0
62
255
6
CONTINUOUS
0
ENDTAB
0
ENDSEC
0
SECTION
2
ENTITIES
0
LINE
8
DEFAULT_255_2_778
10
2.6051073
20
39.1256464
11
2.6051073
21
65.2257464
0
LINE
8
DEFAULT_255_2_778
10
2.6051073
20
65.2257464
11
0.6051073
21
65.2257464
0
LINE
8
DEFAULT_255_2_778
10
0.6051073
20
65.2257464
11
0.6051073
21
71.6257464
0
LINE
8
DEFAULT_255_2_778
10
0.9790024
20
39.1256277
11
22.7050024
21
39.1256277
0
LINE
8
DEFAULT_255_2_778
10
22.7050024
20
39.1256277
11
22.7050024
21
71.3257277
0
LINE
8
DEFAULT_255_2_778
10
22.7050024
20
71.3257277
11
0.9790024
21
71.3257277
0
LINE
8
DEFAULT_255_2_778
10
0.2050598
20
38.9525808
11
23.8479598
21
38.9525808
0
LINE
8
DEFAULT_255_2_778
10
23.8479598
20
38.9525808
11
23.8479598
21
71.6257808
0
LINE
8
DEFAULT_255_2_778
10
23.8479598
20
71.6257808
11
0.2050598
21
71.6257808
0
LINE
8
DEFAULT_255_2_778
10
24.4210598
20
74.0347808
11
24.4210598
21
38.9848808
0
LINE
8
DEFAULT_255_2_778
10
24.4210598
20
38.9848808
11
33.6211598
21
38.9848808
0
LINE
8
DEFAULT_255_2_778
10
33.6211598
20
38.9848808
11
33.6211598
21
74.0347808
0
LINE
8
DEFAULT_255_2_778
10
2.6051384
20
45.2258974
11
0.6051384
21
45.2258974
0
LINE
8
DEFAULT_255_2_778
10
0.6051384
20
45.2258974
11
0.6051384
21
38.9528974
0
LINE
8
DEFAULT_255_2_778
10
61.3550384
20
10.6344974
11
61.3550384
21
28.5346974
0
LINE
8
DEFAULT_255_2_778
10
61.3550384
20
28.5346974
11
24.9550384
21
28.5346974
0
LINE
8
DEFAULT_255_2_778
10
24.9550384
20
28.5346974
11
24.9550384
21
10.6344974
0
LINE
8
DEFAULT_255_2_778
10
63.5050384
20
29.7847974
11
22.7050384
21
29.7847974
0
LINE
8
DEFAULT_255_2_778
10
63.5050384
20
9.8346974
11
63.5050384
21
35.9347974
0
LINE
8
DEFAULT_255_2_778
10
63.5050384
20
35.9347974
11
22.7050384
21
35.9347974
0
LINE
8
DEFAULT_255_2_778
10
22.7050384
20
35.9347974
11
22.7050384
21
9.8346974
0
ARC
8
DEFAULT_255_2_778
10
5.2174116
20
104.8381657
40
5.0123358
50
166.3116743
51
180.0392625
0
ARC
8
DEFAULT_255_2_778
10
5.1808919
20
104.8435247
40
4.9755863
50
145.3795793
51
166.2721162
0
ARC
8
DEFAULT_255_2_778
10
5.2146178
20
104.8248245
40
5.0139661
50
109.6243069
51
145.4226824
0
ARC
8
DEFAULT_255_2_778
10
5.1958044
20
104.8584377
40
4.975991
50
94.2930336
51
109.5502512
0
ARC
8
DEFAULT_255_2_778
10
5.2047014
20
104.7643684
40
5.0704627
50
89.9946267
51
94.3137155
0
ARC
8
DEFAULT_255_2_778
10
5.2086117
20
104.8224963
40
5.0123358
50
76.3116743
51
90.0392625
0
ARC
8
DEFAULT_255_2_778
10
5.2139707
20
104.859016
40
4.9755863
50
55.3795793
51
76.2721162
0
ARC
8
DEFAULT_255_2_778
10
5.1952706
20
104.8252901
40
5.0139661
50
19.6243069
51
55.4226824
0
ARC
8
DEFAULT_255_2_778
10
5.2288837
20
104.8441034
40
4.975991
50
4.2930336
51
19.5502512
0
ARC
8
DEFAULT_255_2_778
10
5.1348144
20
104.8352064
40
5.0704627
50
359.9946267
51
4.3137155
0
LINE
8
DEFAULT_255_2_778
10
66.205077
20
9.8347309
11
0.205077
21
9.8347309
0
LINE
8
DEFAULT_255_2_778
10
0.205077
20
9.8347309
11
0.205077
21
104.8347309
0
LINE
8
DEFAULT_255_2_778
10
10.205277
20
104.8347309
11
10.205277
21
99.8346309
0
LINE
8
DEFAULT_255_2_778
10
9.3051144
20
36.7328288
11
4.3050144
21
36.7328288
0
LINE
8
DEFAULT_255_2_778
10
22.7049144
20
29.6848288
11
24.7150144
21
29.6848288
0
LINE
8
DEFAULT_255_2_778
10
24.7150144
20
29.6848288
11
24.7150144
21
16.7348288
0
LINE
8
DEFAULT_255_2_778
10
12.0983144
20
11.8347288
11
12.4568144
21
11.9347288
0
LINE
8
DEFAULT_255_2_778
10
22.9549144
20
16.7348288
11
22.9549144
21
10.6348288
0
LINE
8
DEFAULT_255_2_778
10
22.9549144
20
10.6348288
11
63.3550144
21
10.6348288
0
LINE
8
DEFAULT_255_2_778
10
63.3550144
20
10.6348288
11
63.3550144
21
16.7348288
0
LINE
8
DEFAULT_255_2_778
10
24.7049144
20
10.6348288
11
24.7049144
21
9.9347288
0
LINE
8
DEFAULT_255_2_778
10
24.9549452
20
16.7348466
11
22.7049452
21
16.7348466
0
LINE
8
DEFAULT_255_2_778
10
14.2049452
20
39.1257466
11
14.2049452
21
39.0527466
0
LINE
8
DEFAULT_255_2_778
10
14.2049452
20
39.0527466
11
20.6049452
21
39.0527466
0
LINE
8
DEFAULT_255_2_778
10
20.6049452
20
39.0527466
11
20.6049452
21
39.1257466
0
LINE
8
DEFAULT_255_2_778
10
21.2481452
20
38.9527466
11
21.2481452
21
39.1257466
0
LINE
8
DEFAULT_255_2_778
10
37.6049452
20
33.4348466
11
41.0048452
21
33.4348466
0
LINE
8
DEFAULT_255_2_778
10
41.0048452
20
33.4348466
11
41.0048452
21
35.1347466
0
LINE
8
DEFAULT_255_2_778
10
41.0048452
20
35.1347466
11
37.6049452
21
35.1347466
0
LINE
8
DEFAULT_255_2_778
10
37.6049452
20
35.1347466
11
37.6049452
21
33.4348466
0
LINE
8
DEFAULT_255_2_778
10
48.6050521
20
33.4348739
11
48.6050521
21
35.1347739
0
LINE
8
DEFAULT_255_2_778
10
48.6050521
20
35.1347739
11
45.2051521
21
35.1347739
0
LINE
8
DEFAULT_255_2_778
10
45.2051521
20
35.1347739
11
45.2051521
21
33.4348739
0
LINE
8
DEFAULT_255_2_778
10
45.2051521
20
33.4348739
11
48.6050521
21
33.4348739
0
LINE
8
DEFAULT_255_2_778
10
61.5050641
20
16.7348435
11
61.5050641
21
29.6848435
0
LINE
8
DEFAULT_255_2_778
10
61.5050641
20
29.6848435
11
63.5050641
21
29.6848435
0
LINE
8
DEFAULT_255_2_778
10
63.5050641
20
9.9347435
11
22.7049641
21
9.9347435
0
LINE
8
DEFAULT_255_2_778
10
63.5049979
20
16.734828
11
61.3549979
21
16.734828
0
LINE
8
DEFAULT_255_2_778
10
61.5049979
20
9.934728
11
61.5049979
21
10.634828
0
LINE
8
DEFAULT_255_2_778
10
60.0048521
20
30.5349739
11
60.0048521
21
32.2348739
0
LINE
8
DEFAULT_255_2_778
10
60.0048521
20
32.2348739
11
56.6049521
21
32.2348739
0
LINE
8
DEFAULT_255_2_778
10
56.6049521
20
32.2348739
11
56.6049521
21
30.5349739
0
LINE
8
DEFAULT_255_2_778
10
56.6049521
20
30.5349739
11
60.0048521
21
30.5349739
0
LINE
8
DEFAULT_255_2_778
10
52.8050238
20
33.4348199
11
56.2049238
21
33.4348199
0
LINE
8
DEFAULT_255_2_778
10
56.2049238
20
33.4348199
11
56.2049238
21
35.1347199
0
LINE
8
DEFAULT_255_2_778
10
56.2049238
20
35.1347199
11
52.8050238
21
35.1347199
0
LINE
8
DEFAULT_255_2_778
10
52.8050238
20
35.1347199
11
52.8050238
21
33.4348199
0
LINE
8
DEFAULT_255_2_778
10
14.5049238
20
99.3848199
11
14.5049238
21
81.4847199
0
LINE
8
DEFAULT_255_2_778
10
14.5049238
20
81.4847199
11
58.5049238
21
81.4847199
0
LINE
8
DEFAULT_255_2_778
10
58.5049238
20
81.4847199
11
58.5049238
21
99.3848199
0
LINE
8
DEFAULT_255_2_778
10
24.4210238
20
73.6348199
11
33.6211238
21
73.6348199
0
LINE
8
DEFAULT_255_2_778
10
12.2991238
20
80.2348199
11
60.7052238
21
80.2348199
0
LINE
8
DEFAULT_255_2_778
10
30.3051238
20
72.8347199
11
28.1050238
21
72.8347199
0
LINE
8
DEFAULT_255_2_778
10
28.1050238
20
72.8347199
11
28.1050238
21
71.0347199
0
LINE
8
DEFAULT_255_2_778
10
28.1050238
20
71.0347199
11
30.3051238
21
71.0347199
0
LINE
8
DEFAULT_255_2_778
10
30.3051238
20
71.0347199
11
30.3051238
21
72.8347199
0
LINE
8
DEFAULT_255_2_778
10
2.6050238
20
65.2258199
11
2.6050238
21
71.3257199
0
LINE
8
DEFAULT_255_2_778
10
2.2050238
20
71.3257199
11
2.2050238
21
71.6258199
0
LINE
8
DEFAULT_255_2_778
10
8.4280238
20
71.6258199
11
8.4280238
21
71.3257199
0
LINE
8
DEFAULT_255_2_778
10
30.3051238
20
56.9348199
11
28.1050238
21
56.9348199
0
LINE
8
DEFAULT_255_2_778
10
28.1050238
20
56.9348199
11
28.1050238
21
55.1348199
0
LINE
8
DEFAULT_255_2_778
10
28.1050238
20
55.1348199
11
30.3051238
21
55.1348199
0
LINE
8
DEFAULT_255_2_778
10
30.3051238
20
55.1348199
11
30.3051238
21
56.9348199
0
LINE
8
DEFAULT_255_2_778
10
28.1050238
20
46.3348199
11
28.1050238
21
44.5348199
0
LINE
8
DEFAULT_255_2_778
10
28.1050238
20
44.5348199
11
30.3051238
21
44.5348199
0
LINE
8
DEFAULT_255_2_778
10
30.3051238
20
44.5348199
11
30.3051238
21
46.3348199
0
LINE
8
DEFAULT_255_2_778
10
30.3051238
20
46.3348199
11
28.1050238
21
46.3348199
0
LINE
8
DEFAULT_255_2_778
10
28.1050238
20
49.8347199
11
30.3051238
21
49.8347199
0
LINE
8
DEFAULT_255_2_778
10
30.3051238
20
49.8347199
11
30.3051238
21
51.6347199
0
LINE
8
DEFAULT_255_2_778
10
30.3051238
20
51.6347199
11
28.1050238
21
51.6347199
0
LINE
8
DEFAULT_255_2_778
10
28.1050238
20
51.6347199
11
28.1050238
21
49.8347199
0
LINE
8
DEFAULT_255_2_778
10
30.3051238
20
60.4347199
11
30.3051238
21
62.2347199
0
LINE
8
DEFAULT_255_2_778
10
30.3051238
20
62.2347199
11
28.1050238
21
62.2347199
0
LINE
8
DEFAULT_255_2_778
10
28.1050238
20
62.2347199
11
28.1050238
21
60.4347199
0
LINE
8
DEFAULT_255_2_778
10
28.1050238
20
60.4347199
11
30.3051238
21
60.4347199
0
LINE
8
DEFAULT_255_2_778
10
21.2481238
20
71.3257199
11
21.2481238
21
71.6258199
0
LINE
8
DEFAULT_255_2_778
10
28.1050238
20
65.7348199
11
30.3051238
21
65.7348199
0
LINE
8
DEFAULT_255_2_778
10
30.3051238
20
65.7348199
11
30.3051238
21
67.5348199
0
LINE
8
DEFAULT_255_2_778
10
30.3051238
20
67.5348199
11
28.1050238
21
67.5348199
0
LINE
8
DEFAULT_255_2_778
10
28.1050238
20
67.5348199
11
28.1050238
21
65.7348199
0
LINE
8
DEFAULT_255_2_778
10
0.2050238
20
75.2389199
11
2.4050238
21
75.2389199
0
LINE
8
DEFAULT_255_2_778
10
2.4050554
20
90.3987154
11
0.2050554
21
90.3987154
0
LINE
8
DEFAULT_255_2_778
10
14.2991554
20
93.2848154
11
14.2991554
21
80.3348154
0
LINE
8
DEFAULT_255_2_778
10
14.2991554
20
80.3348154
11
12.2991554
21
80.3348154
0
LINE
8
DEFAULT_255_2_778
10
60.7051757
20
99.8349246
11
60.7051757
21
74.0349246
0
LINE
8
DEFAULT_255_2_778
10
60.7051757
20
74.0349246
11
12.2991757
21
74.0349246
0
LINE
8
DEFAULT_255_2_778
10
12.2991757
20
74.0349246
11
12.2991757
21
99.8349246
0
LINE
8
DEFAULT_255_2_778
10
14.5049205
20
93.2847937
11
12.5049205
21
93.2847937
0
LINE
8
DEFAULT_255_2_778
10
12.5049205
20
93.2847937
11
12.5049205
21
99.3847937
0
LINE
8
DEFAULT_255_2_778
10
12.5049205
20
99.3847937
11
60.5049205
21
99.3847937
0
LINE
8
DEFAULT_255_2_778
10
60.5049205
20
99.3847937
11
60.5049205
21
93.2847937
0
LINE
8
DEFAULT_255_2_778
10
60.5049205
20
93.2847937
11
58.5049205
21
93.2847937
0
LINE
8
DEFAULT_255_2_778
10
14.2991205
20
93.1347937
11
12.2991205
21
93.1347937
0
LINE
8
DEFAULT_255_2_778
10
53.4069521
20
74.5349739
11
53.4069521
21
76.2348739
0
LINE
8
DEFAULT_255_2_778
10
53.4069521
20
76.2348739
11
50.0070521
21
76.2348739
0
LINE
8
DEFAULT_255_2_778
10
50.0070521
20
76.2348739
11
50.0070521
21
74.5349739
0
LINE
8
DEFAULT_255_2_778
10
50.0070521
20
74.5349739
11
53.4069521
21
74.5349739
0
LINE
8
DEFAULT_255_2_778
10
42.0068521
20
77.4350739
11
42.0068521
21
79.1349739
0
LINE
8
DEFAULT_255_2_778
10
42.0068521
20
79.1349739
11
38.6069521
21
79.1349739
0
LINE
8
DEFAULT_255_2_778
10
38.6069521
20
79.1349739
11
38.6069521
21
77.4350739
0
LINE
8
DEFAULT_255_2_778
10
38.6069521
20
77.4350739
11
42.0068521
21
77.4350739
0
LINE
8
DEFAULT_255_2_778
10
38.2068521
20
74.5349739
11
38.2068521
21
76.2348739
0
LINE
8
DEFAULT_255_2_778
10
38.2068521
20
76.2348739
11
34.8069521
21
76.2348739
0
LINE
8
DEFAULT_255_2_778
10
34.8069521
20
76.2348739
11
34.8069521
21
74.5349739
0
LINE
8
DEFAULT_255_2_778
10
34.8069521
20
74.5349739
11
38.2068521
21
74.5349739
0
LINE
8
DEFAULT_255_2_778
10
49.6069521
20
77.4350739
11
49.6069521
21
79.1349739
0
LINE
8
DEFAULT_255_2_778
10
49.6069521
20
79.1349739
11
46.2070521
21
79.1349739
0
LINE
8
DEFAULT_255_2_778
10
46.2070521
20
79.1349739
11
46.2070521
21
77.4350739
0
LINE
8
DEFAULT_255_2_778
10
46.2070521
20
77.4350739
11
49.6069521
21
77.4350739
0
LINE
8
DEFAULT_255_2_778
10
45.8070521
20
74.5349739
11
45.8070521
21
76.2348739
0
LINE
8
DEFAULT_255_2_778
10
45.8070521
20
76.2348739
11
42.4071521
21
76.2348739
0
LINE
8
DEFAULT_255_2_778
10
42.4071521
20
76.2348739
11
42.4071521
21
74.5349739
0
LINE
8
DEFAULT_255_2_778
10
42.4071521
20
74.5349739
11
45.8070521
21
74.5349739
0
LINE
8
DEFAULT_255_2_778
10
53.8070241
20
79.1349321
11
53.8070241
21
77.4349321
0
LINE
8
DEFAULT_255_2_778
10
53.8070241
20
77.4349321
11
57.2069241
21
77.4349321
0
LINE
8
DEFAULT_255_2_778
10
57.2069241
20
77.4349321
11
57.2069241
21
79.1349321
0
LINE
8
DEFAULT_255_2_778
10
57.2069241
20
79.1349321
11
53.8070241
21
79.1349321
0
LINE
8
DEFAULT_255_2_778
10
60.7050241
20
80.3348321
11
58.7050241
21
80.3348321
0
LINE
8
DEFAULT_255_2_778
10
58.7050241
20
80.3348321
11
58.7050241
21
93.2848321
0
LINE
8
DEFAULT_255_2_778
10
60.7049488
20
93.1348686
11
58.7050488
21
93.1348686
0
LINE
8
DEFAULT_255_2_778
10
58.7050488
20
99.3848686
11
58.7050488
21
99.7348686
0
LINE
8
DEFAULT_255_2_778
10
60.7052488
20
99.7348686
11
12.2992488
21
99.7348686
0
LINE
8
DEFAULT_255_2_778
10
19.0730488
20
61.0966686
11
19.0730488
21
61.0966686
0
LINE
8
DEFAULT_255_2_778
10
0.6051488
20
11.9347686
11
0.6070488
21
11.8347686
0
LINE
8
DEFAULT_255_2_778
10
2.2034488
20
11.8347686
11
2.2053488
21
11.9347686
0
LINE
8
DEFAULT_255_2_778
10
2.3050488
20
11.9347686
11
2.3050488
21
11.8347686
0
LINE
8
DEFAULT_255_2_778
10
0.8533488
20
25.3348686
11
1.5793488
21
25.3348686
0
LINE
8
DEFAULT_255_2_778
10
0.8533488
20
22.3347686
11
1.5793488
21
22.3347686
0
LINE
8
DEFAULT_255_2_778
10
1.1485198
20
25.334832
11
1.1485198
21
22.334732
0
LINE
8
DEFAULT_255_2_778
10
1.0300198
20
22.334732
11
1.0300198
21
25.334832
0
LINE
8
DEFAULT_255_2_778
10
0.8051198
20
29.635432
11
0.8051198
21
18.034232
0
LINE
8
DEFAULT_255_2_778
10
2.6051198
20
35.734832
11
2.6051198
21
11.934732
0
LINE
8
DEFAULT_255_2_778
10
1.9246198
20
18.031332
11
1.9246198
21
29.638332
0
LINE
8
DEFAULT_255_2_778
10
2.5806846
20
18.029632
11
0.6050846
21
18.034932
0
LINE
8
DEFAULT_255_2_778
10
0.6050846
20
18.034932
11
0.6050846
21
11.934932
0
LINE
8
DEFAULT_255_2_778
10
0.6050846
20
11.934932
11
19.9050846
21
11.934932
0
LINE
8
DEFAULT_255_2_778
10
19.9050846
20
11.934932
11
19.9050846
21
35.735032
0
LINE
8
DEFAULT_255_2_778
10
19.9050846
20
35.735032
11
0.6050846
21
35.735032
0
LINE
8
DEFAULT_255_2_778
10
0.6050846
20
35.735032
11
0.6050846
21
29.635032
0
LINE
8
DEFAULT_255_2_778
10
0.6050846
20
29.635032
11
2.6050846
21
29.664732
0
LINE
8
DEFAULT_255_2_778
10
2.6050846
20
29.664732
11
2.5806846
21
29.640332
0
LINE
8
DEFAULT_255_2_778
10
2.5806846
20
29.640332
11
2.5806846
21
18.029932
0
LINE
8
DEFAULT_255_2_778
10
2.5806846
20
18.029932
11
2.6050846
21
18.005532
0
LINE
8
DEFAULT_255_2_778
10
2.6050846
20
18.005532
11
0.6050846
21
18.035232
0
LINE
8
DEFAULT_255_2_778
10
0.2050295
20
11.8346882
11
20.9049295
21
11.8346882
0
LINE
8
DEFAULT_255_2_778
10
20.9049295
20
11.8346882
11
20.9049295
21
35.8347882
0
LINE
8
DEFAULT_255_2_778
10
20.9049295
20
35.8347882
11
0.2050295
21
35.8347882
0
LINE
8
DEFAULT_255_2_778
10
2.2050295
20
38.9526882
11
2.2050295
21
39.1256882
0
LINE
8
DEFAULT_255_2_778
10
2.8051295
20
39.1256882
11
2.8051295
21
38.9526882
0
ARC
8
DEFAULT_255_2_778
10
1.605184
20
89.1348538
40
1.000095
50
89.9973023
51
134.9982952
0
ARC
8
DEFAULT_255_2_778
10
1.605298
20
89.1348661
40
1.000167
50
135.0034126
51
180.0009903
0
ARC
8
DEFAULT_255_2_778
10
1.6014526
20
76.4334298
40
0.9963226
50
179.9183951
51
221.6458612
0
ARC
8
DEFAULT_255_2_778
10
1.6041147
20
76.4324103
40
0.9976376
50
221.5005114
51
268.267068
0
ARC
8
DEFAULT_255_2_778
10
1.6052214
20
76.453508
40
1.0187592
50
268.2407388
51
270.0005446
0
LINE
8
DEFAULT_255_2_778
10
6.2050311
20
35.8348488
11
6.2050311
21
35.7348488
0
LINE
8
DEFAULT_255_2_778
10
2.2053311
20
35.7348488
11
2.2034311
21
35.8348488
0
LINE
8
DEFAULT_255_2_778
10
0.6070311
20
35.8348488
11
0.6051311
21
35.7348488
0
LINE
8
DEFAULT_255_2_778
10
2.3050311
20
35.8348488
11
2.3050311
21
35.7348488
0
LINE
8
DEFAULT_255_2_778
10
2.3050311
20
39.1257488
11
2.3050311
21
38.9526488
0
LINE
8
DEFAULT_255_2_778
10
19.3051311
20
11.8347488
11
19.3051311
21
11.9347488
0
LINE
8
DEFAULT_255_2_778
10
18.3049311
20
11.8347488
11
18.3049311
21
11.9347488
0
LINE
8
DEFAULT_255_2_778
10
24.9550311
20
18.9348488
11
24.7150311
21
18.9348488
0
LINE
8
DEFAULT_255_2_778
10
24.9550311
20
18.5347488
11
24.7150311
21
18.5347488
0
LINE
8
DEFAULT_255_2_778
10
10.8051311
20
38.9526488
11
10.8051311
21
39.1257488
0
LINE
8
DEFAULT_255_2_778
10
13.7081311
20
39.1257488
11
13.7081311
21
38.9526488
0
LINE
8
DEFAULT_255_2_778
10
9.3051311
20
35.8348488
11
9.3051311
21
38.9529488
0
LINE
8
DEFAULT_255_2_778
10
4.3050311
20
38.9529488
11
4.3050311
21
35.8348488
0
LINE
8
DEFAULT_255_2_778
10
19.3051311
20
35.7348488
11
19.3051311
21
35.8348488
0
LINE
8
DEFAULT_255_2_778
10
18.3052311
20
35.7348488
11
18.3052311
21
35.8348488
0
LINE
8
DEFAULT_255_2_778
10
14.2049311
20
35.7348488
11
14.2049311
21
35.8348488
0
LINE
8
DEFAULT_255_2_778
10
24.9550311
20
28.4849488
11
24.7150311
21
28.4849488
0
LINE
8
DEFAULT_255_2_778
10
24.7150311
20
26.9847488
11
24.9550311
21
26.9847488
0
LINE
8
DEFAULT_255_2_778
10
31.1049311
20
9.9347488
11
31.1049311
21
10.6348488
0
LINE
8
DEFAULT_255_2_778
10
32.3051311
20
10.6348488
11
32.3051311
21
9.9347488
0
LINE
8
DEFAULT_255_2_778
10
39.9050311
20
10.6348488
11
39.9050311
21
9.9347488
0
LINE
8
DEFAULT_255_2_778
10
38.7051311
20
9.9347488
11
38.7051311
21
10.6348488
0
LINE
8
DEFAULT_255_2_778
10
47.5051311
20
10.6348488
11
47.5051311
21
9.9347488
0
LINE
8
DEFAULT_255_2_778
10
46.3050311
20
9.9347488
11
46.3050311
21
10.6348488
0
LINE
8
DEFAULT_255_2_778
10
55.1050311
20
10.6348488
11
55.1050311
21
9.9347488
0
LINE
8
DEFAULT_255_2_778
10
53.9051311
20
9.9347488
11
53.9051311
21
10.6348488
0
LINE
8
DEFAULT_255_2_778
10
61.5050311
20
18.9348488
11
61.3550311
21
18.9348488
0
LINE
8
DEFAULT_255_2_778
10
61.5050311
20
18.5347488
11
61.3550311
21
18.5347488
0
LINE
8
DEFAULT_255_2_778
10
61.3550311
20
26.9847488
11
61.5050311
21
26.9847488
0
LINE
8
DEFAULT_255_2_778
10
61.5050311
20
28.4849488
11
61.3550311
21
28.4849488
0
LINE
8
DEFAULT_255_2_778
10
0.8051311
20
65.2257488
11
0.8051311
21
45.2256488
0
LINE
8
DEFAULT_255_2_778
10
1.9246311
20
45.2256488
11
1.9246311
21
65.2257488
0
LINE
8
DEFAULT_255_2_778
10
10.0052311
20
73.8348488
11
10.0052311
21
91.7349488
0
LINE
8
DEFAULT_255_2_778
10
10.0052311
20
91.7349488
11
2.5051311
21
91.7349488
0
LINE
8
DEFAULT_255_2_778
10
2.5051311
20
91.7349488
11
2.5051311
21
90.1349488
0
LINE
8
DEFAULT_255_2_778
10
2.5051311
20
90.1349488
11
1.6052311
21
90.1349488
0
LINE
8
DEFAULT_255_2_778
10
0.6051311
20
89.1348488
11
0.6051311
21
76.4348488
0
LINE
8
DEFAULT_255_2_778
10
1.6052311
20
75.4347488
11
2.5053311
21
75.4347488
0
LINE
8
DEFAULT_255_2_778
10
2.5053311
20
75.4347488
11
2.5053311
21
73.8348488
0
LINE
8
DEFAULT_255_2_778
10
2.5053311
20
73.8348488
11
10.0052311
21
73.8348488
0
LINE
8
DEFAULT_255_2_778
10
14.5052311
20
82.9348488
11
14.2991311
21
82.9348488
0
LINE
8
DEFAULT_255_2_778
10
14.2991311
20
81.6347488
11
14.5052311
21
81.6347488
0
LINE
8
DEFAULT_255_2_778
10
14.5050311
20
90.7347488
11
14.3050311
21
90.7347488
0
LINE
8
DEFAULT_255_2_778
10
14.3050311
20
90.7347488
11
14.3050311
21
93.2848488
0
LINE
8
DEFAULT_255_2_778
10
14.3049771
20
91.1349082
11
14.5049771
21
91.1349082
0
LINE
8
DEFAULT_255_2_778
10
14.2991771
20
99.7349082
11
14.2991771
21
99.3849082
0
LINE
8
DEFAULT_255_2_778
10
14.3050037
20
99.7348727
11
14.3050037
21
99.3848727
0
LINE
8
DEFAULT_255_2_778
10
21.9052037
20
99.7348727
11
21.9052037
21
99.3848727
0
LINE
8
DEFAULT_255_2_778
10
20.7050037
20
99.3848727
11
20.7050037
21
99.7348727
0
LINE
8
DEFAULT_255_2_778
10
28.3052037
20
99.3848727
11
28.3052037
21
99.7348727
0
LINE
8
DEFAULT_255_2_778
10
29.5050037
20
99.7348727
11
29.5050037
21
99.3848727
0
LINE
8
DEFAULT_255_2_778
10
37.1052037
20
99.7348727
11
37.1052037
21
99.3848727
0
LINE
8
DEFAULT_255_2_778
10
35.9051037
20
99.3848727
11
35.9051037
21
99.7348727
0
LINE
8
DEFAULT_255_2_778
10
44.7051037
20
99.7348727
11
44.7051037
21
99.3848727
0
LINE
8
DEFAULT_255_2_778
10
43.5052037
20
99.3848727
11
43.5052037
21
99.7348727
0
LINE
8
DEFAULT_255_2_778
10
52.3050037
20
99.7348727
11
52.3050037
21
99.3848727
0
LINE
8
DEFAULT_255_2_778
10
51.1051037
20
99.3848727
11
51.1051037
21
99.7348727
0
LINE
8
DEFAULT_255_2_778
10
58.5050037
20
81.6347727
11
58.7050037
21
81.6347727
0
ARC
8
DEFAULT_255_2_778
10
61.2173017
20
4.8312309
40
5.0121582
50
179.9607648
51
193.6888491
0
ARC
8
DEFAULT_255_2_778
10
61.1809489
20
4.8259154
40
4.9755814
50
193.728442
51
214.6211021
0
ARC
8
DEFAULT_255_2_778
10
61.2148009
20
4.8446958
40
5.0141106
50
214.5779318
51
250.3753607
0
ARC
8
DEFAULT_255_2_778
10
61.1958932
20
4.8108316
40
4.9758672
50
250.4494684
51
265.7067627
0
ARC
8
DEFAULT_255_2_778
10
61.2047697
20
4.9047051
40
5.0701421
50
265.6861485
51
270.0053671
0
ARC
8
DEFAULT_255_2_778
10
61.2086794
20
4.8468978
40
5.0123358
50
269.9607375
51
283.6883257
0
ARC
8
DEFAULT_255_2_778
10
61.2140384
20
4.8103781
40
4.9755863
50
283.7278838
51
304.6204207
0
ARC
8
DEFAULT_255_2_778
10
61.1953383
20
4.844104
40
5.0139661
50
304.5773176
51
340.3756931
0
ARC
8
DEFAULT_255_2_778
10
61.2289514
20
4.8252907
40
4.975991
50
340.4497488
51
355.7069664
0
ARC
8
DEFAULT_255_2_778
10
61.1348821
20
4.8341877
40
5.0704627
50
355.6862845
51
0.0053733
0
LINE
8
DEFAULT_255_2_778
10
58.7049447
20
82.9348632
11
58.5049447
21
82.9348632
0
LINE
8
DEFAULT_255_2_778
10
58.5049447
20
90.7347632
11
58.7049447
21
90.7347632
0
LINE
8
DEFAULT_255_2_778
10
58.5049447
20
91.1348632
11
58.7049447
21
91.1348632
0
LINE
8
DEFAULT_255_2_778
10
0.2050447
20
99.8348632
11
66.2050447
21
99.8348632
0
LINE
8
DEFAULT_255_2_778
10
66.2050447
20
99.8348632
11
66.2050447
21
54.8347632
0
LINE
8
DEFAULT_255_2_778
10
56.2051447
20
9.8347632
11
56.2051447
21
4.8346632
0
LINE
8
DEFAULT_255_2_778
10
66.2053447
20
4.8346632
11
66.2053447
21
54.8347632
0
ARC
8
DEFAULT_255_2_778
10
60.7010111
20
4.841255
40
2.2436706
50
89.9271976
51
112.19754
0
ARC
8
DEFAULT_255_2_778
10
60.70652
20
4.8330668
40
2.2533342
50
112.248575
51
169.7568595
0
ARC
8
DEFAULT_255_2_778
10
60.7177397
20
4.8358913
40
2.2638779
50
169.8776982
51
180.0244846
0
ARC
8
DEFAULT_255_2_778
10
60.7010058
20
4.8287328
40
2.2438108
50
247.8040666
51
270.072934
0
ARC
8
DEFAULT_255_2_778
10
60.7064127
20
4.8366837
40
2.253216
50
190.2418462
51
247.753144
0
ARC
8
DEFAULT_255_2_778
10
60.7179987
20
4.8339533
40
2.2641369
50
179.9754396
51
190.1217215
0
ARC
8
DEFAULT_255_2_778
10
61.7090129
20
4.841255
40
2.2436706
50
67.80246
51
90.0728024
0
ARC
8
DEFAULT_255_2_778
10
61.703504
20
4.8330668
40
2.2533342
50
10.2431405
51
67.751425
0
ARC
8
DEFAULT_255_2_778
10
61.6922843
20
4.8358913
40
2.2638779
50
359.9755154
51
10.1223018
0
ARC
8
DEFAULT_255_2_778
10
61.7090182
20
4.8287328
40
2.2438108
50
269.927066
51
292.1959334
0
ARC
8
DEFAULT_255_2_778
10
61.7036113
20
4.8366837
40
2.253216
50
292.246856
51
349.7581538
0
ARC
8
DEFAULT_255_2_778
10
61.6920253
20
4.8339533
40
2.2641369
50
349.8782785
51
0.0245604
0
LINE
8
DEFAULT_255_2_778
10
61.204962
20
7.0849239
11
60.703862
21
7.0849239
0
LINE
8
DEFAULT_255_2_778
10
61.204962
20
2.5849239
11
60.703862
21
2.5849239
0
LINE
8
DEFAULT_255_2_778
10
61.204962
20
7.0849239
11
61.706162
21
7.0849239
0
LINE
8
DEFAULT_255_2_778
10
61.204962
20
2.5849239
11
61.706162
21
2.5849239
0
LINE
8
DEFAULT_255_2_778
10
40.704862
20
9.1349239
11
38.704862
21
9.1349239
0
LINE
8
DEFAULT_255_2_778
10
38.704862
20
9.1349239
11
38.704862
21
7.3349239
0
LINE
8
DEFAULT_255_2_778
10
38.704862
20
7.3349239
11
35.704762
21
5.1349239
0
LINE
8
DEFAULT_255_2_778
10
35.704762
20
5.1349239
11
33.204662
21
5.1349239
0
LINE
8
DEFAULT_255_2_778
10
25.705062
20
9.1349239
11
27.705062
21
9.1349239
0
LINE
8
DEFAULT_255_2_778
10
27.705062
20
9.1349239
11
27.705062
21
7.3349239
0
LINE
8
DEFAULT_255_2_778
10
27.705062
20
7.3349239
11
30.704862
21
5.1349239
0
LINE
8
DEFAULT_255_2_778
10
30.704862
20
5.1349239
11
33.204962
21
5.1349239
0
LINE
8
DEFAULT_255_2_778
10
40.705062
20
9.8347239
11
40.705062
21
9.1346239
0
ARC
8
DEFAULT_255_2_778
10
5.2015987
20
104.8303511
40
2.2543868
50
89.9101572
51
111.7613949
0
ARC
8
DEFAULT_255_2_778
10
5.2006166
20
104.8396732
40
2.2453665
50
111.826312
51
169.5454888
0
ARC
8
DEFAULT_255_2_778
10
5.2346455
20
104.8359238
40
2.2795122
50
169.6080143
51
180.0298779
0
ARC
8
DEFAULT_255_2_778
10
5.2015923
20
104.8392552
40
2.2545229
50
248.2401607
51
270.0899995
0
ARC
8
DEFAULT_255_2_778
10
5.2005111
20
104.8297013
40
2.2452504
50
190.46182
51
248.1754031
0
ARC
8
DEFAULT_255_2_778
10
5.2349001
20
104.8335437
40
2.2797667
50
179.9700565
51
190.3998477
0
ARC
8
DEFAULT_255_2_778
10
5.2086823
20
104.8302064
40
2.2545315
50
68.2393107
51
90.0901832
0
ARC
8
DEFAULT_255_2_778
10
5.2097391
20
104.8397617
40
2.2452669
50
10.452684
51
68.1739611
0
ARC
8
DEFAULT_255_2_778
10
5.1754055
20
104.8359227
40
2.2797285
50
359.9701533
51
10.3910176
0
ARC
8
DEFAULT_255_2_778
10
5.2086886
20
104.8393999
40
2.2546676
50
269.9096602
51
291.7591338
0
ARC
8
DEFAULT_255_2_778
10
5.2098453
20
104.8296118
40
2.2451496
50
291.8243171
51
349.5464435
0
ARC
8
DEFAULT_255_2_778
10
5.1751817
20
104.8335418
40
2.2799523
50
349.6073717
51
0.0299867
0
LINE
8
DEFAULT_255_2_778
10
25.7050336
20
9.8347351
11
25.7050336
21
9.1346351
0
LINE
8
DEFAULT_255_2_778
10
14.8050336
20
66.6289351
11
16.3949336
21
66.6289351
0
LINE
8
DEFAULT_255_2_778
10
16.3951336
20
63.8349351
11
16.3951336
21
66.6289351
0
LINE
8
DEFAULT_255_2_778
10
19.0733336
20
66.5728351
11
16.3951336
21
66.6289351
0
LINE
8
DEFAULT_255_2_778
10
13.2151336
20
63.8349351
11
13.2151336
21
66.6289351
0
LINE
8
DEFAULT_255_2_778
10
13.2151336
20
66.6289351
11
14.8050336
21
66.6289351
0
LINE
8
DEFAULT_255_2_778
10
14.8050336
20
61.0289351
11
13.2151336
21
61.0289351
0
LINE
8
DEFAULT_255_2_778
10
13.2151336
20
61.0289351
11
13.2151336
21
63.8349351
0
LINE
8
DEFAULT_255_2_778
10
16.3951336
20
63.8349351
11
16.3951336
21
61.0289351
0
LINE
8
DEFAULT_255_2_778
10
16.3951336
20
61.0289351
11
14.8050336
21
61.0289351
0
LINE
8
DEFAULT_255_2_778
10
19.0730336
20
63.8349351
11
19.0730336
21
66.5728351
0
LINE
8
DEFAULT_255_2_778
10
14.8050336
20
68.4227351
11
17.2230336
21
68.4227351
0
LINE
8
DEFAULT_255_2_778
10
17.2230336
20
68.4227351
11
19.0730336
21
66.5728351
0
LINE
8
DEFAULT_255_2_778
10
10.5370336
20
63.8346351
11
10.5370336
21
68.4225351
0
LINE
8
DEFAULT_255_2_778
10
10.5370336
20
68.4225351
11
14.8050336
21
68.4225351
0
LINE
8
DEFAULT_255_2_778
10
14.8050336
20
59.2467351
11
10.5370336
21
59.2467351
0
LINE
8
DEFAULT_255_2_778
10
10.5370336
20
59.2467351
11
10.5370336
21
63.8346351
0
LINE
8
DEFAULT_255_2_778
10
19.0730336
20
63.8349351
11
19.0730336
21
61.0969351
0
LINE
8
DEFAULT_255_2_778
10
19.0730336
20
61.0969351
11
17.2230336
21
59.2470351
0
LINE
8
DEFAULT_255_2_778
10
17.2230336
20
59.2470351
11
14.8050336
21
59.2470351
0
LINE
8
DEFAULT_255_2_778
10
14.8050336
20
69.8348351
11
20.5351336
21
69.8348351
0
LINE
8
DEFAULT_255_2_778
10
20.5351336
20
69.8348351
11
20.5351336
21
63.8349351
0
LINE
8
DEFAULT_255_2_778
10
14.8050336
20
57.8349351
11
20.5351336
21
57.8349351
0
LINE
8
DEFAULT_255_2_778
10
20.5351336
20
57.8349351
11
20.5351336
21
63.8349351
0
LINE
8
DEFAULT_255_2_778
10
9.0749336
20
63.8349351
11
9.0749336
21
69.8348351
0
LINE
8
DEFAULT_255_2_778
10
9.0749336
20
69.8348351
11
14.8050336
21
69.8348351
0
LINE
8
DEFAULT_255_2_778
10
14.8050336
20
57.8349351
11
9.0749336
21
57.8349351
0
LINE
8
DEFAULT_255_2_778
10
9.0749336
20
57.8349351
11
9.0749336
21
63.8349351
0
ENDSEC
0
EOF