0
SECTION
2
HEADER
9
$MEASUREMENT
70
1
0
ENDSEC
0
SECTION
2
TABLES
0
TABLE
2
LTYPE
0
LTYPE
72
65
70
64
2
CONTINUOUS
3
______
73
0
40
0
0
ENDTAB
0
TABLE
2
LAYER
0
LAYER
2
DEFAULT_255_2_778
70
0
62
255
6
CONTINUOUS
0
LAYER
2
DEFAULT_255_1_234
70
0
62
255
6
CONTINUOUS
0
ENDTAB
0
ENDSEC
0
SECTION
2
ENTITIES
0
ARC
8
DEFAULT_255_2_778
10
3.5700693
20
155.1802019
40
0.7914215
50
129.1312896
51
180.1450914
0
ARC
8
DEFAULT_255_2_778
10
3.5703345
20
155.180689
40
0.7912112
50
89.854026
51
129.1684493
0
ARC
8
DEFAULT_255_2_778
10
25.7993937
20
155.1803756
40
0.7915249
50
39.4792447
51
90.147911
0
ARC
8
DEFAULT_255_2_778
10
25.7999935
20
155.1802222
40
0.7911595
50
359.8533901
51
39.5154338
0
ARC
8
DEFAULT_255_2_778
10
25.7996693
20
-1.9863503
40
0.7914836
50
309.4761667
51
0.1482649
0
ARC
8
DEFAULT_255_2_778
10
25.799398
20
-1.9867814
40
0.7913235
50
269.8517415
51
309.511178
0
ARC
8
DEFAULT_255_2_778
10
3.570342
20
-1.9867233
40
0.7913815
50
219.1282118
51
270.1454017
0
ARC
8
DEFAULT_255_2_778
10
3.5700247
20
-1.9863408
40
0.7913769
50
179.8524075
51
219.1641908
0
LINE
8
DEFAULT_255_2_778
10
3.5723503
20
155.9718978
11
25.7973503
21
155.9718978
0
LINE
8
DEFAULT_255_2_778
10
26.5911503
20
155.1781978
11
26.5911503
21
-1.9843022
0
LINE
8
DEFAULT_255_2_778
10
25.7973503
20
-2.7781022
11
3.5723503
21
-2.7781022
0
LINE
8
DEFAULT_255_2_778
10
2.7786503
20
-1.9843022
11
2.7786503
21
155.1781978
0
ARC
8
DEFAULT_255_2_778
10
15.2718323
20
153.736689
40
0.3782009
50
0.4397807
51
91.3045231
0
ARC
8
DEFAULT_255_2_778
10
15.2696879
20
153.7344064
40
0.3803695
50
269.0259909
51
0.7811192
0
ARC
8
DEFAULT_255_2_778
10
15.4288293
20
153.7219643
40
0.7639615
50
290.7362057
51
357.8000295
0
ARC
8
DEFAULT_255_2_778
10
15.3436031
20
153.7395235
40
0.8499188
50
356.8376875
51
0.0046095
0
ARC
8
DEFAULT_255_2_778
10
15.3422443
20
153.7395748
40
0.8512778
50
0.0011515
51
85.3589632
0
ARC
8
DEFAULT_255_2_778
10
15.3422371
20
153.7205092
40
0.8702827
50
85.4600549
51
90.0075769
0
ARC
8
DEFAULT_255_2_778
10
20.173385
20
153.7302426
40
0.3845507
50
1.3931151
51
90.158378
0
ARC
8
DEFAULT_255_2_778
10
20.2329096
20
153.7238635
40
0.8684198
50
359.7643557
51
42.1181505
0
ARC
8
DEFAULT_255_2_778
10
20.2353156
20
153.7242931
40
0.866348
50
42.2037872
51
87.9292218
0
ARC
8
DEFAULT_255_2_778
10
20.2305626
20
153.6830097
40
0.9077821
50
87.7235759
51
90.0025578
0
ARC
8
DEFAULT_255_2_778
10
12.9264947
20
153.7371344
40
0.3777354
50
0.3727528
51
91.1638813
0
ARC
8
DEFAULT_255_2_778
10
12.9805692
20
153.7238595
40
0.8684602
50
359.7646302
51
42.1161032
0
ARC
8
DEFAULT_255_2_778
10
12.9830774
20
153.7244127
40
0.8662296
50
42.2002176
51
87.9268901
0
ARC
8
DEFAULT_255_2_778
10
12.9783626
20
153.6833749
40
0.9074169
50
87.7231194
51
90.002558
0
ARC
8
DEFAULT_255_2_778
10
17.559042
20
153.3320858
40
1.2841942
50
233.3100129
51
270.0348017
0
ARC
8
DEFAULT_255_2_778
10
17.5711133
20
153.3524622
40
1.3077482
50
187.7860459
51
233.4193197
0
ARC
8
DEFAULT_255_2_778
10
17.5893588
20
153.3540185
40
1.3260368
50
179.9838663
51
187.7458681
0
ARC
8
DEFAULT_255_2_778
10
17.5478523
20
153.3546375
40
1.2845303
50
143.7084173
51
180.0109545
0
ARC
8
DEFAULT_255_2_778
10
17.5629238
20
153.3495899
40
1.2996747
50
94.9692901
51
143.9223324
0
ARC
8
DEFAULT_255_2_778
10
17.5597032
20
153.3502347
40
1.2987573
50
89.9947559
51
94.8302073
0
ARC
8
DEFAULT_255_2_778
10
17.5619339
20
153.3444304
40
1.3045632
50
58.1407344
51
90.0927508
0
ARC
8
DEFAULT_255_2_778
10
17.5700831
20
153.3500662
40
1.2954809
50
3.5056409
51
58.315291
0
ARC
8
DEFAULT_255_2_778
10
17.5711163
20
153.3541563
40
1.2942058
50
359.9971467
51
3.3277024
0
ARC
8
DEFAULT_255_2_778
10
17.3826088
20
153.3520483
40
1.4827147
50
0.006083
51
0.0789681
0
ARC
8
DEFAULT_255_2_778
10
17.5604187
20
153.3522022
40
1.3049047
50
315.0308293
51
0.0001529
0
ARC
8
DEFAULT_255_2_778
10
17.5609377
20
153.3519521
40
1.3043608
50
270.000667
51
315.0224921
0
LINE
8
DEFAULT_255_2_778
10
17.5609529
20
152.0475914
11
17.5598221
21
152.0475919
0
ARC
8
DEFAULT_255_2_778
10
17.5640812
20
153.3504112
40
0.7580313
50
269.6780691
51
315.5292436
0
ARC
8
DEFAULT_255_2_778
10
17.5610107
20
153.3496878
40
0.7597205
50
315.7303962
51
0.2857903
0
ARC
8
DEFAULT_255_2_778
10
17.8487376
20
153.3539382
40
0.4719845
50
359.944048
51
0.0186519
0
ARC
8
DEFAULT_255_2_778
10
17.5687772
20
153.3529605
40
0.7519457
50
0.086204
51
85.4319233
0
ARC
8
DEFAULT_255_2_778
10
17.5599609
20
153.3105338
40
0.7949581
50
85.0420495
51
90.0100075
0
ARC
8
DEFAULT_255_2_778
10
17.5579396
20
153.3672519
40
0.7382424
50
89.8538973
51
89.9999976
0
ARC
8
DEFAULT_255_2_778
10
17.558077
20
153.3543044
40
0.7511899
50
90.01048
51
134.9443097
0
ARC
8
DEFAULT_255_2_778
10
17.5582947
20
153.3541222
40
0.7514726
50
134.9462486
51
180.0023145
0
ARC
8
DEFAULT_255_2_778
10
17.5708624
20
153.3501875
40
0.7640503
50
179.7072119
51
222.5790813
0
ARC
8
DEFAULT_255_2_778
10
17.5579296
20
153.3391475
40
0.7470579
50
222.6267201
51
270.1451401
0
ARC
8
DEFAULT_255_2_778
10
9.564442
20
153.3320858
40
1.2841942
50
233.3100129
51
270.0348017
0
ARC
8
DEFAULT_255_2_778
10
9.5765133
20
153.3524622
40
1.3077482
50
187.7860459
51
233.4193197
0
ARC
8
DEFAULT_255_2_778
10
9.5947588
20
153.3540185
40
1.3260368
50
179.9838663
51
187.7458681
0
ARC
8
DEFAULT_255_2_778
10
9.5535129
20
153.3544961
40
1.2847909
50
143.1940819
51
180.0046489
0
ARC
8
DEFAULT_255_2_778
10
9.5683078
20
153.3498006
40
1.2994598
50
94.9233187
51
143.4191345
0
ARC
8
DEFAULT_255_2_778
10
9.5651008
20
153.350512
40
1.2984798
50
89.9946509
51
94.7850278
0
ARC
8
DEFAULT_255_2_778
10
9.5673902
20
153.3443441
40
1.3046496
50
58.1428905
51
90.0952196
0
ARC
8
DEFAULT_255_2_778
10
9.5758177
20
153.3504453
40
1.2950254
50
3.2656058
51
58.3171105
0
ARC
8
DEFAULT_255_2_778
10
9.5763693
20
153.3544485
40
1.2942527
50
359.997494
51
3.0900664
0
ARC
8
DEFAULT_255_2_778
10
9.5936718
20
153.3522448
40
1.276952
50
359.9949307
51
0.0963391
0
ARC
8
DEFAULT_255_2_778
10
9.5663093
20
153.3522585
40
1.3043147
50
315.0200668
51
359.994431
0
ARC
8
DEFAULT_255_2_778
10
9.5663338
20
153.35202
40
1.3041287
50
270.0008363
51
315.026719
0
LINE
8
DEFAULT_255_2_778
10
9.5663529
20
152.0478914
11
9.5652221
21
152.0478919
0
ARC
8
DEFAULT_255_2_778
10
9.5694412
20
153.3504135
40
0.7580334
50
269.6810953
51
315.6152252
0
ARC
8
DEFAULT_255_2_778
10
9.5663839
20
153.3497381
40
0.7597504
50
315.8129036
51
0.3254485
0
ARC
8
DEFAULT_255_2_778
10
9.5738176
20
153.3526565
40
0.7523058
50
0.1093155
51
85.7820321
0
ARC
8
DEFAULT_255_2_778
10
9.5653381
20
153.3111263
40
0.7943655
50
85.3923987
51
90.0083732
0
ARC
8
DEFAULT_255_2_778
10
9.5633385
20
153.3663348
40
0.7391595
50
89.8539942
51
89.9999859
0
ARC
8
DEFAULT_255_2_778
10
9.563405
20
153.3544783
40
0.7510159
50
90.0050654
51
134.9497993
0
ARC
8
DEFAULT_255_2_778
10
9.5632746
20
153.3542963
40
0.7510526
50
134.9329452
51
180.0155944
0
ARC
8
DEFAULT_255_2_778
10
9.5762945
20
153.3501612
40
0.7640826
50
179.7052536
51
222.5741919
0
ARC
8
DEFAULT_255_2_778
10
9.5632805
20
153.3391163
40
0.7470269
50
222.6256588
51
270.1489141
0
LINE
8
DEFAULT_255_2_778
10
14.0768221
20
154.5701919
11
14.0768221
21
152.1073919
0
LINE
8
DEFAULT_255_2_778
10
14.0768221
20
152.1073919
11
14.6203221
21
152.1073919
0
LINE
8
DEFAULT_255_2_778
10
14.6203221
20
152.1073919
11
14.6203221
21
154.1147919
0
LINE
8
DEFAULT_255_2_778
10
14.6203221
20
154.1147919
11
15.2632221
21
154.1147919
0
LINE
8
DEFAULT_255_2_778
10
15.2632221
20
153.3540919
11
14.7986221
21
153.3540919
0
LINE
8
DEFAULT_255_2_778
10
14.7986221
20
153.3540919
11
15.6397221
21
152.1070919
0
LINE
8
DEFAULT_255_2_778
10
15.6397221
20
152.1070919
11
16.3126221
21
152.1070919
0
LINE
8
DEFAULT_255_2_778
10
16.3126221
20
152.1070919
11
15.6993221
21
153.0074919
0
LINE
8
DEFAULT_255_2_778
10
15.3421221
20
154.5907919
11
14.6200221
21
154.5907919
0
LINE
8
DEFAULT_255_2_778
10
14.6200221
20
154.5907919
11
14.0766221
21
154.5701919
0
LINE
8
DEFAULT_255_2_778
10
14.0766221
20
154.5701919
11
14.0768221
21
154.5701919
0
LINE
8
DEFAULT_255_2_778
10
19.0142221
20
154.5701919
11
19.0142221
21
152.1073919
0
LINE
8
DEFAULT_255_2_778
10
19.0142221
20
152.1073919
11
19.5577221
21
152.1073919
0
LINE
8
DEFAULT_255_2_778
10
19.5577221
20
152.1073919
11
19.5577221
21
154.1147919
0
LINE
8
DEFAULT_255_2_778
10
19.5577221
20
154.1147919
11
20.1723221
21
154.1147919
0
LINE
8
DEFAULT_255_2_778
10
20.5578221
20
153.7395919
11
20.5578221
21
152.1073919
0
LINE
8
DEFAULT_255_2_778
10
20.5578221
20
152.1073919
11
21.1013221
21
152.1073919
0
LINE
8
DEFAULT_255_2_778
10
21.1013221
20
152.1073919
11
21.1013221
21
153.7202919
0
LINE
8
DEFAULT_255_2_778
10
20.2305221
20
154.5907919
11
19.5577221
21
154.5907919
0
LINE
8
DEFAULT_255_2_778
10
19.5577221
20
154.5907919
11
19.0142221
21
154.5701919
0
LINE
8
DEFAULT_255_2_778
10
19.0142221
20
154.5701919
11
19.0142221
21
154.5701919
0
LINE
8
DEFAULT_255_2_778
10
11.0196221
20
154.5701919
11
11.0196221
21
152.1073919
0
LINE
8
DEFAULT_255_2_778
10
11.0196221
20
152.1073919
11
11.5628221
21
152.1073919
0
LINE
8
DEFAULT_255_2_778
10
11.5628221
20
152.1073919
11
11.5628221
21
154.1147919
0
LINE
8
DEFAULT_255_2_778
10
11.5628221
20
154.1147919
11
12.1671221
21
154.1147919
0
LINE
8
DEFAULT_255_2_778
10
12.1671221
20
154.1147919
11
12.1671221
21
152.1073919
0
LINE
8
DEFAULT_255_2_778
10
12.1671221
20
152.1073919
11
12.7105221
21
152.1073919
0
LINE
8
DEFAULT_255_2_778
10
12.7105221
20
152.1073919
11
12.7105221
21
154.1147919
0
LINE
8
DEFAULT_255_2_778
10
12.7105221
20
154.1147919
11
12.9188221
21
154.1147919
0
LINE
8
DEFAULT_255_2_778
10
13.3042221
20
153.7395919
11
13.3042221
21
152.1073919
0
LINE
8
DEFAULT_255_2_778
10
13.3042221
20
152.1073919
11
13.8490221
21
152.1073919
0
LINE
8
DEFAULT_255_2_778
10
13.8490221
20
152.1073919
11
13.8490221
21
153.7202919
0
LINE
8
DEFAULT_255_2_778
10
12.9783221
20
154.5907919
11
11.5731221
21
154.5907919
0
LINE
8
DEFAULT_255_2_778
10
11.5731221
20
154.5907919
11
11.0193221
21
154.5701919
0
LINE
8
DEFAULT_255_2_778
10
11.0193221
20
154.5701919
11
11.0196221
21
154.5701919
0
LINE
8
DEFAULT_255_2_778
10
17.5598221
20
152.0475919
11
17.5598221
21
152.0478919
0
LINE
8
DEFAULT_255_2_778
10
9.5652221
20
152.0478919
11
9.5652221
21
152.0478919
0
LINE
8
DEFAULT_255_1_234
10
11.455123
20
149.8707663
11
11.6101355
21
149.8707663
0
LINE
8
DEFAULT_255_1_234
10
10.7097777
20
150.0297947
11
10.7097777
21
150.1422391
0
LINE
8
DEFAULT_255_1_234
10
11.6101355
20
150.2932357
11
11.455123
21
150.2932357
0
LINE
8
DEFAULT_255_1_234
10
10.8647902
20
150.1382232
11
10.8647902
21
150.0249757
0
ARC
8
DEFAULT_255_1_234
10
11.0620742
20
149.9304846
40
0.5513052
50
340.1774281
51
353.7814284
0
ARC
8
DEFAULT_255_1_234
10
11.2192095
20
149.8719582
40
0.3836379
50
311.4558989
51
340.4421614
0
ARC
8
DEFAULT_255_1_234
10
11.2158763
20
149.8830528
40
0.3941894
50
282.4333181
51
310.7513653
0
ARC
8
DEFAULT_255_1_234
10
11.1719502
20
150.0645679
40
0.5809175
50
269.9358511
51
282.809604
0
ARC
8
DEFAULT_255_1_234
10
11.1667568
20
150.2103212
40
0.7266847
50
270.0021091
51
270.3581957
0
ARC
8
DEFAULT_255_1_234
10
11.1614985
20
149.9502585
40
0.4666519
50
250.7884749
51
270.6489167
0
ARC
8
DEFAULT_255_1_234
10
11.144682
20
149.8865319
40
0.4009729
50
219.3627325
51
250.0611886
0
ARC
8
DEFAULT_255_1_234
10
11.2276031
20
149.9570042
40
0.5097822
50
193.5479632
51
219.5756669
0
ARC
8
DEFAULT_255_1_234
10
11.4647652
20
150.0185919
40
0.7547848
50
181.1218675
51
193.87563
0
ARC
8
DEFAULT_255_1_234
10
11.6717833
20
150.029658
40
0.9620055
50
179.9918545
51
181.5394234
0
ARC
8
DEFAULT_255_1_234
10
11.4866935
20
150.1459788
40
0.7769248
50
169.5837241
51
180.2757934
0
ARC
8
DEFAULT_255_1_234
10
11.3029873
20
150.1799229
40
0.590109
50
155.0365899
51
169.6003176
0
ARC
8
DEFAULT_255_1_234
10
11.1894337
20
150.2346677
40
0.4640625
50
136.783148
51
155.2472683
0
ARC
8
DEFAULT_255_1_234
10
11.1504814
20
150.2677562
40
0.4130255
50
121.7633186
51
136.428115
0
ARC
8
DEFAULT_255_1_234
10
11.1639776
20
150.2428227
40
0.4413323
50
95.6459699
51
121.5490577
0
ARC
8
DEFAULT_255_1_234
10
11.1797058
20
150.1319949
40
0.55319
50
89.924208
51
96.1377933
0
ARC
8
DEFAULT_255_1_234
10
11.1847491
20
150.1438542
40
0.5413475
50
76.6779277
51
90.4563316
0
ARC
8
DEFAULT_255_1_234
10
11.2241114
20
150.3029114
40
0.3775041
50
47.485847
51
76.9287264
0
ARC
8
DEFAULT_255_1_234
10
11.2094087
20
150.2929159
40
0.3948286
50
16.5424086
51
46.8933463
0
ARC
8
DEFAULT_255_1_234
10
11.0486244
20
150.2400861
40
0.564021
50
5.4072051
51
17.0365086
0
ARC
8
DEFAULT_255_1_234
10
10.9047261
20
150.2169679
40
0.5556559
50
7.8891745
51
15.9239216
0
ARC
8
DEFAULT_255_1_234
10
11.1034274
20
150.2746631
40
0.3487515
50
15.7653144
51
27.9410532
0
ARC
8
DEFAULT_255_1_234
10
11.2138492
20
150.333779
40
0.2235026
50
27.8166557
51
46.4008329
0
ARC
8
DEFAULT_255_1_234
10
11.2188135
20
150.3332082
40
0.2205286
50
47.4371857
51
75.0698205
0
ARC
8
DEFAULT_255_1_234
10
11.1879529
20
150.2257765
40
0.3322915
50
74.7008593
51
87.8124495
0
ARC
8
DEFAULT_255_1_234
10
11.1806217
20
150.1201844
40
0.4380987
50
87.3814673
51
90.0240855
0
ARC
8
DEFAULT_255_1_234
10
11.176776
20
150.2379291
40
0.3203749
50
89.3451631
51
108.5745436
0
ARC
8
DEFAULT_255_1_234
10
11.1630865
20
150.2892908
40
0.2673494
50
109.2998449
51
143.3037509
0
ARC
8
DEFAULT_255_1_234
10
11.2392938
20
150.2306881
40
0.3634757
50
143.0753173
51
163.1916937
0
ARC
8
DEFAULT_255_1_234
10
11.4344666
20
150.1690967
40
0.5681262
50
162.9373603
51
174.6208611
0
ARC
8
DEFAULT_255_1_234
10
11.6970708
20
150.140301
40
0.8322832
50
174.3419979
51
180.1430411
0
ARC
8
DEFAULT_255_1_234
10
11.6039864
20
150.0208698
40
0.7392076
50
179.6817502
51
189.150529
0
ARC
8
DEFAULT_255_1_234
10
11.3539112
20
149.979219
40
0.4856932
50
188.9910863
51
203.5773039
0
ARC
8
DEFAULT_255_1_234
10
11.2459445
20
149.9344211
40
0.3688271
50
203.9077269
51
215.1312379
0
ARC
8
DEFAULT_255_1_234
10
11.1536539
20
149.8628941
40
0.2522457
50
213.9071664
51
263.8849284
0
ARC
8
DEFAULT_255_1_234
10
11.1661868
20
149.9413518
40
0.3316174
50
263.1758525
51
270.1031083
0
ARC
8
DEFAULT_255_1_234
10
11.169396
20
150.0660365
40
0.4563091
50
269.6719807
51
279.0609165
0
ARC
8
DEFAULT_255_1_234
10
11.1960728
20
149.9047907
40
0.2928759
50
278.8750225
51
293.6346586
0
ARC
8
DEFAULT_255_1_234
10
11.2280936
20
149.82959
40
0.2111472
50
293.8553404
51
310.0518804
0
ARC
8
DEFAULT_255_1_234
10
11.228579
20
149.8233516
40
0.2060917
50
311.0646779
51
332.0108348
0
ARC
8
DEFAULT_255_1_234
10
11.1093517
20
149.8890978
40
0.3422352
50
331.6588543
51
343.2878891
0
ARC
8
DEFAULT_255_1_234
10
10.9031032
20
149.9524798
40
0.5580003
50
343.1446044
51
351.010618
0
ARC
8
DEFAULT_255_1_234
10
10.7489678
20
149.9805871
40
0.7146438
50
350.7157277
51
351.1602153
0
LINE
8
DEFAULT_255_1_234
10
12.2502651
20
149.9575091
11
11.9747765
21
149.9575091
0
LINE
8
DEFAULT_255_1_234
10
11.9747765
20
149.9575091
11
11.9747765
21
149.4997
0
LINE
8
DEFAULT_255_1_234
10
11.9747765
20
149.4997
11
11.8205671
21
149.4997
0
LINE
8
DEFAULT_255_1_234
10
11.8205671
20
149.4997
11
11.8205671
21
150.6691211
0
LINE
8
DEFAULT_255_1_234
10
11.8205671
20
150.6691211
11
12.2518714
21
150.6691211
0
LINE
8
DEFAULT_255_1_234
10
11.9747765
20
150.5422196
11
11.9747765
21
150.0836074
0
LINE
8
DEFAULT_255_1_234
10
11.9747765
20
150.0836074
11
12.2518714
21
150.0836074
0
LINE
8
DEFAULT_255_1_234
10
12.2607063
20
150.5422196
11
11.9747765
21
150.5422196
0
ARC
8
DEFAULT_255_1_234
10
12.2560841
20
150.0632195
40
0.6059162
50
78.8378113
51
90.3983573
0
ARC
8
DEFAULT_255_1_234
10
12.2976855
20
150.2652879
40
0.3996205
50
58.9632738
51
79.0810598
0
ARC
8
DEFAULT_255_1_234
10
12.3278397
20
150.3212721
40
0.3361177
50
48.0197965
51
58.447194
0
ARC
8
DEFAULT_255_1_234
10
12.3367258
20
150.3298225
40
0.3238191
50
3.3375044
51
48.1766626
0
ARC
8
DEFAULT_255_1_234
10
12.2137098
20
150.3121171
40
0.4477806
50
359.9477528
51
4.6829065
0
ARC
8
DEFAULT_255_1_234
10
12.2260414
20
150.3078628
40
0.4354656
50
346.1877825
51
0.5060252
0
ARC
8
DEFAULT_255_1_234
10
12.3619282
20
150.2725731
40
0.295089
50
310.8831995
51
346.5426355
0
ARC
8
DEFAULT_255_1_234
10
12.3310702
20
150.3142695
40
0.3468331
50
286.6925341
51
310.2288297
0
ARC
8
DEFAULT_255_1_234
10
12.2741533
20
150.4932882
40
0.5346654
50
274.6850312
51
287.0245141
0
ARC
8
DEFAULT_255_1_234
10
12.2516256
20
150.7141932
40
0.7566852
50
269.8969846
51
275.018904
0
ARC
8
DEFAULT_255_1_234
10
12.2543847
20
150.5062707
40
0.4226708
50
269.6593078
51
279.4153575
0
ARC
8
DEFAULT_255_1_234
10
12.2801122
20
150.3572133
40
0.2714146
50
279.2049762
51
294.9900808
0
ARC
8
DEFAULT_255_1_234
10
12.3091448
20
150.2924508
40
0.2004525
50
295.2888114
51
311.2911209
0
ARC
8
DEFAULT_255_1_234
10
12.3162342
20
150.281922
40
0.1878703
50
311.7854996
51
347.2861051
0
ARC
8
DEFAULT_255_1_234
10
12.2178501
20
150.3072092
40
0.2894234
50
346.6893224
51
0.1059443
0
ARC
8
DEFAULT_255_1_234
10
12.1423396
20
150.3100685
40
0.3649409
50
359.6350983
51
0.0053152
0
ARC
8
DEFAULT_255_1_234
10
12.2393724
20
150.3125937
40
0.2679199
50
359.4672059
51
15.5933957
0
ARC
8
DEFAULT_255_1_234
10
12.3018613
20
150.3294779
40
0.2031932
50
15.7442113
51
46.6203375
0
ARC
8
DEFAULT_255_1_234
10
12.2870834
20
150.3124484
40
0.2257226
50
46.8628658
51
75.6676503
0
ARC
8
DEFAULT_255_1_234
10
12.2576654
20
150.2065718
40
0.3355939
50
75.276167
51
88.2915297
0
ARC
8
DEFAULT_255_1_234
10
12.2518361
20
150.1187524
40
0.4235602
50
87.8575022
51
88.8000139
0
LINE
8
DEFAULT_255_1_234
10
13.1441976
20
150.0571026
11
13.1441976
21
149.9358234
0
LINE
8
DEFAULT_255_1_234
10
13.1441976
20
149.9358234
11
12.7522487
21
149.9358234
0
LINE
8
DEFAULT_255_1_234
10
12.7522487
20
149.9358234
11
12.7522487
21
150.0571026
0
LINE
8
DEFAULT_255_1_234
10
12.7522487
20
150.0571026
11
13.1441976
21
150.0571026
0
LINE
8
DEFAULT_255_1_234
10
14.0879268
20
150.3309849
11
13.9329143
21
150.3309849
0
LINE
8
DEFAULT_255_1_234
10
13.2405784
20
149.8386394
11
13.395591
21
149.8386394
0
ARC
8
DEFAULT_255_1_234
10
13.9987955
20
151.2256768
40
1.252368
50
248.9199003
51
254.1439814
0
ARC
8
DEFAULT_255_1_234
10
13.830745
20
150.7930234
40
0.788226
50
241.633709
51
249.0064503
0
ARC
8
DEFAULT_255_1_234
10
13.6778845
20
150.5129317
40
0.4691427
50
230.498225
51
241.8087113
0
ARC
8
DEFAULT_255_1_234
10
13.5994419
20
150.4129906
40
0.3421437
50
227.4064532
51
229.9881192
0
ARC
8
DEFAULT_255_1_234
10
13.550694
20
150.3654088
40
0.2741476
50
200.6781896
51
228.1763934
0
ARC
8
DEFAULT_255_1_234
10
13.557925
20
150.3639077
40
0.2804109
50
179.5061581
51
199.8694617
0
ARC
8
DEFAULT_255_1_234
10
13.5570002
20
150.371321
40
0.2795204
50
132.4834203
51
181.0242172
0
ARC
8
DEFAULT_255_1_234
10
13.6165584
20
150.3150704
40
0.3612768
50
129.2532479
51
133.4242687
0
ARC
8
DEFAULT_255_1_234
10
13.6312034
20
150.2930965
40
0.3875675
50
101.98776
51
128.8742646
0
ARC
8
DEFAULT_255_1_234
10
13.6710644
20
150.1209741
40
0.5642249
50
89.5906553
51
102.3169264
0
ARC
8
DEFAULT_255_1_234
10
13.6781137
20
150.1528148
40
0.5323783
50
77.2360837
51
90.3248275
0
ARC
8
DEFAULT_255_1_234
10
13.6988216
20
150.24954
40
0.4334697
50
63.837784
51
77.0809408
0
ARC
8
DEFAULT_255_1_234
10
13.7265977
20
150.3012911
40
0.3747796
50
45.9864267
51
64.1607727
0
ARC
8
DEFAULT_255_1_234
10
13.7526859
20
150.3310866
40
0.3352302
50
32.2747395
51
45.6547121
0
ARC
8
DEFAULT_255_1_234
10
13.7593299
20
150.332988
40
0.328603
50
359.6507365
51
32.6130309
0
ARC
8
DEFAULT_255_1_234
10
13.6650395
20
150.333466
40
0.2678863
50
359.469343
51
14.9832209
0
ARC
8
DEFAULT_255_1_234
10
13.7355457
20
150.3523539
40
0.1948938
50
14.9781179
51
48.2004265
0
ARC
8
DEFAULT_255_1_234
10
13.7191101
20
150.3316983
40
0.2212521
50
48.5927837
51
74.1241538
0
ARC
8
DEFAULT_255_1_234
10
13.6857591
20
150.2216248
40
0.3362561
50
73.7888341
51
86.6652678
0
ARC
8
DEFAULT_255_1_234
10
13.6755156
20
150.1008881
40
0.4573953
50
86.2640471
51
90.0526343
0
ARC
8
DEFAULT_255_1_234
10
13.6726869
20
150.1404192
40
0.4178709
50
89.6697524
51
99.2309573
0
ARC
8
DEFAULT_255_1_234
10
13.648432
20
150.2848964
40
0.2713749
50
99.069534
51
113.7658566
0
ARC
8
DEFAULT_255_1_234
10
13.6210511
20
150.3494677
40
0.2012469
50
114.0401004
51
127.9850673
0
ARC
8
DEFAULT_255_1_234
10
13.5970075
20
150.379073
40
0.1631167
50
127.7287463
51
176.7105154
0
ARC
8
DEFAULT_255_1_234
10
13.6648792
20
150.3689693
40
0.2315392
50
175.1779447
51
180.0581938
0
ARC
8
DEFAULT_255_1_234
10
13.5805639
20
150.3677428
40
0.1472271
50
179.6142195
51
228.1246017
0
ARC
8
DEFAULT_255_1_234
10
13.6247308
20
150.4086308
40
0.2072299
50
226.5779593
51
230.8800004
0
ARC
8
DEFAULT_255_1_234
10
13.6718386
20
150.4711636
40
0.2854818
50
231.4635071
51
241.9260842
0
ARC
8
DEFAULT_255_1_234
10
13.7915564
20
150.69148
40
0.53622
50
241.7178533
51
248.3259551
0
ARC
8
DEFAULT_255_1_234
10
13.9300936
20
151.0347064
40
0.9063478
50
248.2007737
51
252.4528373
0
ARC
8
DEFAULT_255_1_234
10
14.0504661
20
151.4068441
40
1.2974635
50
252.3391078
51
254.3469452
0
ARC
8
DEFAULT_255_1_234
10
13.2962364
20
148.7091148
40
1.5037162
50
71.0197183
51
74.4087047
0
ARC
8
DEFAULT_255_1_234
10
13.4657049
20
149.1983111
40
0.9859993
50
66.1847285
51
71.086374
0
ARC
8
DEFAULT_255_1_234
10
13.6213361
20
149.54872
40
0.6025855
50
59.3536294
51
66.2691831
0
ARC
8
DEFAULT_255_1_234
10
13.7102014
20
149.6990609
40
0.4279449
50
49.1020879
51
59.3293958
0
ARC
8
DEFAULT_255_1_234
10
13.7920754
20
149.7923834
40
0.3038015
50
32.7919921
51
49.2505539
0
ARC
8
DEFAULT_255_1_234
10
13.8241844
20
149.8152191
40
0.264448
50
31.1181161
51
32.4005348
0
ARC
8
DEFAULT_255_1_234
10
13.8153381
20
149.8116779
40
0.2738556
50
8.1116974
51
30.7958831
0
ARC
8
DEFAULT_255_1_234
10
13.7343049
20
149.7978753
40
0.3560327
50
359.8389159
51
8.4706516
0
ARC
8
DEFAULT_255_1_234
10
13.7968841
20
149.7930137
40
0.2934776
50
337.4731098
51
0.7537279
0
ARC
8
DEFAULT_255_1_234
10
13.8147536
20
149.7910387
40
0.2762607
50
307.5917067
51
336.4315538
0
ARC
8
DEFAULT_255_1_234
10
13.7687364
20
149.8423102
40
0.3449979
50
307.6551545
51
308.4529766
0
ARC
8
DEFAULT_255_1_234
10
13.7457083
20
149.877825
40
0.3871988
50
284.3734338
51
307.1424381
0
ARC
8
DEFAULT_255_1_234
10
13.6961913
20
150.0599932
40
0.5759636
50
272.4382747
51
284.646547
0
ARC
8
DEFAULT_255_1_234
10
13.6835122
20
150.2399893
40
0.7563528
50
269.9708387
51
272.8178037
0
ARC
8
DEFAULT_255_1_234
10
13.6792161
20
150.0361716
40
0.5525489
50
248.2707594
51
270.4055579
0
ARC
8
DEFAULT_255_1_234
10
13.6737902
20
150.0171192
40
0.5328452
50
246.1383403
51
248.0542782
0
ARC
8
DEFAULT_255_1_234
10
13.6319281
20
149.9291843
40
0.4355005
50
233.1670131
51
246.4950969
0
ARC
8
DEFAULT_255_1_234
10
13.5765186
20
149.8543812
40
0.3424126
50
215.3403242
51
233.0843104
0
ARC
8
DEFAULT_255_1_234
10
13.5492617
20
149.8345549
40
0.3087104
50
179.2419209
51
215.2648451
0
ARC
8
DEFAULT_255_1_234
10
13.6260211
20
149.8359666
40
0.2304457
50
179.335461
51
199.1045811
0
ARC
8
DEFAULT_255_1_234
10
13.5927888
20
149.8272766
40
0.1962176
50
199.8828939
51
232.7063202
0
ARC
8
DEFAULT_255_1_234
10
13.6400156
20
149.8866788
40
0.2720938
50
232.3738199
51
255.5136649
0
ARC
8
DEFAULT_255_1_234
10
13.6741023
20
150.0110835
40
0.4010747
50
255.2446292
51
267.5320849
0
ARC
8
DEFAULT_255_1_234
10
13.6828646
20
150.1343702
40
0.5246356
50
267.1557994
51
270.0286766
0
ARC
8
DEFAULT_255_1_234
10
13.6856418
20
150.089995
40
0.4802668
50
269.7000017
51
278.1660162
0
ARC
8
DEFAULT_255_1_234
10
13.7112423
20
149.9169515
40
0.3053425
50
278.0231263
51
290.625471
0
ARC
8
DEFAULT_255_1_234
10
13.746011
20
149.8242025
40
0.206291
50
290.6619762
51
307.0370976
0
ARC
8
DEFAULT_255_1_234
10
13.77605
20
149.7873504
40
0.1587906
50
306.3943566
51
355.3030547
0
ARC
8
DEFAULT_255_1_234
10
13.7248431
20
149.7950113
40
0.2104809
50
354.3660432
51
0.0698737
0
ARC
8
DEFAULT_255_1_234
10
13.7390776
20
149.7972617
40
0.1962563
50
359.417946
51
16.1971788
0
ARC
8
DEFAULT_255_1_234
10
13.7846087
20
149.8097418
40
0.149053
50
16.4723299
51
52.6262157
0
ARC
8
DEFAULT_255_1_234
10
13.702514
20
149.7013433
40
0.2850296
50
52.7386432
51
62.4979148
0
ARC
8
DEFAULT_255_1_234
10
13.5640217
20
149.4407283
40
0.5801521
50
62.2515216
51
68.1220564
0
ARC
8
DEFAULT_255_1_234
10
13.3920128
20
149.0179872
40
1.0365451
50
68.0062803
51
71.8053402
0
ARC
8
DEFAULT_255_1_234
10
13.21245
20
148.4794758
40
1.6042013
50
71.7183119
51
73.9258742
0
LINE
8
DEFAULT_255_1_234
10
14.2268759
20
149.9101218
11
14.2268759
21
149.9374297
0
LINE
8
DEFAULT_255_1_234
10
14.9641895
20
149.9534932
11
14.9641895
21
149.8916488
0
LINE
8
DEFAULT_255_1_234
10
14.9641895
20
149.8916488
11
14.375463
21
149.8916488
0
LINE
8
DEFAULT_255_1_234
10
14.8621864
20
149.7221792
11
14.952945
21
149.6514999
0
LINE
8
DEFAULT_255_1_234
10
14.3802821
20
150.0137313
11
14.8156023
21
150.0137313
0
LINE
8
DEFAULT_255_1_234
10
14.8156023
20
150.0137313
11
14.8156023
21
150.0249757
0
ARC
8
DEFAULT_255_1_234
10
14.6208124
20
149.9212332
40
0.4376191
50
252.3266134
51
270.5810217
0
ARC
8
DEFAULT_255_1_234
10
14.6003213
20
149.8471644
40
0.3608374
50
223.3000567
51
251.8561855
0
ARC
8
DEFAULT_255_1_234
10
14.6214574
20
149.8676937
40
0.3902993
50
190.9374509
51
223.3654032
0
ARC
8
DEFAULT_255_1_234
10
14.7939546
20
149.9066885
40
0.5670891
50
179.6531105
51
191.4989439
0
ARC
8
DEFAULT_255_1_234
10
14.8061558
20
149.9406417
40
0.5792888
50
167.4007466
51
180.3176909
0
ARC
8
DEFAULT_255_1_234
10
14.700962
20
149.9628885
40
0.471777
50
154.1835823
51
167.250763
0
ARC
8
DEFAULT_255_1_234
10
14.6378087
20
149.9961417
40
0.4004528
50
134.3149965
51
154.5315275
0
ARC
8
DEFAULT_255_1_234
10
14.6160582
20
150.0152228
40
0.371612
50
122.8616532
51
133.9707695
0
ARC
8
DEFAULT_255_1_234
10
14.6057156
20
150.0374703
40
0.3473289
50
89.8249009
51
123.4199222
0
ARC
8
DEFAULT_255_1_234
10
14.6107197
20
149.9727967
40
0.4120197
50
74.7876118
51
90.5482747
0
ARC
8
DEFAULT_255_1_234
10
14.6400941
20
150.081303
40
0.2996077
50
39.8178249
51
74.7633718
0
ARC
8
DEFAULT_255_1_234
10
14.5888261
20
150.0413351
40
0.3645855
50
16.8990863
51
39.4829761
0
ARC
8
DEFAULT_255_1_234
10
14.3993557
20
149.9806526
40
0.5635218
50
4.9636328
51
17.2026414
0
ARC
8
DEFAULT_255_1_234
10
14.1575627
20
149.955134
40
0.8066286
50
359.8834553
51
5.2834307
0
ARC
8
DEFAULT_255_1_234
10
14.7613152
20
149.8982803
40
0.3859091
50
180.9846213
51
194.9401313
0
ARC
8
DEFAULT_255_1_234
10
14.656343
20
149.8695849
40
0.2770883
50
194.80314
51
222.0412631
0
ARC
8
DEFAULT_255_1_234
10
14.6259312
20
149.8394116
40
0.2343055
50
221.5417084
51
268.8614402
0
ARC
8
DEFAULT_255_1_234
10
14.6332306
20
149.9070686
40
0.3021528
50
267.732405
51
270.0097136
0
ARC
8
DEFAULT_255_1_234
10
14.6350116
20
149.9272105
40
0.3222994
50
269.6924892
51
280.4117579
0
ARC
8
DEFAULT_255_1_234
10
14.6526523
20
149.8353193
40
0.2287344
50
280.2255091
51
298.6338936
0
ARC
8
DEFAULT_255_1_234
10
14.6643315
20
149.8109223
40
0.2017294
50
299.0430333
51
300.4643464
0
ARC
8
DEFAULT_255_1_234
10
14.596332
20
149.9243038
40
0.3339357
50
300.6577328
51
322.0378878
0
ARC
8
DEFAULT_255_1_234
10
14.561286
20
149.9547021
40
0.3802736
50
321.6750233
51
322.3046845
0
ARC
8
DEFAULT_255_1_234
10
14.6543821
20
149.838037
40
0.3520454
50
276.9728461
51
328.0035423
0
ARC
8
DEFAULT_255_1_234
10
14.6266874
20
149.9860841
40
0.5024498
50
269.8361028
51
278.0581756
0
ARC
8
DEFAULT_255_1_234
10
14.6039611
20
150.0605757
40
0.202159
50
89.2018686
51
117.2851756
0
ARC
8
DEFAULT_255_1_234
10
14.609278
20
150.0563752
40
0.2083484
50
118.0551165
51
137.4540413
0
ARC
8
DEFAULT_255_1_234
10
14.646752
20
150.0223304
40
0.2589774
50
137.5109581
51
158.8516286
0
ARC
8
DEFAULT_255_1_234
10
14.7605356
20
149.9764074
40
0.38167
50
158.5845963
51
170.1721436
0
ARC
8
DEFAULT_255_1_234
10
14.8774745
20
149.9531823
40
0.5008657
50
169.8376422
51
173.0566086
0
ARC
8
DEFAULT_255_1_234
10
14.4077819
20
150.0042509
40
0.4083467
50
2.9091802
51
12.8847116
0
ARC
8
DEFAULT_255_1_234
10
14.5448495
20
150.0365101
40
0.2675383
50
12.6957781
51
28.6404489
0
ARC
8
DEFAULT_255_1_234
10
14.5990166
20
150.0645458
40
0.2065654
50
29.0169854
51
41.1487595
0
ARC
8
DEFAULT_255_1_234
10
14.6192951
20
150.0822003
40
0.1796786
50
41.1646065
51
85.0013516
0
ARC
8
DEFAULT_255_1_234
10
14.6072048
20
150.0087431
40
0.2539726
50
83.7280015
51
90.0964893
0
LINE
8
DEFAULT_255_1_234
10
15.5561286
20
150.3735531
11
15.5561286
21
150.2354072
0
LINE
8
DEFAULT_255_1_234
10
15.2846558
20
150.1165375
11
15.2846558
21
149.4997
0
LINE
8
DEFAULT_255_1_234
10
15.2846558
20
149.4997
11
15.1360687
21
149.4997
0
LINE
8
DEFAULT_255_1_234
10
15.1360687
20
149.4997
11
15.1360687
21
150.3687341
0
LINE
8
DEFAULT_255_1_234
10
15.1360687
20
150.3687341
11
15.2806399
21
150.3687341
0
LINE
8
DEFAULT_255_1_234
10
15.2806399
20
150.3687341
11
15.2830495
21
150.2683374
0
ARC
8
DEFAULT_255_1_234
10
15.4894691
20
149.8294342
40
0.4114092
50
80.6754243
51
86.8932892
0
ARC
8
DEFAULT_255_1_234
10
15.4834225
20
149.73267
40
0.5083596
50
86.8038578
51
90.0431435
0
ARC
8
DEFAULT_255_1_234
10
15.4797206
20
149.9783866
40
0.2626638
50
89.2759698
51
106.6213787
0
ARC
8
DEFAULT_255_1_234
10
15.459277
20
150.052683
40
0.1856317
50
107.1346045
51
157.6458115
0
ARC
8
DEFAULT_255_1_234
10
15.5284372
20
150.0143311
40
0.2643398
50
155.6586782
51
157.2539184
0
ARC
8
DEFAULT_255_1_234
10
15.5079574
20
150.1312157
40
0.2634121
50
127.8165941
51
148.6302098
0
ARC
8
DEFAULT_255_1_234
10
15.4826043
20
150.1572218
40
0.2273596
50
91.3329982
51
126.7875809
0
ARC
8
DEFAULT_255_1_234
10
15.4901983
20
150.0857195
40
0.299078
50
89.986594
51
92.4688449
0
ARC
8
DEFAULT_255_1_234
10
15.4910378
20
150.1132078
40
0.2715908
50
85.3589899
51
90.1623399
0
ARC
8
DEFAULT_255_1_234
10
15.4994894
20
150.2136164
40
0.1708278
50
78.401942
51
85.4594656
0
ARC
8
DEFAULT_255_1_234
10
15.5139778
20
150.2827236
40
0.1002194
50
67.7858312
51
78.5728455
0
ARC
8
DEFAULT_255_1_234
10
15.5247631
20
150.3106887
40
0.0702548
50
63.4835954
51
67.3062642
0
LINE
8
DEFAULT_255_1_234
10
15.8541061
20
150.3687341
11
15.8541061
21
149.4997
0
LINE
8
DEFAULT_255_1_234
10
15.8541061
20
149.4997
11
15.7055189
21
149.4997
0
LINE
8
DEFAULT_255_1_234
10
15.7055189
20
149.4997
11
15.7055189
21
150.3687341
0
LINE
8
DEFAULT_255_1_234
10
15.7055189
20
150.3687341
11
15.8541061
21
150.3687341
0
ARC
8
DEFAULT_255_1_234
10
15.7913338
20
150.6001889
40
0.097867
50
161.415052
51
180.5526306
0
ARC
8
DEFAULT_255_1_234
10
15.7789116
20
150.6036077
40
0.0850062
50
138.1827368
51
160.9307106
0
ARC
8
DEFAULT_255_1_234
10
15.7679061
20
150.6131588
40
0.0704362
50
104.6368899
51
138.0039868
0
ARC
8
DEFAULT_255_1_234
10
15.7786216
20
150.5764963
40
0.1086221
50
92.0600725
51
105.2189128
0
ARC
8
DEFAULT_255_1_234
10
15.7809564
20
150.5422117
40
0.1429728
50
89.9756393
51
92.5012496
0
ARC
8
DEFAULT_255_1_234
10
15.7819584
20
150.5647731
40
0.1204151
50
78.0235316
51
90.4478182
0
ARC
8
DEFAULT_255_1_234
10
15.7911676
20
150.6061295
40
0.0780493
50
55.051506
51
78.3369085
0
ARC
8
DEFAULT_255_1_234
10
15.796195
20
150.6145711
40
0.0682538
50
42.0501187
51
54.4513741
0
ARC
8
DEFAULT_255_1_234
10
15.7826817
20
150.6021798
40
0.0865878
50
1.7497075
51
42.1496013
0
ARC
8
DEFAULT_255_1_234
10
15.757215
20
150.5992738
40
0.1121515
50
359.9852656
51
2.8364544
0
ARC
8
DEFAULT_255_1_234
10
15.7738142
20
150.5983229
40
0.0955566
50
342.1070653
51
0.552888
0
ARC
8
DEFAULT_255_1_234
10
15.788084
20
150.5943904
40
0.0807713
50
316.7107116
51
341.6516965
0
ARC
8
DEFAULT_255_1_234
10
15.7947877
20
150.5883823
40
0.0717724
50
285.4397031
51
316.5324284
0
ARC
8
DEFAULT_255_1_234
10
15.7837794
20
150.6249554
40
0.1099597
50
272.3547054
51
285.8953117
0
ARC
8
DEFAULT_255_1_234
10
15.7810952
20
150.6615048
40
0.1465932
50
269.9695369
51
272.8160237
0
ARC
8
DEFAULT_255_1_234
10
15.7801133
20
150.6395863
40
0.1246779
50
258.8431134
51
270.4153935
0
ARC
8
DEFAULT_255_1_234
10
15.7711175
20
150.5960414
40
0.0802162
50
238.5431189
51
259.1288175
0
ARC
8
DEFAULT_255_1_234
10
15.764306
20
150.5836856
40
0.0661247
50
222.5062634
51
237.9906969
0
ARC
8
DEFAULT_255_1_234
10
15.7770648
20
150.5952889
40
0.0833707
50
184.1069131
51
222.460413
0
ARC
8
DEFAULT_255_1_234
10
15.8039889
20
150.5991349
40
0.1105176
50
179.9429482
51
185.0960898
0
LINE
8
DEFAULT_255_1_234
10
16.0540963
20
149.9101218
11
16.0540963
21
149.9374297
0
LINE
8
DEFAULT_255_1_234
10
16.7914099
20
149.9534932
11
16.7914099
21
149.8916488
0
LINE
8
DEFAULT_255_1_234
10
16.7914099
20
149.8916488
11
16.2026835
21
149.8916488
0
LINE
8
DEFAULT_255_1_234
10
16.6894068
20
149.7221792
11
16.7801655
21
149.6514999
0
LINE
8
DEFAULT_255_1_234
10
16.2075025
20
150.0137313
11
16.6428228
21
150.0137313
0
LINE
8
DEFAULT_255_1_234
10
16.6428228
20
150.0137313
11
16.6428228
21
150.0249757
0
ARC
8
DEFAULT_255_1_234
10
16.4480329
20
149.9212332
40
0.4376191
50
252.3266134
51
270.5810217
0
ARC
8
DEFAULT_255_1_234
10
16.4275418
20
149.8471644
40
0.3608374
50
223.3000567
51
251.8561855
0
ARC
8
DEFAULT_255_1_234
10
16.4486778
20
149.8676937
40
0.3902993
50
190.9374509
51
223.3654032
0
ARC
8
DEFAULT_255_1_234
10
16.621175
20
149.9066885
40
0.5670891
50
179.6531105
51
191.4989439
0
ARC
8
DEFAULT_255_1_234
10
16.6333763
20
149.9406417
40
0.5792888
50
167.4007466
51
180.3176909
0
ARC
8
DEFAULT_255_1_234
10
16.5281824
20
149.9628885
40
0.471777
50
154.1835823
51
167.250763
0
ARC
8
DEFAULT_255_1_234
10
16.4650292
20
149.9961417
40
0.4004528
50
134.3149965
51
154.5315275
0
ARC
8
DEFAULT_255_1_234
10
16.4432787
20
150.0152228
40
0.371612
50
122.8616532
51
133.9707695
0
ARC
8
DEFAULT_255_1_234
10
16.4329361
20
150.0374703
40
0.3473289
50
89.8249009
51
123.4199222
0
ARC
8
DEFAULT_255_1_234
10
16.4379402
20
149.9727967
40
0.4120197
50
74.7876118
51
90.5482747
0
ARC
8
DEFAULT_255_1_234
10
16.4673145
20
150.081303
40
0.2996077
50
39.8178249
51
74.7633718
0
ARC
8
DEFAULT_255_1_234
10
16.4160465
20
150.0413351
40
0.3645855
50
16.8990863
51
39.4829761
0
ARC
8
DEFAULT_255_1_234
10
16.2265762
20
149.9806526
40
0.5635218
50
4.9636328
51
17.2026414
0
ARC
8
DEFAULT_255_1_234
10
15.9847832
20
149.955134
40
0.8066286
50
359.8834553
51
5.2834307
0
ARC
8
DEFAULT_255_1_234
10
16.5885357
20
149.8982803
40
0.3859091
50
180.9846213
51
194.9401313
0
ARC
8
DEFAULT_255_1_234
10
16.4835634
20
149.8695849
40
0.2770883
50
194.80314
51
222.0412631
0
ARC
8
DEFAULT_255_1_234
10
16.4531516
20
149.8394116
40
0.2343055
50
221.5417084
51
268.8614402
0
ARC
8
DEFAULT_255_1_234
10
16.4604511
20
149.9070686
40
0.3021528
50
267.732405
51
270.0097136
0
ARC
8
DEFAULT_255_1_234
10
16.4622321
20
149.9272105
40
0.3222994
50
269.6924892
51
280.4117579
0
ARC
8
DEFAULT_255_1_234
10
16.4798728
20
149.8353193
40
0.2287344
50
280.2255091
51
298.6338936
0
ARC
8
DEFAULT_255_1_234
10
16.491552
20
149.8109223
40
0.2017294
50
299.0430333
51
300.4643464
0
ARC
8
DEFAULT_255_1_234
10
16.4235525
20
149.9243038
40
0.3339357
50
300.6577328
51
322.0378878
0
ARC
8
DEFAULT_255_1_234
10
16.3885064
20
149.9547021
40
0.3802736
50
321.6750233
51
322.3046845
0
ARC
8
DEFAULT_255_1_234
10
16.4816026
20
149.838037
40
0.3520454
50
276.9728461
51
328.0035423
0
ARC
8
DEFAULT_255_1_234
10
16.4539078
20
149.9860841
40
0.5024498
50
269.8361028
51
278.0581756
0
ARC
8
DEFAULT_255_1_234
10
16.4311816
20
150.0605757
40
0.202159
50
89.2018686
51
117.2851756
0
ARC
8
DEFAULT_255_1_234
10
16.4364985
20
150.0563752
40
0.2083484
50
118.0551165
51
137.4540413
0
ARC
8
DEFAULT_255_1_234
10
16.4739725
20
150.0223304
40
0.2589774
50
137.5109581
51
158.8516286
0
ARC
8
DEFAULT_255_1_234
10
16.587756
20
149.9764074
40
0.38167
50
158.5845963
51
170.1721436
0
ARC
8
DEFAULT_255_1_234
10
16.704695
20
149.9531823
40
0.5008657
50
169.8376422
51
173.0566086
0
ARC
8
DEFAULT_255_1_234
10
16.2350023
20
150.0042509
40
0.4083467
50
2.9091802
51
12.8847116
0
ARC
8
DEFAULT_255_1_234
10
16.37207
20
150.0365101
40
0.2675383
50
12.6957781
51
28.6404489
0
ARC
8
DEFAULT_255_1_234
10
16.4262371
20
150.0645458
40
0.2065654
50
29.0169854
51
41.1487595
0
ARC
8
DEFAULT_255_1_234
10
16.4465156
20
150.0822003
40
0.1796786
50
41.1646065
51
85.0013516
0
ARC
8
DEFAULT_255_1_234
10
16.4344253
20
150.0087431
40
0.2539726
50
83.7280015
51
90.0964893
0
LINE
8
DEFAULT_255_1_234
10
17.609844
20
150.1133248
11
17.4604537
21
150.1133248
0
LINE
8
DEFAULT_255_1_234
10
16.9271463
20
149.7671569
11
17.0757334
21
149.7671569
0
ARC
8
DEFAULT_255_1_234
10
17.3416356
20
149.7316959
40
0.1276617
50
359.3334982
51
18.5871358
0
ARC
8
DEFAULT_255_1_234
10
17.3624993
20
149.7372133
40
0.1061371
50
19.3540742
51
54.6485071
0
ARC
8
DEFAULT_255_1_234
10
17.3120895
20
149.6676919
40
0.1920087
50
54.3827097
51
65.0622807
0
ARC
8
DEFAULT_255_1_234
10
17.2352291
20
149.50599
40
0.3710447
50
64.8282493
51
71.4200025
0
ARC
8
DEFAULT_255_1_234
10
17.1450167
20
149.2413107
40
0.6506741
50
71.3164301
51
75.8006402
0
ARC
8
DEFAULT_255_1_234
10
17.0608987
20
148.9172561
40
0.9854641
50
75.6809531
51
78.0061883
0
ARC
8
DEFAULT_255_1_234
10
17.505752
20
151.015177
40
1.1591028
50
254.6901892
51
258.0466452
0
ARC
8
DEFAULT_255_1_234
10
17.4019428
20
150.6392781
40
0.7691345
50
249.9010773
51
254.755261
0
ARC
8
DEFAULT_255_1_234
10
17.301577
20
150.3666982
40
0.478665
50
243.3097214
51
249.9709442
0
ARC
8
DEFAULT_255_1_234
10
17.2386792
20
150.2412778
40
0.3383568
50
234.4047477
51
243.2862168
0
ARC
8
DEFAULT_255_1_234
10
17.1764315
20
150.1553232
40
0.2322322
50
220.8667099
51
234.5493881
0
ARC
8
DEFAULT_255_1_234
10
17.1422256
20
150.1241817
40
0.1859923
50
214.3062465
51
220.5065136
0
ARC
8
DEFAULT_255_1_234
10
17.1396335
20
150.121088
40
0.1821108
50
186.912965
51
213.9618616
0
ARC
8
DEFAULT_255_1_234
10
17.192843
20
150.1297009
40
0.2359799
50
179.8808832
51
187.4339886
0
ARC
8
DEFAULT_255_1_234
10
17.1773563
20
150.1317088
40
0.2204978
50
132.005434
51
180.3942919
0
ARC
8
DEFAULT_255_1_234
10
17.2430177
20
150.0711083
40
0.3095791
50
129.2319861
51
133.5302299
0
ARC
8
DEFAULT_255_1_234
10
17.2483685
20
150.0616928
40
0.3202615
50
100.4410011
51
128.9081242
0
ARC
8
DEFAULT_255_1_234
10
17.2757569
20
149.9331455
40
0.4516583
50
89.6985377
51
100.9026564
0
ARC
8
DEFAULT_255_1_234
10
17.2814611
20
149.9171166
40
0.4676928
50
77.6965325
51
90.4076836
0
ARC
8
DEFAULT_255_1_234
10
17.3145595
20
150.0598413
40
0.3211988
50
50.7276602
51
78.0399361
0
ARC
8
DEFAULT_255_1_234
10
17.3590053
20
150.1116296
40
0.2529778
50
25.7545084
51
51.0957453
0
ARC
8
DEFAULT_255_1_234
10
17.3591278
20
150.1166206
40
0.250738
50
359.2468627
51
24.7394243
0
ARC
8
DEFAULT_255_1_234
10
17.330673
20
150.1137664
40
0.1297815
50
359.8050318
51
45.1544908
0
ARC
8
DEFAULT_255_1_234
10
17.2899872
20
150.0789794
40
0.1831883
50
43.8047702
51
49.6271585
0
ARC
8
DEFAULT_255_1_234
10
17.2907773
20
150.0790678
40
0.18261
50
49.7980766
51
82.1218353
0
ARC
8
DEFAULT_255_1_234
10
17.2788745
20
150.0143998
40
0.2483163
50
81.4465357
51
90.1710293
0
ARC
8
DEFAULT_255_1_234
10
17.2764348
20
149.961788
40
0.300932
50
89.6766211
51
99.1264602
0
ARC
8
DEFAULT_255_1_234
10
17.259281
20
150.0651537
40
0.1961547
50
98.968313
51
113.4570237
0
ARC
8
DEFAULT_255_1_234
10
17.2396895
20
150.1119965
40
0.1453859
50
113.722589
51
127.4763106
0
ARC
8
DEFAULT_255_1_234
10
17.2228541
20
150.1320124
40
0.1192639
50
126.9083309
51
150.3165862
0
ARC
8
DEFAULT_255_1_234
10
17.2180874
20
150.1370981
40
0.112623
50
151.3635175
51
180.0701457
0
ARC
8
DEFAULT_255_1_234
10
17.2489658
20
150.134999
40
0.1435149
50
179.2169974
51
179.9954013
0
ARC
8
DEFAULT_255_1_234
10
17.2128716
20
150.1337056
40
0.1074286
50
179.3040112
51
198.4225446
0
ARC
8
DEFAULT_255_1_234
10
17.1936849
20
150.1287127
40
0.0876573
50
199.2895851
51
238.6034594
0
ARC
8
DEFAULT_255_1_234
10
17.2539696
20
150.223345
40
0.1998512
50
237.9846301
51
246.8744712
0
ARC
8
DEFAULT_255_1_234
10
17.3397641
20
150.4196205
40
0.4140547
50
246.6234531
51
251.8168941
0
ARC
8
DEFAULT_255_1_234
10
17.4428184
20
150.7290905
40
0.7402308
50
251.713434
51
255.0778414
0
ARC
8
DEFAULT_255_1_234
10
17.5627447
20
151.1757563
40
1.2027155
50
255.0367487
51
257.4705983
0
ARC
8
DEFAULT_255_1_234
10
17.0519457
20
148.8743863
40
1.1546601
50
73.6837552
51
77.5016755
0
ARC
8
DEFAULT_255_1_234
10
17.1608232
20
149.2443581
40
0.7690009
50
68.7044154
51
73.7249639
0
ARC
8
DEFAULT_255_1_234
10
17.2511252
20
149.4770654
40
0.5193873
50
63.590599
51
68.6626804
0
ARC
8
DEFAULT_255_1_234
10
17.3282271
20
149.6308123
40
0.3473927
50
54.7106439
51
63.7013633
0
ARC
8
DEFAULT_255_1_234
10
17.3906726
20
149.71804
40
0.2401192
50
41.0622434
51
54.8487496
0
ARC
8
DEFAULT_255_1_234
10
17.4248112
20
149.7493592
40
0.1938094
50
34.4950568
51
40.7105546
0
ARC
8
DEFAULT_255_1_234
10
17.4294919
20
149.7542078
40
0.1872106
50
9.3763373
51
34.0833615
0
ARC
8
DEFAULT_255_1_234
10
17.364179
20
149.7416728
40
0.2536988
50
359.7694872
51
9.7663171
0
ARC
8
DEFAULT_255_1_234
10
17.3839291
20
149.7373764
40
0.2339696
50
335.8654732
51
0.8022045
0
ARC
8
DEFAULT_255_1_234
10
17.3914335
20
149.7387197
40
0.2277108
50
307.7357725
51
334.7849066
0
ARC
8
DEFAULT_255_1_234
10
17.3513511
20
149.7837645
40
0.2878951
50
307.0241536
51
308.5578354
0
ARC
8
DEFAULT_255_1_234
10
17.3255842
20
149.8223801
40
0.3342515
50
282.9362969
51
306.5646424
0
ARC
8
DEFAULT_255_1_234
10
17.289414
20
149.9691108
40
0.4853615
50
271.1026298
51
283.2200835
0
ARC
8
DEFAULT_255_1_234
10
17.2830384
20
150.0932418
40
0.6096052
50
269.9919117
51
271.4772449
0
ARC
8
DEFAULT_255_1_234
10
17.2804139
20
149.9854436
40
0.5018135
50
259.0723564
51
270.289833
0
ARC
8
DEFAULT_255_1_234
10
17.2591871
20
149.8737271
40
0.388099
50
245.4963068
51
259.0227342
0
ARC
8
DEFAULT_255_1_234
10
17.2313827
20
149.8155615
40
0.3236422
50
228.9684658
51
245.7044727
0
ARC
8
DEFAULT_255_1_234
10
17.2048271
20
149.7828575
40
0.2815426
50
214.4011705
51
228.6759915
0
ARC
8
DEFAULT_255_1_234
10
17.1759011
20
149.767029
40
0.2487548
50
179.9705531
51
215.1572795
0
ARC
8
DEFAULT_255_1_234
10
17.2459611
20
149.7743806
40
0.1703809
50
182.4299387
51
203.0329699
0
ARC
8
DEFAULT_255_1_234
10
17.2275269
20
149.7687396
40
0.1512226
50
203.798802
51
232.548466
0
ARC
8
DEFAULT_255_1_234
10
17.255179
20
149.8038826
40
0.1959374
50
232.3782728
51
256.3934612
0
ARC
8
DEFAULT_255_1_234
10
17.2782152
20
149.8928842
40
0.2878639
50
256.104506
51
268.4626716
0
ARC
8
DEFAULT_255_1_234
10
17.2828636
20
149.9725487
40
0.3676329
50
268.0715632
51
270.0138206
0
ARC
8
DEFAULT_255_1_234
10
17.2847161
20
149.9453083
40
0.3403971
50
269.7031147
51
278.8341955
0
ARC
8
DEFAULT_255_1_234
10
17.3029254
20
149.8322876
40
0.2259217
50
278.6728789
51
292.8232582
0
ARC
8
DEFAULT_255_1_234
10
17.3229792
20
149.7821449
40
0.171929
50
293.1452328
51
303.6655899
0
ARC
8
DEFAULT_255_1_234
10
17.3494671
20
149.7445204
40
0.1259367
50
303.1248165
51
321.742847
0
ARC
8
DEFAULT_255_1_234
10
17.3680551
20
149.7282156
40
0.1012531
50
322.4748573
51
1.1291126
0
LINE
8
DEFAULT_255_1_234
10
8.456523
20
-0.2802337
11
8.6115355
21
-0.2802337
0
LINE
8
DEFAULT_255_1_234
10
7.7111777
20
-0.1212053
11
7.7111777
21
-0.0087609
0
LINE
8
DEFAULT_255_1_234
10
8.6115355
20
0.1422357
11
8.456523
21
0.1422357
0
LINE
8
DEFAULT_255_1_234
10
7.8661902
20
-0.0127768
11
7.8661902
21
-0.1260243
0
ARC
8
DEFAULT_255_1_234
10
8.0634742
20
-0.2205154
40
0.5513052
50
340.1774281
51
353.7814284
0
ARC
8
DEFAULT_255_1_234
10
8.2206095
20
-0.2790418
40
0.3836379
50
311.4558989
51
340.4421614
0
ARC
8
DEFAULT_255_1_234
10
8.2172763
20
-0.2679472
40
0.3941894
50
282.4333181
51
310.7513653
0
ARC
8
DEFAULT_255_1_234
10
8.1733502
20
-0.0864321
40
0.5809175
50
269.9358511
51
282.809604
0
ARC
8
DEFAULT_255_1_234
10
8.1681568
20
0.0593212
40
0.7266847
50
270.0021091
51
270.3581957
0
ARC
8
DEFAULT_255_1_234
10
8.1628985
20
-0.2007415
40
0.4666519
50
250.7884749
51
270.6489167
0
ARC
8
DEFAULT_255_1_234
10
8.146082
20
-0.2644681
40
0.4009729
50
219.3627325
51
250.0611886
0
ARC
8
DEFAULT_255_1_234
10
8.2290031
20
-0.1939958
40
0.5097822
50
193.5479632
51
219.5756669
0
ARC
8
DEFAULT_255_1_234
10
8.4661652
20
-0.1324081
40
0.7547848
50
181.1218675
51
193.87563
0
ARC
8
DEFAULT_255_1_234
10
8.6731833
20
-0.121342
40
0.9620055
50
179.9918545
51
181.5394234
0
ARC
8
DEFAULT_255_1_234
10
8.4880935
20
-0.0050212
40
0.7769248
50
169.5837241
51
180.2757934
0
ARC
8
DEFAULT_255_1_234
10
8.3043873
20
0.0289229
40
0.590109
50
155.0365899
51
169.6003176
0
ARC
8
DEFAULT_255_1_234
10
8.1908337
20
0.0836677
40
0.4640625
50
136.783148
51
155.2472683
0
ARC
8
DEFAULT_255_1_234
10
8.1518814
20
0.1167562
40
0.4130255
50
121.7633186
51
136.428115
0
ARC
8
DEFAULT_255_1_234
10
8.1653776
20
0.0918227
40
0.4413323
50
95.6459699
51
121.5490577
0
ARC
8
DEFAULT_255_1_234
10
8.1811058
20
-0.0190051
40
0.55319
50
89.924208
51
96.1377933
0
ARC
8
DEFAULT_255_1_234
10
8.1861491
20
-0.0071458
40
0.5413475
50
76.6779277
51
90.4563316
0
ARC
8
DEFAULT_255_1_234
10
8.2255114
20
0.1519114
40
0.3775041
50
47.485847
51
76.9287264
0
ARC
8
DEFAULT_255_1_234
10
8.2108087
20
0.1419159
40
0.3948286
50
16.5424086
51
46.8933463
0
ARC
8
DEFAULT_255_1_234
10
8.0500244
20
0.0890861
40
0.564021
50
5.4072051
51
17.0365086
0
ARC
8
DEFAULT_255_1_234
10
7.9061261
20
0.0659679
40
0.5556559
50
7.8891745
51
15.9239216
0
ARC
8
DEFAULT_255_1_234
10
8.1048274
20
0.1236631
40
0.3487515
50
15.7653144
51
27.9410532
0
ARC
8
DEFAULT_255_1_234
10
8.2152492
20
0.182779
40
0.2235026
50
27.8166557
51
46.4008329
0
ARC
8
DEFAULT_255_1_234
10
8.2202135
20
0.1822082
40
0.2205286
50
47.4371857
51
75.0698205
0
ARC
8
DEFAULT_255_1_234
10
8.1893529
20
0.0747765
40
0.3322915
50
74.7008593
51
87.8124495
0
ARC
8
DEFAULT_255_1_234
10
8.1820217
20
-0.0308156
40
0.4380987
50
87.3814673
51
90.0240855
0
ARC
8
DEFAULT_255_1_234
10
8.178176
20
0.0869291
40
0.3203749
50
89.3451631
51
108.5745436
0
ARC
8
DEFAULT_255_1_234
10
8.1644865
20
0.1382908
40
0.2673494
50
109.2998449
51
143.3037509
0
ARC
8
DEFAULT_255_1_234
10
8.2406938
20
0.0796881
40
0.3634757
50
143.0753173
51
163.1916937
0
ARC
8
DEFAULT_255_1_234
10
8.4358666
20
0.0180967
40
0.5681262
50
162.9373603
51
174.6208611
0
ARC
8
DEFAULT_255_1_234
10
8.6984708
20
-0.010699
40
0.8322832
50
174.3419979
51
180.1430411
0
ARC
8
DEFAULT_255_1_234
10
8.6053864
20
-0.1301302
40
0.7392076
50
179.6817502
51
189.150529
0
ARC
8
DEFAULT_255_1_234
10
8.3553112
20
-0.171781
40
0.4856932
50
188.9910863
51
203.5773039
0
ARC
8
DEFAULT_255_1_234
10
8.2473445
20
-0.2165789
40
0.3688271
50
203.9077269
51
215.1312379
0
ARC
8
DEFAULT_255_1_234
10
8.1550539
20
-0.2881059
40
0.2522457
50
213.9071664
51
263.8849284
0
ARC
8
DEFAULT_255_1_234
10
8.1675868
20
-0.2096482
40
0.3316174
50
263.1758525
51
270.1031083
0
ARC
8
DEFAULT_255_1_234
10
8.170796
20
-0.0849635
40
0.4563091
50
269.6719807
51
279.0609165
0
ARC
8
DEFAULT_255_1_234
10
8.1974728
20
-0.2462093
40
0.2928759
50
278.8750225
51
293.6346586
0
ARC
8
DEFAULT_255_1_234
10
8.2294936
20
-0.32141
40
0.2111472
50
293.8553404
51
310.0518804
0
ARC
8
DEFAULT_255_1_234
10
8.229979
20
-0.3276484
40
0.2060917
50
311.0646779
51
332.0108348
0
ARC
8
DEFAULT_255_1_234
10
8.1107517
20
-0.2619022
40
0.3422352
50
331.6588543
51
343.2878891
0
ARC
8
DEFAULT_255_1_234
10
7.9045032
20
-0.1985202
40
0.5580003
50
343.1446044
51
351.010618
0
ARC
8
DEFAULT_255_1_234
10
7.7503678
20
-0.1704129
40
0.7146438
50
350.7157277
51
351.1602153
0
LINE
8
DEFAULT_255_1_234
10
9.2516651
20
-0.1934909
11
8.9761765
21
-0.1934909
0
LINE
8
DEFAULT_255_1_234
10
8.9761765
20
-0.1934909
11
8.9761765
21
-0.6513
0
LINE
8
DEFAULT_255_1_234
10
8.9761765
20
-0.6513
11
8.8219671
21
-0.6513
0
LINE
8
DEFAULT_255_1_234
10
8.8219671
20
-0.6513
11
8.8219671
21
0.5181211
0
LINE
8
DEFAULT_255_1_234
10
8.8219671
20
0.5181211
11
9.2532714
21
0.5181211
0
LINE
8
DEFAULT_255_1_234
10
8.9761765
20
0.3912196
11
8.9761765
21
-0.0673926
0
LINE
8
DEFAULT_255_1_234
10
8.9761765
20
-0.0673926
11
9.2532714
21
-0.0673926
0
LINE
8
DEFAULT_255_1_234
10
9.2621063
20
0.3912196
11
8.9761765
21
0.3912196
0
ARC
8
DEFAULT_255_1_234
10
9.2574841
20
-0.0877805
40
0.6059162
50
78.8378113
51
90.3983573
0
ARC
8
DEFAULT_255_1_234
10
9.2990855
20
0.1142879
40
0.3996205
50
58.9632738
51
79.0810598
0
ARC
8
DEFAULT_255_1_234
10
9.3292397
20
0.1702721
40
0.3361177
50
48.0197965
51
58.447194
0
ARC
8
DEFAULT_255_1_234
10
9.3381258
20
0.1788225
40
0.3238191
50
3.3375044
51
48.1766626
0
ARC
8
DEFAULT_255_1_234
10
9.2151098
20
0.1611171
40
0.4477806
50
359.9477528
51
4.6829065
0
ARC
8
DEFAULT_255_1_234
10
9.2274414
20
0.1568628
40
0.4354656
50
346.1877825
51
0.5060252
0
ARC
8
DEFAULT_255_1_234
10
9.3633282
20
0.1215731
40
0.295089
50
310.8831995
51
346.5426355
0
ARC
8
DEFAULT_255_1_234
10
9.3324702
20
0.1632695
40
0.3468331
50
286.6925341
51
310.2288297
0
ARC
8
DEFAULT_255_1_234
10
9.2755533
20
0.3422882
40
0.5346654
50
274.6850312
51
287.0245141
0
ARC
8
DEFAULT_255_1_234
10
9.2530256
20
0.5631932
40
0.7566852
50
269.8969846
51
275.018904
0
ARC
8
DEFAULT_255_1_234
10
9.2557847
20
0.3552707
40
0.4226708
50
269.6593078
51
279.4153575
0
ARC
8
DEFAULT_255_1_234
10
9.2815122
20
0.2062133
40
0.2714146
50
279.2049762
51
294.9900808
0
ARC
8
DEFAULT_255_1_234
10
9.3105448
20
0.1414508
40
0.2004525
50
295.2888114
51
311.2911209
0
ARC
8
DEFAULT_255_1_234
10
9.3176342
20
0.130922
40
0.1878703
50
311.7854996
51
347.2861051
0
ARC
8
DEFAULT_255_1_234
10
9.2192501
20
0.1562092
40
0.2894234
50
346.6893224
51
0.1059443
0
ARC
8
DEFAULT_255_1_234
10
9.1437396
20
0.1590685
40
0.3649409
50
359.6350983
51
0.0053152
0
ARC
8
DEFAULT_255_1_234
10
9.2407724
20
0.1615937
40
0.2679199
50
359.4672059
51
15.5933957
0
ARC
8
DEFAULT_255_1_234
10
9.3032613
20
0.1784779
40
0.2031932
50
15.7442113
51
46.6203375
0
ARC
8
DEFAULT_255_1_234
10
9.2884834
20
0.1614484
40
0.2257226
50
46.8628658
51
75.6676503
0
ARC
8
DEFAULT_255_1_234
10
9.2590654
20
0.0555718
40
0.3355939
50
75.276167
51
88.2915297
0
ARC
8
DEFAULT_255_1_234
10
9.2532361
20
-0.0322476
40
0.4235602
50
87.8575022
51
88.8000139
0
LINE
8
DEFAULT_255_1_234
10
10.309445
20
0.5237433
11
10.309445
21
-0.6513
0
LINE
8
DEFAULT_255_1_234
10
10.309445
20
-0.6513
11
10.1600547
21
-0.6513
0
LINE
8
DEFAULT_255_1_234
10
10.1600547
20
-0.6513
11
10.1600547
21
0.3390133
0
LINE
8
DEFAULT_255_1_234
10
10.1600547
20
0.3390133
11
9.8604708
21
0.2289785
0
LINE
8
DEFAULT_255_1_234
10
9.8604708
20
0.2289785
11
9.8604708
21
0.3639117
0
LINE
8
DEFAULT_255_1_234
10
9.8604708
20
0.3639117
11
10.286153
21
0.5237433
0
LINE
8
DEFAULT_255_1_234
10
10.286153
20
0.5237433
11
10.309445
21
0.5237433
0
LINE
8
DEFAULT_255_1_234
10
10.9383301
20
0.5181211
11
10.9383301
21
-0.5252017
0
LINE
8
DEFAULT_255_1_234
10
10.9383301
20
-0.5252017
11
11.4925201
21
-0.5252017
0
LINE
8
DEFAULT_255_1_234
10
11.4925201
20
-0.5252017
11
11.4925201
21
-0.6513
0
LINE
8
DEFAULT_255_1_234
10
11.4925201
20
-0.6513
11
10.7833176
21
-0.6513
0
LINE
8
DEFAULT_255_1_234
10
10.7833176
20
-0.6513
11
10.7833176
21
0.5181211
0
LINE
8
DEFAULT_255_1_234
10
10.7833176
20
0.5181211
11
10.9383301
21
0.5181211
0
LINE
8
DEFAULT_255_1_234
10
11.954345
20
-0.0938974
11
11.954345
21
-0.2151766
0
LINE
8
DEFAULT_255_1_234
10
11.954345
20
-0.2151766
11
11.5623962
21
-0.2151766
0
LINE
8
DEFAULT_255_1_234
10
11.5623962
20
-0.2151766
11
11.5623962
21
-0.0938974
0
LINE
8
DEFAULT_255_1_234
10
11.5623962
20
-0.0938974
11
11.954345
21
-0.0938974
0
LINE
8
DEFAULT_255_1_234
10
12.7832204
20
0.0153343
11
12.7832204
21
-0.110764
0
LINE
8
DEFAULT_255_1_234
10
12.7832204
20
-0.110764
11
12.2764177
21
-0.110764
0
LINE
8
DEFAULT_255_1_234
10
12.2764177
20
-0.110764
11
12.2764177
21
-0.5252017
0
LINE
8
DEFAULT_255_1_234
10
12.2764177
20
-0.5252017
11
12.8651441
21
-0.5252017
0
LINE
8
DEFAULT_255_1_234
10
12.8651441
20
-0.5252017
11
12.8651441
21
-0.6513
0
LINE
8
DEFAULT_255_1_234
10
12.8651441
20
-0.6513
11
12.1222083
21
-0.6513
0
LINE
8
DEFAULT_255_1_234
10
12.1222083
20
-0.6513
11
12.1222083
21
0.5181211
0
LINE
8
DEFAULT_255_1_234
10
12.1222083
20
0.5181211
11
12.8571124
21
0.5181211
0
LINE
8
DEFAULT_255_1_234
10
12.8571124
20
0.5181211
11
12.8571124
21
0.3912196
0
LINE
8
DEFAULT_255_1_234
10
12.8571124
20
0.3912196
11
12.2764177
21
0.3912196
0
LINE
8
DEFAULT_255_1_234
10
12.2764177
20
0.3912196
11
12.2764177
21
0.0153343
0
LINE
8
DEFAULT_255_1_234
10
12.2764177
20
0.0153343
11
12.7832204
21
0.0153343
0
LINE
8
DEFAULT_255_1_234
10
13.0571027
20
0.5181211
11
13.2562898
21
0.5181211
0
LINE
8
DEFAULT_255_1_234
10
13.2562898
20
0.5181211
11
13.6386005
21
-0.4360494
0
LINE
8
DEFAULT_255_1_234
10
13.6386005
20
-0.4360494
11
14.0209113
21
0.5181211
0
LINE
8
DEFAULT_255_1_234
10
14.0209113
20
0.5181211
11
14.2209016
21
0.5181211
0
LINE
8
DEFAULT_255_1_234
10
14.2209016
20
0.5181211
11
14.2209016
21
-0.6513
0
LINE
8
DEFAULT_255_1_234
10
14.2209016
20
-0.6513
11
14.0666922
21
-0.6513
0
LINE
8
DEFAULT_255_1_234
10
14.0666922
20
-0.6513
11
14.0666922
21
-0.1959004
0
LINE
8
DEFAULT_255_1_234
10
14.0666922
20
-0.1959004
11
14.0811493
21
0.2956419
0
LINE
8
DEFAULT_255_1_234
10
14.0811493
20
0.2956419
11
13.6972322
21
-0.6513
0
LINE
8
DEFAULT_255_1_234
10
13.6972322
20
-0.6513
11
13.5791657
21
-0.6513
0
LINE
8
DEFAULT_255_1_234
10
13.5791657
20
-0.6513
11
13.1960518
21
0.2932324
0
LINE
8
DEFAULT_255_1_234
10
13.1960518
20
0.2932324
11
13.2113121
21
-0.1959004
0
LINE
8
DEFAULT_255_1_234
10
13.2113121
20
-0.1959004
11
13.2113121
21
-0.6513
0
LINE
8
DEFAULT_255_1_234
10
13.2113121
20
-0.6513
11
13.0571027
21
-0.6513
0
LINE
8
DEFAULT_255_1_234
10
13.0571027
20
-0.6513
11
13.0571027
21
0.5181211
0
LINE
8
DEFAULT_255_1_234
10
14.6706789
20
-0.1155831
11
14.6706789
21
0.0056962
0
LINE
8
DEFAULT_255_1_234
10
14.6706789
20
0.0056962
11
14.7823201
21
0.0056962
0
LINE
8
DEFAULT_255_1_234
10
14.5919679
20
0.2113087
11
14.4433807
21
0.2113087
0
LINE
8
DEFAULT_255_1_234
10
14.4329395
20
-0.3428812
11
14.5823298
21
-0.3428812
0
LINE
8
DEFAULT_255_1_234
10
14.7823201
20
-0.1155831
11
14.6706789
21
-0.1155831
0
ARC
8
DEFAULT_255_1_234
10
14.7794067
20
0.3449713
40
0.3392876
50
270.4919872
51
281.8951556
0
ARC
8
DEFAULT_255_1_234
10
14.8035329
20
0.2347702
40
0.2264817
50
281.6691735
51
301.2943132
0
ARC
8
DEFAULT_255_1_234
10
14.8205539
20
0.2036304
40
0.1910381
50
301.7833094
51
311.7545298
0
ARC
8
DEFAULT_255_1_234
10
14.8297115
20
0.1934748
40
0.1773635
50
311.7323931
51
354.2802411
0
ARC
8
DEFAULT_255_1_234
10
14.757074
20
0.2059722
40
0.2509385
50
353.0937916
51
0.1181479
0
ARC
8
DEFAULT_255_1_234
10
14.7109525
20
0.2107386
40
0.2970898
50
359.1805295
51
15.0453146
0
ARC
8
DEFAULT_255_1_234
10
14.8455362
20
0.2499992
40
0.1569564
50
13.9577229
51
77.6713066
0
ARC
8
DEFAULT_255_1_234
10
14.8068891
20
0.1114949
40
0.3006298
50
76.1116566
51
90.7026153
0
ARC
8
DEFAULT_255_1_234
10
14.8009729
20
0.1388545
40
0.2732568
50
89.5324876
51
103.531937
0
ARC
8
DEFAULT_255_1_234
10
14.7809174
20
0.2187884
40
0.1908508
50
103.2931773
51
133.5619022
0
ARC
8
DEFAULT_255_1_234
10
14.7764662
20
0.2247375
40
0.1834746
50
133.8349307
51
173.5344437
0
ARC
8
DEFAULT_255_1_234
10
14.8487705
20
0.2119213
40
0.2568033
50
172.5096846
51
180.1366907
0
ARC
8
DEFAULT_255_1_234
10
14.7536599
20
0.2153622
40
0.3103056
50
155.3484492
51
180.7484736
0
ARC
8
DEFAULT_255_1_234
10
14.7487688
20
0.2124846
40
0.3070957
50
131.5744599
51
154.4798489
0
ARC
8
DEFAULT_255_1_234
10
14.7800835
20
0.180831
40
0.3515643
50
96.9875458
51
131.9690667
0
ARC
8
DEFAULT_255_1_234
10
14.8020315
20
0.0562636
40
0.4779224
50
89.8596053
51
97.7825159
0
ARC
8
DEFAULT_255_1_234
10
14.8068378
20
0.0300616
40
0.5041361
50
78.3655447
51
90.4131539
0
ARC
8
DEFAULT_255_1_234
10
14.8426296
20
0.1959887
40
0.3344039
50
56.6229102
51
78.638727
0
ARC
8
DEFAULT_255_1_234
10
14.864124
20
0.2335805
40
0.2912001
50
47.0253525
51
56.0854072
0
ARC
8
DEFAULT_255_1_234
10
14.866102
20
0.2375223
40
0.2869704
50
10.9208013
51
46.7778124
0
ARC
8
DEFAULT_255_1_234
10
14.7297086
20
0.2059857
40
0.426899
50
359.6364486
51
11.6087304
0
ARC
8
DEFAULT_255_1_234
10
14.9131931
20
0.2044752
40
0.243409
50
332.3549906
51
359.7179418
0
ARC
8
DEFAULT_255_1_234
10
14.8481532
20
0.2353142
40
0.3153459
50
325.2333722
51
332.8745602
0
ARC
8
DEFAULT_255_1_234
10
14.8634156
20
0.2246828
40
0.2967456
50
292.9802137
51
325.2392345
0
ARC
8
DEFAULT_255_1_234
10
14.835953
20
0.2780863
40
0.3566604
50
292.5402179
51
293.6924929
0
ARC
8
DEFAULT_255_1_234
10
14.8752125
20
-0.3673909
40
0.3307468
50
57.6435486
51
72.8625112
0
ARC
8
DEFAULT_255_1_234
10
14.9106625
20
-0.3099451
40
0.2632492
50
36.7248896
51
57.4697979
0
ARC
8
DEFAULT_255_1_234
10
14.9095258
20
-0.308678
40
0.2634081
50
8.0545065
51
36.356114
0
ARC
8
DEFAULT_255_1_234
10
14.8232443
20
-0.3241826
40
0.3510261
50
359.8320645
51
8.5869982
0
ARC
8
DEFAULT_255_1_234
10
14.7857219
20
-0.3289899
40
0.3885653
50
343.9829931
51
0.5571613
0
ARC
8
DEFAULT_255_1_234
10
14.8743417
20
-0.3532562
40
0.2966924
50
311.6359546
51
343.7651759
0
ARC
8
DEFAULT_255_1_234
10
14.8364986
20
-0.3105898
40
0.3537231
50
279.7829875
51
311.6255694
0
ARC
8
DEFAULT_255_1_234
10
14.8063762
20
-0.166872
40
0.5004971
50
269.7286406
51
280.3856417
0
ARC
8
DEFAULT_255_1_234
10
14.8001835
20
-0.1710004
40
0.4963778
50
256.6828919
51
270.4412052
0
ARC
8
DEFAULT_255_1_234
10
14.766313
20
-0.3094606
40
0.3538406
50
229.4223008
51
256.8556159
0
ARC
8
DEFAULT_255_1_234
10
14.7248523
20
-0.3561264
40
0.2914296
50
181.818294
51
229.6455059
0
ARC
8
DEFAULT_255_1_234
10
14.8288479
20
-0.3430504
40
0.3959084
50
179.9755256
51
183.2323064
0
ARC
8
DEFAULT_255_1_234
10
14.8116225
20
-0.3450963
40
0.2293034
50
179.4465117
51
196.2869258
0
ARC
8
DEFAULT_255_1_234
10
14.7628633
20
-0.3584349
40
0.1787621
50
196.5661473
51
227.705904
0
ARC
8
DEFAULT_255_1_234
10
14.7792728
20
-0.3400845
40
0.2033784
50
227.7652068
51
257.8762805
0
ARC
8
DEFAULT_255_1_234
10
14.8017698
20
-0.2457844
40
0.3003081
50
257.4584385
51
270.426602
0
ARC
8
DEFAULT_255_1_234
10
14.8063264
20
-0.2168004
40
0.329292
50
269.5962073
51
280.8789248
0
ARC
8
DEFAULT_255_1_234
10
14.8292793
20
-0.3314315
40
0.2123908
50
280.6346389
51
299.8595945
0
ARC
8
DEFAULT_255_1_234
10
14.84837
20
-0.3676788
40
0.171457
50
300.3576302
51
314.5517981
0
ARC
8
DEFAULT_255_1_234
10
14.840076
20
-0.3616081
40
0.1816095
50
315.0728369
51
345.0431014
0
ARC
8
DEFAULT_255_1_234
10
14.7477574
20
-0.3347159
40
0.2777492
50
344.5986631
51
357.9269593
0
ARC
8
DEFAULT_255_1_234
10
14.6581901
20
-0.3285724
40
0.3674917
50
357.4748886
51
0.0231117
0
ARC
8
DEFAULT_255_1_234
10
14.760501
20
-0.3261321
40
0.2651907
50
359.5047933
51
13.4239635
0
ARC
8
DEFAULT_255_1_234
10
14.8471654
20
-0.3039522
40
0.1757509
50
12.9498199
51
48.7551375
0
ARC
8
DEFAULT_255_1_234
10
14.8289388
20
-0.32886
40
0.2065134
50
49.5088623
51
72.1836453
0
ARC
8
DEFAULT_255_1_234
10
14.793154
20
-0.4350709
40
0.3185836
50
71.9010081
51
84.3554254
0
ARC
8
DEFAULT_255_1_234
10
14.7770172
20
-0.5711674
40
0.4556151
50
84.0193428
51
89.333121
0
LINE
8
DEFAULT_255_1_234
10
16.1115728
20
0.0402327
11
16.1115728
21
-0.1525291
0
LINE
8
DEFAULT_255_1_234
10
15.373456
20
-0.1726084
11
15.373456
21
0.0257755
0
LINE
8
DEFAULT_255_1_234
10
15.9629856
20
-0.1926877
11
15.9629856
21
0.0506739
0
LINE
8
DEFAULT_255_1_234
10
15.5220432
20
0.0619184
11
15.5220432
21
-0.1758211
0
ARC
8
DEFAULT_255_1_234
10
14.8868617
20
-0.1574195
40
1.2247208
50
353.8441951
51
0.2287902
0
ARC
8
DEFAULT_255_1_234
10
15.3508121
20
-0.2092194
40
0.7578929
50
344.4934747
51
353.9765454
0
ARC
8
DEFAULT_255_1_234
10
15.6500711
20
-0.2943019
40
0.4467846
50
329.2803592
51
344.7472793
0
ARC
8
DEFAULT_255_1_234
10
15.7493536
20
-0.3487982
40
0.3336173
50
324.9352394
51
328.6160465
0
ARC
8
DEFAULT_255_1_234
10
15.7870645
20
-0.3751573
40
0.2876076
50
280.580143
51
324.9173126
0
ARC
8
DEFAULT_255_1_234
10
15.7469437
20
-0.2080901
40
0.4592847
50
269.5977311
51
281.6734359
0
ARC
8
DEFAULT_255_1_234
10
15.7397343
20
-0.2200827
40
0.4472986
50
256.6228859
51
270.51044
0
ARC
8
DEFAULT_255_1_234
10
15.6995321
20
-0.3749123
40
0.2873874
50
215.8618325
51
257.2788573
0
ARC
8
DEFAULT_255_1_234
10
15.8016352
20
-0.3064023
40
0.4102928
50
197.9693508
51
215.2623606
0
ARC
8
DEFAULT_255_1_234
10
16.0501468
20
-0.2225291
40
0.6725652
50
187.8816417
51
198.2346507
0
ARC
8
DEFAULT_255_1_234
10
16.4459676
20
-0.1653921
40
1.0724845
50
180.8976217
51
188.0055519
0
ARC
8
DEFAULT_255_1_234
10
16.7259864
20
-0.1550223
40
1.3526448
50
180.7449369
51
181.1510016
0
ARC
8
DEFAULT_255_1_234
10
16.5682593
20
0.0306042
40
1.1948131
50
173.7675579
51
180.231553
0
ARC
8
DEFAULT_255_1_234
10
16.116474
20
0.0816666
40
0.7401564
50
164.3058563
51
173.9002247
0
ARC
8
DEFAULT_255_1_234
10
15.8252809
20
0.1655656
40
0.4371288
50
148.7922025
51
164.568378
0
ARC
8
DEFAULT_255_1_234
10
15.7301261
20
0.2186929
40
0.3282386
50
144.5883898
51
148.1176286
0
ARC
8
DEFAULT_255_1_234
10
15.6958159
20
0.2426315
40
0.2864044
50
101.6440918
51
144.514236
0
ARC
8
DEFAULT_255_1_234
10
15.7383226
20
0.0737069
40
0.4604934
50
89.5284041
51
102.5819763
0
ARC
8
DEFAULT_255_1_234
10
15.7462313
20
0.0698018
40
0.464401
50
77.0437873
51
90.5081339
0
ARC
8
DEFAULT_255_1_234
10
15.7864315
20
0.2340615
40
0.2953195
50
48.2778575
51
77.4994676
0
ARC
8
DEFAULT_255_1_234
10
15.7936946
20
0.2469746
40
0.2808655
50
36.3142134
51
47.6305865
0
ARC
8
DEFAULT_255_1_234
10
15.7068253
20
0.1884515
40
0.3855453
50
18.2931786
51
35.6769206
0
ARC
8
DEFAULT_255_1_234
10
15.4525012
20
0.1011593
40
0.654423
50
8.024666
51
18.5605216
0
ARC
8
DEFAULT_255_1_234
10
15.0361932
20
0.0396792
40
1.0752407
50
1.1274072
51
8.1718305
0
ARC
8
DEFAULT_255_1_234
10
14.7126123
20
0.0269885
40
1.3990231
50
0.5424119
51
1.3863029
0
ARC
8
DEFAULT_255_1_234
10
14.8947501
20
0.0542342
40
1.0682415
50
359.8090433
51
4.9407866
0
ARC
8
DEFAULT_255_1_234
10
15.3157515
20
0.0918113
40
0.6455691
50
4.8362157
51
12.2904523
0
ARC
8
DEFAULT_255_1_234
10
15.5912629
20
0.1531965
40
0.3633074
50
12.0805627
51
23.8173984
0
ARC
8
DEFAULT_255_1_234
10
15.7086335
20
0.2028919
40
0.2358723
50
24.2871213
51
31.3935614
0
ARC
8
DEFAULT_255_1_234
10
15.7611032
20
0.2372233
40
0.1732111
50
30.7407893
51
82.4657128
0
ARC
8
DEFAULT_255_1_234
10
15.7431166
20
0.1488691
40
0.263235
50
81.1060089
51
90.2184952
0
ARC
8
DEFAULT_255_1_234
10
15.7395465
20
0.1746924
40
0.2374236
50
89.3806855
51
105.6762551
0
ARC
8
DEFAULT_255_1_234
10
15.7212096
20
0.2413567
40
0.1682847
50
105.7981136
51
149.7388061
0
ARC
8
DEFAULT_255_1_234
10
15.8276174
20
0.177395
40
0.2924306
50
149.4208916
51
163.6286378
0
ARC
8
DEFAULT_255_1_234
10
16.0367062
20
0.113625
40
0.5110213
50
163.3763315
51
172.1410975
0
ARC
8
DEFAULT_255_1_234
10
16.3667781
20
0.0663518
40
0.8444586
50
172.0259487
51
178.0703232
0
ARC
8
DEFAULT_255_1_234
10
16.6697871
20
0.0519906
40
1.1477868
50
177.8631668
51
179.5044149
0
ARC
8
DEFAULT_255_1_234
10
16.5625275
20
-0.1794611
40
1.0404907
50
179.7995573
51
185.2460446
0
ARC
8
DEFAULT_255_1_234
10
16.1582314
20
-0.2177487
40
0.6343885
50
185.1411642
51
193.0079639
0
ARC
8
DEFAULT_255_1_234
10
15.8938787
20
-0.2802359
40
0.3627568
50
192.7897626
51
205.2507664
0
ARC
8
DEFAULT_255_1_234
10
15.7892334
20
-0.3269585
40
0.2481908
50
205.8005384
51
211.2537509
0
ARC
8
DEFAULT_255_1_234
10
15.7368774
20
-0.362042
40
0.1852521
50
210.3789793
51
238.4008143
0
ARC
8
DEFAULT_255_1_234
10
15.7349296
20
-0.3573624
40
0.1882621
50
239.6520629
51
265.9793761
0
ARC
8
DEFAULT_255_1_234
10
15.7434497
20
-0.2901573
40
0.2559272
50
265.1315437
51
270.060332
0
ARC
8
DEFAULT_255_1_234
10
15.7463275
20
-0.3225466
40
0.2235528
50
269.3314664
51
287.2178029
0
ARC
8
DEFAULT_255_1_234
10
15.7601127
20
-0.3728721
40
0.1714108
50
287.7958004
51
329.080874
0
ARC
8
DEFAULT_255_1_234
10
15.6643584
20
-0.313107
40
0.2842745
50
328.6634704
51
343.3325132
0
ARC
8
DEFAULT_255_1_234
10
15.4470604
20
-0.2454137
40
0.5118644
50
343.0499468
51
351.9393422
0
ARC
8
DEFAULT_255_1_234
10
15.1003904
20
-0.1943051
40
0.8622784
50
351.8069023
51
357.7959224
0
ARC
8
DEFAULT_255_1_234
10
14.776846
20
-0.1775279
40
1.1862365
50
357.5871873
51
359.2677531
0
LINE
8
DEFAULT_255_1_234
10
16.6641563
20
-0.6513
11
16.3404773
21
-0.6513
0
LINE
8
DEFAULT_255_1_234
10
16.3404773
20
-0.6513
11
16.3404773
21
0.5181211
0
LINE
8
DEFAULT_255_1_234
10
16.3404773
20
0.5181211
11
16.6705817
21
0.5181211
0
LINE
8
DEFAULT_255_1_234
10
17.1862193
20
-0.0272339
11
17.1862193
21
-0.1019291
0
LINE
8
DEFAULT_255_1_234
10
16.6745976
20
0.3912196
11
16.4946867
21
0.3912196
0
LINE
8
DEFAULT_255_1_234
10
16.4946867
20
0.3912196
11
16.4946867
21
-0.5252017
0
LINE
8
DEFAULT_255_1_234
10
16.4946867
20
-0.5252017
11
16.6569278
21
-0.5252017
0
LINE
8
DEFAULT_255_1_234
10
17.0336163
20
-0.0987164
11
17.0336163
21
-0.0304466
0
ARC
8
DEFAULT_255_1_234
10
16.674476
20
-0.0684106
40
0.5865446
50
75.4101064
51
90.3804066
0
ARC
8
DEFAULT_255_1_234
10
16.6974274
20
0.0272492
40
0.4881916
50
60.145586
51
75.1888407
0
ARC
8
DEFAULT_255_1_234
10
16.7133049
20
0.0549199
40
0.4562893
50
26.5253612
51
60.1450928
0
ARC
8
DEFAULT_255_1_234
10
16.6012798
20
-0.0044842
40
0.5830602
50
7.4030428
51
26.8320788
0
ARC
8
DEFAULT_255_1_234
10
16.4418555
20
-0.0293196
40
0.7443669
50
0.1605367
51
7.7176192
0
ARC
8
DEFAULT_255_1_234
10
16.4582459
20
-0.1057566
40
0.7279835
50
348.7289388
51
0.3012466
0
ARC
8
DEFAULT_255_1_234
10
16.623889
20
-0.1386614
40
0.559104
50
333.0706509
51
348.7181832
0
ARC
8
DEFAULT_255_1_234
10
16.7205647
20
-0.1911681
40
0.4491417
50
299.2531685
51
333.4571258
0
ARC
8
DEFAULT_255_1_234
10
16.6844787
20
-0.1226172
40
0.5265881
50
278.107187
51
299.0339503
0
ARC
8
DEFAULT_255_1_234
10
16.6588866
20
0.0281216
40
0.679442
50
270.4443897
51
278.4511052
0
ARC
8
DEFAULT_255_1_234
10
16.6609696
20
-0.0647787
40
0.4604407
50
269.4970433
51
284.0205042
0
ARC
8
DEFAULT_255_1_234
10
16.6964997
20
-0.2013022
40
0.3193797
50
283.7700273
51
318.1555492
0
ARC
8
DEFAULT_255_1_234
10
16.6627755
20
-0.1760633
40
0.3613588
50
318.7415601
51
343.6873628
0
ARC
8
DEFAULT_255_1_234
10
16.4823779
20
-0.1197168
40
0.5503313
50
343.3325091
51
355.8548958
0
ARC
8
DEFAULT_255_1_234
10
16.2725463
20
-0.0997681
40
0.7610708
50
355.4988528
51
0.0791727
0
ARC
8
DEFAULT_255_1_234
10
16.3508086
20
-0.026222
40
0.6828208
50
359.6455037
51
9.8607896
0
ARC
8
DEFAULT_255_1_234
10
16.5868783
20
0.0164099
40
0.4429406
50
9.6571907
51
26.1932807
0
ARC
8
DEFAULT_255_1_234
10
16.6796772
20
0.0595118
40
0.3406537
50
26.5777228
51
40.1532208
0
ARC
8
DEFAULT_255_1_234
10
16.7052498
20
0.0794619
40
0.308246
50
40.3840491
51
80.1431104
0
ARC
8
DEFAULT_255_1_234
10
16.6725616
20
-0.0654667
40
0.4566909
50
79.2152159
51
89.7445637
0
LINE
8
DEFAULT_255_1_234
10
18.2054469
20
0.5181211
11
18.2054469
21
0.3912196
0
LINE
8
DEFAULT_255_1_234
10
18.2054469
20
0.3912196
11
17.8295616
21
0.3912196
0
LINE
8
DEFAULT_255_1_234
10
17.8295616
20
0.3912196
11
17.8295616
21
-0.6513
0
LINE
8
DEFAULT_255_1_234
10
17.8295616
20
-0.6513
11
17.6761554
21
-0.6513
0
LINE
8
DEFAULT_255_1_234
10
17.6761554
20
-0.6513
11
17.6761554
21
0.3912196
0
LINE
8
DEFAULT_255_1_234
10
17.6761554
20
0.3912196
11
17.3010732
21
0.3912196
0
LINE
8
DEFAULT_255_1_234
10
17.3010732
20
0.3912196
11
17.3010732
21
0.5181211
0
LINE
8
DEFAULT_255_1_234
10
17.3010732
20
0.5181211
11
18.2054469
21
0.5181211
0
LINE
8
DEFAULT_255_1_234
10
18.8287098
20
0.5237433
11
18.8287098
21
-0.6513
0
LINE
8
DEFAULT_255_1_234
10
18.8287098
20
-0.6513
11
18.6793195
21
-0.6513
0
LINE
8
DEFAULT_255_1_234
10
18.6793195
20
-0.6513
11
18.6793195
21
0.3390133
0
LINE
8
DEFAULT_255_1_234
10
18.6793195
20
0.3390133
11
18.3797356
21
0.2289785
0
LINE
8
DEFAULT_255_1_234
10
18.3797356
20
0.2289785
11
18.3797356
21
0.3639117
0
LINE
8
DEFAULT_255_1_234
10
18.3797356
20
0.3639117
11
18.8054178
21
0.5237433
0
LINE
8
DEFAULT_255_1_234
10
18.8054178
20
0.5237433
11
18.8287098
21
0.5237433
0
LINE
8
DEFAULT_255_1_234
10
19.5885123
20
-0.0938974
11
19.5885123
21
-0.2151766
0
LINE
8
DEFAULT_255_1_234
10
19.5885123
20
-0.2151766
11
19.1965634
21
-0.2151766
0
LINE
8
DEFAULT_255_1_234
10
19.1965634
20
-0.2151766
11
19.1965634
21
-0.0938974
0
LINE
8
DEFAULT_255_1_234
10
19.1965634
20
-0.0938974
11
19.5885123
21
-0.0938974
0
LINE
8
DEFAULT_255_1_234
10
20.0800546
20
-0.6513
11
19.7563756
21
-0.6513
0
LINE
8
DEFAULT_255_1_234
10
19.7563756
20
-0.6513
11
19.7563756
21
0.5181211
0
LINE
8
DEFAULT_255_1_234
10
19.7563756
20
0.5181211
11
20.08648
21
0.5181211
0
LINE
8
DEFAULT_255_1_234
10
20.6021176
20
-0.0272339
11
20.6021176
21
-0.1019291
0
LINE
8
DEFAULT_255_1_234
10
20.0904959
20
0.3912196
11
19.910585
21
0.3912196
0
LINE
8
DEFAULT_255_1_234
10
19.910585
20
0.3912196
11
19.910585
21
-0.5252017
0
LINE
8
DEFAULT_255_1_234
10
19.910585
20
-0.5252017
11
20.0728261
21
-0.5252017
0
LINE
8
DEFAULT_255_1_234
10
20.4495146
20
-0.0987164
11
20.4495146
21
-0.0304466
0
ARC
8
DEFAULT_255_1_234
10
20.0903743
20
-0.0684106
40
0.5865446
50
75.4101064
51
90.3804066
0
ARC
8
DEFAULT_255_1_234
10
20.1133257
20
0.0272492
40
0.4881916
50
60.145586
51
75.1888407
0
ARC
8
DEFAULT_255_1_234
10
20.1292032
20
0.0549199
40
0.4562893
50
26.5253612
51
60.1450928
0
ARC
8
DEFAULT_255_1_234
10
20.0171781
20
-0.0044842
40
0.5830602
50
7.4030428
51
26.8320788
0
ARC
8
DEFAULT_255_1_234
10
19.8577538
20
-0.0293196
40
0.7443669
50
0.1605367
51
7.7176192
0
ARC
8
DEFAULT_255_1_234
10
19.8741442
20
-0.1057566
40
0.7279835
50
348.7289388
51
0.3012466
0
ARC
8
DEFAULT_255_1_234
10
20.0397873
20
-0.1386614
40
0.559104
50
333.0706509
51
348.7181832
0
ARC
8
DEFAULT_255_1_234
10
20.136463
20
-0.1911681
40
0.4491417
50
299.2531685
51
333.4571258
0
ARC
8
DEFAULT_255_1_234
10
20.100377
20
-0.1226172
40
0.5265881
50
278.107187
51
299.0339503
0
ARC
8
DEFAULT_255_1_234
10
20.0747849
20
0.0281216
40
0.679442
50
270.4443897
51
278.4511052
0
ARC
8
DEFAULT_255_1_234
10
20.0768679
20
-0.0647787
40
0.4604407
50
269.4970433
51
284.0205042
0
ARC
8
DEFAULT_255_1_234
10
20.112398
20
-0.2013022
40
0.3193797
50
283.7700273
51
318.1555492
0
ARC
8
DEFAULT_255_1_234
10
20.0786738
20
-0.1760633
40
0.3613588
50
318.7415601
51
343.6873628
0
ARC
8
DEFAULT_255_1_234
10
19.8982762
20
-0.1197168
40
0.5503313
50
343.3325091
51
355.8548958
0
ARC
8
DEFAULT_255_1_234
10
19.6884446
20
-0.0997681
40
0.7610708
50
355.4988528
51
0.0791727
0
ARC
8
DEFAULT_255_1_234
10
19.7667068
20
-0.026222
40
0.6828208
50
359.6455037
51
9.8607896
0
ARC
8
DEFAULT_255_1_234
10
20.0027766
20
0.0164099
40
0.4429406
50
9.6571907
51
26.1932807
0
ARC
8
DEFAULT_255_1_234
10
20.0955755
20
0.0595118
40
0.3406537
50
26.5777228
51
40.1532208
0
ARC
8
DEFAULT_255_1_234
10
20.1211481
20
0.0794619
40
0.308246
50
40.3840491
51
80.1431104
0
ARC
8
DEFAULT_255_1_234
10
20.0884599
20
-0.0654667
40
0.4566909
50
79.2152159
51
89.7445637
0
LINE
8
DEFAULT_255_2_778
10
9.3932417
20
140.0968481
11
10.7161417
21
140.0968481
0
LINE
8
DEFAULT_255_2_778
10
10.7161417
20
140.0968481
11
10.7161417
21
75.2739481
0
LINE
8
DEFAULT_255_2_778
10
10.7161417
20
69.9822481
11
10.7161417
21
5.1593481
0
LINE
8
DEFAULT_255_2_778
10
10.7161417
20
5.1593481
11
9.3932417
21
5.1593481
0
LINE
8
DEFAULT_255_2_778
10
9.3932834
20
75.2739333
11
12.0390834
21
75.2739333
0
LINE
8
DEFAULT_255_2_778
10
12.0390834
20
75.2739333
11
12.0390834
21
69.9822333
0
LINE
8
DEFAULT_255_2_778
10
12.0390834
20
69.9822333
11
9.3932834
21
69.9822333
0
LINE
8
DEFAULT_255_2_778
10
9.3932834
20
69.9822333
11
9.3932834
21
75.2739333
0
LINE
8
DEFAULT_255_2_778
10
10.187
20
70.5114666
11
10.187
21
74.7447666
0
LINE
8
DEFAULT_255_2_778
10
9.9224167
20
73.951075
11
10.1870167
21
74.744775
0
LINE
8
DEFAULT_255_2_778
10
10.1870167
20
74.744775
11
10.4516167
21
73.951075
0
LINE
8
DEFAULT_255_2_778
10
10.4516167
20
73.951075
11
9.9224167
21
73.951075
0
LINE
8
DEFAULT_255_2_778
10
11.2453
20
74.7447666
11
11.2453
21
70.5114666
0
LINE
8
DEFAULT_255_2_778
10
10.9807167
20
71.305175
11
11.2453167
21
70.511475
0
LINE
8
DEFAULT_255_2_778
10
11.2453167
20
70.511475
11
11.5099167
21
71.305175
0
LINE
8
DEFAULT_255_2_778
10
11.5099167
20
71.305175
11
10.9807167
21
71.305175
0
LINE
8
DEFAULT_255_2_778
10
19.9765417
20
140.0968488
11
18.6536417
21
140.0968488
0
LINE
8
DEFAULT_255_2_778
10
18.6536417
20
140.0968488
11
18.6536417
21
99.0864488
0
LINE
8
DEFAULT_255_2_778
10
18.6536417
20
93.7947488
11
18.6536417
21
52.7843488
0
LINE
8
DEFAULT_255_2_778
10
18.6536417
20
52.7843488
11
19.9765417
21
52.7843488
0
LINE
8
DEFAULT_255_2_778
10
17.3307834
20
99.0864333
11
19.9765834
21
99.0864333
0
LINE
8
DEFAULT_255_2_778
10
19.9765834
20
99.0864333
11
19.9765834
21
93.7947333
0
LINE
8
DEFAULT_255_2_778
10
19.9765834
20
93.7947333
11
17.3307834
21
93.7947333
0
LINE
8
DEFAULT_255_2_778
10
17.3307834
20
93.7947333
11
17.3307834
21
99.0864333
0
LINE
8
DEFAULT_255_2_778
10
18.1245
20
94.3239666
11
18.1245
21
98.5572666
0
LINE
8
DEFAULT_255_2_778
10
17.8599167
20
97.763575
11
18.1245167
21
98.557275
0
LINE
8
DEFAULT_255_2_778
10
18.1245167
20
98.557275
11
18.3891167
21
97.763575
0
LINE
8
DEFAULT_255_2_778
10
18.3891167
20
97.763575
11
17.8599167
21
97.763575
0
LINE
8
DEFAULT_255_2_778
10
19.1828
20
98.5572666
11
19.1828
21
94.3239666
0
LINE
8
DEFAULT_255_2_778
10
18.9182167
20
95.117675
11
19.1828167
21
94.323975
0
LINE
8
DEFAULT_255_2_778
10
19.1828167
20
94.323975
11
19.4474167
21
95.117675
0
LINE
8
DEFAULT_255_2_778
10
19.4474167
20
95.117675
11
18.9182167
21
95.117675
0
LINE
8
DEFAULT_255_1_234
10
4.9274119
20
147.6366792
11
4.9274119
21
147.5154
0
LINE
8
DEFAULT_255_1_234
10
4.9274119
20
147.5154
11
4.161184
21
147.5154
0
LINE
8
DEFAULT_255_1_234
10
4.161184
20
147.5154
11
4.161184
21
147.6222221
0
LINE
8
DEFAULT_255_1_234
10
4.161184
20
147.6222221
11
4.5659836
21
148.0719995
0
LINE
8
DEFAULT_255_1_234
10
4.2872823
20
148.3402595
11
4.1386952
21
148.3402595
0
LINE
8
DEFAULT_255_1_234
10
4.6535296
20
147.9764218
11
4.3402918
21
147.6366792
0
LINE
8
DEFAULT_255_1_234
10
4.3402918
20
147.6366792
11
4.9274119
21
147.6366792
0
ARC
8
DEFAULT_255_1_234
10
3.216967
20
149.2649527
40
1.8008286
50
318.5132453
51
320.7828378
0
ARC
8
DEFAULT_255_1_234
10
3.7456644
20
148.8346426
40
1.1191493
50
320.7372736
51
323.9737074
0
ARC
8
DEFAULT_255_1_234
10
4.1376501
20
148.5506361
40
0.6350923
50
323.8961724
51
328.6421089
0
ARC
8
DEFAULT_255_1_234
10
4.3423096
20
148.4244031
40
0.3946393
50
328.8299013
51
331.789948
0
ARC
8
DEFAULT_255_1_234
10
4.4420274
20
148.3729509
40
0.2824501
50
331.4255242
51
352.9364833
0
ARC
8
DEFAULT_255_1_234
10
4.4556775
20
148.3698976
40
0.2685315
50
353.2248685
51
0.0169286
0
ARC
8
DEFAULT_255_1_234
10
4.4766652
20
148.372195
40
0.2475536
50
359.4866256
51
15.9339782
0
ARC
8
DEFAULT_255_1_234
10
4.5273637
20
148.3858286
40
0.1950618
50
16.1714718
51
43.5284424
0
ARC
8
DEFAULT_255_1_234
10
4.5350946
20
148.3935573
40
0.184134
50
43.4415429
51
83.1661404
0
ARC
8
DEFAULT_255_1_234
10
4.5216864
20
148.3198771
40
0.258926
50
82.160215
51
90.1505798
0
ARC
8
DEFAULT_255_1_234
10
4.5185291
20
148.2661865
40
0.3126255
50
89.5460705
51
102.5418777
0
ARC
8
DEFAULT_255_1_234
10
4.4942377
20
148.3692665
40
0.2067346
50
102.1739365
51
129.2061916
0
ARC
8
DEFAULT_255_1_234
10
4.4863449
20
148.3817094
40
0.1921118
50
129.7279328
51
135.7542026
0
ARC
8
DEFAULT_255_1_234
10
4.4984977
20
148.3720045
40
0.2075944
50
136.175737
51
166.3674722
0
ARC
8
DEFAULT_255_1_234
10
4.5991896
20
148.3450182
40
0.3118201
50
165.9092917
51
178.8683903
0
ARC
8
DEFAULT_255_1_234
10
4.6856757
20
148.3403179
40
0.3983935
50
178.438168
51
180.0083905
0
ARC
8
DEFAULT_255_1_234
10
4.5455359
20
148.3442231
40
0.4068601
50
163.2878735
51
180.5581814
0
ARC
8
DEFAULT_255_1_234
10
4.4653621
20
148.366284
40
0.3237344
50
133.454115
51
162.9470031
0
ARC
8
DEFAULT_255_1_234
10
4.4832162
20
148.3473
40
0.349795
50
100.7869394
51
133.4384016
0
ARC
8
DEFAULT_255_1_234
10
4.5179934
20
148.1924319
40
0.5084616
50
89.6605301
51
101.3704185
0
ARC
8
DEFAULT_255_1_234
10
4.5246273
20
148.1985496
40
0.502348
50
78.2171172
51
90.4130393
0
ARC
8
DEFAULT_255_1_234
10
4.5601351
20
148.3609637
40
0.3361092
50
55.9268222
51
78.4888551
0
ARC
8
DEFAULT_255_1_234
10
4.5797791
20
148.3948324
40
0.2970617
50
47.9292255
51
55.4054003
0
ARC
8
DEFAULT_255_1_234
10
4.5899352
20
148.4051502
40
0.2825983
50
4.3347696
51
48.0560701
0
ARC
8
DEFAULT_255_1_234
10
4.4803745
20
148.3881601
40
0.393225
50
359.925209
51
5.5967654
0
ARC
8
DEFAULT_255_1_234
10
4.5232637
20
148.3937816
40
0.3503892
50
337.8914096
51
358.9967724
0
ARC
8
DEFAULT_255_1_234
10
4.2519049
20
148.4984706
40
0.6412172
50
326.9135351
51
338.3505194
0
ARC
8
DEFAULT_255_1_234
10
3.8533353
20
148.7539284
40
1.1146189
50
319.6472867
51
327.095818
0
ARC
8
DEFAULT_255_1_234
10
3.4700356
20
149.0701
40
1.6114559
50
317.2586784
51
319.9046139
0
LINE
8
DEFAULT_255_1_234
10
5.7121127
20
148.6848211
11
5.7121127
21
147.908152
0
LINE
8
DEFAULT_255_1_234
10
5.7121127
20
147.908152
11
5.8743538
21
147.908152
0
LINE
8
DEFAULT_255_1_234
10
5.8743538
20
147.908152
11
5.8743538
21
147.7868728
0
LINE
8
DEFAULT_255_1_234
10
5.8743538
20
147.7868728
11
5.7121127
21
147.7868728
0
LINE
8
DEFAULT_255_1_234
10
5.7121127
20
147.7868728
11
5.7121127
21
147.5154
0
LINE
8
DEFAULT_255_1_234
10
5.7121127
20
147.5154
11
5.5627224
21
147.5154
0
LINE
8
DEFAULT_255_1_234
10
5.5627224
20
147.5154
11
5.5627224
21
147.7868728
0
LINE
8
DEFAULT_255_1_234
10
5.5627224
20
147.7868728
11
5.0302181
21
147.7868728
0
LINE
8
DEFAULT_255_1_234
10
5.0302181
20
147.7868728
11
5.0302181
21
147.8744187
0
LINE
8
DEFAULT_255_1_234
10
5.0302181
20
147.8744187
11
5.5538875
21
148.6848211
0
LINE
8
DEFAULT_255_1_234
10
5.5538875
20
148.6848211
11
5.7121127
21
148.6848211
0
LINE
8
DEFAULT_255_1_234
10
5.5450525
20
148.4494912
11
5.1988846
21
147.908152
0
LINE
8
DEFAULT_255_1_234
10
5.1988846
20
147.908152
11
5.5627224
21
147.908152
0
LINE
8
DEFAULT_255_1_234
10
5.5627224
20
147.908152
11
5.5627224
21
148.4816181
0
LINE
8
DEFAULT_255_1_234
10
5.5627224
20
148.4816181
11
5.5450525
21
148.4494912
0
LINE
8
DEFAULT_255_1_234
10
6.101652
20
148.6848211
11
6.434166
21
147.7202093
0
LINE
8
DEFAULT_255_1_234
10
6.434166
20
147.7202093
11
6.7682863
21
148.6848211
0
LINE
8
DEFAULT_255_1_234
10
6.7682863
20
148.6848211
11
6.9369528
21
148.6848211
0
LINE
8
DEFAULT_255_1_234
10
6.9369528
20
148.6848211
11
6.5032389
21
147.5154
0
LINE
8
DEFAULT_255_1_234
10
6.5032389
20
147.5154
11
6.3666994
21
147.5154
0
LINE
8
DEFAULT_255_1_234
10
6.3666994
20
147.5154
11
5.9337887
21
148.6848211
0
LINE
8
DEFAULT_255_1_234
10
5.9337887
20
148.6848211
11
6.101652
21
148.6848211
0
LINE
8
DEFAULT_255_1_234
10
4.5473137
20
5.8154433
11
4.5473137
21
4.6404
0
LINE
8
DEFAULT_255_1_234
10
4.5473137
20
4.6404
11
4.3979234
21
4.6404
0
LINE
8
DEFAULT_255_1_234
10
4.3979234
20
4.6404
11
4.3979234
21
5.6307133
0
LINE
8
DEFAULT_255_1_234
10
4.3979234
20
5.6307133
11
4.0983396
21
5.5206785
0
LINE
8
DEFAULT_255_1_234
10
4.0983396
20
5.5206785
11
4.0983396
21
5.6556117
0
LINE
8
DEFAULT_255_1_234
10
4.0983396
20
5.6556117
11
4.5240217
21
5.8154433
0
LINE
8
DEFAULT_255_1_234
10
4.5240217
20
5.8154433
11
4.5473137
21
5.8154433
0
LINE
8
DEFAULT_255_1_234
10
5.7376173
20
5.8098211
11
5.7376173
21
5.726291
0
LINE
8
DEFAULT_255_1_234
10
5.7376173
20
5.726291
11
5.2533035
21
4.6404
0
LINE
8
DEFAULT_255_1_234
10
5.2533035
20
4.6404
11
5.0974878
21
4.6404
0
LINE
8
DEFAULT_255_1_234
10
5.0974878
20
4.6404
11
5.5801953
21
5.6877387
0
LINE
8
DEFAULT_255_1_234
10
5.5801953
20
5.6877387
11
4.9472943
21
5.6877387
0
LINE
8
DEFAULT_255_1_234
10
4.9472943
20
5.6877387
11
4.9472943
21
5.8098211
0
LINE
8
DEFAULT_255_1_234
10
4.9472943
20
5.8098211
11
5.7376173
21
5.8098211
0
LINE
8
DEFAULT_255_1_234
10
4.5473137
20
13.7529433
11
4.5473137
21
12.5779
0
LINE
8
DEFAULT_255_1_234
10
4.5473137
20
12.5779
11
4.3979234
21
12.5779
0
LINE
8
DEFAULT_255_1_234
10
4.3979234
20
12.5779
11
4.3979234
21
13.5682133
0
LINE
8
DEFAULT_255_1_234
10
4.3979234
20
13.5682133
11
4.0983396
21
13.4581785
0
LINE
8
DEFAULT_255_1_234
10
4.0983396
20
13.4581785
11
4.0983396
21
13.5931117
0
LINE
8
DEFAULT_255_1_234
10
4.0983396
20
13.5931117
11
4.5240217
21
13.7529433
0
LINE
8
DEFAULT_255_1_234
10
4.5240217
20
13.7529433
11
4.5473137
21
13.7529433
0
LINE
8
DEFAULT_255_1_234
10
5.5392334
20
13.7481243
11
5.5657381
21
13.7481243
0
LINE
8
DEFAULT_255_1_234
10
5.5657381
20
13.7481243
11
5.5657381
21
13.622026
0
LINE
8
DEFAULT_255_1_234
10
5.5657381
20
13.622026
11
5.5384302
21
13.622026
0
LINE
8
DEFAULT_255_1_234
10
4.9914688
20
13.0228583
11
4.9914688
21
13.0798836
0
LINE
8
DEFAULT_255_1_234
10
5.1408592
20
13.0606075
11
5.1408592
21
13.0059917
0
ARC
8
DEFAULT_255_1_234
10
5.543665
20
13.1222455
40
0.4998079
50
90.6001036
51
104.514704
0
ARC
8
DEFAULT_255_1_234
10
5.5048166
20
13.2667131
40
0.3502176
50
104.2855254
51
133.862935
0
ARC
8
DEFAULT_255_1_234
10
5.5211923
20
13.255883
40
0.3693984
50
134.5302688
51
161.6210873
0
ARC
8
DEFAULT_255_1_234
10
5.6865112
20
13.1975895
40
0.5446739
50
161.2849839
51
174.2076652
0
ARC
8
DEFAULT_255_1_234
10
5.8272049
20
13.1781787
40
0.6866274
50
173.7810589
51
174.9254635
0
ARC
8
DEFAULT_255_1_234
10
5.3721881
20
13.0398839
40
0.3033419
50
95.8330959
51
138.9954921
0
ARC
8
DEFAULT_255_1_234
10
5.3945237
20
12.9120375
40
0.4328947
50
89.8753725
51
97.0544009
0
ARC
8
DEFAULT_255_1_234
10
5.3992703
20
12.9955748
40
0.3493769
50
71.6407809
51
90.6240094
0
ARC
8
DEFAULT_255_1_234
10
5.4143276
20
13.0510082
40
0.2920396
50
39.6367836
51
71.019018
0
ARC
8
DEFAULT_255_1_234
10
5.3506749
20
12.9959998
40
0.3761538
50
10.658731
51
39.9043955
0
ARC
8
DEFAULT_255_1_234
10
5.1958832
20
12.9623686
40
0.5345136
50
359.682601
51
11.132623
0
ARC
8
DEFAULT_255_1_234
10
5.1918963
20
12.955301
40
0.5385081
50
347.2486944
51
0.4369317
0
ARC
8
DEFAULT_255_1_234
10
5.358644
20
12.9151807
40
0.3670249
50
318.1409698
51
347.6118597
0
ARC
8
DEFAULT_255_1_234
10
5.3911433
20
12.8884702
40
0.3250007
50
275.6342139
51
317.8248465
0
ARC
8
DEFAULT_255_1_234
10
5.3690544
20
13.0184219
40
0.4565864
50
269.8874292
51
276.7917694
0
ARC
8
DEFAULT_255_1_234
10
5.3635615
20
12.9158743
40
0.3540676
50
246.9140195
51
270.7437342
0
ARC
8
DEFAULT_255_1_234
10
5.3642005
20
12.9016384
40
0.3412781
50
218.1665114
51
245.878116
0
ARC
8
DEFAULT_255_1_234
10
5.4521466
20
12.9752279
40
0.455911
50
191.4115814
51
218.6077802
0
ARC
8
DEFAULT_255_1_234
10
5.6459555
20
13.0186833
40
0.6545001
50
179.6345085
51
191.7836486
0
ARC
8
DEFAULT_255_1_234
10
6.2041892
20
13.0865697
40
1.2127388
50
171.4525249
51
180.3158839
0
ARC
8
DEFAULT_255_1_234
10
5.7646768
20
13.1549608
40
0.7679464
50
157.9802646
51
171.6246686
0
ARC
8
DEFAULT_255_1_234
10
5.5432789
20
13.2432421
40
0.5296008
50
141.4298019
51
157.854097
0
ARC
8
DEFAULT_255_1_234
10
5.4791109
20
13.2886381
40
0.4511509
50
102.8715806
51
140.8564722
0
ARC
8
DEFAULT_255_1_234
10
5.5438725
20
13.0446552
40
0.7034845
50
90.3778349
51
103.5869322
0
ARC
8
DEFAULT_255_1_234
10
5.3700501
20
12.984173
40
0.2370698
50
89.8751008
51
126.2071704
0
ARC
8
DEFAULT_255_1_234
10
5.3746291
20
12.9687303
40
0.2522934
50
124.9745049
51
144.895901
0
ARC
8
DEFAULT_255_1_234
10
5.3570481
20
12.983056
40
0.2296779
50
145.2974905
51
160.2660252
0
ARC
8
DEFAULT_255_1_234
10
5.664302
20
13.0028071
40
0.5234525
50
179.6514266
51
190.2855912
0
ARC
8
DEFAULT_255_1_234
10
5.4949157
20
12.9708786
40
0.3510893
50
190.0945431
51
207.5098196
0
ARC
8
DEFAULT_255_1_234
10
5.4383427
20
12.9439623
40
0.288489
50
207.9583163
51
216.3251085
0
ARC
8
DEFAULT_255_1_234
10
5.4043535
20
12.9160105
40
0.2445587
50
215.7661442
51
232.5456785
0
ARC
8
DEFAULT_255_1_234
10
5.3660518
20
12.8673482
40
0.1826382
50
232.8005391
51
270.6605633
0
ARC
8
DEFAULT_255_1_234
10
5.3706219
20
12.9037612
40
0.2190529
50
269.35537
51
288.4744281
0
ARC
8
DEFAULT_255_1_234
10
5.3799116
20
12.8688118
40
0.1829749
50
289.1833337
51
322.9683818
0
ARC
8
DEFAULT_255_1_234
10
5.3187638
20
12.9170391
40
0.2608399
50
322.6007884
51
346.5182367
0
ARC
8
DEFAULT_255_1_234
10
5.2030234
20
12.9465616
40
0.3802777
50
346.2582162
51
358.7741648
0
ARC
8
DEFAULT_255_1_234
10
5.1011903
20
12.9520965
40
0.4822176
50
358.3755224
51
0.0098023
0
ARC
8
DEFAULT_255_1_234
10
5.176809
20
12.9548657
40
0.4066078
50
359.6214041
51
11.2839074
0
ARC
8
DEFAULT_255_1_234
10
5.3045237
20
12.9815066
40
0.2761514
50
11.0482309
51
31.8146458
0
ARC
8
DEFAULT_255_1_234
10
5.335428
20
12.9982584
40
0.2410679
50
32.3035391
51
38.082671
0
ARC
8
DEFAULT_255_1_234
10
5.377494
20
13.0363662
40
0.1844966
50
36.825067
51
85.7415724
0
ARC
8
DEFAULT_255_1_234
10
5.3707773
20
12.9863301
40
0.2349122
50
85.0140713
51
90.0513278
0
LINE
8
DEFAULT_255_1_234
10
4.5473137
20
21.6904433
11
4.5473137
21
20.5154
0
LINE
8
DEFAULT_255_1_234
10
4.5473137
20
20.5154
11
4.3979234
21
20.5154
0
LINE
8
DEFAULT_255_1_234
10
4.3979234
20
20.5154
11
4.3979234
21
21.5057133
0
LINE
8
DEFAULT_255_1_234
10
4.3979234
20
21.5057133
11
4.0983396
21
21.3956785
0
LINE
8
DEFAULT_255_1_234
10
4.0983396
20
21.3956785
11
4.0983396
21
21.5306117
0
LINE
8
DEFAULT_255_1_234
10
4.0983396
20
21.5306117
11
4.5240217
21
21.6904433
0
LINE
8
DEFAULT_255_1_234
10
4.5240217
20
21.6904433
11
4.5473137
21
21.6904433
0
LINE
8
DEFAULT_255_1_234
10
5.1697734
20
21.0711963
11
5.0509037
21
21.1017169
0
LINE
8
DEFAULT_255_1_234
10
5.0509037
20
21.1017169
11
5.1103386
21
21.6848211
0
LINE
8
DEFAULT_255_1_234
10
5.1103386
20
21.6848211
11
5.7095063
21
21.6848211
0
LINE
8
DEFAULT_255_1_234
10
5.7095063
20
21.6848211
11
5.7095063
21
21.5474784
0
LINE
8
DEFAULT_255_1_234
10
5.7095063
20
21.5474784
11
5.2364369
21
21.5474784
0
LINE
8
DEFAULT_255_1_234
10
5.2364369
20
21.5474784
11
5.2010972
21
21.2286184
0
LINE
8
DEFAULT_255_1_234
10
5.0091387
20
20.8230156
11
5.1496941
21
20.8230156
0
LINE
8
DEFAULT_255_1_234
10
5.209129
20
21.1033232
11
5.1697734
21
21.0711963
0
ARC
8
DEFAULT_255_1_234
10
5.3865756
20
20.910623
40
0.3681349
50
93.7182161
51
120.2538958
0
ARC
8
DEFAULT_255_1_234
10
5.3960019
20
20.8298394
40
0.449379
50
89.9660152
51
94.2496022
0
ARC
8
DEFAULT_255_1_234
10
5.4000753
20
20.8887549
40
0.390482
50
73.8043271
51
90.5585896
0
ARC
8
DEFAULT_255_1_234
10
5.423565
20
20.9745602
40
0.3015334
50
41.3071453
51
73.5430202
0
ARC
8
DEFAULT_255_1_234
10
5.3819477
20
20.9387324
40
0.3564457
50
13.5075983
51
41.2174222
0
ARC
8
DEFAULT_255_1_234
10
5.2177681
20
20.8957486
40
0.5261351
50
1.1331335
51
13.8829381
0
ARC
8
DEFAULT_255_1_234
10
5.076605
20
20.8881665
40
0.6674378
50
359.9919444
51
1.544251
0
ARC
8
DEFAULT_255_1_234
10
5.2042876
20
20.884028
40
0.5397702
50
347.8572367
51
0.4293338
0
ARC
8
DEFAULT_255_1_234
10
5.3793194
20
20.8443736
40
0.3603188
50
323.673004
51
348.1672506
0
ARC
8
DEFAULT_255_1_234
10
5.4087702
20
20.8264168
40
0.3259678
50
316.8171152
51
323.1492751
0
ARC
8
DEFAULT_255_1_234
10
5.4148891
20
20.822746
40
0.3189975
50
281.8396411
51
316.5457803
0
ARC
8
DEFAULT_255_1_234
10
5.3773155
20
20.9782762
40
0.4789527
50
269.5770101
51
282.4214771
0
ARC
8
DEFAULT_255_1_234
10
5.3701966
20
20.9569125
40
0.45759
50
256.2427136
51
270.4486331
0
ARC
8
DEFAULT_255_1_234
10
5.3402869
20
20.8369229
40
0.3339303
50
228.9023911
51
256.3314342
0
ARC
8
DEFAULT_255_1_234
10
5.3329101
20
20.8252746
40
0.32031
50
193.753695
51
228.5271154
0
ARC
8
DEFAULT_255_1_234
10
5.4567055
20
20.86158
40
0.4492253
50
184.924711
51
194.497588
0
ARC
8
DEFAULT_255_1_234
10
5.4759622
20
20.8651591
40
0.3289787
50
187.3600538
51
198.6732863
0
ARC
8
DEFAULT_255_1_234
10
5.3709916
20
20.8287674
40
0.217884
50
198.4451669
51
217.794479
0
ARC
8
DEFAULT_255_1_234
10
5.3414091
20
20.8078085
40
0.1816698
50
218.2887171
51
228.5612368
0
ARC
8
DEFAULT_255_1_234
10
5.3511878
20
20.8209963
40
0.1980329
50
228.9654866
51
258.1234728
0
ARC
8
DEFAULT_255_1_234
10
5.3717588
20
20.9090833
40
0.2884748
50
257.7258293
51
270.401361
0
ARC
8
DEFAULT_255_1_234
10
5.3762474
20
20.8645821
40
0.2439788
50
269.4204404
51
286.4209037
0
ARC
8
DEFAULT_255_1_234
10
5.3910962
20
20.8106657
40
0.1880666
50
286.7251356
51
320.600362
0
ARC
8
DEFAULT_255_1_234
10
5.3527787
20
20.8417595
40
0.2374121
50
320.6712579
51
344.5441685
0
ARC
8
DEFAULT_255_1_234
10
5.2371113
20
20.8757045
40
0.3579479
50
344.2412205
51
356.7357071
0
ARC
8
DEFAULT_255_1_234
10
5.1122262
20
20.8860444
40
0.4832297
50
356.3548756
51
0.0500261
0
ARC
8
DEFAULT_255_1_234
10
5.2458771
20
20.889165
40
0.3495889
50
359.5576869
51
12.953486
0
ARC
8
DEFAULT_255_1_234
10
5.3513668
20
20.9147434
40
0.2410532
50
12.6490276
51
41.6081334
0
ARC
8
DEFAULT_255_1_234
10
5.3744039
20
20.9343321
40
0.2108218
50
41.7850273
51
85.9892764
0
ARC
8
DEFAULT_255_1_234
10
5.3620776
20
20.8530462
40
0.2928454
50
84.6957577
51
90.0676183
0
ARC
8
DEFAULT_255_1_234
10
5.359726
20
20.7861716
40
0.3597255
50
89.6804936
51
99.1614436
0
ARC
8
DEFAULT_255_1_234
10
5.3391891
20
20.9089131
40
0.235281
50
98.9830931
51
113.8908934
0
ARC
8
DEFAULT_255_1_234
10
5.3162301
20
20.9630587
40
0.176479
50
114.1950727
51
127.3641004
0
LINE
8
DEFAULT_255_1_234
10
4.6531137
20
29.6279433
11
4.6531137
21
28.4529
0
LINE
8
DEFAULT_255_1_234
10
4.6531137
20
28.4529
11
4.5037234
21
28.4529
0
LINE
8
DEFAULT_255_1_234
10
4.5037234
20
28.4529
11
4.5037234
21
29.4432133
0
LINE
8
DEFAULT_255_1_234
10
4.5037234
20
29.4432133
11
4.2041396
21
29.3331785
0
LINE
8
DEFAULT_255_1_234
10
4.2041396
20
29.3331785
11
4.2041396
21
29.4681117
0
LINE
8
DEFAULT_255_1_234
10
4.2041396
20
29.4681117
11
4.6298217
21
29.6279433
0
LINE
8
DEFAULT_255_1_234
10
4.6298217
20
29.6279433
11
4.6531137
21
29.6279433
0
LINE
8
DEFAULT_255_1_234
10
5.7157127
20
29.6223211
11
5.7157127
21
28.845652
0
LINE
8
DEFAULT_255_1_234
10
5.7157127
20
28.845652
11
5.8779538
21
28.845652
0
LINE
8
DEFAULT_255_1_234
10
5.8779538
20
28.845652
11
5.8779538
21
28.7243728
0
LINE
8
DEFAULT_255_1_234
10
5.8779538
20
28.7243728
11
5.7157127
21
28.7243728
0
LINE
8
DEFAULT_255_1_234
10
5.7157127
20
28.7243728
11
5.7157127
21
28.4529
0
LINE
8
DEFAULT_255_1_234
10
5.7157127
20
28.4529
11
5.5663224
21
28.4529
0
LINE
8
DEFAULT_255_1_234
10
5.5663224
20
28.4529
11
5.5663224
21
28.7243728
0
LINE
8
DEFAULT_255_1_234
10
5.5663224
20
28.7243728
11
5.0338181
21
28.7243728
0
LINE
8
DEFAULT_255_1_234
10
5.0338181
20
28.7243728
11
5.0338181
21
28.8119187
0
LINE
8
DEFAULT_255_1_234
10
5.0338181
20
28.8119187
11
5.5574875
21
29.6223211
0
LINE
8
DEFAULT_255_1_234
10
5.5574875
20
29.6223211
11
5.7157127
21
29.6223211
0
LINE
8
DEFAULT_255_1_234
10
5.5486525
20
29.3869912
11
5.2024846
21
28.845652
0
LINE
8
DEFAULT_255_1_234
10
5.2024846
20
28.845652
11
5.5663224
21
28.845652
0
LINE
8
DEFAULT_255_1_234
10
5.5663224
20
28.845652
11
5.5663224
21
29.4191181
0
LINE
8
DEFAULT_255_1_234
10
5.5663224
20
29.4191181
11
5.5486525
21
29.3869912
0
LINE
8
DEFAULT_255_1_234
10
4.5473137
20
37.5654433
11
4.5473137
21
36.3904
0
LINE
8
DEFAULT_255_1_234
10
4.5473137
20
36.3904
11
4.3979234
21
36.3904
0
LINE
8
DEFAULT_255_1_234
10
4.3979234
20
36.3904
11
4.3979234
21
37.3807133
0
LINE
8
DEFAULT_255_1_234
10
4.3979234
20
37.3807133
11
4.0983396
21
37.2706785
0
LINE
8
DEFAULT_255_1_234
10
4.0983396
20
37.2706785
11
4.0983396
21
37.4056117
0
LINE
8
DEFAULT_255_1_234
10
4.0983396
20
37.4056117
11
4.5240217
21
37.5654433
0
LINE
8
DEFAULT_255_1_234
10
4.5240217
20
37.5654433
11
4.5473137
21
37.5654433
0
LINE
8
DEFAULT_255_1_234
10
5.1986877
20
36.9261169
11
5.1986877
21
37.0473962
0
LINE
8
DEFAULT_255_1_234
10
5.1986877
20
37.0473962
11
5.3103289
21
37.0473962
0
LINE
8
DEFAULT_255_1_234
10
5.1199767
20
37.2530087
11
4.9713895
21
37.2530087
0
LINE
8
DEFAULT_255_1_234
10
4.9609482
20
36.6988188
11
5.1103386
21
36.6988188
0
LINE
8
DEFAULT_255_1_234
10
5.3103289
20
36.9261169
11
5.1986877
21
36.9261169
0
ARC
8
DEFAULT_255_1_234
10
5.3074155
20
37.3866713
40
0.3392876
50
270.4919872
51
281.8951556
0
ARC
8
DEFAULT_255_1_234
10
5.3315417
20
37.2764702
40
0.2264817
50
281.6691735
51
301.2943132
0
ARC
8
DEFAULT_255_1_234
10
5.3485627
20
37.2453304
40
0.1910381
50
301.7833094
51
311.7545298
0
ARC
8
DEFAULT_255_1_234
10
5.3577203
20
37.2351748
40
0.1773635
50
311.7323931
51
354.2802411
0
ARC
8
DEFAULT_255_1_234
10
5.2850828
20
37.2476722
40
0.2509385
50
353.0937916
51
0.1181479
0
ARC
8
DEFAULT_255_1_234
10
5.2389613
20
37.2524386
40
0.2970898
50
359.1805295
51
15.0453146
0
ARC
8
DEFAULT_255_1_234
10
5.373545
20
37.2916992
40
0.1569564
50
13.9577229
51
77.6713066
0
ARC
8
DEFAULT_255_1_234
10
5.3348979
20
37.1531949
40
0.3006298
50
76.1116566
51
90.7026153
0
ARC
8
DEFAULT_255_1_234
10
5.3289817
20
37.1805545
40
0.2732568
50
89.5324876
51
103.531937
0
ARC
8
DEFAULT_255_1_234
10
5.3089261
20
37.2604884
40
0.1908508
50
103.2931773
51
133.5619022
0
ARC
8
DEFAULT_255_1_234
10
5.304475
20
37.2664375
40
0.1834746
50
133.8349307
51
173.5344437
0
ARC
8
DEFAULT_255_1_234
10
5.3767793
20
37.2536213
40
0.2568033
50
172.5096846
51
180.1366907
0
ARC
8
DEFAULT_255_1_234
10
5.2816687
20
37.2570622
40
0.3103056
50
155.3484492
51
180.7484736
0
ARC
8
DEFAULT_255_1_234
10
5.2767776
20
37.2541846
40
0.3070957
50
131.5744599
51
154.4798489
0
ARC
8
DEFAULT_255_1_234
10
5.3080923
20
37.222531
40
0.3515643
50
96.9875458
51
131.9690667
0
ARC
8
DEFAULT_255_1_234
10
5.3300403
20
37.0979636
40
0.4779224
50
89.8596053
51
97.7825159
0
ARC
8
DEFAULT_255_1_234
10
5.3348466
20
37.0717616
40
0.5041361
50
78.3655447
51
90.4131539
0
ARC
8
DEFAULT_255_1_234
10
5.3706384
20
37.2376887
40
0.3344039
50
56.6229102
51
78.638727
0
ARC
8
DEFAULT_255_1_234
10
5.3921328
20
37.2752805
40
0.2912001
50
47.0253525
51
56.0854072
0
ARC
8
DEFAULT_255_1_234
10
5.3941108
20
37.2792223
40
0.2869704
50
10.9208013
51
46.7778124
0
ARC
8
DEFAULT_255_1_234
10
5.2577174
20
37.2476857
40
0.426899
50
359.6364486
51
11.6087304
0
ARC
8
DEFAULT_255_1_234
10
5.4412018
20
37.2461752
40
0.243409
50
332.3549906
51
359.7179418
0
ARC
8
DEFAULT_255_1_234
10
5.376162
20
37.2770142
40
0.3153459
50
325.2333722
51
332.8745602
0
ARC
8
DEFAULT_255_1_234
10
5.3914244
20
37.2663828
40
0.2967456
50
292.9802137
51
325.2392345
0
ARC
8
DEFAULT_255_1_234
10
5.3639617
20
37.3197863
40
0.3566604
50
292.5402179
51
293.6924929
0
ARC
8
DEFAULT_255_1_234
10
5.4032213
20
36.6743091
40
0.3307468
50
57.6435486
51
72.8625112
0
ARC
8
DEFAULT_255_1_234
10
5.4386713
20
36.7317549
40
0.2632492
50
36.7248896
51
57.4697979
0
ARC
8
DEFAULT_255_1_234
10
5.4375346
20
36.733022
40
0.2634081
50
8.0545065
51
36.356114
0
ARC
8
DEFAULT_255_1_234
10
5.3512531
20
36.7175174
40
0.3510261
50
359.8320645
51
8.5869982
0
ARC
8
DEFAULT_255_1_234
10
5.3137307
20
36.7127101
40
0.3885653
50
343.9829931
51
0.5571613
0
ARC
8
DEFAULT_255_1_234
10
5.4023504
20
36.6884438
40
0.2966924
50
311.6359546
51
343.7651759
0
ARC
8
DEFAULT_255_1_234
10
5.3645074
20
36.7311102
40
0.3537231
50
279.7829875
51
311.6255694
0
ARC
8
DEFAULT_255_1_234
10
5.334385
20
36.874828
40
0.5004971
50
269.7286406
51
280.3856417
0
ARC
8
DEFAULT_255_1_234
10
5.3281922
20
36.8706996
40
0.4963778
50
256.6828919
51
270.4412052
0
ARC
8
DEFAULT_255_1_234
10
5.2943218
20
36.7322394
40
0.3538406
50
229.4223008
51
256.8556159
0
ARC
8
DEFAULT_255_1_234
10
5.2528611
20
36.6855736
40
0.2914296
50
181.818294
51
229.6455059
0
ARC
8
DEFAULT_255_1_234
10
5.3568567
20
36.6986496
40
0.3959084
50
179.9755256
51
183.2323064
0
ARC
8
DEFAULT_255_1_234
10
5.3396313
20
36.6966037
40
0.2293034
50
179.4465117
51
196.2869258
0
ARC
8
DEFAULT_255_1_234
10
5.2908721
20
36.6832651
40
0.1787621
50
196.5661473
51
227.705904
0
ARC
8
DEFAULT_255_1_234
10
5.3072816
20
36.7016155
40
0.2033784
50
227.7652068
51
257.8762805
0
ARC
8
DEFAULT_255_1_234
10
5.3297786
20
36.7959156
40
0.3003081
50
257.4584385
51
270.426602
0
ARC
8
DEFAULT_255_1_234
10
5.3343352
20
36.8248996
40
0.329292
50
269.5962073
51
280.8789248
0
ARC
8
DEFAULT_255_1_234
10
5.3572881
20
36.7102685
40
0.2123908
50
280.6346389
51
299.8595945
0
ARC
8
DEFAULT_255_1_234
10
5.3763788
20
36.6740212
40
0.171457
50
300.3576302
51
314.5517981
0
ARC
8
DEFAULT_255_1_234
10
5.3680848
20
36.6800919
40
0.1816095
50
315.0728369
51
345.0431014
0
ARC
8
DEFAULT_255_1_234
10
5.2757662
20
36.7069841
40
0.2777492
50
344.5986631
51
357.9269593
0
ARC
8
DEFAULT_255_1_234
10
5.1861989
20
36.7131276
40
0.3674917
50
357.4748886
51
0.0231117
0
ARC
8
DEFAULT_255_1_234
10
5.2885098
20
36.7155679
40
0.2651907
50
359.5047933
51
13.4239635
0
ARC
8
DEFAULT_255_1_234
10
5.3751741
20
36.7377478
40
0.1757509
50
12.9498199
51
48.7551375
0
ARC
8
DEFAULT_255_1_234
10
5.3569475
20
36.71284
40
0.2065134
50
49.5088623
51
72.1836453
0
ARC
8
DEFAULT_255_1_234
10
5.3211628
20
36.6066291
40
0.3185836
50
71.9010081
51
84.3554254
0
ARC
8
DEFAULT_255_1_234
10
5.305026
20
36.4705326
40
0.4556151
50
84.0193428
51
89.333121
0
LINE
8
DEFAULT_255_1_234
10
4.5473137
20
45.5029433
11
4.5473137
21
44.3279
0
LINE
8
DEFAULT_255_1_234
10
4.5473137
20
44.3279
11
4.3979234
21
44.3279
0
LINE
8
DEFAULT_255_1_234
10
4.3979234
20
44.3279
11
4.3979234
21
45.3182133
0
LINE
8
DEFAULT_255_1_234
10
4.3979234
20
45.3182133
11
4.0983396
21
45.2081785
0
LINE
8
DEFAULT_255_1_234
10
4.0983396
20
45.2081785
11
4.0983396
21
45.3431117
0
LINE
8
DEFAULT_255_1_234
10
4.0983396
20
45.3431117
11
4.5240217
21
45.5029433
0
LINE
8
DEFAULT_255_1_234
10
4.5240217
20
45.5029433
11
4.5473137
21
45.5029433
0
LINE
8
DEFAULT_255_1_234
10
5.7488618
20
44.4491792
11
5.7488618
21
44.3279
0
LINE
8
DEFAULT_255_1_234
10
5.7488618
20
44.3279
11
4.9826339
21
44.3279
0
LINE
8
DEFAULT_255_1_234
10
4.9826339
20
44.3279
11
4.9826339
21
44.4347221
0
LINE
8
DEFAULT_255_1_234
10
4.9826339
20
44.4347221
11
5.3874335
21
44.8844995
0
LINE
8
DEFAULT_255_1_234
10
5.1087322
20
45.1527595
11
4.9601451
21
45.1527595
0
LINE
8
DEFAULT_255_1_234
10
5.4749795
20
44.7889218
11
5.1617417
21
44.4491792
0
LINE
8
DEFAULT_255_1_234
10
5.1617417
20
44.4491792
11
5.7488618
21
44.4491792
0
ARC
8
DEFAULT_255_1_234
10
4.0384169
20
46.0774527
40
1.8008286
50
318.5132453
51
320.7828378
0
ARC
8
DEFAULT_255_1_234
10
4.5671143
20
45.6471426
40
1.1191493
50
320.7372736
51
323.9737074
0
ARC
8
DEFAULT_255_1_234
10
4.9591
20
45.3631361
40
0.6350923
50
323.8961724
51
328.6421089
0
ARC
8
DEFAULT_255_1_234
10
5.1637595
20
45.2369031
40
0.3946393
50
328.8299013
51
331.789948
0
ARC
8
DEFAULT_255_1_234
10
5.2634774
20
45.1854509
40
0.2824501
50
331.4255242
51
352.9364833
0
ARC
8
DEFAULT_255_1_234
10
5.2771274
20
45.1823976
40
0.2685315
50
353.2248685
51
0.0169286
0
ARC
8
DEFAULT_255_1_234
10
5.2981151
20
45.184695
40
0.2475536
50
359.4866256
51
15.9339782
0
ARC
8
DEFAULT_255_1_234
10
5.3488136
20
45.1983286
40
0.1950618
50
16.1714718
51
43.5284424
0
ARC
8
DEFAULT_255_1_234
10
5.3565445
20
45.2060573
40
0.184134
50
43.4415429
51
83.1661404
0
ARC
8
DEFAULT_255_1_234
10
5.3431363
20
45.1323771
40
0.258926
50
82.160215
51
90.1505798
0
ARC
8
DEFAULT_255_1_234
10
5.339979
20
45.0786865
40
0.3126255
50
89.5460705
51
102.5418777
0
ARC
8
DEFAULT_255_1_234
10
5.3156876
20
45.1817665
40
0.2067346
50
102.1739365
51
129.2061916
0
ARC
8
DEFAULT_255_1_234
10
5.3077948
20
45.1942094
40
0.1921118
50
129.7279328
51
135.7542026
0
ARC
8
DEFAULT_255_1_234
10
5.3199476
20
45.1845045
40
0.2075944
50
136.175737
51
166.3674722
0
ARC
8
DEFAULT_255_1_234
10
5.4206395
20
45.1575182
40
0.3118201
50
165.9092917
51
178.8683903
0
ARC
8
DEFAULT_255_1_234
10
5.5071256
20
45.1528179
40
0.3983935
50
178.438168
51
180.0083905
0
ARC
8
DEFAULT_255_1_234
10
5.3669859
20
45.1567231
40
0.4068601
50
163.2878735
51
180.5581814
0
ARC
8
DEFAULT_255_1_234
10
5.286812
20
45.178784
40
0.3237344
50
133.454115
51
162.9470031
0
ARC
8
DEFAULT_255_1_234
10
5.3046661
20
45.1598
40
0.349795
50
100.7869394
51
133.4384016
0
ARC
8
DEFAULT_255_1_234
10
5.3394433
20
45.0049319
40
0.5084616
50
89.6605301
51
101.3704185
0
ARC
8
DEFAULT_255_1_234
10
5.3460772
20
45.0110496
40
0.502348
50
78.2171172
51
90.4130393
0
ARC
8
DEFAULT_255_1_234
10
5.381585
20
45.1734637
40
0.3361092
50
55.9268222
51
78.4888551
0
ARC
8
DEFAULT_255_1_234
10
5.401229
20
45.2073324
40
0.2970617
50
47.9292255
51
55.4054003
0
ARC
8
DEFAULT_255_1_234
10
5.4113851
20
45.2176502
40
0.2825983
50
4.3347696
51
48.0560701
0
ARC
8
DEFAULT_255_1_234
10
5.3018244
20
45.2006601
40
0.393225
50
359.925209
51
5.5967654
0
ARC
8
DEFAULT_255_1_234
10
5.3447136
20
45.2062816
40
0.3503892
50
337.8914096
51
358.9967724
0
ARC
8
DEFAULT_255_1_234
10
5.0733548
20
45.3109706
40
0.6412172
50
326.9135351
51
338.3505194
0
ARC
8
DEFAULT_255_1_234
10
4.6747852
20
45.5664284
40
1.1146189
50
319.6472867
51
327.095818
0
ARC
8
DEFAULT_255_1_234
10
4.2914855
20
45.8826
40
1.6114559
50
317.2586784
51
319.9046139
0
LINE
8
DEFAULT_255_1_234
10
4.5383137
20
53.4404433
11
4.5383137
21
52.2654
0
LINE
8
DEFAULT_255_1_234
10
4.5383137
20
52.2654
11
4.3889234
21
52.2654
0
LINE
8
DEFAULT_255_1_234
10
4.3889234
20
52.2654
11
4.3889234
21
53.2557133
0
LINE
8
DEFAULT_255_1_234
10
4.3889234
20
53.2557133
11
4.0893396
21
53.1456785
0
LINE
8
DEFAULT_255_1_234
10
4.0893396
20
53.1456785
11
4.0893396
21
53.2806117
0
LINE
8
DEFAULT_255_1_234
10
4.0893396
20
53.2806117
11
4.5150217
21
53.4404433
0
LINE
8
DEFAULT_255_1_234
10
4.5150217
20
53.4404433
11
4.5383137
21
53.4404433
0
LINE
8
DEFAULT_255_1_234
10
5.4619636
20
53.4404433
11
5.4619636
21
52.2654
0
LINE
8
DEFAULT_255_1_234
10
5.4619636
20
52.2654
11
5.3125733
21
52.2654
0
LINE
8
DEFAULT_255_1_234
10
5.3125733
20
52.2654
11
5.3125733
21
53.2557133
0
LINE
8
DEFAULT_255_1_234
10
5.3125733
20
53.2557133
11
5.0129895
21
53.1456785
0
LINE
8
DEFAULT_255_1_234
10
5.0129895
20
53.1456785
11
5.0129895
21
53.2806117
0
LINE
8
DEFAULT_255_1_234
10
5.0129895
20
53.2806117
11
5.4386716
21
53.4404433
0
LINE
8
DEFAULT_255_1_234
10
5.4386716
20
53.4404433
11
5.4619636
21
53.4404433
0
LINE
8
DEFAULT_255_1_234
10
4.5473137
20
61.3779433
11
4.5473137
21
60.2029
0
LINE
8
DEFAULT_255_1_234
10
4.5473137
20
60.2029
11
4.3979234
21
60.2029
0
LINE
8
DEFAULT_255_1_234
10
4.3979234
20
60.2029
11
4.3979234
21
61.1932133
0
LINE
8
DEFAULT_255_1_234
10
4.3979234
20
61.1932133
11
4.0983396
21
61.0831785
0
LINE
8
DEFAULT_255_1_234
10
4.0983396
20
61.0831785
11
4.0983396
21
61.2181117
0
LINE
8
DEFAULT_255_1_234
10
4.0983396
20
61.2181117
11
4.5240217
21
61.3779433
0
LINE
8
DEFAULT_255_1_234
10
4.5240217
20
61.3779433
11
4.5473137
21
61.3779433
0
LINE
8
DEFAULT_255_1_234
10
5.7159316
20
60.8944327
11
5.7159316
21
60.7016709
0
LINE
8
DEFAULT_255_1_234
10
4.9778149
20
60.6815916
11
4.9778149
21
60.8799755
0
LINE
8
DEFAULT_255_1_234
10
5.5673445
20
60.6615123
11
5.5673445
21
60.9048739
0
LINE
8
DEFAULT_255_1_234
10
5.1264021
20
60.9161184
11
5.1264021
21
60.6783789
0
ARC
8
DEFAULT_255_1_234
10
4.4912206
20
60.6967805
40
1.2247208
50
353.8441951
51
0.2287902
0
ARC
8
DEFAULT_255_1_234
10
4.955171
20
60.6449806
40
0.7578929
50
344.4934747
51
353.9765454
0
ARC
8
DEFAULT_255_1_234
10
5.25443
20
60.5598981
40
0.4467846
50
329.2803592
51
344.7472793
0
ARC
8
DEFAULT_255_1_234
10
5.3537125
20
60.5054018
40
0.3336173
50
324.9352394
51
328.6160465
0
ARC
8
DEFAULT_255_1_234
10
5.3914233
20
60.4790427
40
0.2876076
50
280.580143
51
324.9173126
0
ARC
8
DEFAULT_255_1_234
10
5.3513026
20
60.6461099
40
0.4592847
50
269.5977311
51
281.6734359
0
ARC
8
DEFAULT_255_1_234
10
5.3440932
20
60.6341173
40
0.4472986
50
256.6228859
51
270.51044
0
ARC
8
DEFAULT_255_1_234
10
5.3038909
20
60.4792877
40
0.2873874
50
215.8618325
51
257.2788573
0
ARC
8
DEFAULT_255_1_234
10
5.4059941
20
60.5477977
40
0.4102928
50
197.9693508
51
215.2623606
0
ARC
8
DEFAULT_255_1_234
10
5.6545057
20
60.6316709
40
0.6725652
50
187.8816417
51
198.2346507
0
ARC
8
DEFAULT_255_1_234
10
6.0503265
20
60.6888079
40
1.0724845
50
180.8976217
51
188.0055519
0
ARC
8
DEFAULT_255_1_234
10
6.3303453
20
60.6991777
40
1.3526448
50
180.7449369
51
181.1510016
0
ARC
8
DEFAULT_255_1_234
10
6.1726182
20
60.8848042
40
1.1948131
50
173.7675579
51
180.231553
0
ARC
8
DEFAULT_255_1_234
10
5.7208329
20
60.9358666
40
0.7401564
50
164.3058563
51
173.9002247
0
ARC
8
DEFAULT_255_1_234
10
5.4296398
20
61.0197656
40
0.4371288
50
148.7922025
51
164.568378
0
ARC
8
DEFAULT_255_1_234
10
5.334485
20
61.0728929
40
0.3282386
50
144.5883898
51
148.1176286
0
ARC
8
DEFAULT_255_1_234
10
5.3001748
20
61.0968315
40
0.2864044
50
101.6440918
51
144.514236
0
ARC
8
DEFAULT_255_1_234
10
5.3426814
20
60.9279069
40
0.4604934
50
89.5284041
51
102.5819763
0
ARC
8
DEFAULT_255_1_234
10
5.3505902
20
60.9240018
40
0.464401
50
77.0437873
51
90.5081339
0
ARC
8
DEFAULT_255_1_234
10
5.3907904
20
61.0882615
40
0.2953195
50
48.2778575
51
77.4994676
0
ARC
8
DEFAULT_255_1_234
10
5.3980535
20
61.1011746
40
0.2808655
50
36.3142134
51
47.6305865
0
ARC
8
DEFAULT_255_1_234
10
5.3111842
20
61.0426515
40
0.3855453
50
18.2931786
51
35.6769206
0
ARC
8
DEFAULT_255_1_234
10
5.0568601
20
60.9553593
40
0.654423
50
8.024666
51
18.5605216
0
ARC
8
DEFAULT_255_1_234
10
4.6405521
20
60.8938792
40
1.0752407
50
1.1274072
51
8.1718305
0
ARC
8
DEFAULT_255_1_234
10
4.3169712
20
60.8811885
40
1.3990231
50
0.5424119
51
1.3863029
0
ARC
8
DEFAULT_255_1_234
10
4.4991089
20
60.9084342
40
1.0682415
50
359.8090433
51
4.9407866
0
ARC
8
DEFAULT_255_1_234
10
4.9201103
20
60.9460113
40
0.6455691
50
4.8362157
51
12.2904523
0
ARC
8
DEFAULT_255_1_234
10
5.1956218
20
61.0073965
40
0.3633074
50
12.0805627
51
23.8173984
0
ARC
8
DEFAULT_255_1_234
10
5.3129924
20
61.0570919
40
0.2358723
50
24.2871213
51
31.3935614
0
ARC
8
DEFAULT_255_1_234
10
5.3654621
20
61.0914233
40
0.1732111
50
30.7407893
51
82.4657128
0
ARC
8
DEFAULT_255_1_234
10
5.3474755
20
61.0030691
40
0.263235
50
81.1060089
51
90.2184952
0
ARC
8
DEFAULT_255_1_234
10
5.3439054
20
61.0288924
40
0.2374236
50
89.3806855
51
105.6762551
0
ARC
8
DEFAULT_255_1_234
10
5.3255685
20
61.0955567
40
0.1682847
50
105.7981136
51
149.7388061
0
ARC
8
DEFAULT_255_1_234
10
5.4319763
20
61.031595
40
0.2924306
50
149.4208916
51
163.6286378
0
ARC
8
DEFAULT_255_1_234
10
5.6410651
20
60.967825
40
0.5110213
50
163.3763315
51
172.1410975
0
ARC
8
DEFAULT_255_1_234
10
5.971137
20
60.9205518
40
0.8444586
50
172.0259487
51
178.0703232
0
ARC
8
DEFAULT_255_1_234
10
6.274146
20
60.9061906
40
1.1477868
50
177.8631668
51
179.5044149
0
ARC
8
DEFAULT_255_1_234
10
6.1668864
20
60.6747389
40
1.0404907
50
179.7995573
51
185.2460446
0
ARC
8
DEFAULT_255_1_234
10
5.7625903
20
60.6364513
40
0.6343885
50
185.1411642
51
193.0079639
0
ARC
8
DEFAULT_255_1_234
10
5.4982376
20
60.5739641
40
0.3627568
50
192.7897626
51
205.2507664
0
ARC
8
DEFAULT_255_1_234
10
5.3935923
20
60.5272415
40
0.2481908
50
205.8005384
51
211.2537509
0
ARC
8
DEFAULT_255_1_234
10
5.3412363
20
60.492158
40
0.1852521
50
210.3789793
51
238.4008143
0
ARC
8
DEFAULT_255_1_234
10
5.3392885
20
60.4968376
40
0.1882621
50
239.6520629
51
265.9793761
0
ARC
8
DEFAULT_255_1_234
10
5.3478085
20
60.5640427
40
0.2559272
50
265.1315437
51
270.060332
0
ARC
8
DEFAULT_255_1_234
10
5.3506864
20
60.5316534
40
0.2235528
50
269.3314664
51
287.2178029
0
ARC
8
DEFAULT_255_1_234
10
5.3644716
20
60.4813279
40
0.1714108
50
287.7958004
51
329.080874
0
ARC
8
DEFAULT_255_1_234
10
5.2687173
20
60.541093
40
0.2842745
50
328.6634704
51
343.3325132
0
ARC
8
DEFAULT_255_1_234
10
5.0514193
20
60.6087863
40
0.5118644
50
343.0499468
51
351.9393422
0
ARC
8
DEFAULT_255_1_234
10
4.7047493
20
60.6598949
40
0.8622784
50
351.8069023
51
357.7959224
0
ARC
8
DEFAULT_255_1_234
10
4.3812049
20
60.6766721
40
1.1862365
50
357.5871873
51
359.2677531
0
LINE
8
DEFAULT_255_1_234
10
4.7181246
20
68.8423739
11
4.7181246
21
68.7990025
0
LINE
8
DEFAULT_255_1_234
10
4.1759823
20
68.1395968
11
4.147068
21
68.1395968
0
LINE
8
DEFAULT_255_1_234
10
4.147068
20
68.1395968
11
4.147068
21
68.2648919
0
LINE
8
DEFAULT_255_1_234
10
4.147068
20
68.2648919
11
4.1783918
21
68.2648919
0
LINE
8
DEFAULT_255_1_234
10
4.5695375
20
68.8134597
11
4.5695375
21
68.8728945
0
ARC
8
DEFAULT_255_1_234
10
4.2901644
20
68.8880403
40
0.3635579
50
297.4037347
51
320.016758
0
ARC
8
DEFAULT_255_1_234
10
4.3191593
20
68.832324
40
0.3007486
50
270.2633101
51
297.3851877
0
ARC
8
DEFAULT_255_1_234
10
4.3157549
20
68.8786904
40
0.3471448
50
269.9966443
51
270.7900392
0
ARC
8
DEFAULT_255_1_234
10
4.313203
20
68.8785143
40
0.3469779
50
254.5999133
51
270.4180344
0
ARC
8
DEFAULT_255_1_234
10
4.2989389
20
68.8220647
40
0.2887697
50
236.4717942
51
254.3541279
0
ARC
8
DEFAULT_255_1_234
10
4.3145607
20
68.8430711
40
0.3149125
50
208.4727207
51
236.2134933
0
ARC
8
DEFAULT_255_1_234
10
4.3784382
20
68.8821455
40
0.3897115
50
204.3447514
51
209.0453999
0
ARC
8
DEFAULT_255_1_234
10
4.4463958
20
68.9109656
40
0.4635101
50
183.9375985
51
204.1276318
0
ARC
8
DEFAULT_255_1_234
10
4.5372209
20
68.9207482
40
0.5548037
50
179.9652252
51
184.3013875
0
ARC
8
DEFAULT_255_1_234
10
4.5132255
20
68.9240507
40
0.5308164
50
166.7585989
51
180.3201225
0
ARC
8
DEFAULT_255_1_234
10
4.4285869
20
68.9424488
40
0.4442163
50
154.6955053
51
166.5679793
0
ARC
8
DEFAULT_255_1_234
10
4.3432739
20
68.985421
40
0.3487299
50
136.3324195
51
155.0871442
0
ARC
8
DEFAULT_255_1_234
10
4.3151812
20
69.0094954
40
0.3117924
50
121.236733
51
135.9680508
0
ARC
8
DEFAULT_255_1_234
10
4.329231
20
68.9834743
40
0.3413302
50
96.845628
51
120.9881519
0
ARC
8
DEFAULT_255_1_234
10
4.3437892
20
68.8899515
40
0.4359341
50
89.8870174
51
97.2802754
0
ARC
8
DEFAULT_255_1_234
10
4.349033
20
68.9537095
40
0.3722009
50
70.6505584
51
90.6749113
0
ARC
8
DEFAULT_255_1_234
10
4.3621609
20
69.0050361
40
0.3194571
50
36.7492984
51
69.8219918
0
ARC
8
DEFAULT_255_1_234
10
4.2622774
20
68.9271993
40
0.4460685
50
15.39587
51
37.0840084
0
ARC
8
DEFAULT_255_1_234
10
4.0493207
20
68.8651242
40
0.6678714
50
3.9488873
51
15.6798563
0
ARC
8
DEFAULT_255_1_234
10
3.8091835
20
68.8434964
40
0.9089418
50
359.929245
51
4.2665314
0
ARC
8
DEFAULT_255_1_234
10
3.3486272
20
68.7923513
40
1.3695135
50
352.8366322
51
0.2782669
0
ARC
8
DEFAULT_255_1_234
10
3.8773951
20
68.7236629
40
0.8363105
50
341.8359505
51
352.9884176
0
ARC
8
DEFAULT_255_1_234
10
4.199267
20
68.61517
40
0.4966642
50
322.8578092
51
342.1527901
0
ARC
8
DEFAULT_255_1_234
10
4.2856626
20
68.5562384
40
0.3922466
50
319.334325
51
322.0998941
0
ARC
8
DEFAULT_255_1_234
10
4.2546963
20
68.5873209
40
0.4360033
50
285.9541367
51
318.8878087
0
ARC
8
DEFAULT_255_1_234
10
4.1820224
20
68.81836
40
0.678149
50
272.9281676
51
286.4922826
0
ARC
8
DEFAULT_255_1_234
10
4.1630342
20
69.0434587
40
0.9039547
50
270.8207226
51
273.4012994
0
ARC
8
DEFAULT_255_1_234
10
4.1719193
20
68.8615666
40
0.5967098
50
270.6214993
51
281.4062806
0
ARC
8
DEFAULT_255_1_234
10
4.2149174
20
68.6559833
40
0.3866861
50
281.1852553
51
299.0621114
0
ARC
8
DEFAULT_255_1_234
10
4.2522745
20
68.5838798
40
0.3055236
50
299.5067782
51
313.1200873
0
ARC
8
DEFAULT_255_1_234
10
4.2544712
20
68.5759554
40
0.2982623
50
313.8526205
51
338.5989322
0
ARC
8
DEFAULT_255_1_234
10
4.0920786
20
68.6426781
40
0.4738131
50
338.2523585
51
351.2430902
0
ARC
8
DEFAULT_255_1_234
10
3.8510082
20
68.6836447
40
0.7183203
50
350.9409515
51
357.6691871
0
ARC
8
DEFAULT_255_1_234
10
4.3400512
20
68.8838764
40
0.2294452
50
269.9447023
51
306.8248917
0
ARC
8
DEFAULT_255_1_234
10
4.3163427
20
68.9261898
40
0.2775994
50
305.5072438
51
327.0773448
0
ARC
8
DEFAULT_255_1_234
10
4.3281868
20
68.9167025
40
0.2625056
50
327.4104943
51
336.840169
0
ARC
8
DEFAULT_255_1_234
10
4.0187933
20
68.8761302
40
0.5507537
50
359.6633817
51
10.117533
0
ARC
8
DEFAULT_255_1_234
10
4.1941731
20
68.9085777
40
0.372403
50
9.9430141
51
26.7700076
0
ARC
8
DEFAULT_255_1_234
10
4.2538943
20
68.9361187
40
0.3066865
50
27.2015464
51
34.6829435
0
ARC
8
DEFAULT_255_1_234
10
4.3028423
20
68.9728977
40
0.245519
50
34.1250343
51
50.3070065
0
ARC
8
DEFAULT_255_1_234
10
4.3475103
20
69.0263385
40
0.1758693
50
50.3851167
51
90.6705993
0
ARC
8
DEFAULT_255_1_234
10
4.3428336
20
68.9958799
40
0.2063326
50
89.272901
51
111.9140407
0
ARC
8
DEFAULT_255_1_234
10
4.3408864
20
69.009944
40
0.1925887
50
112.9382311
51
142.5320782
0
ARC
8
DEFAULT_255_1_234
10
4.3955044
20
68.9655969
40
0.2629232
50
142.1021256
51
166.3835592
0
ARC
8
DEFAULT_255_1_234
10
4.5136349
20
68.9350915
40
0.3849193
50
166.1100289
51
178.665427
0
ARC
8
DEFAULT_255_1_234
10
4.6183938
20
68.9292117
40
0.4897989
50
178.2632126
51
180.0111093
0
ARC
8
DEFAULT_255_1_234
10
4.5382059
20
68.9263728
40
0.40962
50
179.6161962
51
191.8787166
0
ARC
8
DEFAULT_255_1_234
10
4.4161898
20
68.8993896
40
0.2846655
50
191.6191692
51
215.2972286
0
ARC
8
DEFAULT_255_1_234
10
4.3965089
20
68.8878918
40
0.2619665
50
215.7320102
51
216.5355409
0
ARC
8
DEFAULT_255_1_234
10
4.3426175
20
68.8446647
40
0.1929497
50
215.7486685
51
239.9727502
0
ARC
8
DEFAULT_255_1_234
10
4.3356091
20
68.8395894
40
0.1850822
50
241.0650169
51
269.2810483
0
ARC
8
DEFAULT_255_1_234
10
4.3398006
20
68.8886371
40
0.2342059
50
268.4062526
51
270.0071348
0
ARC
8
DEFAULT_255_1_234
10
4.4262624
20
76.9395703
40
0.2822356
50
338.8763615
51
0.5166041
0
ARC
8
DEFAULT_255_1_234
10
4.4431278
20
76.9350208
40
0.2648703
50
325.8412414
51
338.4795939
0
ARC
8
DEFAULT_255_1_234
10
4.4040646
20
76.9621042
40
0.3124019
50
296.7586019
51
325.753654
0
ARC
8
DEFAULT_255_1_234
10
4.3752754
20
77.0105789
40
0.368668
50
296.0902311
51
297.3618122
0
ARC
8
DEFAULT_255_1_234
10
4.4010212
20
76.3551041
40
0.3518806
50
47.9009248
51
67.1946869
0
ARC
8
DEFAULT_255_1_234
10
4.4206454
20
76.3797395
40
0.320451
50
35.236241
51
47.551371
0
ARC
8
DEFAULT_255_1_234
10
4.4468072
20
76.3971993
40
0.2890103
50
359.2759738
51
35.4014081
0
ARC
8
DEFAULT_255_1_234
10
4.3723103
20
76.3898826
40
0.3635026
50
343.1294516
51
0.5776525
0
ARC
8
DEFAULT_255_1_234
10
4.4447648
20
76.369933
40
0.2883832
50
310.8497458
51
342.744803
0
ARC
8
DEFAULT_255_1_234
10
4.4029761
20
76.4176294
40
0.3517954
50
281.5473923
51
310.9169905
0
ARC
8
DEFAULT_255_1_234
10
4.367321
20
76.5729084
40
0.5110832
50
269.6192722
51
281.9789957
0
ARC
8
DEFAULT_255_1_234
10
4.3601
20
76.5729828
40
0.5111606
50
257.4584469
51
270.4287458
0
ARC
8
DEFAULT_255_1_234
10
4.3220143
20
76.4126344
40
0.3463762
50
228.7553743
51
257.8484423
0
ARC
8
DEFAULT_255_1_234
10
4.2910341
20
76.3753442
40
0.297916
50
184.0104442
51
228.5071787
0
ARC
8
DEFAULT_255_1_234
10
4.4073285
20
76.3930512
40
0.4152734
50
179.9315461
51
185.3254504
0
ARC
8
DEFAULT_255_1_234
10
4.2896931
20
76.3967992
40
0.2976554
50
145.6795913
51
180.6259649
0
ARC
8
DEFAULT_255_1_234
10
4.306028
20
76.3853929
40
0.3175776
50
115.5537925
51
145.6416199
0
ARC
8
DEFAULT_255_1_234
10
4.340121
20
76.3243028
40
0.3874232
50
113.2437915
51
116.2054627
0
ARC
8
DEFAULT_255_1_234
10
4.3248423
20
76.964158
40
0.3154751
50
222.9548379
51
244.1372485
0
ARC
8
DEFAULT_255_1_234
10
4.3126498
20
76.9504834
40
0.2972382
50
213.3439227
51
222.6271327
0
ARC
8
DEFAULT_255_1_234
10
4.2934433
20
76.9374308
40
0.274019
50
180.4316517
51
213.2713999
0
ARC
8
DEFAULT_255_1_234
10
4.3509434
20
76.942111
40
0.33158
50
179.9992944
51
181.1655061
0
ARC
8
DEFAULT_255_1_234
10
4.3918851
20
76.9455561
40
0.3725376
50
164.6186108
51
180.5292368
0
ARC
8
DEFAULT_255_1_234
10
4.3020714
20
76.9697101
40
0.2795349
50
132.2454369
51
164.5092287
0
ARC
8
DEFAULT_255_1_234
10
4.3307818
20
76.9372028
40
0.3229019
50
100.7052766
51
132.1387266
0
ARC
8
DEFAULT_255_1_234
10
4.361279
20
76.7994086
40
0.4639835
50
89.6732617
51
101.2449487
0
ARC
8
DEFAULT_255_1_234
10
4.3674988
20
76.816899
40
0.4464999
50
76.2876631
51
90.4586123
0
ARC
8
DEFAULT_255_1_234
10
4.398122
20
76.939122
40
0.3205023
50
47.8240157
51
76.4266918
0
ARC
8
DEFAULT_255_1_234
10
4.420377
20
76.965159
40
0.2862661
50
6.9168658
51
47.6261438
0
ARC
8
DEFAULT_255_1_234
10
4.3017173
20
76.943237
40
0.4067708
50
359.8419705
51
7.9694496
0
ARC
8
DEFAULT_255_1_234
10
4.335907
20
76.3991925
40
0.2513121
50
359.4454068
51
16.9256425
0
ARC
8
DEFAULT_255_1_234
10
4.3827881
20
76.4121033
40
0.2027071
50
17.292259
51
45.462717
0
ARC
8
DEFAULT_255_1_234
10
4.3773817
20
76.4074434
40
0.2098212
50
45.3028762
51
83.1921472
0
ARC
8
DEFAULT_255_1_234
10
4.3630501
20
76.3272895
40
0.2911472
50
82.2614531
51
90.143954
0
ARC
8
DEFAULT_255_1_234
10
4.3599621
20
76.350595
40
0.2678513
50
89.4959189
51
104.8579811
0
ARC
8
DEFAULT_255_1_234
10
4.342288
20
76.417589
40
0.1985654
50
104.8855873
51
135.2448349
0
ARC
8
DEFAULT_255_1_234
10
4.3472653
20
76.4131336
40
0.2052373
50
135.3398955
51
172.104394
0
ARC
8
DEFAULT_255_1_234
10
4.4279711
20
76.3976925
40
0.2873299
50
171.2651929
51
180.1859362
0
ARC
8
DEFAULT_255_1_234
10
4.4110412
20
76.3944733
40
0.2704083
50
179.515471
51
193.6466734
0
ARC
8
DEFAULT_255_1_234
10
4.3294181
20
76.3736777
40
0.1861855
50
193.3540587
51
225.8256931
0
ARC
8
DEFAULT_255_1_234
10
4.3334938
20
76.3807524
40
0.1941102
50
226.418029
51
255.8553723
0
ARC
8
DEFAULT_255_1_234
10
4.3591371
20
76.4743998
40
0.2911917
50
255.4655572
51
268.7985967
0
ARC
8
DEFAULT_255_1_234
10
4.3638563
20
76.5582491
40
0.3751331
50
268.3464808
51
270.0104874
0
ARC
8
DEFAULT_255_1_234
10
4.3661951
20
76.4898138
40
0.3067064
50
269.575914
51
282.0823146
0
ARC
8
DEFAULT_255_1_234
10
4.388686
20
76.3903803
40
0.2047712
50
281.7522535
51
306.6056425
0
ARC
8
DEFAULT_255_1_234
10
4.3985286
20
76.3742487
40
0.1859604
50
307.1350025
51
314.0277951
0
ARC
8
DEFAULT_255_1_234
10
4.394937
20
76.3768766
40
0.1903475
50
314.2553419
51
350.169324
0
ARC
8
DEFAULT_255_1_234
10
4.3097839
20
76.3953409
40
0.2774269
50
349.4145679
51
0.2930737
0
ARC
8
DEFAULT_255_1_234
10
4.3618272
20
76.9112353
40
0.2300764
50
89.477591
51
105.729794
0
ARC
8
DEFAULT_255_1_234
10
4.3482185
20
76.9617637
40
0.1777519
50
105.922966
51
135.1662921
0
ARC
8
DEFAULT_255_1_234
10
4.3502688
20
76.9603419
40
0.1802087
50
135.3053131
51
168.9882338
0
ARC
8
DEFAULT_255_1_234
10
4.433026
20
76.9413721
40
0.2650806
50
168.3802067
51
180.3602358
0
ARC
8
DEFAULT_255_1_234
10
4.410184
20
76.9376041
40
0.2422425
50
179.5029707
51
194.9126783
0
ARC
8
DEFAULT_255_1_234
10
4.3516501
20
76.922211
40
0.1817188
50
194.9722181
51
224.1943972
0
ARC
8
DEFAULT_255_1_234
10
4.3488368
20
76.9199169
40
0.1781027
50
224.2961434
51
262.0157375
0
ARC
8
DEFAULT_255_1_234
10
4.3630611
20
76.9930661
40
0.2525492
50
261.1250369
51
270.1959853
0
ARC
8
DEFAULT_255_1_234
10
4.3660366
20
76.9743339
40
0.233825
50
269.4825617
51
285.0988277
0
ARC
8
DEFAULT_255_1_234
10
4.3814525
20
76.916499
40
0.1739712
50
285.1585659
51
315.9484648
0
ARC
8
DEFAULT_255_1_234
10
4.3725537
20
76.9246886
40
0.1860616
50
316.0412958
51
351.9162715
0
ARC
8
DEFAULT_255_1_234
10
4.2992492
20
76.9388245
40
0.2606517
50
351.1056823
51
0.1936567
0
ARC
8
DEFAULT_255_1_234
10
4.3255321
20
76.9418369
40
0.234377
50
359.4789506
51
16.0679113
0
ARC
8
DEFAULT_255_1_234
10
4.373128
20
76.954681
40
0.1850875
50
16.3251951
51
44.791304
0
ARC
8
DEFAULT_255_1_234
10
4.3713561
20
76.9547339
40
0.186312
50
44.3958661
51
88.2498933
0
ARC
8
DEFAULT_255_1_234
10
4.3640115
20
76.8936154
40
0.2476868
50
86.9833827
51
90.0200148
0
LINE
8
DEFAULT_255_1_234
10
4.7542674
20
85.1848211
11
4.7542674
21
85.101291
0
LINE
8
DEFAULT_255_1_234
10
4.7542674
20
85.101291
11
4.2699536
21
84.0154
0
LINE
8
DEFAULT_255_1_234
10
4.2699536
20
84.0154
11
4.1141379
21
84.0154
0
LINE
8
DEFAULT_255_1_234
10
4.1141379
20
84.0154
11
4.5968454
21
85.0627387
0
LINE
8
DEFAULT_255_1_234
10
4.5968454
20
85.0627387
11
3.9639444
21
85.0627387
0
LINE
8
DEFAULT_255_1_234
10
3.9639444
20
85.0627387
11
3.9639444
21
85.1848211
0
LINE
8
DEFAULT_255_1_234
10
3.9639444
20
85.1848211
11
4.7542674
21
85.1848211
0
LINE
8
DEFAULT_255_1_234
10
4.5558835
20
93.1231243
11
4.5823882
21
93.1231243
0
LINE
8
DEFAULT_255_1_234
10
4.5823882
20
93.1231243
11
4.5823882
21
92.997026
0
LINE
8
DEFAULT_255_1_234
10
4.5823882
20
92.997026
11
4.5550803
21
92.997026
0
LINE
8
DEFAULT_255_1_234
10
4.0081189
20
92.3978583
11
4.0081189
21
92.4548836
0
LINE
8
DEFAULT_255_1_234
10
4.1575093
20
92.4356075
11
4.1575093
21
92.3809917
0
ARC
8
DEFAULT_255_1_234
10
4.5603151
20
92.4972455
40
0.4998079
50
90.6001036
51
104.514704
0
ARC
8
DEFAULT_255_1_234
10
4.5214667
20
92.6417131
40
0.3502176
50
104.2855254
51
133.862935
0
ARC
8
DEFAULT_255_1_234
10
4.5378424
20
92.630883
40
0.3693984
50
134.5302688
51
161.6210873
0
ARC
8
DEFAULT_255_1_234
10
4.7031613
20
92.5725895
40
0.5446739
50
161.2849839
51
174.2076652
0
ARC
8
DEFAULT_255_1_234
10
4.843855
20
92.5531787
40
0.6866274
50
173.7810589
51
174.9254635
0
ARC
8
DEFAULT_255_1_234
10
4.3888382
20
92.4148839
40
0.3033419
50
95.8330959
51
138.9954921
0
ARC
8
DEFAULT_255_1_234
10
4.4111738
20
92.2870375
40
0.4328947
50
89.8753725
51
97.0544009
0
ARC
8
DEFAULT_255_1_234
10
4.4159204
20
92.3705748
40
0.3493769
50
71.6407809
51
90.6240094
0
ARC
8
DEFAULT_255_1_234
10
4.4309777
20
92.4260082
40
0.2920396
50
39.6367836
51
71.019018
0
ARC
8
DEFAULT_255_1_234
10
4.367325
20
92.3709998
40
0.3761538
50
10.658731
51
39.9043955
0
ARC
8
DEFAULT_255_1_234
10
4.2125333
20
92.3373686
40
0.5345136
50
359.682601
51
11.132623
0
ARC
8
DEFAULT_255_1_234
10
4.2085464
20
92.330301
40
0.5385081
50
347.2486944
51
0.4369317
0
ARC
8
DEFAULT_255_1_234
10
4.3752941
20
92.2901807
40
0.3670249
50
318.1409698
51
347.6118597
0
ARC
8
DEFAULT_255_1_234
10
4.4077934
20
92.2634702
40
0.3250007
50
275.6342139
51
317.8248465
0
ARC
8
DEFAULT_255_1_234
10
4.3857045
20
92.3934219
40
0.4565864
50
269.8874292
51
276.7917694
0
ARC
8
DEFAULT_255_1_234
10
4.3802116
20
92.2908743
40
0.3540676
50
246.9140195
51
270.7437342
0
ARC
8
DEFAULT_255_1_234
10
4.3808506
20
92.2766384
40
0.3412781
50
218.1665114
51
245.878116
0
ARC
8
DEFAULT_255_1_234
10
4.4687967
20
92.3502279
40
0.455911
50
191.4115814
51
218.6077802
0
ARC
8
DEFAULT_255_1_234
10
4.6626056
20
92.3936833
40
0.6545001
50
179.6345085
51
191.7836486
0
ARC
8
DEFAULT_255_1_234
10
5.2208393
20
92.4615697
40
1.2127388
50
171.4525249
51
180.3158839
0
ARC
8
DEFAULT_255_1_234
10
4.7813269
20
92.5299608
40
0.7679464
50
157.9802646
51
171.6246686
0
ARC
8
DEFAULT_255_1_234
10
4.559929
20
92.6182421
40
0.5296008
50
141.4298019
51
157.854097
0
ARC
8
DEFAULT_255_1_234
10
4.495761
20
92.6636381
40
0.4511509
50
102.8715806
51
140.8564722
0
ARC
8
DEFAULT_255_1_234
10
4.5605226
20
92.4196552
40
0.7034845
50
90.3778349
51
103.5869322
0
ARC
8
DEFAULT_255_1_234
10
4.3867002
20
92.359173
40
0.2370698
50
89.8751008
51
126.2071704
0
ARC
8
DEFAULT_255_1_234
10
4.3912792
20
92.3437303
40
0.2522934
50
124.9745049
51
144.895901
0
ARC
8
DEFAULT_255_1_234
10
4.3736982
20
92.358056
40
0.2296779
50
145.2974905
51
160.2660252
0
ARC
8
DEFAULT_255_1_234
10
4.6809521
20
92.3778071
40
0.5234525
50
179.6514266
51
190.2855912
0
ARC
8
DEFAULT_255_1_234
10
4.5115658
20
92.3458786
40
0.3510893
50
190.0945431
51
207.5098196
0
ARC
8
DEFAULT_255_1_234
10
4.4549928
20
92.3189623
40
0.288489
50
207.9583163
51
216.3251085
0
ARC
8
DEFAULT_255_1_234
10
4.4210036
20
92.2910105
40
0.2445587
50
215.7661442
51
232.5456785
0
ARC
8
DEFAULT_255_1_234
10
4.3827019
20
92.2423482
40
0.1826382
50
232.8005391
51
270.6605633
0
ARC
8
DEFAULT_255_1_234
10
4.387272
20
92.2787612
40
0.2190529
50
269.35537
51
288.4744281
0
ARC
8
DEFAULT_255_1_234
10
4.3965617
20
92.2438118
40
0.1829749
50
289.1833337
51
322.9683818
0
ARC
8
DEFAULT_255_1_234
10
4.3354139
20
92.2920391
40
0.2608399
50
322.6007884
51
346.5182367
0
ARC
8
DEFAULT_255_1_234
10
4.2196735
20
92.3215616
40
0.3802777
50
346.2582162
51
358.7741648
0
ARC
8
DEFAULT_255_1_234
10
4.1178404
20
92.3270965
40
0.4822176
50
358.3755224
51
0.0098023
0
ARC
8
DEFAULT_255_1_234
10
4.1934591
20
92.3298657
40
0.4066078
50
359.6214041
51
11.2839074
0
ARC
8
DEFAULT_255_1_234
10
4.3211738
20
92.3565066
40
0.2761514
50
11.0482309
51
31.8146458
0
ARC
8
DEFAULT_255_1_234
10
4.3520781
20
92.3732584
40
0.2410679
50
32.3035391
51
38.082671
0
ARC
8
DEFAULT_255_1_234
10
4.3941441
20
92.4113662
40
0.1844966
50
36.825067
51
85.7415724
0
ARC
8
DEFAULT_255_1_234
10
4.3874274
20
92.3613301
40
0.2349122
50
85.0140713
51
90.0513278
0
LINE
8
DEFAULT_255_1_234
10
4.1864235
20
100.4461963
11
4.0675538
21
100.4767169
0
LINE
8
DEFAULT_255_1_234
10
4.0675538
20
100.4767169
11
4.1269887
21
101.0598211
0
LINE
8
DEFAULT_255_1_234
10
4.1269887
20
101.0598211
11
4.7261563
21
101.0598211
0
LINE
8
DEFAULT_255_1_234
10
4.7261563
20
101.0598211
11
4.7261563
21
100.9224784
0
LINE
8
DEFAULT_255_1_234
10
4.7261563
20
100.9224784
11
4.253087
21
100.9224784
0
LINE
8
DEFAULT_255_1_234
10
4.253087
20
100.9224784
11
4.2177473
21
100.6036184
0
LINE
8
DEFAULT_255_1_234
10
4.0257888
20
100.1980156
11
4.1663442
21
100.1980156
0
LINE
8
DEFAULT_255_1_234
10
4.2257791
20
100.4783232
11
4.1864235
21
100.4461963
0
ARC
8
DEFAULT_255_1_234
10
4.4032257
20
100.285623
40
0.3681349
50
93.7182161
51
120.2538958
0
ARC
8
DEFAULT_255_1_234
10
4.412652
20
100.2048394
40
0.449379
50
89.9660152
51
94.2496022
0
ARC
8
DEFAULT_255_1_234
10
4.4167254
20
100.2637549
40
0.390482
50
73.8043271
51
90.5585896
0
ARC
8
DEFAULT_255_1_234
10
4.4402151
20
100.3495602
40
0.3015334
50
41.3071453
51
73.5430202
0
ARC
8
DEFAULT_255_1_234
10
4.3985978
20
100.3137324
40
0.3564457
50
13.5075983
51
41.2174222
0
ARC
8
DEFAULT_255_1_234
10
4.2344182
20
100.2707486
40
0.5261351
50
1.1331335
51
13.8829381
0
ARC
8
DEFAULT_255_1_234
10
4.0932551
20
100.2631665
40
0.6674378
50
359.9919444
51
1.544251
0
ARC
8
DEFAULT_255_1_234
10
4.2209377
20
100.259028
40
0.5397702
50
347.8572367
51
0.4293338
0
ARC
8
DEFAULT_255_1_234
10
4.3959695
20
100.2193736
40
0.3603188
50
323.673004
51
348.1672506
0
ARC
8
DEFAULT_255_1_234
10
4.4254203
20
100.2014168
40
0.3259678
50
316.8171152
51
323.1492751
0
ARC
8
DEFAULT_255_1_234
10
4.4315392
20
100.197746
40
0.3189975
50
281.8396411
51
316.5457803
0
ARC
8
DEFAULT_255_1_234
10
4.3939656
20
100.3532762
40
0.4789527
50
269.5770101
51
282.4214771
0
ARC
8
DEFAULT_255_1_234
10
4.3868467
20
100.3319125
40
0.45759
50
256.2427136
51
270.4486331
0
ARC
8
DEFAULT_255_1_234
10
4.356937
20
100.2119229
40
0.3339303
50
228.9023911
51
256.3314342
0
ARC
8
DEFAULT_255_1_234
10
4.3495602
20
100.2002746
40
0.32031
50
193.753695
51
228.5271154
0
ARC
8
DEFAULT_255_1_234
10
4.4733556
20
100.23658
40
0.4492253
50
184.924711
51
194.497588
0
ARC
8
DEFAULT_255_1_234
10
4.4926123
20
100.2401591
40
0.3289787
50
187.3600538
51
198.6732863
0
ARC
8
DEFAULT_255_1_234
10
4.3876417
20
100.2037674
40
0.217884
50
198.4451669
51
217.794479
0
ARC
8
DEFAULT_255_1_234
10
4.3580592
20
100.1828085
40
0.1816698
50
218.2887171
51
228.5612368
0
ARC
8
DEFAULT_255_1_234
10
4.3678379
20
100.1959963
40
0.1980329
50
228.9654866
51
258.1234728
0
ARC
8
DEFAULT_255_1_234
10
4.3884089
20
100.2840833
40
0.2884748
50
257.7258293
51
270.401361
0
ARC
8
DEFAULT_255_1_234
10
4.3928975
20
100.2395821
40
0.2439788
50
269.4204404
51
286.4209037
0
ARC
8
DEFAULT_255_1_234
10
4.4077463
20
100.1856657
40
0.1880666
50
286.7251356
51
320.600362
0
ARC
8
DEFAULT_255_1_234
10
4.3694288
20
100.2167595
40
0.2374121
50
320.6712579
51
344.5441685
0
ARC
8
DEFAULT_255_1_234
10
4.2537614
20
100.2507045
40
0.3579479
50
344.2412205
51
356.7357071
0
ARC
8
DEFAULT_255_1_234
10
4.1288763
20
100.2610444
40
0.4832297
50
356.3548756
51
0.0500261
0
ARC
8
DEFAULT_255_1_234
10
4.2625272
20
100.264165
40
0.3495889
50
359.5576869
51
12.953486
0
ARC
8
DEFAULT_255_1_234
10
4.3680169
20
100.2897434
40
0.2410532
50
12.6490276
51
41.6081334
0
ARC
8
DEFAULT_255_1_234
10
4.391054
20
100.3093321
40
0.2108218
50
41.7850273
51
85.9892764
0
ARC
8
DEFAULT_255_1_234
10
4.3787277
20
100.2280462
40
0.2928454
50
84.6957577
51
90.0676183
0
ARC
8
DEFAULT_255_1_234
10
4.3763761
20
100.1611716
40
0.3597255
50
89.6804936
51
99.1614436
0
ARC
8
DEFAULT_255_1_234
10
4.3558392
20
100.2839131
40
0.235281
50
98.9830931
51
113.8908934
0
ARC
8
DEFAULT_255_1_234
10
4.3328802
20
100.3380587
40
0.176479
50
114.1950727
51
127.3641004
0
LINE
8
DEFAULT_255_1_234
10
4.8381628
20
108.9973211
11
4.8381628
21
108.220652
0
LINE
8
DEFAULT_255_1_234
10
4.8381628
20
108.220652
11
5.0004039
21
108.220652
0
LINE
8
DEFAULT_255_1_234
10
5.0004039
20
108.220652
11
5.0004039
21
108.0993728
0
LINE
8
DEFAULT_255_1_234
10
5.0004039
20
108.0993728
11
4.8381628
21
108.0993728
0
LINE
8
DEFAULT_255_1_234
10
4.8381628
20
108.0993728
11
4.8381628
21
107.8279
0
LINE
8
DEFAULT_255_1_234
10
4.8381628
20
107.8279
11
4.6887725
21
107.8279
0
LINE
8
DEFAULT_255_1_234
10
4.6887725
20
107.8279
11
4.6887725
21
108.0993728
0
LINE
8
DEFAULT_255_1_234
10
4.6887725
20
108.0993728
11
4.1562682
21
108.0993728
0
LINE
8
DEFAULT_255_1_234
10
4.1562682
20
108.0993728
11
4.1562682
21
108.1869187
0
LINE
8
DEFAULT_255_1_234
10
4.1562682
20
108.1869187
11
4.6799375
21
108.9973211
0
LINE
8
DEFAULT_255_1_234
10
4.6799375
20
108.9973211
11
4.8381628
21
108.9973211
0
LINE
8
DEFAULT_255_1_234
10
4.6711026
20
108.7619912
11
4.3249347
21
108.220652
0
LINE
8
DEFAULT_255_1_234
10
4.3249347
20
108.220652
11
4.6887725
21
108.220652
0
LINE
8
DEFAULT_255_1_234
10
4.6887725
20
108.220652
11
4.6887725
21
108.7941181
0
LINE
8
DEFAULT_255_1_234
10
4.6887725
20
108.7941181
11
4.6711026
21
108.7619912
0
LINE
8
DEFAULT_255_1_234
10
4.2153378
20
116.3011169
11
4.2153378
21
116.4223962
0
LINE
8
DEFAULT_255_1_234
10
4.2153378
20
116.4223962
11
4.326979
21
116.4223962
0
LINE
8
DEFAULT_255_1_234
10
4.1366268
20
116.6280087
11
3.9880396
21
116.6280087
0
LINE
8
DEFAULT_255_1_234
10
3.9775983
20
116.0738188
11
4.1269887
21
116.0738188
0
LINE
8
DEFAULT_255_1_234
10
4.326979
20
116.3011169
11
4.2153378
21
116.3011169
0
ARC
8
DEFAULT_255_1_234
10
4.3240656
20
116.7616713
40
0.3392876
50
270.4919872
51
281.8951556
0
ARC
8
DEFAULT_255_1_234
10
4.3481918
20
116.6514702
40
0.2264817
50
281.6691735
51
301.2943132
0
ARC
8
DEFAULT_255_1_234
10
4.3652128
20
116.6203304
40
0.1910381
50
301.7833094
51
311.7545298
0
ARC
8
DEFAULT_255_1_234
10
4.3743704
20
116.6101748
40
0.1773635
50
311.7323931
51
354.2802411
0
ARC
8
DEFAULT_255_1_234
10
4.3017329
20
116.6226722
40
0.2509385
50
353.0937916
51
0.1181479
0
ARC
8
DEFAULT_255_1_234
10
4.2556114
20
116.6274386
40
0.2970898
50
359.1805295
51
15.0453146
0
ARC
8
DEFAULT_255_1_234
10
4.3901951
20
116.6666992
40
0.1569564
50
13.9577229
51
77.6713066
0
ARC
8
DEFAULT_255_1_234
10
4.351548
20
116.5281949
40
0.3006298
50
76.1116566
51
90.7026153
0
ARC
8
DEFAULT_255_1_234
10
4.3456318
20
116.5555545
40
0.2732568
50
89.5324876
51
103.531937
0
ARC
8
DEFAULT_255_1_234
10
4.3255762
20
116.6354884
40
0.1908508
50
103.2931773
51
133.5619022
0
ARC
8
DEFAULT_255_1_234
10
4.3211251
20
116.6414375
40
0.1834746
50
133.8349307
51
173.5344437
0
ARC
8
DEFAULT_255_1_234
10
4.3934294
20
116.6286213
40
0.2568033
50
172.5096846
51
180.1366907
0
ARC
8
DEFAULT_255_1_234
10
4.2983188
20
116.6320622
40
0.3103056
50
155.3484492
51
180.7484736
0
ARC
8
DEFAULT_255_1_234
10
4.2934277
20
116.6291846
40
0.3070957
50
131.5744599
51
154.4798489
0
ARC
8
DEFAULT_255_1_234
10
4.3247424
20
116.597531
40
0.3515643
50
96.9875458
51
131.9690667
0
ARC
8
DEFAULT_255_1_234
10
4.3466904
20
116.4729636
40
0.4779224
50
89.8596053
51
97.7825159
0
ARC
8
DEFAULT_255_1_234
10
4.3514967
20
116.4467616
40
0.5041361
50
78.3655447
51
90.4131539
0
ARC
8
DEFAULT_255_1_234
10
4.3872885
20
116.6126887
40
0.3344039
50
56.6229102
51
78.638727
0
ARC
8
DEFAULT_255_1_234
10
4.4087829
20
116.6502805
40
0.2912001
50
47.0253525
51
56.0854072
0
ARC
8
DEFAULT_255_1_234
10
4.4107609
20
116.6542223
40
0.2869704
50
10.9208013
51
46.7778124
0
ARC
8
DEFAULT_255_1_234
10
4.2743675
20
116.6226857
40
0.426899
50
359.6364486
51
11.6087304
0
ARC
8
DEFAULT_255_1_234
10
4.4578519
20
116.6211752
40
0.243409
50
332.3549906
51
359.7179418
0
ARC
8
DEFAULT_255_1_234
10
4.3928121
20
116.6520142
40
0.3153459
50
325.2333722
51
332.8745602
0
ARC
8
DEFAULT_255_1_234
10
4.4080744
20
116.6413828
40
0.2967456
50
292.9802137
51
325.2392345
0
ARC
8
DEFAULT_255_1_234
10
4.3806118
20
116.6947863
40
0.3566604
50
292.5402179
51
293.6924929
0
ARC
8
DEFAULT_255_1_234
10
4.4198714
20
116.0493091
40
0.3307468
50
57.6435486
51
72.8625112
0
ARC
8
DEFAULT_255_1_234
10
4.4553214
20
116.1067549
40
0.2632492
50
36.7248896
51
57.4697979
0
ARC
8
DEFAULT_255_1_234
10
4.4541847
20
116.108022
40
0.2634081
50
8.0545065
51
36.356114
0
ARC
8
DEFAULT_255_1_234
10
4.3679032
20
116.0925174
40
0.3510261
50
359.8320645
51
8.5869982
0
ARC
8
DEFAULT_255_1_234
10
4.3303808
20
116.0877101
40
0.3885653
50
343.9829931
51
0.5571613
0
ARC
8
DEFAULT_255_1_234
10
4.4190005
20
116.0634438
40
0.2966924
50
311.6359546
51
343.7651759
0
ARC
8
DEFAULT_255_1_234
10
4.3811574
20
116.1061102
40
0.3537231
50
279.7829875
51
311.6255694
0
ARC
8
DEFAULT_255_1_234
10
4.3510351
20
116.249828
40
0.5004971
50
269.7286406
51
280.3856417
0
ARC
8
DEFAULT_255_1_234
10
4.3448423
20
116.2456996
40
0.4963778
50
256.6828919
51
270.4412052
0
ARC
8
DEFAULT_255_1_234
10
4.3109719
20
116.1072394
40
0.3538406
50
229.4223008
51
256.8556159
0
ARC
8
DEFAULT_255_1_234
10
4.2695112
20
116.0605736
40
0.2914296
50
181.818294
51
229.6455059
0
ARC
8
DEFAULT_255_1_234
10
4.3735068
20
116.0736496
40
0.3959084
50
179.9755256
51
183.2323064
0
ARC
8
DEFAULT_255_1_234
10
4.3562814
20
116.0716037
40
0.2293034
50
179.4465117
51
196.2869258
0
ARC
8
DEFAULT_255_1_234
10
4.3075222
20
116.0582651
40
0.1787621
50
196.5661473
51
227.705904
0
ARC
8
DEFAULT_255_1_234
10
4.3239317
20
116.0766155
40
0.2033784
50
227.7652068
51
257.8762805
0
ARC
8
DEFAULT_255_1_234
10
4.3464287
20
116.1709156
40
0.3003081
50
257.4584385
51
270.426602
0
ARC
8
DEFAULT_255_1_234
10
4.3509853
20
116.1998996
40
0.329292
50
269.5962073
51
280.8789248
0
ARC
8
DEFAULT_255_1_234
10
4.3739382
20
116.0852685
40
0.2123908
50
280.6346389
51
299.8595945
0
ARC
8
DEFAULT_255_1_234
10
4.3930289
20
116.0490212
40
0.171457
50
300.3576302
51
314.5517981
0
ARC
8
DEFAULT_255_1_234
10
4.3847349
20
116.0550919
40
0.1816095
50
315.0728369
51
345.0431014
0
ARC
8
DEFAULT_255_1_234
10
4.2924163
20
116.0819841
40
0.2777492
50
344.5986631
51
357.9269593
0
ARC
8
DEFAULT_255_1_234
10
4.2028489
20
116.0881276
40
0.3674917
50
357.4748886
51
0.0231117
0
ARC
8
DEFAULT_255_1_234
10
4.3051599
20
116.0905679
40
0.2651907
50
359.5047933
51
13.4239635
0
ARC
8
DEFAULT_255_1_234
10
4.3918242
20
116.1127478
40
0.1757509
50
12.9498199
51
48.7551375
0
ARC
8
DEFAULT_255_1_234
10
4.3735976
20
116.08784
40
0.2065134
50
49.5088623
51
72.1836453
0
ARC
8
DEFAULT_255_1_234
10
4.3378129
20
115.9816291
40
0.3185836
50
71.9010081
51
84.3554254
0
ARC
8
DEFAULT_255_1_234
10
4.3216761
20
115.8455326
40
0.4556151
50
84.0193428
51
89.333121
0
LINE
8
DEFAULT_255_1_234
10
4.7655119
20
123.8241792
11
4.7655119
21
123.7029
0
LINE
8
DEFAULT_255_1_234
10
4.7655119
20
123.7029
11
3.999284
21
123.7029
0
LINE
8
DEFAULT_255_1_234
10
3.999284
20
123.7029
11
3.999284
21
123.8097221
0
LINE
8
DEFAULT_255_1_234
10
3.999284
20
123.8097221
11
4.4040836
21
124.2594995
0
LINE
8
DEFAULT_255_1_234
10
4.1253823
20
124.5277595
11
3.9767952
21
124.5277595
0
LINE
8
DEFAULT_255_1_234
10
4.4916296
20
124.1639218
11
4.1783918
21
123.8241792
0
LINE
8
DEFAULT_255_1_234
10
4.1783918
20
123.8241792
11
4.7655119
21
123.8241792
0
ARC
8
DEFAULT_255_1_234
10
3.055067
20
125.4524527
40
1.8008286
50
318.5132453
51
320.7828378
0
ARC
8
DEFAULT_255_1_234
10
3.5837644
20
125.0221426
40
1.1191493
50
320.7372736
51
323.9737074
0
ARC
8
DEFAULT_255_1_234
10
3.9757501
20
124.7381361
40
0.6350923
50
323.8961724
51
328.6421089
0
ARC
8
DEFAULT_255_1_234
10
4.1804096
20
124.6119031
40
0.3946393
50
328.8299013
51
331.789948
0
ARC
8
DEFAULT_255_1_234
10
4.2801274
20
124.5604509
40
0.2824501
50
331.4255242
51
352.9364833
0
ARC
8
DEFAULT_255_1_234
10
4.2937775
20
124.5573976
40
0.2685315
50
353.2248685
51
0.0169286
0
ARC
8
DEFAULT_255_1_234
10
4.3147652
20
124.559695
40
0.2475536
50
359.4866256
51
15.9339782
0
ARC
8
DEFAULT_255_1_234
10
4.3654637
20
124.5733286
40
0.1950618
50
16.1714718
51
43.5284424
0
ARC
8
DEFAULT_255_1_234
10
4.3731946
20
124.5810573
40
0.184134
50
43.4415429
51
83.1661404
0
ARC
8
DEFAULT_255_1_234
10
4.3597864
20
124.5073771
40
0.258926
50
82.160215
51
90.1505798
0
ARC
8
DEFAULT_255_1_234
10
4.3566291
20
124.4536865
40
0.3126255
50
89.5460705
51
102.5418777
0
ARC
8
DEFAULT_255_1_234
10
4.3323377
20
124.5567665
40
0.2067346
50
102.1739365
51
129.2061916
0
ARC
8
DEFAULT_255_1_234
10
4.3244449
20
124.5692094
40
0.1921118
50
129.7279328
51
135.7542026
0
ARC
8
DEFAULT_255_1_234
10
4.3365977
20
124.5595045
40
0.2075944
50
136.175737
51
166.3674722
0
ARC
8
DEFAULT_255_1_234
10
4.4372896
20
124.5325182
40
0.3118201
50
165.9092917
51
178.8683903
0
ARC
8
DEFAULT_255_1_234
10
4.5237757
20
124.5278179
40
0.3983935
50
178.438168
51
180.0083905
0
ARC
8
DEFAULT_255_1_234
10
4.3836359
20
124.5317231
40
0.4068601
50
163.2878735
51
180.5581814
0
ARC
8
DEFAULT_255_1_234
10
4.3034621
20
124.553784
40
0.3237344
50
133.454115
51
162.9470031
0
ARC
8
DEFAULT_255_1_234
10
4.3213162
20
124.5348
40
0.349795
50
100.7869394
51
133.4384016
0
ARC
8
DEFAULT_255_1_234
10
4.3560934
20
124.3799319
40
0.5084616
50
89.6605301
51
101.3704185
0
ARC
8
DEFAULT_255_1_234
10
4.3627273
20
124.3860496
40
0.502348
50
78.2171172
51
90.4130393
0
ARC
8
DEFAULT_255_1_234
10
4.3982351
20
124.5484637
40
0.3361092
50
55.9268222
51
78.4888551
0
ARC
8
DEFAULT_255_1_234
10
4.4178791
20
124.5823324
40
0.2970617
50
47.9292255
51
55.4054003
0
ARC
8
DEFAULT_255_1_234
10
4.4280352
20
124.5926502
40
0.2825983
50
4.3347696
51
48.0560701
0
ARC
8
DEFAULT_255_1_234
10
4.3184745
20
124.5756601
40
0.393225
50
359.925209
51
5.5967654
0
ARC
8
DEFAULT_255_1_234
10
4.3613637
20
124.5812816
40
0.3503892
50
337.8914096
51
358.9967724
0
ARC
8
DEFAULT_255_1_234
10
4.0900049
20
124.6859706
40
0.6412172
50
326.9135351
51
338.3505194
0
ARC
8
DEFAULT_255_1_234
10
3.6914353
20
124.9414284
40
1.1146189
50
319.6472867
51
327.095818
0
ARC
8
DEFAULT_255_1_234
10
3.3081356
20
125.2576
40
1.6114559
50
317.2586784
51
319.9046139
0
LINE
8
DEFAULT_255_1_234
10
4.4793137
20
132.8154433
11
4.4793137
21
131.6404
0
LINE
8
DEFAULT_255_1_234
10
4.4793137
20
131.6404
11
4.3299234
21
131.6404
0
LINE
8
DEFAULT_255_1_234
10
4.3299234
20
131.6404
11
4.3299234
21
132.6307133
0
LINE
8
DEFAULT_255_1_234
10
4.3299234
20
132.6307133
11
4.0303396
21
132.5206785
0
LINE
8
DEFAULT_255_1_234
10
4.0303396
20
132.5206785
11
4.0303396
21
132.6556117
0
LINE
8
DEFAULT_255_1_234
10
4.0303396
20
132.6556117
11
4.4560217
21
132.8154433
0
LINE
8
DEFAULT_255_1_234
10
4.4560217
20
132.8154433
11
4.4793137
21
132.8154433
0
LINE
8
DEFAULT_255_1_234
10
4.7325817
20
140.2694327
11
4.7325817
21
140.0766709
0
LINE
8
DEFAULT_255_1_234
10
3.994465
20
140.0565916
11
3.994465
21
140.2549755
0
LINE
8
DEFAULT_255_1_234
10
4.5839946
20
140.0365123
11
4.5839946
21
140.2798739
0
LINE
8
DEFAULT_255_1_234
10
4.1430521
20
140.2911184
11
4.1430521
21
140.0533789
0
ARC
8
DEFAULT_255_1_234
10
3.5078707
20
140.0717805
40
1.2247208
50
353.8441951
51
0.2287902
0
ARC
8
DEFAULT_255_1_234
10
3.9718211
20
140.0199806
40
0.7578929
50
344.4934747
51
353.9765454
0
ARC
8
DEFAULT_255_1_234
10
4.2710801
20
139.9348981
40
0.4467846
50
329.2803592
51
344.7472793
0
ARC
8
DEFAULT_255_1_234
10
4.3703626
20
139.8804018
40
0.3336173
50
324.9352394
51
328.6160465
0
ARC
8
DEFAULT_255_1_234
10
4.4080734
20
139.8540427
40
0.2876076
50
280.580143
51
324.9173126
0
ARC
8
DEFAULT_255_1_234
10
4.3679527
20
140.0211099
40
0.4592847
50
269.5977311
51
281.6734359
0
ARC
8
DEFAULT_255_1_234
10
4.3607433
20
140.0091173
40
0.4472986
50
256.6228859
51
270.51044
0
ARC
8
DEFAULT_255_1_234
10
4.320541
20
139.8542877
40
0.2873874
50
215.8618325
51
257.2788573
0
ARC
8
DEFAULT_255_1_234
10
4.4226442
20
139.9227977
40
0.4102928
50
197.9693508
51
215.2623606
0
ARC
8
DEFAULT_255_1_234
10
4.6711558
20
140.0066709
40
0.6725652
50
187.8816417
51
198.2346507
0
ARC
8
DEFAULT_255_1_234
10
5.0669766
20
140.0638079
40
1.0724845
50
180.8976217
51
188.0055519
0
ARC
8
DEFAULT_255_1_234
10
5.3469954
20
140.0741777
40
1.3526448
50
180.7449369
51
181.1510016
0
ARC
8
DEFAULT_255_1_234
10
5.1892683
20
140.2598042
40
1.1948131
50
173.7675579
51
180.231553
0
ARC
8
DEFAULT_255_1_234
10
4.737483
20
140.3108666
40
0.7401564
50
164.3058563
51
173.9002247
0
ARC
8
DEFAULT_255_1_234
10
4.4462899
20
140.3947656
40
0.4371288
50
148.7922025
51
164.568378
0
ARC
8
DEFAULT_255_1_234
10
4.3511351
20
140.4478929
40
0.3282386
50
144.5883898
51
148.1176286
0
ARC
8
DEFAULT_255_1_234
10
4.3168249
20
140.4718315
40
0.2864044
50
101.6440918
51
144.514236
0
ARC
8
DEFAULT_255_1_234
10
4.3593315
20
140.3029069
40
0.4604934
50
89.5284041
51
102.5819763
0
ARC
8
DEFAULT_255_1_234
10
4.3672403
20
140.2990018
40
0.464401
50
77.0437873
51
90.5081339
0
ARC
8
DEFAULT_255_1_234
10
4.4074405
20
140.4632615
40
0.2953195
50
48.2778575
51
77.4994676
0
ARC
8
DEFAULT_255_1_234
10
4.4147036
20
140.4761746
40
0.2808655
50
36.3142134
51
47.6305865
0
ARC
8
DEFAULT_255_1_234
10
4.3278343
20
140.4176515
40
0.3855453
50
18.2931786
51
35.6769206
0
ARC
8
DEFAULT_255_1_234
10
4.0735102
20
140.3303593
40
0.654423
50
8.024666
51
18.5605216
0
ARC
8
DEFAULT_255_1_234
10
3.6572022
20
140.2688792
40
1.0752407
50
1.1274072
51
8.1718305
0
ARC
8
DEFAULT_255_1_234
10
3.3336213
20
140.2561885
40
1.3990231
50
0.5424119
51
1.3863029
0
ARC
8
DEFAULT_255_1_234
10
3.515759
20
140.2834342
40
1.0682415
50
359.8090433
51
4.9407866
0
ARC
8
DEFAULT_255_1_234
10
3.9367604
20
140.3210113
40
0.6455691
50
4.8362157
51
12.2904523
0
ARC
8
DEFAULT_255_1_234
10
4.2122719
20
140.3823965
40
0.3633074
50
12.0805627
51
23.8173984
0
ARC
8
DEFAULT_255_1_234
10
4.3296425
20
140.4320919
40
0.2358723
50
24.2871213
51
31.3935614
0
ARC
8
DEFAULT_255_1_234
10
4.3821122
20
140.4664233
40
0.1732111
50
30.7407893
51
82.4657128
0
ARC
8
DEFAULT_255_1_234
10
4.3641256
20
140.3780691
40
0.263235
50
81.1060089
51
90.2184952
0
ARC
8
DEFAULT_255_1_234
10
4.3605555
20
140.4038924
40
0.2374236
50
89.3806855
51
105.6762551
0
ARC
8
DEFAULT_255_1_234
10
4.3422186
20
140.4705567
40
0.1682847
50
105.7981136
51
149.7388061
0
ARC
8
DEFAULT_255_1_234
10
4.4486264
20
140.406595
40
0.2924306
50
149.4208916
51
163.6286378
0
ARC
8
DEFAULT_255_1_234
10
4.6577152
20
140.342825
40
0.5110213
50
163.3763315
51
172.1410975
0
ARC
8
DEFAULT_255_1_234
10
4.9877871
20
140.2955518
40
0.8444586
50
172.0259487
51
178.0703232
0
ARC
8
DEFAULT_255_1_234
10
5.290796
20
140.2811906
40
1.1477868
50
177.8631668
51
179.5044149
0
ARC
8
DEFAULT_255_1_234
10
5.1835365
20
140.0497389
40
1.0404907
50
179.7995573
51
185.2460446
0
ARC
8
DEFAULT_255_1_234
10
4.7792404
20
140.0114513
40
0.6343885
50
185.1411642
51
193.0079639
0
ARC
8
DEFAULT_255_1_234
10
4.5148877
20
139.9489641
40
0.3627568
50
192.7897626
51
205.2507664
0
ARC
8
DEFAULT_255_1_234
10
4.4102424
20
139.9022415
40
0.2481908
50
205.8005384
51
211.2537509
0
ARC
8
DEFAULT_255_1_234
10
4.3578864
20
139.867158
40
0.1852521
50
210.3789793
51
238.4008143
0
ARC
8
DEFAULT_255_1_234
10
4.3559386
20
139.8718376
40
0.1882621
50
239.6520629
51
265.9793761
0
ARC
8
DEFAULT_255_1_234
10
4.3644586
20
139.9390427
40
0.2559272
50
265.1315437
51
270.060332
0
ARC
8
DEFAULT_255_1_234
10
4.3673365
20
139.9066534
40
0.2235528
50
269.3314664
51
287.2178029
0
ARC
8
DEFAULT_255_1_234
10
4.3811217
20
139.8563279
40
0.1714108
50
287.7958004
51
329.080874
0
ARC
8
DEFAULT_255_1_234
10
4.2853674
20
139.916093
40
0.2842745
50
328.6634704
51
343.3325132
0
ARC
8
DEFAULT_255_1_234
10
4.0680694
20
139.9837863
40
0.5118644
50
343.0499468
51
351.9393422
0
ARC
8
DEFAULT_255_1_234
10
3.7213994
20
140.0348949
40
0.8622784
50
351.8069023
51
357.7959224
0
ARC
8
DEFAULT_255_1_234
10
3.397855
20
140.0516721
40
1.1862365
50
357.5871873
51
359.2677531
0
LINE
8
DEFAULT_255_1_234
10
21.8620482
20
148.097701
11
21.8620482
21
147.6688062
0
LINE
8
DEFAULT_255_1_234
10
20.9608872
20
148.0438884
11
20.9608872
21
148.1458915
0
LINE
8
DEFAULT_255_1_234
10
21.8620482
20
148.3418659
11
21.7078389
21
148.3418659
0
LINE
8
DEFAULT_255_1_234
10
21.1158998
20
148.1499073
11
21.1158998
21
148.0543296
0
LINE
8
DEFAULT_255_1_234
10
21.708642
20
147.7097681
11
21.708642
21
147.9724059
0
LINE
8
DEFAULT_255_1_234
10
21.708642
20
147.9724059
11
21.4379725
21
147.9724059
0
LINE
8
DEFAULT_255_1_234
10
21.4379725
20
147.9724059
11
21.4379725
21
148.097701
0
LINE
8
DEFAULT_255_1_234
10
21.4379725
20
148.097701
11
21.8620482
21
148.097701
0
ARC
8
DEFAULT_255_1_234
10
21.5788989
20
147.8681396
40
0.3462765
50
295.8437914
51
324.8549609
0
ARC
8
DEFAULT_255_1_234
10
21.5372956
20
147.9434567
40
0.4322211
50
291.5695085
51
296.4549398
0
ARC
8
DEFAULT_255_1_234
10
21.4862207
20
148.0799275
40
0.5779178
50
278.6622409
51
291.3045483
0
ARC
8
DEFAULT_255_1_234
10
21.4522699
20
148.2947408
40
0.7953952
50
270.020006
51
278.7494541
0
ARC
8
DEFAULT_255_1_234
10
21.4484623
20
148.4264036
40
0.927067
50
269.9969998
51
270.2524872
0
ARC
8
DEFAULT_255_1_234
10
21.4446336
20
148.0180589
40
0.5187361
50
253.5786322
51
270.4175299
0
ARC
8
DEFAULT_255_1_234
10
21.4272992
20
147.9509236
40
0.4494451
50
238.8203306
51
253.2788235
0
ARC
8
DEFAULT_255_1_234
10
21.4253365
20
147.9458231
40
0.4440665
50
206.7883783
51
238.6962764
0
ARC
8
DEFAULT_255_1_234
10
21.5027275
20
147.9922405
40
0.5341121
50
206.1129412
51
207.4916643
0
ARC
8
DEFAULT_255_1_234
10
21.562419
20
148.0176488
40
0.5989041
50
188.6921119
51
205.7821245
0
ARC
8
DEFAULT_255_1_234
10
21.7480552
20
148.049223
40
0.7871862
50
180.3882829
51
188.9219216
0
ARC
8
DEFAULT_255_1_234
10
21.8708366
20
148.1515464
40
0.909967
50
170.2024264
51
180.3560651
0
ARC
8
DEFAULT_255_1_234
10
21.5544884
20
148.2081237
40
0.5886083
50
154.2857445
51
170.3893044
0
ARC
8
DEFAULT_255_1_234
10
21.4263087
20
148.266795
40
0.4476743
50
139.8401567
51
153.9332699
0
ARC
8
DEFAULT_255_1_234
10
21.3903823
20
148.2955577
40
0.4016697
50
98.4190291
51
139.6707122
0
ARC
8
DEFAULT_255_1_234
10
21.4283341
20
148.1110328
40
0.5898566
50
89.7659205
51
99.4415478
0
ARC
8
DEFAULT_255_1_234
10
21.434859
20
148.1175844
40
0.5833147
50
78.0551672
51
90.4042112
0
ARC
8
DEFAULT_255_1_234
10
21.47531
20
148.2994644
40
0.3970055
50
54.6380464
51
78.3339173
0
ARC
8
DEFAULT_255_1_234
10
21.4943156
20
148.3314795
40
0.3599102
50
50.031736
51
54.1558201
0
ARC
8
DEFAULT_255_1_234
10
21.4835944
20
148.3218766
40
0.3741624
50
18.1092409
51
49.7180913
0
ARC
8
DEFAULT_255_1_234
10
21.3379144
20
148.2685089
40
0.5292424
50
7.9672797
51
18.6984571
0
ARC
8
DEFAULT_255_1_234
10
21.3529622
20
148.2808504
40
0.3600838
50
9.7557294
51
27.3215714
0
ARC
8
DEFAULT_255_1_234
10
21.4657094
20
148.3371912
40
0.2340608
50
27.7361077
51
84.5257964
0
ARC
8
DEFAULT_255_1_234
10
21.4329481
20
148.172864
40
0.4011215
50
82.106034
51
90.2001166
0
ARC
8
DEFAULT_255_1_234
10
21.4279698
20
148.2236215
40
0.3503799
50
89.4150119
51
105.5823402
0
ARC
8
DEFAULT_255_1_234
10
21.4022696
20
148.3171867
40
0.2533503
50
105.6678618
51
144.2648758
0
ARC
8
DEFAULT_255_1_234
10
21.4915951
20
148.2536289
40
0.3629787
50
144.3561283
51
162.8564086
0
ARC
8
DEFAULT_255_1_234
10
21.699986
20
148.1867017
40
0.5818441
50
162.6076014
51
173.6780284
0
ARC
8
DEFAULT_255_1_234
10
22.0061004
20
148.149489
40
0.8902007
50
173.4670142
51
179.9730753
0
ARC
8
DEFAULT_255_1_234
10
21.8152675
20
148.050126
40
0.6993804
50
179.6556203
51
190.0080463
0
ARC
8
DEFAULT_255_1_234
10
21.5836504
20
148.0076375
40
0.4639066
50
189.8116607
51
206.6796816
0
ARC
8
DEFAULT_255_1_234
10
21.4991656
20
147.9682503
40
0.3707421
50
207.1031645
51
217.7074368
0
ARC
8
DEFAULT_255_1_234
10
21.4357345
20
147.9130559
40
0.2868417
50
216.7345547
51
265.6812148
0
ARC
8
DEFAULT_255_1_234
10
21.4488136
20
148.0034855
40
0.3780509
50
264.7366618
51
270.0611241
0
ARC
8
DEFAULT_255_1_234
10
21.4511399
20
148.2875111
40
0.662079
50
269.8335834
51
276.0539546
0
ARC
8
DEFAULT_255_1_234
10
21.4718404
20
148.097356
40
0.4708016
50
275.9894168
51
284.4615085
0
ARC
8
DEFAULT_255_1_234
10
21.4916411
20
148.0140663
40
0.3852094
50
284.7034461
51
286.4953897
0
ARC
8
DEFAULT_255_1_234
10
21.5323424
20
147.8829965
40
0.2479842
50
286.0770838
51
304.2625829
0
ARC
8
DEFAULT_255_1_234
10
21.5456838
20
147.8611594
40
0.2224291
50
304.5891602
51
317.1073298
0
LINE
8
DEFAULT_255_1_234
10
23.0178154
20
148.6848211
11
23.0178154
21
147.5154
0
LINE
8
DEFAULT_255_1_234
10
23.0178154
20
147.5154
11
22.8628028
21
147.5154
0
LINE
8
DEFAULT_255_1_234
10
22.8628028
20
147.5154
11
22.2740764
21
148.416561
0
LINE
8
DEFAULT_255_1_234
10
22.2740764
20
148.416561
11
22.2740764
21
147.5154
0
LINE
8
DEFAULT_255_1_234
10
22.2740764
20
147.5154
11
22.1190639
21
147.5154
0
LINE
8
DEFAULT_255_1_234
10
22.1190639
20
147.5154
11
22.1190639
21
148.6848211
0
LINE
8
DEFAULT_255_1_234
10
22.1190639
20
148.6848211
11
22.2740764
21
148.6848211
0
LINE
8
DEFAULT_255_1_234
10
22.2740764
20
148.6848211
11
22.8644092
21
147.7796442
0
LINE
8
DEFAULT_255_1_234
10
22.8644092
20
147.7796442
11
22.8644092
21
148.6848211
0
LINE
8
DEFAULT_255_1_234
10
22.8644092
20
148.6848211
11
23.0178154
21
148.6848211
0
LINE
8
DEFAULT_255_1_234
10
23.6153767
20
147.5154
11
23.2916977
21
147.5154
0
LINE
8
DEFAULT_255_1_234
10
23.2916977
20
147.5154
11
23.2916977
21
148.6848211
0
LINE
8
DEFAULT_255_1_234
10
23.2916977
20
148.6848211
11
23.6218021
21
148.6848211
0
LINE
8
DEFAULT_255_1_234
10
24.1374397
20
148.1394661
11
24.1374397
21
148.0647709
0
LINE
8
DEFAULT_255_1_234
10
23.625818
20
148.5579196
11
23.445907
21
148.5579196
0
LINE
8
DEFAULT_255_1_234
10
23.445907
20
148.5579196
11
23.445907
21
147.6414983
0
LINE
8
DEFAULT_255_1_234
10
23.445907
20
147.6414983
11
23.6081481
21
147.6414983
0
LINE
8
DEFAULT_255_1_234
10
23.9848367
20
148.0679836
11
23.9848367
21
148.1362534
0
ARC
8
DEFAULT_255_1_234
10
23.6256963
20
148.0982894
40
0.5865446
50
75.4101064
51
90.3804066
0
ARC
8
DEFAULT_255_1_234
10
23.6486477
20
148.1939492
40
0.4881916
50
60.145586
51
75.1888407
0
ARC
8
DEFAULT_255_1_234
10
23.6645252
20
148.2216199
40
0.4562893
50
26.5253612
51
60.1450928
0
ARC
8
DEFAULT_255_1_234
10
23.5525002
20
148.1622158
40
0.5830602
50
7.4030428
51
26.8320788
0
ARC
8
DEFAULT_255_1_234
10
23.3930758
20
148.1373804
40
0.7443669
50
0.1605367
51
7.7176192
0
ARC
8
DEFAULT_255_1_234
10
23.4094663
20
148.0609434
40
0.7279835
50
348.7289388
51
0.3012466
0
ARC
8
DEFAULT_255_1_234
10
23.5751093
20
148.0280386
40
0.559104
50
333.0706509
51
348.7181832
0
ARC
8
DEFAULT_255_1_234
10
23.6717851
20
147.9755319
40
0.4491417
50
299.2531685
51
333.4571258
0
ARC
8
DEFAULT_255_1_234
10
23.6356991
20
148.0440828
40
0.5265881
50
278.107187
51
299.0339503
0
ARC
8
DEFAULT_255_1_234
10
23.610107
20
148.1948216
40
0.679442
50
270.4443897
51
278.4511052
0
ARC
8
DEFAULT_255_1_234
10
23.61219
20
148.1019213
40
0.4604407
50
269.4970433
51
284.0205042
0
ARC
8
DEFAULT_255_1_234
10
23.6477201
20
147.9653978
40
0.3193797
50
283.7700273
51
318.1555492
0
ARC
8
DEFAULT_255_1_234
10
23.6139959
20
147.9906367
40
0.3613588
50
318.7415601
51
343.6873628
0
ARC
8
DEFAULT_255_1_234
10
23.4335982
20
148.0469832
40
0.5503313
50
343.3325091
51
355.8548958
0
ARC
8
DEFAULT_255_1_234
10
23.2237666
20
148.0669319
40
0.7610708
50
355.4988528
51
0.0791727
0
ARC
8
DEFAULT_255_1_234
10
23.3020289
20
148.140478
40
0.6828208
50
359.6455037
51
9.8607896
0
ARC
8
DEFAULT_255_1_234
10
23.5380987
20
148.1831099
40
0.4429406
50
9.6571907
51
26.1932807
0
ARC
8
DEFAULT_255_1_234
10
23.6308975
20
148.2262118
40
0.3406537
50
26.5777228
51
40.1532208
0
ARC
8
DEFAULT_255_1_234
10
23.6564702
20
148.2461619
40
0.308246
50
40.3840491
51
80.1431104
0
ARC
8
DEFAULT_255_1_234
10
23.623782
20
148.1012333
40
0.4566909
50
79.2152159
51
89.7445637
0
LINE
8
DEFAULT_255_1_234
10
23.0976137
20
53.4404433
11
23.0976137
21
52.2654
0
LINE
8
DEFAULT_255_1_234
10
23.0976137
20
52.2654
11
22.9482234
21
52.2654
0
LINE
8
DEFAULT_255_1_234
10
22.9482234
20
52.2654
11
22.9482234
21
53.2557133
0
LINE
8
DEFAULT_255_1_234
10
22.9482234
20
53.2557133
11
22.6486396
21
53.1456785
0
LINE
8
DEFAULT_255_1_234
10
22.6486396
20
53.1456785
11
22.6486396
21
53.2806117
0
LINE
8
DEFAULT_255_1_234
10
22.6486396
20
53.2806117
11
23.0743217
21
53.4404433
0
LINE
8
DEFAULT_255_1_234
10
23.0743217
20
53.4404433
11
23.0976137
21
53.4404433
0
LINE
8
DEFAULT_255_1_234
10
24.0212636
20
53.4404433
11
24.0212636
21
52.2654
0
LINE
8
DEFAULT_255_1_234
10
24.0212636
20
52.2654
11
23.8718733
21
52.2654
0
LINE
8
DEFAULT_255_1_234
10
23.8718733
20
52.2654
11
23.8718733
21
53.2557133
0
LINE
8
DEFAULT_255_1_234
10
23.8718733
20
53.2557133
11
23.5722895
21
53.1456785
0
LINE
8
DEFAULT_255_1_234
10
23.5722895
20
53.1456785
11
23.5722895
21
53.2806117
0
LINE
8
DEFAULT_255_1_234
10
23.5722895
20
53.2806117
11
23.9979716
21
53.4404433
0
LINE
8
DEFAULT_255_1_234
10
23.9979716
20
53.4404433
11
24.0212636
21
53.4404433
0
LINE
8
DEFAULT_255_1_234
10
23.0886137
20
61.3779433
11
23.0886137
21
60.2029
0
LINE
8
DEFAULT_255_1_234
10
23.0886137
20
60.2029
11
22.9392234
21
60.2029
0
LINE
8
DEFAULT_255_1_234
10
22.9392234
20
60.2029
11
22.9392234
21
61.1932133
0
LINE
8
DEFAULT_255_1_234
10
22.9392234
20
61.1932133
11
22.6396396
21
61.0831785
0
LINE
8
DEFAULT_255_1_234
10
22.6396396
20
61.0831785
11
22.6396396
21
61.2181117
0
LINE
8
DEFAULT_255_1_234
10
22.6396396
20
61.2181117
11
23.0653217
21
61.3779433
0
LINE
8
DEFAULT_255_1_234
10
23.0653217
20
61.3779433
11
23.0886137
21
61.3779433
0
LINE
8
DEFAULT_255_1_234
10
24.2572316
20
60.8944327
11
24.2572316
21
60.7016709
0
LINE
8
DEFAULT_255_1_234
10
23.5191149
20
60.6815916
11
23.5191149
21
60.8799755
0
LINE
8
DEFAULT_255_1_234
10
24.1086445
20
60.6615123
11
24.1086445
21
60.9048739
0
LINE
8
DEFAULT_255_1_234
10
23.6677021
20
60.9161184
11
23.6677021
21
60.6783789
0
ARC
8
DEFAULT_255_1_234
10
23.0325206
20
60.6967805
40
1.2247208
50
353.8441951
51
0.2287902
0
ARC
8
DEFAULT_255_1_234
10
23.496471
20
60.6449806
40
0.7578929
50
344.4934747
51
353.9765454
0
ARC
8
DEFAULT_255_1_234
10
23.79573
20
60.5598981
40
0.4467846
50
329.2803592
51
344.7472793
0
ARC
8
DEFAULT_255_1_234
10
23.8950125
20
60.5054018
40
0.3336173
50
324.9352394
51
328.6160465
0
ARC
8
DEFAULT_255_1_234
10
23.9327233
20
60.4790427
40
0.2876076
50
280.580143
51
324.9173126
0
ARC
8
DEFAULT_255_1_234
10
23.8926026
20
60.6461099
40
0.4592847
50
269.5977311
51
281.6734359
0
ARC
8
DEFAULT_255_1_234
10
23.8853932
20
60.6341173
40
0.4472986
50
256.6228859
51
270.51044
0
ARC
8
DEFAULT_255_1_234
10
23.8451909
20
60.4792877
40
0.2873874
50
215.8618325
51
257.2788573
0
ARC
8
DEFAULT_255_1_234
10
23.9472941
20
60.5477977
40
0.4102928
50
197.9693508
51
215.2623606
0
ARC
8
DEFAULT_255_1_234
10
24.1958057
20
60.6316709
40
0.6725652
50
187.8816417
51
198.2346507
0
ARC
8
DEFAULT_255_1_234
10
24.5916265
20
60.6888079
40
1.0724845
50
180.8976217
51
188.0055519
0
ARC
8
DEFAULT_255_1_234
10
24.8716453
20
60.6991777
40
1.3526448
50
180.7449369
51
181.1510016
0
ARC
8
DEFAULT_255_1_234
10
24.7139182
20
60.8848042
40
1.1948131
50
173.7675579
51
180.231553
0
ARC
8
DEFAULT_255_1_234
10
24.2621329
20
60.9358666
40
0.7401564
50
164.3058563
51
173.9002247
0
ARC
8
DEFAULT_255_1_234
10
23.9709398
20
61.0197656
40
0.4371288
50
148.7922025
51
164.568378
0
ARC
8
DEFAULT_255_1_234
10
23.875785
20
61.0728929
40
0.3282386
50
144.5883898
51
148.1176286
0
ARC
8
DEFAULT_255_1_234
10
23.8414748
20
61.0968315
40
0.2864044
50
101.6440918
51
144.514236
0
ARC
8
DEFAULT_255_1_234
10
23.8839814
20
60.9279069
40
0.4604934
50
89.5284041
51
102.5819763
0
ARC
8
DEFAULT_255_1_234
10
23.8918902
20
60.9240018
40
0.464401
50
77.0437873
51
90.5081339
0
ARC
8
DEFAULT_255_1_234
10
23.9320904
20
61.0882615
40
0.2953195
50
48.2778575
51
77.4994676
0
ARC
8
DEFAULT_255_1_234
10
23.9393535
20
61.1011746
40
0.2808655
50
36.3142134
51
47.6305865
0
ARC
8
DEFAULT_255_1_234
10
23.8524842
20
61.0426515
40
0.3855453
50
18.2931786
51
35.6769206
0
ARC
8
DEFAULT_255_1_234
10
23.5981601
20
60.9553593
40
0.654423
50
8.024666
51
18.5605216
0
ARC
8
DEFAULT_255_1_234
10
23.1818521
20
60.8938792
40
1.0752407
50
1.1274072
51
8.1718305
0
ARC
8
DEFAULT_255_1_234
10
22.8582712
20
60.8811885
40
1.3990231
50
0.5424119
51
1.3863029
0
ARC
8
DEFAULT_255_1_234
10
23.0404089
20
60.9084342
40
1.0682415
50
359.8090433
51
4.9407866
0
ARC
8
DEFAULT_255_1_234
10
23.4614103
20
60.9460113
40
0.6455691
50
4.8362157
51
12.2904523
0
ARC
8
DEFAULT_255_1_234
10
23.7369218
20
61.0073965
40
0.3633074
50
12.0805627
51
23.8173984
0
ARC
8
DEFAULT_255_1_234
10
23.8542924
20
61.0570919
40
0.2358723
50
24.2871213
51
31.3935614
0
ARC
8
DEFAULT_255_1_234
10
23.9067621
20
61.0914233
40
0.1732111
50
30.7407893
51
82.4657128
0
ARC
8
DEFAULT_255_1_234
10
23.8887755
20
61.0030691
40
0.263235
50
81.1060089
51
90.2184952
0
ARC
8
DEFAULT_255_1_234
10
23.8852054
20
61.0288924
40
0.2374236
50
89.3806855
51
105.6762551
0
ARC
8
DEFAULT_255_1_234
10
23.8668685
20
61.0955567
40
0.1682847
50
105.7981136
51
149.7388061
0
ARC
8
DEFAULT_255_1_234
10
23.9732763
20
61.031595
40
0.2924306
50
149.4208916
51
163.6286378
0
ARC
8
DEFAULT_255_1_234
10
24.1823651
20
60.967825
40
0.5110213
50
163.3763315
51
172.1410975
0
ARC
8
DEFAULT_255_1_234
10
24.512437
20
60.9205518
40
0.8444586
50
172.0259487
51
178.0703232
0
ARC
8
DEFAULT_255_1_234
10
24.815446
20
60.9061906
40
1.1477868
50
177.8631668
51
179.5044149
0
ARC
8
DEFAULT_255_1_234
10
24.7081864
20
60.6747389
40
1.0404907
50
179.7995573
51
185.2460446
0
ARC
8
DEFAULT_255_1_234
10
24.3038903
20
60.6364513
40
0.6343885
50
185.1411642
51
193.0079639
0
ARC
8
DEFAULT_255_1_234
10
24.0395376
20
60.5739641
40
0.3627568
50
192.7897626
51
205.2507664
0
ARC
8
DEFAULT_255_1_234
10
23.9348923
20
60.5272415
40
0.2481908
50
205.8005384
51
211.2537509
0
ARC
8
DEFAULT_255_1_234
10
23.8825363
20
60.492158
40
0.1852521
50
210.3789793
51
238.4008143
0
ARC
8
DEFAULT_255_1_234
10
23.8805885
20
60.4968376
40
0.1882621
50
239.6520629
51
265.9793761
0
ARC
8
DEFAULT_255_1_234
10
23.8891085
20
60.5640427
40
0.2559272
50
265.1315437
51
270.060332
0
ARC
8
DEFAULT_255_1_234
10
23.8919864
20
60.5316534
40
0.2235528
50
269.3314664
51
287.2178029
0
ARC
8
DEFAULT_255_1_234
10
23.9057716
20
60.4813279
40
0.1714108
50
287.7958004
51
329.080874
0
ARC
8
DEFAULT_255_1_234
10
23.8100173
20
60.541093
40
0.2842745
50
328.6634704
51
343.3325132
0
ARC
8
DEFAULT_255_1_234
10
23.5927193
20
60.6087863
40
0.5118644
50
343.0499468
51
351.9393422
0
ARC
8
DEFAULT_255_1_234
10
23.2460493
20
60.6598949
40
0.8622784
50
351.8069023
51
357.7959224
0
ARC
8
DEFAULT_255_1_234
10
22.9225049
20
60.6766721
40
1.1862365
50
357.5871873
51
359.2677531
0
LINE
8
DEFAULT_255_1_234
10
24.2994246
20
68.8423739
11
24.2994246
21
68.7990025
0
LINE
8
DEFAULT_255_1_234
10
23.7572823
20
68.1395968
11
23.728368
21
68.1395968
0
LINE
8
DEFAULT_255_1_234
10
23.728368
20
68.1395968
11
23.728368
21
68.2648919
0
LINE
8
DEFAULT_255_1_234
10
23.728368
20
68.2648919
11
23.7596918
21
68.2648919
0
LINE
8
DEFAULT_255_1_234
10
24.1508375
20
68.8134597
11
24.1508375
21
68.8728945
0
ARC
8
DEFAULT_255_1_234
10
23.8714644
20
68.8880403
40
0.3635579
50
297.4037347
51
320.016758
0
ARC
8
DEFAULT_255_1_234
10
23.9004593
20
68.832324
40
0.3007486
50
270.2633101
51
297.3851877
0
ARC
8
DEFAULT_255_1_234
10
23.8970549
20
68.8786904
40
0.3471448
50
269.9966443
51
270.7900392
0
ARC
8
DEFAULT_255_1_234
10
23.894503
20
68.8785143
40
0.3469779
50
254.5999133
51
270.4180344
0
ARC
8
DEFAULT_255_1_234
10
23.8802389
20
68.8220647
40
0.2887697
50
236.4717942
51
254.3541279
0
ARC
8
DEFAULT_255_1_234
10
23.8958607
20
68.8430711
40
0.3149125
50
208.4727207
51
236.2134933
0
ARC
8
DEFAULT_255_1_234
10
23.9597382
20
68.8821455
40
0.3897115
50
204.3447514
51
209.0453999
0
ARC
8
DEFAULT_255_1_234
10
24.0276958
20
68.9109656
40
0.4635101
50
183.9375985
51
204.1276318
0
ARC
8
DEFAULT_255_1_234
10
24.1185209
20
68.9207482
40
0.5548037
50
179.9652252
51
184.3013875
0
ARC
8
DEFAULT_255_1_234
10
24.0945255
20
68.9240507
40
0.5308164
50
166.7585989
51
180.3201225
0
ARC
8
DEFAULT_255_1_234
10
24.0098869
20
68.9424488
40
0.4442163
50
154.6955053
51
166.5679793
0
ARC
8
DEFAULT_255_1_234
10
23.9245739
20
68.985421
40
0.3487299
50
136.3324195
51
155.0871442
0
ARC
8
DEFAULT_255_1_234
10
23.8964812
20
69.0094954
40
0.3117924
50
121.236733
51
135.9680508
0
ARC
8
DEFAULT_255_1_234
10
23.910531
20
68.9834743
40
0.3413302
50
96.845628
51
120.9881519
0
ARC
8
DEFAULT_255_1_234
10
23.9250892
20
68.8899515
40
0.4359341
50
89.8870174
51
97.2802754
0
ARC
8
DEFAULT_255_1_234
10
23.930333
20
68.9537095
40
0.3722009
50
70.6505584
51
90.6749113
0
ARC
8
DEFAULT_255_1_234
10
23.9434609
20
69.0050361
40
0.3194571
50
36.7492984
51
69.8219918
0
ARC
8
DEFAULT_255_1_234
10
23.8435774
20
68.9271993
40
0.4460685
50
15.39587
51
37.0840084
0
ARC
8
DEFAULT_255_1_234
10
23.6306207
20
68.8651242
40
0.6678714
50
3.9488873
51
15.6798563
0
ARC
8
DEFAULT_255_1_234
10
23.3904835
20
68.8434964
40
0.9089418
50
359.929245
51
4.2665314
0
ARC
8
DEFAULT_255_1_234
10
22.9299272
20
68.7923513
40
1.3695135
50
352.8366322
51
0.2782669
0
ARC
8
DEFAULT_255_1_234
10
23.4586951
20
68.7236629
40
0.8363105
50
341.8359505
51
352.9884176
0
ARC
8
DEFAULT_255_1_234
10
23.780567
20
68.61517
40
0.4966642
50
322.8578092
51
342.1527901
0
ARC
8
DEFAULT_255_1_234
10
23.8669626
20
68.5562384
40
0.3922466
50
319.334325
51
322.0998941
0
ARC
8
DEFAULT_255_1_234
10
23.8359963
20
68.5873209
40
0.4360033
50
285.9541367
51
318.8878087
0
ARC
8
DEFAULT_255_1_234
10
23.7633224
20
68.81836
40
0.678149
50
272.9281676
51
286.4922826
0
ARC
8
DEFAULT_255_1_234
10
23.7443342
20
69.0434587
40
0.9039547
50
270.8207226
51
273.4012994
0
ARC
8
DEFAULT_255_1_234
10
23.7532193
20
68.8615666
40
0.5967098
50
270.6214993
51
281.4062806
0
ARC
8
DEFAULT_255_1_234
10
23.7962174
20
68.6559833
40
0.3866861
50
281.1852553
51
299.0621114
0
ARC
8
DEFAULT_255_1_234
10
23.8335745
20
68.5838798
40
0.3055236
50
299.5067782
51
313.1200873
0
ARC
8
DEFAULT_255_1_234
10
23.8357712
20
68.5759554
40
0.2982623
50
313.8526205
51
338.5989322
0
ARC
8
DEFAULT_255_1_234
10
23.6733786
20
68.6426781
40
0.4738131
50
338.2523585
51
351.2430902
0
ARC
8
DEFAULT_255_1_234
10
23.4323082
20
68.6836447
40
0.7183203
50
350.9409515
51
357.6691871
0
ARC
8
DEFAULT_255_1_234
10
23.9213512
20
68.8838764
40
0.2294452
50
269.9447023
51
306.8248917
0
ARC
8
DEFAULT_255_1_234
10
23.8976427
20
68.9261898
40
0.2775994
50
305.5072438
51
327.0773448
0
ARC
8
DEFAULT_255_1_234
10
23.9094868
20
68.9167025
40
0.2625056
50
327.4104943
51
336.840169
0
ARC
8
DEFAULT_255_1_234
10
23.6000933
20
68.8761302
40
0.5507537
50
359.6633817
51
10.117533
0
ARC
8
DEFAULT_255_1_234
10
23.7754731
20
68.9085777
40
0.372403
50
9.9430141
51
26.7700076
0
ARC
8
DEFAULT_255_1_234
10
23.8351943
20
68.9361187
40
0.3066865
50
27.2015464
51
34.6829435
0
ARC
8
DEFAULT_255_1_234
10
23.8841423
20
68.9728977
40
0.245519
50
34.1250343
51
50.3070065
0
ARC
8
DEFAULT_255_1_234
10
23.9288103
20
69.0263385
40
0.1758693
50
50.3851167
51
90.6705993
0
ARC
8
DEFAULT_255_1_234
10
23.9241336
20
68.9958799
40
0.2063326
50
89.272901
51
111.9140407
0
ARC
8
DEFAULT_255_1_234
10
23.9221864
20
69.009944
40
0.1925887
50
112.9382311
51
142.5320782
0
ARC
8
DEFAULT_255_1_234
10
23.9768044
20
68.9655969
40
0.2629232
50
142.1021256
51
166.3835592
0
ARC
8
DEFAULT_255_1_234
10
24.0949349
20
68.9350915
40
0.3849193
50
166.1100289
51
178.665427
0
ARC
8
DEFAULT_255_1_234
10
24.1996938
20
68.9292117
40
0.4897989
50
178.2632126
51
180.0111093
0
ARC
8
DEFAULT_255_1_234
10
24.1195059
20
68.9263728
40
0.40962
50
179.6161962
51
191.8787166
0
ARC
8
DEFAULT_255_1_234
10
23.9974898
20
68.8993896
40
0.2846655
50
191.6191692
51
215.2972286
0
ARC
8
DEFAULT_255_1_234
10
23.9778089
20
68.8878918
40
0.2619665
50
215.7320102
51
216.5355409
0
ARC
8
DEFAULT_255_1_234
10
23.9239175
20
68.8446647
40
0.1929497
50
215.7486685
51
239.9727502
0
ARC
8
DEFAULT_255_1_234
10
23.9169091
20
68.8395894
40
0.1850822
50
241.0650169
51
269.2810483
0
ARC
8
DEFAULT_255_1_234
10
23.9211006
20
68.8886371
40
0.2342059
50
268.4062526
51
270.0071348
0
ARC
8
DEFAULT_255_1_234
10
24.0075624
20
76.9395703
40
0.2822356
50
338.8763615
51
0.5166041
0
ARC
8
DEFAULT_255_1_234
10
24.0244278
20
76.9350208
40
0.2648703
50
325.8412414
51
338.4795939
0
ARC
8
DEFAULT_255_1_234
10
23.9853646
20
76.9621042
40
0.3124019
50
296.7586019
51
325.753654
0
ARC
8
DEFAULT_255_1_234
10
23.9565754
20
77.0105789
40
0.368668
50
296.0902311
51
297.3618122
0
ARC
8
DEFAULT_255_1_234
10
23.9823212
20
76.3551041
40
0.3518806
50
47.9009248
51
67.1946869
0
ARC
8
DEFAULT_255_1_234
10
24.0019454
20
76.3797395
40
0.320451
50
35.236241
51
47.551371
0
ARC
8
DEFAULT_255_1_234
10
24.0281072
20
76.3971993
40
0.2890103
50
359.2759738
51
35.4014081
0
ARC
8
DEFAULT_255_1_234
10
23.9536103
20
76.3898826
40
0.3635026
50
343.1294516
51
0.5776525
0
ARC
8
DEFAULT_255_1_234
10
24.0260648
20
76.369933
40
0.2883832
50
310.8497458
51
342.744803
0
ARC
8
DEFAULT_255_1_234
10
23.9842761
20
76.4176294
40
0.3517954
50
281.5473923
51
310.9169905
0
ARC
8
DEFAULT_255_1_234
10
23.948621
20
76.5729084
40
0.5110832
50
269.6192722
51
281.9789957
0
ARC
8
DEFAULT_255_1_234
10
23.9414
20
76.5729828
40
0.5111606
50
257.4584469
51
270.4287458
0
ARC
8
DEFAULT_255_1_234
10
23.9033143
20
76.4126344
40
0.3463762
50
228.7553743
51
257.8484423
0
ARC
8
DEFAULT_255_1_234
10
23.8723341
20
76.3753442
40
0.297916
50
184.0104442
51
228.5071787
0
ARC
8
DEFAULT_255_1_234
10
23.9886285
20
76.3930512
40
0.4152734
50
179.9315461
51
185.3254504
0
ARC
8
DEFAULT_255_1_234
10
23.8709931
20
76.3967992
40
0.2976554
50
145.6795913
51
180.6259649
0
ARC
8
DEFAULT_255_1_234
10
23.887328
20
76.3853929
40
0.3175776
50
115.5537925
51
145.6416199
0
ARC
8
DEFAULT_255_1_234
10
23.921421
20
76.3243028
40
0.3874232
50
113.2437915
51
116.2054627
0
ARC
8
DEFAULT_255_1_234
10
23.9061423
20
76.964158
40
0.3154751
50
222.9548379
51
244.1372485
0
ARC
8
DEFAULT_255_1_234
10
23.8939498
20
76.9504834
40
0.2972382
50
213.3439227
51
222.6271327
0
ARC
8
DEFAULT_255_1_234
10
23.8747433
20
76.9374308
40
0.274019
50
180.4316517
51
213.2713999
0
ARC
8
DEFAULT_255_1_234
10
23.9322434
20
76.942111
40
0.33158
50
179.9992944
51
181.1655061
0
ARC
8
DEFAULT_255_1_234
10
23.9731851
20
76.9455561
40
0.3725376
50
164.6186108
51
180.5292368
0
ARC
8
DEFAULT_255_1_234
10
23.8833714
20
76.9697101
40
0.2795349
50
132.2454369
51
164.5092287
0
ARC
8
DEFAULT_255_1_234
10
23.9120818
20
76.9372028
40
0.3229019
50
100.7052766
51
132.1387266
0
ARC
8
DEFAULT_255_1_234
10
23.942579
20
76.7994086
40
0.4639835
50
89.6732617
51
101.2449487
0
ARC
8
DEFAULT_255_1_234
10
23.9487988
20
76.816899
40
0.4464999
50
76.2876631
51
90.4586123
0
ARC
8
DEFAULT_255_1_234
10
23.979422
20
76.939122
40
0.3205023
50
47.8240157
51
76.4266918
0
ARC
8
DEFAULT_255_1_234
10
24.001677
20
76.965159
40
0.2862661
50
6.9168658
51
47.6261438
0
ARC
8
DEFAULT_255_1_234
10
23.8830173
20
76.943237
40
0.4067708
50
359.8419705
51
7.9694496
0
ARC
8
DEFAULT_255_1_234
10
23.917207
20
76.3991925
40
0.2513121
50
359.4454068
51
16.9256425
0
ARC
8
DEFAULT_255_1_234
10
23.9640881
20
76.4121033
40
0.2027071
50
17.292259
51
45.462717
0
ARC
8
DEFAULT_255_1_234
10
23.9586817
20
76.4074434
40
0.2098212
50
45.3028762
51
83.1921472
0
ARC
8
DEFAULT_255_1_234
10
23.9443501
20
76.3272895
40
0.2911472
50
82.2614531
51
90.143954
0
ARC
8
DEFAULT_255_1_234
10
23.9412621
20
76.350595
40
0.2678513
50
89.4959189
51
104.8579811
0
ARC
8
DEFAULT_255_1_234
10
23.923588
20
76.417589
40
0.1985654
50
104.8855873
51
135.2448349
0
ARC
8
DEFAULT_255_1_234
10
23.9285653
20
76.4131336
40
0.2052373
50
135.3398955
51
172.104394
0
ARC
8
DEFAULT_255_1_234
10
24.0092711
20
76.3976925
40
0.2873299
50
171.2651929
51
180.1859362
0
ARC
8
DEFAULT_255_1_234
10
23.9923412
20
76.3944733
40
0.2704083
50
179.515471
51
193.6466734
0
ARC
8
DEFAULT_255_1_234
10
23.9107181
20
76.3736777
40
0.1861855
50
193.3540587
51
225.8256931
0
ARC
8
DEFAULT_255_1_234
10
23.9147938
20
76.3807524
40
0.1941102
50
226.418029
51
255.8553723
0
ARC
8
DEFAULT_255_1_234
10
23.9404371
20
76.4743998
40
0.2911917
50
255.4655572
51
268.7985967
0
ARC
8
DEFAULT_255_1_234
10
23.9451563
20
76.5582491
40
0.3751331
50
268.3464808
51
270.0104874
0
ARC
8
DEFAULT_255_1_234
10
23.9474951
20
76.4898138
40
0.3067064
50
269.575914
51
282.0823146
0
ARC
8
DEFAULT_255_1_234
10
23.969986
20
76.3903803
40
0.2047712
50
281.7522535
51
306.6056425
0
ARC
8
DEFAULT_255_1_234
10
23.9798286
20
76.3742487
40
0.1859604
50
307.1350025
51
314.0277951
0
ARC
8
DEFAULT_255_1_234
10
23.976237
20
76.3768766
40
0.1903475
50
314.2553419
51
350.169324
0
ARC
8
DEFAULT_255_1_234
10
23.8910839
20
76.3953409
40
0.2774269
50
349.4145679
51
0.2930737
0
ARC
8
DEFAULT_255_1_234
10
23.9431272
20
76.9112353
40
0.2300764
50
89.477591
51
105.729794
0
ARC
8
DEFAULT_255_1_234
10
23.9295185
20
76.9617637
40
0.1777519
50
105.922966
51
135.1662921
0
ARC
8
DEFAULT_255_1_234
10
23.9315688
20
76.9603419
40
0.1802087
50
135.3053131
51
168.9882338
0
ARC
8
DEFAULT_255_1_234
10
24.014326
20
76.9413721
40
0.2650806
50
168.3802067
51
180.3602358
0
ARC
8
DEFAULT_255_1_234
10
23.991484
20
76.9376041
40
0.2422425
50
179.5029707
51
194.9126783
0
ARC
8
DEFAULT_255_1_234
10
23.9329501
20
76.922211
40
0.1817188
50
194.9722181
51
224.1943972
0
ARC
8
DEFAULT_255_1_234
10
23.9301368
20
76.9199169
40
0.1781027
50
224.2961434
51
262.0157375
0
ARC
8
DEFAULT_255_1_234
10
23.9443611
20
76.9930661
40
0.2525492
50
261.1250369
51
270.1959853
0
ARC
8
DEFAULT_255_1_234
10
23.9473366
20
76.9743339
40
0.233825
50
269.4825617
51
285.0988277
0
ARC
8
DEFAULT_255_1_234
10
23.9627525
20
76.916499
40
0.1739712
50
285.1585659
51
315.9484648
0
ARC
8
DEFAULT_255_1_234
10
23.9538537
20
76.9246886
40
0.1860616
50
316.0412958
51
351.9162715
0
ARC
8
DEFAULT_255_1_234
10
23.8805492
20
76.9388245
40
0.2606517
50
351.1056823
51
0.1936567
0
ARC
8
DEFAULT_255_1_234
10
23.9068321
20
76.9418369
40
0.234377
50
359.4789506
51
16.0679113
0
ARC
8
DEFAULT_255_1_234
10
23.954428
20
76.954681
40
0.1850875
50
16.3251951
51
44.791304
0
ARC
8
DEFAULT_255_1_234
10
23.9526561
20
76.9547339
40
0.186312
50
44.3958661
51
88.2498933
0
ARC
8
DEFAULT_255_1_234
10
23.9453115
20
76.8936154
40
0.2476868
50
86.9833827
51
90.0200148
0
LINE
8
DEFAULT_255_1_234
10
24.3355674
20
85.1848211
11
24.3355674
21
85.101291
0
LINE
8
DEFAULT_255_1_234
10
24.3355674
20
85.101291
11
23.8512536
21
84.0154
0
LINE
8
DEFAULT_255_1_234
10
23.8512536
20
84.0154
11
23.6954379
21
84.0154
0
LINE
8
DEFAULT_255_1_234
10
23.6954379
20
84.0154
11
24.1781454
21
85.0627387
0
LINE
8
DEFAULT_255_1_234
10
24.1781454
20
85.0627387
11
23.5452444
21
85.0627387
0
LINE
8
DEFAULT_255_1_234
10
23.5452444
20
85.0627387
11
23.5452444
21
85.1848211
0
LINE
8
DEFAULT_255_1_234
10
23.5452444
20
85.1848211
11
24.3355674
21
85.1848211
0
LINE
8
DEFAULT_255_1_234
10
24.1371835
20
93.1231243
11
24.1636882
21
93.1231243
0
LINE
8
DEFAULT_255_1_234
10
24.1636882
20
93.1231243
11
24.1636882
21
92.997026
0
LINE
8
DEFAULT_255_1_234
10
24.1636882
20
92.997026
11
24.1363803
21
92.997026
0
LINE
8
DEFAULT_255_1_234
10
23.5894189
20
92.3978583
11
23.5894189
21
92.4548836
0
LINE
8
DEFAULT_255_1_234
10
23.7388093
20
92.4356075
11
23.7388093
21
92.3809917
0
ARC
8
DEFAULT_255_1_234
10
24.1416151
20
92.4972455
40
0.4998079
50
90.6001036
51
104.514704
0
ARC
8
DEFAULT_255_1_234
10
24.1027667
20
92.6417131
40
0.3502176
50
104.2855254
51
133.862935
0
ARC
8
DEFAULT_255_1_234
10
24.1191424
20
92.630883
40
0.3693984
50
134.5302688
51
161.6210873
0
ARC
8
DEFAULT_255_1_234
10
24.2844613
20
92.5725895
40
0.5446739
50
161.2849839
51
174.2076652
0
ARC
8
DEFAULT_255_1_234
10
24.425155
20
92.5531787
40
0.6866274
50
173.7810589
51
174.9254635
0
ARC
8
DEFAULT_255_1_234
10
23.9701382
20
92.4148839
40
0.3033419
50
95.8330959
51
138.9954921
0
ARC
8
DEFAULT_255_1_234
10
23.9924738
20
92.2870375
40
0.4328947
50
89.8753725
51
97.0544009
0
ARC
8
DEFAULT_255_1_234
10
23.9972204
20
92.3705748
40
0.3493769
50
71.6407809
51
90.6240094
0
ARC
8
DEFAULT_255_1_234
10
24.0122777
20
92.4260082
40
0.2920396
50
39.6367836
51
71.019018
0
ARC
8
DEFAULT_255_1_234
10
23.948625
20
92.3709998
40
0.3761538
50
10.658731
51
39.9043955
0
ARC
8
DEFAULT_255_1_234
10
23.7938333
20
92.3373686
40
0.5345136
50
359.682601
51
11.132623
0
ARC
8
DEFAULT_255_1_234
10
23.7898464
20
92.330301
40
0.5385081
50
347.2486944
51
0.4369317
0
ARC
8
DEFAULT_255_1_234
10
23.9565941
20
92.2901807
40
0.3670249
50
318.1409698
51
347.6118597
0
ARC
8
DEFAULT_255_1_234
10
23.9890934
20
92.2634702
40
0.3250007
50
275.6342139
51
317.8248465
0
ARC
8
DEFAULT_255_1_234
10
23.9670045
20
92.3934219
40
0.4565864
50
269.8874292
51
276.7917694
0
ARC
8
DEFAULT_255_1_234
10
23.9615116
20
92.2908743
40
0.3540676
50
246.9140195
51
270.7437342
0
ARC
8
DEFAULT_255_1_234
10
23.9621506
20
92.2766384
40
0.3412781
50
218.1665114
51
245.878116
0
ARC
8
DEFAULT_255_1_234
10
24.0500967
20
92.3502279
40
0.455911
50
191.4115814
51
218.6077802
0
ARC
8
DEFAULT_255_1_234
10
24.2439056
20
92.3936833
40
0.6545001
50
179.6345085
51
191.7836486
0
ARC
8
DEFAULT_255_1_234
10
24.8021393
20
92.4615697
40
1.2127388
50
171.4525249
51
180.3158839
0
ARC
8
DEFAULT_255_1_234
10
24.3626269
20
92.5299608
40
0.7679464
50
157.9802646
51
171.6246686
0
ARC
8
DEFAULT_255_1_234
10
24.141229
20
92.6182421
40
0.5296008
50
141.4298019
51
157.854097
0
ARC
8
DEFAULT_255_1_234
10
24.077061
20
92.6636381
40
0.4511509
50
102.8715806
51
140.8564722
0
ARC
8
DEFAULT_255_1_234
10
24.1418226
20
92.4196552
40
0.7034845
50
90.3778349
51
103.5869322
0
ARC
8
DEFAULT_255_1_234
10
23.9680002
20
92.359173
40
0.2370698
50
89.8751008
51
126.2071704
0
ARC
8
DEFAULT_255_1_234
10
23.9725792
20
92.3437303
40
0.2522934
50
124.9745049
51
144.895901
0
ARC
8
DEFAULT_255_1_234
10
23.9549982
20
92.358056
40
0.2296779
50
145.2974905
51
160.2660252
0
ARC
8
DEFAULT_255_1_234
10
24.2622521
20
92.3778071
40
0.5234525
50
179.6514266
51
190.2855912
0
ARC
8
DEFAULT_255_1_234
10
24.0928658
20
92.3458786
40
0.3510893
50
190.0945431
51
207.5098196
0
ARC
8
DEFAULT_255_1_234
10
24.0362928
20
92.3189623
40
0.288489
50
207.9583163
51
216.3251085
0
ARC
8
DEFAULT_255_1_234
10
24.0023036
20
92.2910105
40
0.2445587
50
215.7661442
51
232.5456785
0
ARC
8
DEFAULT_255_1_234
10
23.9640019
20
92.2423482
40
0.1826382
50
232.8005391
51
270.6605633
0
ARC
8
DEFAULT_255_1_234
10
23.968572
20
92.2787612
40
0.2190529
50
269.35537
51
288.4744281
0
ARC
8
DEFAULT_255_1_234
10
23.9778617
20
92.2438118
40
0.1829749
50
289.1833337
51
322.9683818
0
ARC
8
DEFAULT_255_1_234
10
23.9167139
20
92.2920391
40
0.2608399
50
322.6007884
51
346.5182367
0
ARC
8
DEFAULT_255_1_234
10
23.8009735
20
92.3215616
40
0.3802777
50
346.2582162
51
358.7741648
0
ARC
8
DEFAULT_255_1_234
10
23.6991404
20
92.3270965
40
0.4822176
50
358.3755224
51
0.0098023
0
ARC
8
DEFAULT_255_1_234
10
23.7747591
20
92.3298657
40
0.4066078
50
359.6214041
51
11.2839074
0
ARC
8
DEFAULT_255_1_234
10
23.9024738
20
92.3565066
40
0.2761514
50
11.0482309
51
31.8146458
0
ARC
8
DEFAULT_255_1_234
10
23.9333781
20
92.3732584
40
0.2410679
50
32.3035391
51
38.082671
0
ARC
8
DEFAULT_255_1_234
10
23.9754441
20
92.4113662
40
0.1844966
50
36.825067
51
85.7415724
0
ARC
8
DEFAULT_255_1_234
10
23.9687274
20
92.3613301
40
0.2349122
50
85.0140713
51
90.0513278
0
LINE
8
DEFAULT_255_1_234
10
23.7677235
20
100.4461963
11
23.6488538
21
100.4767169
0
LINE
8
DEFAULT_255_1_234
10
23.6488538
20
100.4767169
11
23.7082887
21
101.0598211
0
LINE
8
DEFAULT_255_1_234
10
23.7082887
20
101.0598211
11
24.3074563
21
101.0598211
0
LINE
8
DEFAULT_255_1_234
10
24.3074563
20
101.0598211
11
24.3074563
21
100.9224784
0
LINE
8
DEFAULT_255_1_234
10
24.3074563
20
100.9224784
11
23.834387
21
100.9224784
0
LINE
8
DEFAULT_255_1_234
10
23.834387
20
100.9224784
11
23.7990473
21
100.6036184
0
LINE
8
DEFAULT_255_1_234
10
23.6070888
20
100.1980156
11
23.7476442
21
100.1980156
0
LINE
8
DEFAULT_255_1_234
10
23.8070791
20
100.4783232
11
23.7677235
21
100.4461963
0
ARC
8
DEFAULT_255_1_234
10
23.9845257
20
100.285623
40
0.3681349
50
93.7182161
51
120.2538958
0
ARC
8
DEFAULT_255_1_234
10
23.993952
20
100.2048394
40
0.449379
50
89.9660152
51
94.2496022
0
ARC
8
DEFAULT_255_1_234
10
23.9980254
20
100.2637549
40
0.390482
50
73.8043271
51
90.5585896
0
ARC
8
DEFAULT_255_1_234
10
24.0215151
20
100.3495602
40
0.3015334
50
41.3071453
51
73.5430202
0
ARC
8
DEFAULT_255_1_234
10
23.9798978
20
100.3137324
40
0.3564457
50
13.5075983
51
41.2174222
0
ARC
8
DEFAULT_255_1_234
10
23.8157182
20
100.2707486
40
0.5261351
50
1.1331335
51
13.8829381
0
ARC
8
DEFAULT_255_1_234
10
23.6745551
20
100.2631665
40
0.6674378
50
359.9919444
51
1.544251
0
ARC
8
DEFAULT_255_1_234
10
23.8022377
20
100.259028
40
0.5397702
50
347.8572367
51
0.4293338
0
ARC
8
DEFAULT_255_1_234
10
23.9772695
20
100.2193736
40
0.3603188
50
323.673004
51
348.1672506
0
ARC
8
DEFAULT_255_1_234
10
24.0067203
20
100.2014168
40
0.3259678
50
316.8171152
51
323.1492751
0
ARC
8
DEFAULT_255_1_234
10
24.0128392
20
100.197746
40
0.3189975
50
281.8396411
51
316.5457803
0
ARC
8
DEFAULT_255_1_234
10
23.9752656
20
100.3532762
40
0.4789527
50
269.5770101
51
282.4214771
0
ARC
8
DEFAULT_255_1_234
10
23.9681467
20
100.3319125
40
0.45759
50
256.2427136
51
270.4486331
0
ARC
8
DEFAULT_255_1_234
10
23.938237
20
100.2119229
40
0.3339303
50
228.9023911
51
256.3314342
0
ARC
8
DEFAULT_255_1_234
10
23.9308602
20
100.2002746
40
0.32031
50
193.753695
51
228.5271154
0
ARC
8
DEFAULT_255_1_234
10
24.0546556
20
100.23658
40
0.4492253
50
184.924711
51
194.497588
0
ARC
8
DEFAULT_255_1_234
10
24.0739123
20
100.2401591
40
0.3289787
50
187.3600538
51
198.6732863
0
ARC
8
DEFAULT_255_1_234
10
23.9689417
20
100.2037674
40
0.217884
50
198.4451669
51
217.794479
0
ARC
8
DEFAULT_255_1_234
10
23.9393592
20
100.1828085
40
0.1816698
50
218.2887171
51
228.5612368
0
ARC
8
DEFAULT_255_1_234
10
23.9491379
20
100.1959963
40
0.1980329
50
228.9654866
51
258.1234728
0
ARC
8
DEFAULT_255_1_234
10
23.9697089
20
100.2840833
40
0.2884748
50
257.7258293
51
270.401361
0
ARC
8
DEFAULT_255_1_234
10
23.9741975
20
100.2395821
40
0.2439788
50
269.4204404
51
286.4209037
0
ARC
8
DEFAULT_255_1_234
10
23.9890463
20
100.1856657
40
0.1880666
50
286.7251356
51
320.600362
0
ARC
8
DEFAULT_255_1_234
10
23.9507288
20
100.2167595
40
0.2374121
50
320.6712579
51
344.5441685
0
ARC
8
DEFAULT_255_1_234
10
23.8350614
20
100.2507045
40
0.3579479
50
344.2412205
51
356.7357071
0
ARC
8
DEFAULT_255_1_234
10
23.7101763
20
100.2610444
40
0.4832297
50
356.3548756
51
0.0500261
0
ARC
8
DEFAULT_255_1_234
10
23.8438272
20
100.264165
40
0.3495889
50
359.5576869
51
12.953486
0
ARC
8
DEFAULT_255_1_234
10
23.9493169
20
100.2897434
40
0.2410532
50
12.6490276
51
41.6081334
0
ARC
8
DEFAULT_255_1_234
10
23.972354
20
100.3093321
40
0.2108218
50
41.7850273
51
85.9892764
0
ARC
8
DEFAULT_255_1_234
10
23.9600277
20
100.2280462
40
0.2928454
50
84.6957577
51
90.0676183
0
ARC
8
DEFAULT_255_1_234
10
23.9576761
20
100.1611716
40
0.3597255
50
89.6804936
51
99.1614436
0
ARC
8
DEFAULT_255_1_234
10
23.9371392
20
100.2839131
40
0.235281
50
98.9830931
51
113.8908934
0
ARC
8
DEFAULT_255_1_234
10
23.9141802
20
100.3380587
40
0.176479
50
114.1950727
51
127.3641004
0
LINE
8
DEFAULT_255_1_234
10
23.9961628
20
108.9973211
11
23.9961628
21
108.220652
0
LINE
8
DEFAULT_255_1_234
10
23.9961628
20
108.220652
11
24.1584039
21
108.220652
0
LINE
8
DEFAULT_255_1_234
10
24.1584039
20
108.220652
11
24.1584039
21
108.0993728
0
LINE
8
DEFAULT_255_1_234
10
24.1584039
20
108.0993728
11
23.9961628
21
108.0993728
0
LINE
8
DEFAULT_255_1_234
10
23.9961628
20
108.0993728
11
23.9961628
21
107.8279
0
LINE
8
DEFAULT_255_1_234
10
23.9961628
20
107.8279
11
23.8467725
21
107.8279
0
LINE
8
DEFAULT_255_1_234
10
23.8467725
20
107.8279
11
23.8467725
21
108.0993728
0
LINE
8
DEFAULT_255_1_234
10
23.8467725
20
108.0993728
11
23.3142682
21
108.0993728
0
LINE
8
DEFAULT_255_1_234
10
23.3142682
20
108.0993728
11
23.3142682
21
108.1869187
0
LINE
8
DEFAULT_255_1_234
10
23.3142682
20
108.1869187
11
23.8379375
21
108.9973211
0
LINE
8
DEFAULT_255_1_234
10
23.8379375
20
108.9973211
11
23.9961628
21
108.9973211
0
LINE
8
DEFAULT_255_1_234
10
23.8291026
20
108.7619912
11
23.4829347
21
108.220652
0
LINE
8
DEFAULT_255_1_234
10
23.4829347
20
108.220652
11
23.8467725
21
108.220652
0
LINE
8
DEFAULT_255_1_234
10
23.8467725
20
108.220652
11
23.8467725
21
108.7941181
0
LINE
8
DEFAULT_255_1_234
10
23.8467725
20
108.7941181
11
23.8291026
21
108.7619912
0
LINE
8
DEFAULT_255_1_234
10
23.7966378
20
116.3011169
11
23.7966378
21
116.4223962
0
LINE
8
DEFAULT_255_1_234
10
23.7966378
20
116.4223962
11
23.908279
21
116.4223962
0
LINE
8
DEFAULT_255_1_234
10
23.7179268
20
116.6280087
11
23.5693396
21
116.6280087
0
LINE
8
DEFAULT_255_1_234
10
23.5588983
20
116.0738188
11
23.7082887
21
116.0738188
0
LINE
8
DEFAULT_255_1_234
10
23.908279
20
116.3011169
11
23.7966378
21
116.3011169
0
ARC
8
DEFAULT_255_1_234
10
23.9053656
20
116.7616713
40
0.3392876
50
270.4919872
51
281.8951556
0
ARC
8
DEFAULT_255_1_234
10
23.9294918
20
116.6514702
40
0.2264817
50
281.6691735
51
301.2943132
0
ARC
8
DEFAULT_255_1_234
10
23.9465128
20
116.6203304
40
0.1910381
50
301.7833094
51
311.7545298
0
ARC
8
DEFAULT_255_1_234
10
23.9556704
20
116.6101748
40
0.1773635
50
311.7323931
51
354.2802411
0
ARC
8
DEFAULT_255_1_234
10
23.8830329
20
116.6226722
40
0.2509385
50
353.0937916
51
0.1181479
0
ARC
8
DEFAULT_255_1_234
10
23.8369114
20
116.6274386
40
0.2970898
50
359.1805295
51
15.0453146
0
ARC
8
DEFAULT_255_1_234
10
23.9714951
20
116.6666992
40
0.1569564
50
13.9577229
51
77.6713066
0
ARC
8
DEFAULT_255_1_234
10
23.932848
20
116.5281949
40
0.3006298
50
76.1116566
51
90.7026153
0
ARC
8
DEFAULT_255_1_234
10
23.9269318
20
116.5555545
40
0.2732568
50
89.5324876
51
103.531937
0
ARC
8
DEFAULT_255_1_234
10
23.9068762
20
116.6354884
40
0.1908508
50
103.2931773
51
133.5619022
0
ARC
8
DEFAULT_255_1_234
10
23.9024251
20
116.6414375
40
0.1834746
50
133.8349307
51
173.5344437
0
ARC
8
DEFAULT_255_1_234
10
23.9747294
20
116.6286213
40
0.2568033
50
172.5096846
51
180.1366907
0
ARC
8
DEFAULT_255_1_234
10
23.8796188
20
116.6320622
40
0.3103056
50
155.3484492
51
180.7484736
0
ARC
8
DEFAULT_255_1_234
10
23.8747277
20
116.6291846
40
0.3070957
50
131.5744599
51
154.4798489
0
ARC
8
DEFAULT_255_1_234
10
23.9060424
20
116.597531
40
0.3515643
50
96.9875458
51
131.9690667
0
ARC
8
DEFAULT_255_1_234
10
23.9279904
20
116.4729636
40
0.4779224
50
89.8596053
51
97.7825159
0
ARC
8
DEFAULT_255_1_234
10
23.9327967
20
116.4467616
40
0.5041361
50
78.3655447
51
90.4131539
0
ARC
8
DEFAULT_255_1_234
10
23.9685885
20
116.6126887
40
0.3344039
50
56.6229102
51
78.638727
0
ARC
8
DEFAULT_255_1_234
10
23.9900829
20
116.6502805
40
0.2912001
50
47.0253525
51
56.0854072
0
ARC
8
DEFAULT_255_1_234
10
23.9920609
20
116.6542223
40
0.2869704
50
10.9208013
51
46.7778124
0
ARC
8
DEFAULT_255_1_234
10
23.8556675
20
116.6226857
40
0.426899
50
359.6364486
51
11.6087304
0
ARC
8
DEFAULT_255_1_234
10
24.0391519
20
116.6211752
40
0.243409
50
332.3549906
51
359.7179418
0
ARC
8
DEFAULT_255_1_234
10
23.9741121
20
116.6520142
40
0.3153459
50
325.2333722
51
332.8745602
0
ARC
8
DEFAULT_255_1_234
10
23.9893744
20
116.6413828
40
0.2967456
50
292.9802137
51
325.2392345
0
ARC
8
DEFAULT_255_1_234
10
23.9619118
20
116.6947863
40
0.3566604
50
292.5402179
51
293.6924929
0
ARC
8
DEFAULT_255_1_234
10
24.0011714
20
116.0493091
40
0.3307468
50
57.6435486
51
72.8625112
0
ARC
8
DEFAULT_255_1_234
10
24.0366214
20
116.1067549
40
0.2632492
50
36.7248896
51
57.4697979
0
ARC
8
DEFAULT_255_1_234
10
24.0354847
20
116.108022
40
0.2634081
50
8.0545065
51
36.356114
0
ARC
8
DEFAULT_255_1_234
10
23.9492032
20
116.0925174
40
0.3510261
50
359.8320645
51
8.5869982
0
ARC
8
DEFAULT_255_1_234
10
23.9116808
20
116.0877101
40
0.3885653
50
343.9829931
51
0.5571613
0
ARC
8
DEFAULT_255_1_234
10
24.0003005
20
116.0634438
40
0.2966924
50
311.6359546
51
343.7651759
0
ARC
8
DEFAULT_255_1_234
10
23.9624574
20
116.1061102
40
0.3537231
50
279.7829875
51
311.6255694
0
ARC
8
DEFAULT_255_1_234
10
23.9323351
20
116.249828
40
0.5004971
50
269.7286406
51
280.3856417
0
ARC
8
DEFAULT_255_1_234
10
23.9261423
20
116.2456996
40
0.4963778
50
256.6828919
51
270.4412052
0
ARC
8
DEFAULT_255_1_234
10
23.8922719
20
116.1072394
40
0.3538406
50
229.4223008
51
256.8556159
0
ARC
8
DEFAULT_255_1_234
10
23.8508112
20
116.0605736
40
0.2914296
50
181.818294
51
229.6455059
0
ARC
8
DEFAULT_255_1_234
10
23.9548068
20
116.0736496
40
0.3959084
50
179.9755256
51
183.2323064
0
ARC
8
DEFAULT_255_1_234
10
23.9375814
20
116.0716037
40
0.2293034
50
179.4465117
51
196.2869258
0
ARC
8
DEFAULT_255_1_234
10
23.8888222
20
116.0582651
40
0.1787621
50
196.5661473
51
227.705904
0
ARC
8
DEFAULT_255_1_234
10
23.9052317
20
116.0766155
40
0.2033784
50
227.7652068
51
257.8762805
0
ARC
8
DEFAULT_255_1_234
10
23.9277287
20
116.1709156
40
0.3003081
50
257.4584385
51
270.426602
0
ARC
8
DEFAULT_255_1_234
10
23.9322853
20
116.1998996
40
0.329292
50
269.5962073
51
280.8789248
0
ARC
8
DEFAULT_255_1_234
10
23.9552382
20
116.0852685
40
0.2123908
50
280.6346389
51
299.8595945
0
ARC
8
DEFAULT_255_1_234
10
23.9743289
20
116.0490212
40
0.171457
50
300.3576302
51
314.5517981
0
ARC
8
DEFAULT_255_1_234
10
23.9660349
20
116.0550919
40
0.1816095
50
315.0728369
51
345.0431014
0
ARC
8
DEFAULT_255_1_234
10
23.8737163
20
116.0819841
40
0.2777492
50
344.5986631
51
357.9269593
0
ARC
8
DEFAULT_255_1_234
10
23.7841489
20
116.0881276
40
0.3674917
50
357.4748886
51
0.0231117
0
ARC
8
DEFAULT_255_1_234
10
23.8864599
20
116.0905679
40
0.2651907
50
359.5047933
51
13.4239635
0
ARC
8
DEFAULT_255_1_234
10
23.9731242
20
116.1127478
40
0.1757509
50
12.9498199
51
48.7551375
0
ARC
8
DEFAULT_255_1_234
10
23.9548976
20
116.08784
40
0.2065134
50
49.5088623
51
72.1836453
0
ARC
8
DEFAULT_255_1_234
10
23.9191129
20
115.9816291
40
0.3185836
50
71.9010081
51
84.3554254
0
ARC
8
DEFAULT_255_1_234
10
23.9029761
20
115.8455326
40
0.4556151
50
84.0193428
51
89.333121
0
LINE
8
DEFAULT_255_1_234
10
24.3468119
20
123.8241792
11
24.3468119
21
123.7029
0
LINE
8
DEFAULT_255_1_234
10
24.3468119
20
123.7029
11
23.580584
21
123.7029
0
LINE
8
DEFAULT_255_1_234
10
23.580584
20
123.7029
11
23.580584
21
123.8097221
0
LINE
8
DEFAULT_255_1_234
10
23.580584
20
123.8097221
11
23.9853836
21
124.2594995
0
LINE
8
DEFAULT_255_1_234
10
23.7066823
20
124.5277595
11
23.5580952
21
124.5277595
0
LINE
8
DEFAULT_255_1_234
10
24.0729296
20
124.1639218
11
23.7596918
21
123.8241792
0
LINE
8
DEFAULT_255_1_234
10
23.7596918
20
123.8241792
11
24.3468119
21
123.8241792
0
ARC
8
DEFAULT_255_1_234
10
22.636367
20
125.4524527
40
1.8008286
50
318.5132453
51
320.7828378
0
ARC
8
DEFAULT_255_1_234
10
23.1650644
20
125.0221426
40
1.1191493
50
320.7372736
51
323.9737074
0
ARC
8
DEFAULT_255_1_234
10
23.5570501
20
124.7381361
40
0.6350923
50
323.8961724
51
328.6421089
0
ARC
8
DEFAULT_255_1_234
10
23.7617096
20
124.6119031
40
0.3946393
50
328.8299013
51
331.789948
0
ARC
8
DEFAULT_255_1_234
10
23.8614274
20
124.5604509
40
0.2824501
50
331.4255242
51
352.9364833
0
ARC
8
DEFAULT_255_1_234
10
23.8750775
20
124.5573976
40
0.2685315
50
353.2248685
51
0.0169286
0
ARC
8
DEFAULT_255_1_234
10
23.8960652
20
124.559695
40
0.2475536
50
359.4866256
51
15.9339782
0
ARC
8
DEFAULT_255_1_234
10
23.9467637
20
124.5733286
40
0.1950618
50
16.1714718
51
43.5284424
0
ARC
8
DEFAULT_255_1_234
10
23.9544946
20
124.5810573
40
0.184134
50
43.4415429
51
83.1661404
0
ARC
8
DEFAULT_255_1_234
10
23.9410864
20
124.5073771
40
0.258926
50
82.160215
51
90.1505798
0
ARC
8
DEFAULT_255_1_234
10
23.9379291
20
124.4536865
40
0.3126255
50
89.5460705
51
102.5418777
0
ARC
8
DEFAULT_255_1_234
10
23.9136377
20
124.5567665
40
0.2067346
50
102.1739365
51
129.2061916
0
ARC
8
DEFAULT_255_1_234
10
23.9057449
20
124.5692094
40
0.1921118
50
129.7279328
51
135.7542026
0
ARC
8
DEFAULT_255_1_234
10
23.9178977
20
124.5595045
40
0.2075944
50
136.175737
51
166.3674722
0
ARC
8
DEFAULT_255_1_234
10
24.0185896
20
124.5325182
40
0.3118201
50
165.9092917
51
178.8683903
0
ARC
8
DEFAULT_255_1_234
10
24.1050757
20
124.5278179
40
0.3983935
50
178.438168
51
180.0083905
0
ARC
8
DEFAULT_255_1_234
10
23.9649359
20
124.5317231
40
0.4068601
50
163.2878735
51
180.5581814
0
ARC
8
DEFAULT_255_1_234
10
23.8847621
20
124.553784
40
0.3237344
50
133.454115
51
162.9470031
0
ARC
8
DEFAULT_255_1_234
10
23.9026162
20
124.5348
40
0.349795
50
100.7869394
51
133.4384016
0
ARC
8
DEFAULT_255_1_234
10
23.9373934
20
124.3799319
40
0.5084616
50
89.6605301
51
101.3704185
0
ARC
8
DEFAULT_255_1_234
10
23.9440273
20
124.3860496
40
0.502348
50
78.2171172
51
90.4130393
0
ARC
8
DEFAULT_255_1_234
10
23.9795351
20
124.5484637
40
0.3361092
50
55.9268222
51
78.4888551
0
ARC
8
DEFAULT_255_1_234
10
23.9991791
20
124.5823324
40
0.2970617
50
47.9292255
51
55.4054003
0
ARC
8
DEFAULT_255_1_234
10
24.0093352
20
124.5926502
40
0.2825983
50
4.3347696
51
48.0560701
0
ARC
8
DEFAULT_255_1_234
10
23.8997745
20
124.5756601
40
0.393225
50
359.925209
51
5.5967654
0
ARC
8
DEFAULT_255_1_234
10
23.9426637
20
124.5812816
40
0.3503892
50
337.8914096
51
358.9967724
0
ARC
8
DEFAULT_255_1_234
10
23.6713049
20
124.6859706
40
0.6412172
50
326.9135351
51
338.3505194
0
ARC
8
DEFAULT_255_1_234
10
23.2727353
20
124.9414284
40
1.1146189
50
319.6472867
51
327.095818
0
ARC
8
DEFAULT_255_1_234
10
22.8894356
20
125.2576
40
1.6114559
50
317.2586784
51
319.9046139
0
LINE
8
DEFAULT_255_1_234
10
24.0771137
20
132.8154433
11
24.0771137
21
131.6404
0
LINE
8
DEFAULT_255_1_234
10
24.0771137
20
131.6404
11
23.9277234
21
131.6404
0
LINE
8
DEFAULT_255_1_234
10
23.9277234
20
131.6404
11
23.9277234
21
132.6307133
0
LINE
8
DEFAULT_255_1_234
10
23.9277234
20
132.6307133
11
23.6281396
21
132.5206785
0
LINE
8
DEFAULT_255_1_234
10
23.6281396
20
132.5206785
11
23.6281396
21
132.6556117
0
LINE
8
DEFAULT_255_1_234
10
23.6281396
20
132.6556117
11
24.0538217
21
132.8154433
0
LINE
8
DEFAULT_255_1_234
10
24.0538217
20
132.8154433
11
24.0771137
21
132.8154433
0
LINE
8
DEFAULT_255_1_234
10
24.3138817
20
140.2694327
11
24.3138817
21
140.0766709
0
LINE
8
DEFAULT_255_1_234
10
23.575765
20
140.0565916
11
23.575765
21
140.2549755
0
LINE
8
DEFAULT_255_1_234
10
24.1652946
20
140.0365123
11
24.1652946
21
140.2798739
0
LINE
8
DEFAULT_255_1_234
10
23.7243521
20
140.2911184
11
23.7243521
21
140.0533789
0
ARC
8
DEFAULT_255_1_234
10
23.0891707
20
140.0717805
40
1.2247208
50
353.8441951
51
0.2287902
0
ARC
8
DEFAULT_255_1_234
10
23.5531211
20
140.0199806
40
0.7578929
50
344.4934747
51
353.9765454
0
ARC
8
DEFAULT_255_1_234
10
23.8523801
20
139.9348981
40
0.4467846
50
329.2803592
51
344.7472793
0
ARC
8
DEFAULT_255_1_234
10
23.9516626
20
139.8804018
40
0.3336173
50
324.9352394
51
328.6160465
0
ARC
8
DEFAULT_255_1_234
10
23.9893734
20
139.8540427
40
0.2876076
50
280.580143
51
324.9173126
0
ARC
8
DEFAULT_255_1_234
10
23.9492527
20
140.0211099
40
0.4592847
50
269.5977311
51
281.6734359
0
ARC
8
DEFAULT_255_1_234
10
23.9420433
20
140.0091173
40
0.4472986
50
256.6228859
51
270.51044
0
ARC
8
DEFAULT_255_1_234
10
23.901841
20
139.8542877
40
0.2873874
50
215.8618325
51
257.2788573
0
ARC
8
DEFAULT_255_1_234
10
24.0039442
20
139.9227977
40
0.4102928
50
197.9693508
51
215.2623606
0
ARC
8
DEFAULT_255_1_234
10
24.2524558
20
140.0066709
40
0.6725652
50
187.8816417
51
198.2346507
0
ARC
8
DEFAULT_255_1_234
10
24.6482766
20
140.0638079
40
1.0724845
50
180.8976217
51
188.0055519
0
ARC
8
DEFAULT_255_1_234
10
24.9282954
20
140.0741777
40
1.3526448
50
180.7449369
51
181.1510016
0
ARC
8
DEFAULT_255_1_234
10
24.7705683
20
140.2598042
40
1.1948131
50
173.7675579
51
180.231553
0
ARC
8
DEFAULT_255_1_234
10
24.318783
20
140.3108666
40
0.7401564
50
164.3058563
51
173.9002247
0
ARC
8
DEFAULT_255_1_234
10
24.0275899
20
140.3947656
40
0.4371288
50
148.7922025
51
164.568378
0
ARC
8
DEFAULT_255_1_234
10
23.9324351
20
140.4478929
40
0.3282386
50
144.5883898
51
148.1176286
0
ARC
8
DEFAULT_255_1_234
10
23.8981249
20
140.4718315
40
0.2864044
50
101.6440918
51
144.514236
0
ARC
8
DEFAULT_255_1_234
10
23.9406315
20
140.3029069
40
0.4604934
50
89.5284041
51
102.5819763
0
ARC
8
DEFAULT_255_1_234
10
23.9485403
20
140.2990018
40
0.464401
50
77.0437873
51
90.5081339
0
ARC
8
DEFAULT_255_1_234
10
23.9887405
20
140.4632615
40
0.2953195
50
48.2778575
51
77.4994676
0
ARC
8
DEFAULT_255_1_234
10
23.9960036
20
140.4761746
40
0.2808655
50
36.3142134
51
47.6305865
0
ARC
8
DEFAULT_255_1_234
10
23.9091343
20
140.4176515
40
0.3855453
50
18.2931786
51
35.6769206
0
ARC
8
DEFAULT_255_1_234
10
23.6548102
20
140.3303593
40
0.654423
50
8.024666
51
18.5605216
0
ARC
8
DEFAULT_255_1_234
10
23.2385022
20
140.2688792
40
1.0752407
50
1.1274072
51
8.1718305
0
ARC
8
DEFAULT_255_1_234
10
22.9149213
20
140.2561885
40
1.3990231
50
0.5424119
51
1.3863029
0
ARC
8
DEFAULT_255_1_234
10
23.097059
20
140.2834342
40
1.0682415
50
359.8090433
51
4.9407866
0
ARC
8
DEFAULT_255_1_234
10
23.5180604
20
140.3210113
40
0.6455691
50
4.8362157
51
12.2904523
0
ARC
8
DEFAULT_255_1_234
10
23.7935719
20
140.3823965
40
0.3633074
50
12.0805627
51
23.8173984
0
ARC
8
DEFAULT_255_1_234
10
23.9109425
20
140.4320919
40
0.2358723
50
24.2871213
51
31.3935614
0
ARC
8
DEFAULT_255_1_234
10
23.9634122
20
140.4664233
40
0.1732111
50
30.7407893
51
82.4657128
0
ARC
8
DEFAULT_255_1_234
10
23.9454256
20
140.3780691
40
0.263235
50
81.1060089
51
90.2184952
0
ARC
8
DEFAULT_255_1_234
10
23.9418555
20
140.4038924
40
0.2374236
50
89.3806855
51
105.6762551
0
ARC
8
DEFAULT_255_1_234
10
23.9235186
20
140.4705567
40
0.1682847
50
105.7981136
51
149.7388061
0
ARC
8
DEFAULT_255_1_234
10
24.0299264
20
140.406595
40
0.2924306
50
149.4208916
51
163.6286378
0
ARC
8
DEFAULT_255_1_234
10
24.2390152
20
140.342825
40
0.5110213
50
163.3763315
51
172.1410975
0
ARC
8
DEFAULT_255_1_234
10
24.5690871
20
140.2955518
40
0.8444586
50
172.0259487
51
178.0703232
0
ARC
8
DEFAULT_255_1_234
10
24.872096
20
140.2811906
40
1.1477868
50
177.8631668
51
179.5044149
0
ARC
8
DEFAULT_255_1_234
10
24.7648365
20
140.0497389
40
1.0404907
50
179.7995573
51
185.2460446
0
ARC
8
DEFAULT_255_1_234
10
24.3605404
20
140.0114513
40
0.6343885
50
185.1411642
51
193.0079639
0
ARC
8
DEFAULT_255_1_234
10
24.0961877
20
139.9489641
40
0.3627568
50
192.7897626
51
205.2507664
0
ARC
8
DEFAULT_255_1_234
10
23.9915424
20
139.9022415
40
0.2481908
50
205.8005384
51
211.2537509
0
ARC
8
DEFAULT_255_1_234
10
23.9391864
20
139.867158
40
0.1852521
50
210.3789793
51
238.4008143
0
ARC
8
DEFAULT_255_1_234
10
23.9372386
20
139.8718376
40
0.1882621
50
239.6520629
51
265.9793761
0
ARC
8
DEFAULT_255_1_234
10
23.9457586
20
139.9390427
40
0.2559272
50
265.1315437
51
270.060332
0
ARC
8
DEFAULT_255_1_234
10
23.9486365
20
139.9066534
40
0.2235528
50
269.3314664
51
287.2178029
0
ARC
8
DEFAULT_255_1_234
10
23.9624217
20
139.8563279
40
0.1714108
50
287.7958004
51
329.080874
0
ARC
8
DEFAULT_255_1_234
10
23.8666674
20
139.916093
40
0.2842745
50
328.6634704
51
343.3325132
0
ARC
8
DEFAULT_255_1_234
10
23.6493694
20
139.9837863
40
0.5118644
50
343.0499468
51
351.9393422
0
ARC
8
DEFAULT_255_1_234
10
23.3026994
20
140.0348949
40
0.8622784
50
351.8069023
51
357.7959224
0
ARC
8
DEFAULT_255_1_234
10
22.979155
20
140.0516721
40
1.1862365
50
357.5871873
51
359.2677531
0
ENDSEC
0
EOF