0
SECTION
2
HEADER
9
$MEASUREMENT
70
1
0
ENDSEC
0
SECTION
2
TABLES
0
TABLE
2
LTYPE
0
LTYPE
72
65
70
64
2
CONTINUOUS
3
______
73
0
40
0
0
ENDTAB
0
TABLE
2
LAYER
0
LAYER
2
DEFAULT_255_2_778
70
0
62
255
6
CONTINUOUS
0
ENDTAB
0
ENDSEC
0
SECTION
2
ENTITIES
0
ARC
8
DEFAULT_255_2_778
10
89.1450081
20
41.0575751
40
6.0225958
50
269.9668139
51
282.2590519
0
ARC
8
DEFAULT_255_2_778
10
89.1553768
20
40.9967854
40
5.9609915
50
282.285728
51
299.8656809
0
ARC
8
DEFAULT_255_2_778
10
89.1272358
20
41.048162
40
6.0195585
50
299.8544478
51
340.1249482
0
ARC
8
DEFAULT_255_2_778
10
89.1748211
20
41.0224735
40
5.9660794
50
340.2015929
51
354.3979194
0
ARC
8
DEFAULT_255_2_778
10
89.0698512
20
41.0339532
40
6.0716688
50
354.3868043
51
0.0087489
0
ARC
8
DEFAULT_255_2_778
10
89.1189421
20
68.6383696
40
6.0225787
50
359.966805
51
12.2590784
0
ARC
8
DEFAULT_255_2_778
10
89.1797693
20
68.6487488
40
5.9609355
50
12.2857327
51
29.8658636
0
ARC
8
DEFAULT_255_2_778
10
89.1283387
20
68.6205665
40
6.0195699
50
29.8547137
51
70.125482
0
ARC
8
DEFAULT_255_2_778
10
89.1539396
20
68.6679474
40
5.966313
50
70.2020046
51
84.3980993
0
ARC
8
DEFAULT_255_2_778
10
89.1424475
20
68.5628752
40
6.0720054
50
84.3869594
51
90.0087535
0
LINE
8
DEFAULT_255_2_778
10
24.1416198
20
29.3347803
11
24.1416198
21
9.8346803
0
LINE
8
DEFAULT_255_2_778
10
41.9414198
20
29.3347803
11
22.1416198
21
29.3347803
0
LINE
8
DEFAULT_255_2_778
10
22.1416198
20
29.3347803
11
22.1416198
21
48.0847803
0
LINE
8
DEFAULT_255_2_778
10
22.1416198
20
48.0847803
11
0.1415198
21
48.0847803
0
LINE
8
DEFAULT_255_2_778
10
32.8916198
20
19.7846803
11
34.5117198
21
19.7846803
0
LINE
8
DEFAULT_255_2_778
10
34.5117198
20
19.7846803
11
34.5117198
21
22.4846803
0
LINE
8
DEFAULT_255_2_778
10
34.5117198
20
22.4846803
11
32.8916198
21
22.4846803
0
LINE
8
DEFAULT_255_2_778
10
32.8916198
20
22.4846803
11
32.8916198
21
18.1547803
0
LINE
8
DEFAULT_255_2_778
10
32.8916198
20
18.1547803
11
33.3417198
21
18.1547803
0
LINE
8
DEFAULT_255_2_778
10
33.3414198
20
17.1848803
11
31.3914198
21
17.1848803
0
LINE
8
DEFAULT_255_2_778
10
32.8916198
20
19.0019803
11
33.4922198
21
19.0019803
0
LINE
8
DEFAULT_255_2_778
10
39.7909198
20
19.0019803
11
40.4915198
21
19.0019803
0
LINE
8
DEFAULT_255_2_778
10
39.5115198
20
21.3848803
11
40.4915198
21
21.3848803
0
LINE
8
DEFAULT_255_2_778
10
20.3414198
20
46.6847803
11
1.9915198
21
46.6847803
0
LINE
8
DEFAULT_255_2_778
10
1.9915198
20
46.6847803
11
1.9915198
21
11.6849803
0
LINE
8
DEFAULT_255_2_778
10
1.9915198
20
11.6849803
11
20.3414198
21
11.6849803
0
LINE
8
DEFAULT_255_2_778
10
20.3414198
20
11.6849803
11
20.3414198
21
46.6847803
0
LINE
8
DEFAULT_255_2_778
10
41.9414198
20
9.8346803
11
41.9414198
21
39.3346803
0
LINE
8
DEFAULT_255_2_778
10
41.9414198
20
35.0349803
11
89.1415198
21
35.0349803
0
LINE
8
DEFAULT_255_2_778
10
95.1415198
20
41.0348803
11
95.1415198
21
68.6348803
0
LINE
8
DEFAULT_255_2_778
10
89.1415198
20
74.6348803
11
22.7414198
21
74.6348803
0
LINE
8
DEFAULT_255_2_778
10
141.1414198
20
38.1345803
11
148.7413198
21
38.1345803
0
LINE
8
DEFAULT_255_2_778
10
148.7413198
20
38.1345803
11
148.7413198
21
39.1346803
0
LINE
8
DEFAULT_255_2_778
10
148.7413198
20
39.1346803
11
150.1412198
21
39.1346803
0
LINE
8
DEFAULT_255_2_778
10
145.8415198
20
9.9347803
11
44.0414198
21
9.9347803
0
LINE
8
DEFAULT_255_2_778
10
0.1415198
20
9.8346803
11
150.1415198
21
9.8346803
0
LINE
8
DEFAULT_255_2_778
10
46.2914198
20
16.4347803
11
44.0414198
21
16.4347803
0
LINE
8
DEFAULT_255_2_778
10
0.1415239
20
10.0346966
11
41.9414239
21
10.0346966
0
LINE
8
DEFAULT_255_2_778
10
44.0414239
20
9.8346966
11
44.0414239
21
28.8335966
0
LINE
8
DEFAULT_255_2_778
10
46.2914239
20
28.8346966
11
46.2914239
21
15.9346966
0
LINE
8
DEFAULT_255_2_778
10
46.2914239
20
15.9346966
11
44.6915239
21
15.9346966
0
LINE
8
DEFAULT_255_2_778
10
44.6915239
20
15.9346966
11
44.6915239
21
9.9346966
0
LINE
8
DEFAULT_255_2_778
10
143.5914239
20
28.8346966
11
143.5914239
21
15.9346966
0
LINE
8
DEFAULT_255_2_778
10
143.5914239
20
15.9346966
11
145.1914239
21
15.9346966
0
LINE
8
DEFAULT_255_2_778
10
145.1914239
20
15.9346966
11
145.1914239
21
9.9346966
0
LINE
8
DEFAULT_255_2_778
10
145.8415239
20
28.8335966
11
145.8415239
21
9.8346966
0
ARC
8
DEFAULT_255_2_778
10
89.141588
20
41.0343936
40
1.6994416
50
269.9976991
51
315.0116854
0
ARC
8
DEFAULT_255_2_778
10
89.1416575
20
41.035058
40
1.6998623
50
314.9941887
51
359.9964247
0
ARC
8
DEFAULT_255_2_778
10
89.1413088
20
68.6347015
40
1.700211
50
0.0084412
51
45.0009417
0
ARC
8
DEFAULT_255_2_778
10
89.1415536
20
68.635086
40
1.699766
50
44.9976113
51
90.001141
0
LINE
8
DEFAULT_255_2_778
10
145.8415198
20
16.434752
11
143.5914198
21
16.434752
0
LINE
8
DEFAULT_255_2_778
10
146.6416198
20
38.234852
11
146.6416198
21
38.134852
0
LINE
8
DEFAULT_255_2_778
10
27.2915198
20
82.234752
11
143.7915198
21
82.234752
0
LINE
8
DEFAULT_255_2_778
10
25.0414198
20
99.734852
11
145.8415198
21
99.734852
0
LINE
8
DEFAULT_255_2_778
10
150.1415198
20
99.834852
11
0.1415198
21
99.834852
0
LINE
8
DEFAULT_255_2_778
10
25.3415198
20
70.334852
11
25.3415198
21
39.334952
0
LINE
8
DEFAULT_255_2_778
10
25.3415198
20
39.334952
11
89.1415198
21
39.334952
0
LINE
8
DEFAULT_255_2_778
10
90.8415198
20
41.034952
11
90.8415198
21
68.634952
0
LINE
8
DEFAULT_255_2_778
10
89.1415198
20
70.334852
11
22.7414198
21
70.334852
0
LINE
8
DEFAULT_255_2_778
10
22.7414198
20
70.334852
11
22.7414198
21
99.834852
0
LINE
8
DEFAULT_255_2_778
10
25.7915614
20
99.7348504
11
25.7915614
21
93.7348504
0
LINE
8
DEFAULT_255_2_778
10
25.7915614
20
93.7348504
11
27.3915614
21
93.7348504
0
LINE
8
DEFAULT_255_2_778
10
27.3915614
20
93.7348504
11
27.3915614
21
80.8348504
0
LINE
8
DEFAULT_255_2_778
10
27.3915614
20
80.8348504
11
143.6914614
21
80.8348504
0
LINE
8
DEFAULT_255_2_778
10
143.6914614
20
80.8348504
11
143.6914614
21
93.7348504
0
LINE
8
DEFAULT_255_2_778
10
143.6914614
20
93.7348504
11
145.2914614
21
93.7348504
0
LINE
8
DEFAULT_255_2_778
10
145.2914614
20
93.7348504
11
145.2914614
21
99.7348504
0
LINE
8
DEFAULT_255_2_778
10
0.7757614
20
72.3348504
11
22.6914614
21
72.3348504
0
LINE
8
DEFAULT_255_2_778
10
0.7757614
20
50.2347504
11
22.6914614
21
50.2347504
0
LINE
8
DEFAULT_255_2_778
10
0.1415461
20
50.0850445
11
22.6914461
21
50.0850445
0
LINE
8
DEFAULT_255_2_778
10
22.6914461
20
50.0850445
11
22.6914461
21
72.4849445
0
LINE
8
DEFAULT_255_2_778
10
22.6914461
20
72.4849445
11
0.1415461
21
72.4849445
0
LINE
8
DEFAULT_255_2_778
10
2.141543
20
50.084766
11
2.141543
21
50.234766
0
LINE
8
DEFAULT_255_2_778
10
2.141543
20
72.334866
11
2.141543
21
72.484866
0
LINE
8
DEFAULT_255_2_778
10
0.141543
20
74.434866
11
22.741443
21
74.434866
0
LINE
8
DEFAULT_255_2_778
10
22.541443
20
99.834866
11
22.541443
21
75.034966
0
LINE
8
DEFAULT_255_2_778
10
22.541443
20
75.034966
11
0.141543
21
75.034966
0
LINE
8
DEFAULT_255_2_778
10
0.4416385
20
75.0345955
11
0.4416385
21
74.5345955
0
LINE
8
DEFAULT_255_2_778
10
0.4416385
20
74.5345955
11
22.2417385
21
74.5345955
0
LINE
8
DEFAULT_255_2_778
10
22.2417385
20
74.5345955
11
22.2417385
21
75.0345955
0
LINE
8
DEFAULT_255_2_778
10
4.4416385
20
74.5347955
11
4.4416385
21
74.4347955
0
LINE
8
DEFAULT_255_2_778
10
12.4415385
20
74.5347955
11
12.4415385
21
74.4347955
0
LINE
8
DEFAULT_255_2_778
10
27.2915385
20
80.6347955
11
27.2915385
21
93.2347955
0
LINE
8
DEFAULT_255_2_778
10
27.2915385
20
93.2347955
11
25.0415385
21
93.2347955
0
LINE
8
DEFAULT_255_2_778
10
22.7415385
20
85.9346955
11
22.5415385
21
85.9346955
0
LINE
8
DEFAULT_255_2_778
10
150.1415385
20
70.5345955
11
148.7416385
21
70.5345955
0
LINE
8
DEFAULT_255_2_778
10
148.7416385
20
70.5345955
11
148.7416385
21
71.5346955
0
LINE
8
DEFAULT_255_2_778
10
148.7416385
20
71.5346955
11
141.1417385
21
71.5346955
0
LINE
8
DEFAULT_255_2_778
10
146.6416385
20
71.5346955
11
146.6416385
21
71.4346955
0
LINE
8
DEFAULT_255_2_778
10
145.8415042
20
93.2348936
11
143.7915042
21
93.2348936
0
LINE
8
DEFAULT_255_2_778
10
143.7915042
20
93.2348936
11
143.7915042
21
80.6348936
0
ARC
8
DEFAULT_255_2_778
10
100.6371257
20
15.3376042
40
2.7955804
50
160.6250898
51
180.0625339
0
ARC
8
DEFAULT_255_2_778
10
100.6445872
20
15.3307633
40
2.8048915
50
101.7948804
51
160.5438283
0
ARC
8
DEFAULT_255_2_778
10
100.6400381
20
15.3223172
40
2.8122362
50
89.9692581
51
101.6689794
0
ARC
8
DEFAULT_255_2_778
10
100.6445925
20
15.3392398
40
2.7953149
50
70.6241591
51
90.0624243
0
ARC
8
DEFAULT_255_2_778
10
100.6376398
20
15.3315195
40
2.8049073
50
11.7946723
51
70.542501
0
ARC
8
DEFAULT_255_2_778
10
100.6291921
20
15.336061
40
2.8122552
50
359.969278
51
11.6689198
0
ARC
8
DEFAULT_255_2_778
10
100.6461072
20
15.3315098
40
2.7953414
50
340.624302
51
0.0623774
0
ARC
8
DEFAULT_255_2_778
10
100.6384204
20
15.3384325
40
2.8048924
50
281.7959826
51
340.5429938
0
ARC
8
DEFAULT_255_2_778
10
100.6430528
20
15.3466015
40
2.8119488
50
269.9693166
51
281.6695586
0
ARC
8
DEFAULT_255_2_778
10
100.6384981
20
15.3302583
40
2.7956069
50
250.6252326
51
270.062487
0
ARC
8
DEFAULT_255_2_778
10
100.645309
20
15.3376864
40
2.8048766
50
191.7961906
51
250.5443211
0
ARC
8
DEFAULT_255_2_778
10
100.6534764
20
15.3330462
40
2.8119298
50
179.9692966
51
191.6696183
0
LINE
8
DEFAULT_255_2_778
10
97.841547
20
15.334553
11
97.841547
21
15.334553
0
LINE
8
DEFAULT_255_2_778
10
101.702047
20
14.273853
11
99.580647
21
16.395353
0
LINE
8
DEFAULT_255_2_778
10
101.702047
20
16.395353
11
99.580647
21
14.273853
0
ARC
8
DEFAULT_255_2_778
10
70.2370257
20
15.3376042
40
2.7955804
50
160.6250898
51
180.0625339
0
ARC
8
DEFAULT_255_2_778
10
70.2444872
20
15.3307633
40
2.8048915
50
101.7948804
51
160.5438283
0
ARC
8
DEFAULT_255_2_778
10
70.2399381
20
15.3223172
40
2.8122362
50
89.9692581
51
101.6689794
0
ARC
8
DEFAULT_255_2_778
10
70.2444925
20
15.3392398
40
2.7953149
50
70.6241591
51
90.0624243
0
ARC
8
DEFAULT_255_2_778
10
70.2375398
20
15.3315195
40
2.8049073
50
11.7946723
51
70.542501
0
ARC
8
DEFAULT_255_2_778
10
70.2290921
20
15.336061
40
2.8122552
50
359.969278
51
11.6689198
0
ARC
8
DEFAULT_255_2_778
10
70.2460072
20
15.3315098
40
2.7953414
50
340.624302
51
0.0623774
0
ARC
8
DEFAULT_255_2_778
10
70.2383204
20
15.3384325
40
2.8048924
50
281.7959826
51
340.5429938
0
ARC
8
DEFAULT_255_2_778
10
70.2429528
20
15.3466015
40
2.8119488
50
269.9693166
51
281.6695586
0
ARC
8
DEFAULT_255_2_778
10
70.2383981
20
15.3302583
40
2.7956069
50
250.6252326
51
270.062487
0
ARC
8
DEFAULT_255_2_778
10
70.245209
20
15.3376864
40
2.8048766
50
191.7961906
51
250.5443211
0
ARC
8
DEFAULT_255_2_778
10
70.2533764
20
15.3330462
40
2.8119298
50
179.9692966
51
191.6696183
0
LINE
8
DEFAULT_255_2_778
10
67.441447
20
15.334553
11
67.441447
21
15.334553
0
LINE
8
DEFAULT_255_2_778
10
71.301947
20
14.273853
11
69.180547
21
16.395353
0
LINE
8
DEFAULT_255_2_778
10
71.301947
20
16.395353
11
69.180547
21
14.273853
0
ARC
8
DEFAULT_255_2_778
10
74.0370257
20
24.3377042
40
2.7955804
50
160.6250898
51
180.0625339
0
ARC
8
DEFAULT_255_2_778
10
74.0444872
20
24.3308633
40
2.8048915
50
101.7948804
51
160.5438283
0
ARC
8
DEFAULT_255_2_778
10
74.0399381
20
24.3224172
40
2.8122362
50
89.9692581
51
101.6689794
0
ARC
8
DEFAULT_255_2_778
10
74.0444925
20
24.3393398
40
2.7953149
50
70.6241591
51
90.0624243
0
ARC
8
DEFAULT_255_2_778
10
74.0375398
20
24.3316195
40
2.8049073
50
11.7946723
51
70.542501
0
ARC
8
DEFAULT_255_2_778
10
74.0290921
20
24.336161
40
2.8122552
50
359.969278
51
11.6689198
0
ARC
8
DEFAULT_255_2_778
10
74.0460072
20
24.3316098
40
2.7953414
50
340.624302
51
0.0623774
0
ARC
8
DEFAULT_255_2_778
10
74.0383204
20
24.3385325
40
2.8048924
50
281.7959826
51
340.5429938
0
ARC
8
DEFAULT_255_2_778
10
74.0429528
20
24.3467015
40
2.8119488
50
269.9693166
51
281.6695586
0
ARC
8
DEFAULT_255_2_778
10
74.0383981
20
24.3303583
40
2.7956069
50
250.6252326
51
270.062487
0
ARC
8
DEFAULT_255_2_778
10
74.045209
20
24.3377864
40
2.8048766
50
191.7961906
51
250.5443211
0
ARC
8
DEFAULT_255_2_778
10
74.0533764
20
24.3331462
40
2.8119298
50
179.9692966
51
191.6696183
0
LINE
8
DEFAULT_255_2_778
10
71.241447
20
24.334653
11
71.241447
21
24.334653
0
LINE
8
DEFAULT_255_2_778
10
75.101947
20
23.273953
11
72.980547
21
25.395453
0
LINE
8
DEFAULT_255_2_778
10
75.101947
20
25.395453
11
72.980547
21
23.273953
0
ARC
8
DEFAULT_255_2_778
10
55.0370257
20
15.3376042
40
2.7955804
50
160.6250898
51
180.0625339
0
ARC
8
DEFAULT_255_2_778
10
55.0444872
20
15.3307633
40
2.8048915
50
101.7948804
51
160.5438283
0
ARC
8
DEFAULT_255_2_778
10
55.0399381
20
15.3223172
40
2.8122362
50
89.9692581
51
101.6689794
0
ARC
8
DEFAULT_255_2_778
10
55.0444925
20
15.3392398
40
2.7953149
50
70.6241591
51
90.0624243
0
ARC
8
DEFAULT_255_2_778
10
55.0375398
20
15.3315195
40
2.8049073
50
11.7946723
51
70.542501
0
ARC
8
DEFAULT_255_2_778
10
55.0290921
20
15.336061
40
2.8122552
50
359.969278
51
11.6689198
0
ARC
8
DEFAULT_255_2_778
10
55.0460072
20
15.3315098
40
2.7953414
50
340.624302
51
0.0623774
0
ARC
8
DEFAULT_255_2_778
10
55.0383204
20
15.3384325
40
2.8048924
50
281.7959826
51
340.5429938
0
ARC
8
DEFAULT_255_2_778
10
55.0429528
20
15.3466015
40
2.8119488
50
269.9693166
51
281.6695586
0
ARC
8
DEFAULT_255_2_778
10
55.0383981
20
15.3302583
40
2.7956069
50
250.6252326
51
270.062487
0
ARC
8
DEFAULT_255_2_778
10
55.045209
20
15.3376864
40
2.8048766
50
191.7961906
51
250.5443211
0
ARC
8
DEFAULT_255_2_778
10
55.0533764
20
15.3330462
40
2.8119298
50
179.9692966
51
191.6696183
0
LINE
8
DEFAULT_255_2_778
10
52.241447
20
15.334553
11
52.241447
21
15.334553
0
LINE
8
DEFAULT_255_2_778
10
56.101947
20
14.273853
11
53.980547
21
16.395353
0
LINE
8
DEFAULT_255_2_778
10
56.101947
20
16.395353
11
53.980547
21
14.273853
0
ARC
8
DEFAULT_255_2_778
10
62.6372257
20
15.3376042
40
2.7955804
50
160.6250898
51
180.0625339
0
ARC
8
DEFAULT_255_2_778
10
62.6446872
20
15.3307633
40
2.8048915
50
101.7948804
51
160.5438283
0
ARC
8
DEFAULT_255_2_778
10
62.6401381
20
15.3223172
40
2.8122362
50
89.9692581
51
101.6689794
0
ARC
8
DEFAULT_255_2_778
10
62.6446925
20
15.3392398
40
2.7953149
50
70.6241591
51
90.0624243
0
ARC
8
DEFAULT_255_2_778
10
62.6377398
20
15.3315195
40
2.8049073
50
11.7946723
51
70.542501
0
ARC
8
DEFAULT_255_2_778
10
62.6292921
20
15.336061
40
2.8122552
50
359.969278
51
11.6689198
0
ARC
8
DEFAULT_255_2_778
10
62.6462072
20
15.3315098
40
2.7953414
50
340.624302
51
0.0623774
0
ARC
8
DEFAULT_255_2_778
10
62.6385204
20
15.3384325
40
2.8048924
50
281.7959826
51
340.5429938
0
ARC
8
DEFAULT_255_2_778
10
62.6431528
20
15.3466015
40
2.8119488
50
269.9693166
51
281.6695586
0
ARC
8
DEFAULT_255_2_778
10
62.6385981
20
15.3302583
40
2.7956069
50
250.6252326
51
270.062487
0
ARC
8
DEFAULT_255_2_778
10
62.645409
20
15.3376864
40
2.8048766
50
191.7961906
51
250.5443211
0
ARC
8
DEFAULT_255_2_778
10
62.6535764
20
15.3330462
40
2.8119298
50
179.9692966
51
191.6696183
0
LINE
8
DEFAULT_255_2_778
10
59.841647
20
15.334553
11
59.841647
21
15.334553
0
LINE
8
DEFAULT_255_2_778
10
63.702147
20
14.273853
11
61.580747
21
16.395353
0
LINE
8
DEFAULT_255_2_778
10
63.702147
20
16.395353
11
61.580747
21
14.273853
0
ARC
8
DEFAULT_255_2_778
10
58.8372257
20
24.3377042
40
2.7955804
50
160.6250898
51
180.0625339
0
ARC
8
DEFAULT_255_2_778
10
58.8446872
20
24.3308633
40
2.8048915
50
101.7948804
51
160.5438283
0
ARC
8
DEFAULT_255_2_778
10
58.8401381
20
24.3224172
40
2.8122362
50
89.9692581
51
101.6689794
0
ARC
8
DEFAULT_255_2_778
10
58.8446925
20
24.3393398
40
2.7953149
50
70.6241591
51
90.0624243
0
ARC
8
DEFAULT_255_2_778
10
58.8377398
20
24.3316195
40
2.8049073
50
11.7946723
51
70.542501
0
ARC
8
DEFAULT_255_2_778
10
58.8292921
20
24.336161
40
2.8122552
50
359.969278
51
11.6689198
0
ARC
8
DEFAULT_255_2_778
10
58.8462072
20
24.3316098
40
2.7953414
50
340.624302
51
0.0623774
0
ARC
8
DEFAULT_255_2_778
10
58.8385204
20
24.3385325
40
2.8048924
50
281.7959826
51
340.5429938
0
ARC
8
DEFAULT_255_2_778
10
58.8431528
20
24.3467015
40
2.8119488
50
269.9693166
51
281.6695586
0
ARC
8
DEFAULT_255_2_778
10
58.8385981
20
24.3303583
40
2.7956069
50
250.6252326
51
270.062487
0
ARC
8
DEFAULT_255_2_778
10
58.845409
20
24.3377864
40
2.8048766
50
191.7961906
51
250.5443211
0
ARC
8
DEFAULT_255_2_778
10
58.8535764
20
24.3331462
40
2.8119298
50
179.9692966
51
191.6696183
0
LINE
8
DEFAULT_255_2_778
10
56.041647
20
24.334653
11
56.041647
21
24.334653
0
LINE
8
DEFAULT_255_2_778
10
59.902147
20
23.273953
11
57.780747
21
25.395453
0
LINE
8
DEFAULT_255_2_778
10
59.902147
20
25.395453
11
57.780747
21
23.273953
0
ARC
8
DEFAULT_255_2_778
10
51.2371257
20
24.3377042
40
2.7955804
50
160.6250898
51
180.0625339
0
ARC
8
DEFAULT_255_2_778
10
51.2445872
20
24.3308633
40
2.8048915
50
101.7948804
51
160.5438283
0
ARC
8
DEFAULT_255_2_778
10
51.2400381
20
24.3224172
40
2.8122362
50
89.9692581
51
101.6689794
0
ARC
8
DEFAULT_255_2_778
10
51.2445925
20
24.3393398
40
2.7953149
50
70.6241591
51
90.0624243
0
ARC
8
DEFAULT_255_2_778
10
51.2376398
20
24.3316195
40
2.8049073
50
11.7946723
51
70.542501
0
ARC
8
DEFAULT_255_2_778
10
51.2291921
20
24.336161
40
2.8122552
50
359.969278
51
11.6689198
0
ARC
8
DEFAULT_255_2_778
10
51.2461072
20
24.3316098
40
2.7953414
50
340.624302
51
0.0623774
0
ARC
8
DEFAULT_255_2_778
10
51.2384204
20
24.3385325
40
2.8048924
50
281.7959826
51
340.5429938
0
ARC
8
DEFAULT_255_2_778
10
51.2430528
20
24.3467015
40
2.8119488
50
269.9693166
51
281.6695586
0
ARC
8
DEFAULT_255_2_778
10
51.2384981
20
24.3303583
40
2.7956069
50
250.6252326
51
270.062487
0
ARC
8
DEFAULT_255_2_778
10
51.245309
20
24.3377864
40
2.8048766
50
191.7961906
51
250.5443211
0
ARC
8
DEFAULT_255_2_778
10
51.2534764
20
24.3331462
40
2.8119298
50
179.9692966
51
191.6696183
0
LINE
8
DEFAULT_255_2_778
10
48.441547
20
24.334653
11
48.441547
21
24.334653
0
LINE
8
DEFAULT_255_2_778
10
52.302047
20
23.273953
11
50.180647
21
25.395453
0
LINE
8
DEFAULT_255_2_778
10
52.302047
20
25.395453
11
50.180647
21
23.273953
0
ARC
8
DEFAULT_255_2_778
10
66.4371257
20
24.3377042
40
2.7955804
50
160.6250898
51
180.0625339
0
ARC
8
DEFAULT_255_2_778
10
66.4445872
20
24.3308633
40
2.8048915
50
101.7948804
51
160.5438283
0
ARC
8
DEFAULT_255_2_778
10
66.4400381
20
24.3224172
40
2.8122362
50
89.9692581
51
101.6689794
0
ARC
8
DEFAULT_255_2_778
10
66.4445925
20
24.3393398
40
2.7953149
50
70.6241591
51
90.0624243
0
ARC
8
DEFAULT_255_2_778
10
66.4376398
20
24.3316195
40
2.8049073
50
11.7946723
51
70.542501
0
ARC
8
DEFAULT_255_2_778
10
66.4291921
20
24.336161
40
2.8122552
50
359.969278
51
11.6689198
0
ARC
8
DEFAULT_255_2_778
10
66.4461072
20
24.3316098
40
2.7953414
50
340.624302
51
0.0623774
0
ARC
8
DEFAULT_255_2_778
10
66.4384204
20
24.3385325
40
2.8048924
50
281.7959826
51
340.5429938
0
ARC
8
DEFAULT_255_2_778
10
66.4430528
20
24.3467015
40
2.8119488
50
269.9693166
51
281.6695586
0
ARC
8
DEFAULT_255_2_778
10
66.4384981
20
24.3303583
40
2.7956069
50
250.6252326
51
270.062487
0
ARC
8
DEFAULT_255_2_778
10
66.445309
20
24.3377864
40
2.8048766
50
191.7961906
51
250.5443211
0
ARC
8
DEFAULT_255_2_778
10
66.4534764
20
24.3331462
40
2.8119298
50
179.9692966
51
191.6696183
0
LINE
8
DEFAULT_255_2_778
10
63.641547
20
24.334653
11
63.641547
21
24.334653
0
LINE
8
DEFAULT_255_2_778
10
67.502047
20
23.273953
11
65.380647
21
25.395453
0
LINE
8
DEFAULT_255_2_778
10
67.502047
20
25.395453
11
65.380647
21
23.273953
0
ARC
8
DEFAULT_255_2_778
10
85.4371257
20
15.3376042
40
2.7955804
50
160.6250898
51
180.0625339
0
ARC
8
DEFAULT_255_2_778
10
85.4445872
20
15.3307633
40
2.8048915
50
101.7948804
51
160.5438283
0
ARC
8
DEFAULT_255_2_778
10
85.4400381
20
15.3223172
40
2.8122362
50
89.9692581
51
101.6689794
0
ARC
8
DEFAULT_255_2_778
10
85.4445925
20
15.3392398
40
2.7953149
50
70.6241591
51
90.0624243
0
ARC
8
DEFAULT_255_2_778
10
85.4376398
20
15.3315195
40
2.8049073
50
11.7946723
51
70.542501
0
ARC
8
DEFAULT_255_2_778
10
85.4291921
20
15.336061
40
2.8122552
50
359.969278
51
11.6689198
0
ARC
8
DEFAULT_255_2_778
10
85.4461072
20
15.3315098
40
2.7953414
50
340.624302
51
0.0623774
0
ARC
8
DEFAULT_255_2_778
10
85.4384204
20
15.3384325
40
2.8048924
50
281.7959826
51
340.5429938
0
ARC
8
DEFAULT_255_2_778
10
85.4430528
20
15.3466015
40
2.8119488
50
269.9693166
51
281.6695586
0
ARC
8
DEFAULT_255_2_778
10
85.4384981
20
15.3302583
40
2.7956069
50
250.6252326
51
270.062487
0
ARC
8
DEFAULT_255_2_778
10
85.445309
20
15.3376864
40
2.8048766
50
191.7961906
51
250.5443211
0
ARC
8
DEFAULT_255_2_778
10
85.4534764
20
15.3330462
40
2.8119298
50
179.9692966
51
191.6696183
0
LINE
8
DEFAULT_255_2_778
10
82.641547
20
15.334553
11
82.641547
21
15.334553
0
LINE
8
DEFAULT_255_2_778
10
86.502047
20
14.273853
11
84.380647
21
16.395353
0
LINE
8
DEFAULT_255_2_778
10
86.502047
20
16.395353
11
84.380647
21
14.273853
0
ARC
8
DEFAULT_255_2_778
10
77.8372257
20
15.3376042
40
2.7955804
50
160.6250898
51
180.0625339
0
ARC
8
DEFAULT_255_2_778
10
77.8446872
20
15.3307633
40
2.8048915
50
101.7948804
51
160.5438283
0
ARC
8
DEFAULT_255_2_778
10
77.8401381
20
15.3223172
40
2.8122362
50
89.9692581
51
101.6689794
0
ARC
8
DEFAULT_255_2_778
10
77.8446925
20
15.3392398
40
2.7953149
50
70.6241591
51
90.0624243
0
ARC
8
DEFAULT_255_2_778
10
77.8377398
20
15.3315195
40
2.8049073
50
11.7946723
51
70.542501
0
ARC
8
DEFAULT_255_2_778
10
77.8292921
20
15.336061
40
2.8122552
50
359.969278
51
11.6689198
0
ARC
8
DEFAULT_255_2_778
10
77.8462072
20
15.3315098
40
2.7953414
50
340.624302
51
0.0623774
0
ARC
8
DEFAULT_255_2_778
10
77.8385204
20
15.3384325
40
2.8048924
50
281.7959826
51
340.5429938
0
ARC
8
DEFAULT_255_2_778
10
77.8431528
20
15.3466015
40
2.8119488
50
269.9693166
51
281.6695586
0
ARC
8
DEFAULT_255_2_778
10
77.8385981
20
15.3302583
40
2.7956069
50
250.6252326
51
270.062487
0
ARC
8
DEFAULT_255_2_778
10
77.845409
20
15.3376864
40
2.8048766
50
191.7961906
51
250.5443211
0
ARC
8
DEFAULT_255_2_778
10
77.8535764
20
15.3330462
40
2.8119298
50
179.9692966
51
191.6696183
0
LINE
8
DEFAULT_255_2_778
10
75.041647
20
15.334553
11
75.041647
21
15.334553
0
LINE
8
DEFAULT_255_2_778
10
78.902147
20
14.273853
11
76.780747
21
16.395353
0
LINE
8
DEFAULT_255_2_778
10
78.902147
20
16.395353
11
76.780747
21
14.273853
0
ARC
8
DEFAULT_255_2_778
10
93.0370257
20
15.3376042
40
2.7955804
50
160.6250898
51
180.0625339
0
ARC
8
DEFAULT_255_2_778
10
93.0444872
20
15.3307633
40
2.8048915
50
101.7948804
51
160.5438283
0
ARC
8
DEFAULT_255_2_778
10
93.0399381
20
15.3223172
40
2.8122362
50
89.9692581
51
101.6689794
0
ARC
8
DEFAULT_255_2_778
10
93.0444925
20
15.3392398
40
2.7953149
50
70.6241591
51
90.0624243
0
ARC
8
DEFAULT_255_2_778
10
93.0375398
20
15.3315195
40
2.8049073
50
11.7946723
51
70.542501
0
ARC
8
DEFAULT_255_2_778
10
93.0290921
20
15.336061
40
2.8122552
50
359.969278
51
11.6689198
0
ARC
8
DEFAULT_255_2_778
10
93.0460072
20
15.3315098
40
2.7953414
50
340.624302
51
0.0623774
0
ARC
8
DEFAULT_255_2_778
10
93.0383204
20
15.3384325
40
2.8048924
50
281.7959826
51
340.5429938
0
ARC
8
DEFAULT_255_2_778
10
93.0429528
20
15.3466015
40
2.8119488
50
269.9693166
51
281.6695586
0
ARC
8
DEFAULT_255_2_778
10
93.0383981
20
15.3302583
40
2.7956069
50
250.6252326
51
270.062487
0
ARC
8
DEFAULT_255_2_778
10
93.045209
20
15.3376864
40
2.8048766
50
191.7961906
51
250.5443211
0
ARC
8
DEFAULT_255_2_778
10
93.0533764
20
15.3330462
40
2.8119298
50
179.9692966
51
191.6696183
0
LINE
8
DEFAULT_255_2_778
10
90.241447
20
15.334553
11
90.241447
21
15.334553
0
LINE
8
DEFAULT_255_2_778
10
94.101947
20
14.273853
11
91.980547
21
16.395353
0
LINE
8
DEFAULT_255_2_778
10
94.101947
20
16.395353
11
91.980547
21
14.273853
0
ARC
8
DEFAULT_255_2_778
10
89.2370257
20
24.3377042
40
2.7955804
50
160.6250898
51
180.0625339
0
ARC
8
DEFAULT_255_2_778
10
89.2444872
20
24.3308633
40
2.8048915
50
101.7948804
51
160.5438283
0
ARC
8
DEFAULT_255_2_778
10
89.2399381
20
24.3224172
40
2.8122362
50
89.9692581
51
101.6689794
0
ARC
8
DEFAULT_255_2_778
10
89.2444925
20
24.3393398
40
2.7953149
50
70.6241591
51
90.0624243
0
ARC
8
DEFAULT_255_2_778
10
89.2375398
20
24.3316195
40
2.8049073
50
11.7946723
51
70.542501
0
ARC
8
DEFAULT_255_2_778
10
89.2290921
20
24.336161
40
2.8122552
50
359.969278
51
11.6689198
0
ARC
8
DEFAULT_255_2_778
10
89.2460072
20
24.3316098
40
2.7953414
50
340.624302
51
0.0623774
0
ARC
8
DEFAULT_255_2_778
10
89.2383204
20
24.3385325
40
2.8048924
50
281.7959826
51
340.5429938
0
ARC
8
DEFAULT_255_2_778
10
89.2429528
20
24.3467015
40
2.8119488
50
269.9693166
51
281.6695586
0
ARC
8
DEFAULT_255_2_778
10
89.2383981
20
24.3303583
40
2.7956069
50
250.6252326
51
270.062487
0
ARC
8
DEFAULT_255_2_778
10
89.245209
20
24.3377864
40
2.8048766
50
191.7961906
51
250.5443211
0
ARC
8
DEFAULT_255_2_778
10
89.2533764
20
24.3331462
40
2.8119298
50
179.9692966
51
191.6696183
0
LINE
8
DEFAULT_255_2_778
10
86.441447
20
24.334653
11
86.441447
21
24.334653
0
LINE
8
DEFAULT_255_2_778
10
90.301947
20
23.273953
11
88.180547
21
25.395453
0
LINE
8
DEFAULT_255_2_778
10
90.301947
20
25.395453
11
88.180547
21
23.273953
0
ARC
8
DEFAULT_255_2_778
10
81.6372257
20
24.3377042
40
2.7955804
50
160.6250898
51
180.0625339
0
ARC
8
DEFAULT_255_2_778
10
81.6446872
20
24.3308633
40
2.8048915
50
101.7948804
51
160.5438283
0
ARC
8
DEFAULT_255_2_778
10
81.6401381
20
24.3224172
40
2.8122362
50
89.9692581
51
101.6689794
0
ARC
8
DEFAULT_255_2_778
10
81.6446925
20
24.3393398
40
2.7953149
50
70.6241591
51
90.0624243
0
ARC
8
DEFAULT_255_2_778
10
81.6377398
20
24.3316195
40
2.8049073
50
11.7946723
51
70.542501
0
ARC
8
DEFAULT_255_2_778
10
81.6292921
20
24.336161
40
2.8122552
50
359.969278
51
11.6689198
0
ARC
8
DEFAULT_255_2_778
10
81.6462072
20
24.3316098
40
2.7953414
50
340.624302
51
0.0623774
0
ARC
8
DEFAULT_255_2_778
10
81.6385204
20
24.3385325
40
2.8048924
50
281.7959826
51
340.5429938
0
ARC
8
DEFAULT_255_2_778
10
81.6431528
20
24.3467015
40
2.8119488
50
269.9693166
51
281.6695586
0
ARC
8
DEFAULT_255_2_778
10
81.6385981
20
24.3303583
40
2.7956069
50
250.6252326
51
270.062487
0
ARC
8
DEFAULT_255_2_778
10
81.645409
20
24.3377864
40
2.8048766
50
191.7961906
51
250.5443211
0
ARC
8
DEFAULT_255_2_778
10
81.6535764
20
24.3331462
40
2.8119298
50
179.9692966
51
191.6696183
0
LINE
8
DEFAULT_255_2_778
10
78.841647
20
24.334653
11
78.841647
21
24.334653
0
LINE
8
DEFAULT_255_2_778
10
82.702147
20
23.273953
11
80.580747
21
25.395453
0
LINE
8
DEFAULT_255_2_778
10
82.702147
20
25.395453
11
80.580747
21
23.273953
0
ARC
8
DEFAULT_255_2_778
10
96.8372257
20
24.3377042
40
2.7955804
50
160.6250898
51
180.0625339
0
ARC
8
DEFAULT_255_2_778
10
96.8446872
20
24.3308633
40
2.8048915
50
101.7948804
51
160.5438283
0
ARC
8
DEFAULT_255_2_778
10
96.8401381
20
24.3224172
40
2.8122362
50
89.9692581
51
101.6689794
0
ARC
8
DEFAULT_255_2_778
10
96.8446925
20
24.3393398
40
2.7953149
50
70.6241591
51
90.0624243
0
ARC
8
DEFAULT_255_2_778
10
96.8377398
20
24.3316195
40
2.8049073
50
11.7946723
51
70.542501
0
ARC
8
DEFAULT_255_2_778
10
96.8292921
20
24.336161
40
2.8122552
50
359.969278
51
11.6689198
0
ARC
8
DEFAULT_255_2_778
10
96.8462072
20
24.3316098
40
2.7953414
50
340.624302
51
0.0623774
0
ARC
8
DEFAULT_255_2_778
10
96.8385204
20
24.3385325
40
2.8048924
50
281.7959826
51
340.5429938
0
ARC
8
DEFAULT_255_2_778
10
96.8431528
20
24.3467015
40
2.8119488
50
269.9693166
51
281.6695586
0
ARC
8
DEFAULT_255_2_778
10
96.8385981
20
24.3303583
40
2.7956069
50
250.6252326
51
270.062487
0
ARC
8
DEFAULT_255_2_778
10
96.845409
20
24.3377864
40
2.8048766
50
191.7961906
51
250.5443211
0
ARC
8
DEFAULT_255_2_778
10
96.8535764
20
24.3331462
40
2.8119298
50
179.9692966
51
191.6696183
0
LINE
8
DEFAULT_255_2_778
10
94.041647
20
24.334653
11
94.041647
21
24.334653
0
LINE
8
DEFAULT_255_2_778
10
97.902147
20
23.273953
11
95.780747
21
25.395453
0
LINE
8
DEFAULT_255_2_778
10
97.902147
20
25.395453
11
95.780747
21
23.273953
0
ARC
8
DEFAULT_255_2_778
10
131.0372257
20
15.3376042
40
2.7955804
50
160.6250898
51
180.0625339
0
ARC
8
DEFAULT_255_2_778
10
131.0446872
20
15.3307633
40
2.8048915
50
101.7948804
51
160.5438283
0
ARC
8
DEFAULT_255_2_778
10
131.0401381
20
15.3223172
40
2.8122362
50
89.9692581
51
101.6689794
0
ARC
8
DEFAULT_255_2_778
10
131.0446925
20
15.3392398
40
2.7953149
50
70.6241591
51
90.0624243
0
ARC
8
DEFAULT_255_2_778
10
131.0377398
20
15.3315195
40
2.8049073
50
11.7946723
51
70.542501
0
ARC
8
DEFAULT_255_2_778
10
131.0292921
20
15.336061
40
2.8122552
50
359.969278
51
11.6689198
0
ARC
8
DEFAULT_255_2_778
10
131.0462072
20
15.3315098
40
2.7953414
50
340.624302
51
0.0623774
0
ARC
8
DEFAULT_255_2_778
10
131.0385204
20
15.3384325
40
2.8048924
50
281.7959826
51
340.5429938
0
ARC
8
DEFAULT_255_2_778
10
131.0431528
20
15.3466015
40
2.8119488
50
269.9693166
51
281.6695586
0
ARC
8
DEFAULT_255_2_778
10
131.0385981
20
15.3302583
40
2.7956069
50
250.6252326
51
270.062487
0
ARC
8
DEFAULT_255_2_778
10
131.045409
20
15.3376864
40
2.8048766
50
191.7961906
51
250.5443211
0
ARC
8
DEFAULT_255_2_778
10
131.0535764
20
15.3330462
40
2.8119298
50
179.9692966
51
191.6696183
0
LINE
8
DEFAULT_255_2_778
10
128.241647
20
15.334553
11
128.241647
21
15.334553
0
LINE
8
DEFAULT_255_2_778
10
132.102147
20
14.273853
11
129.980747
21
16.395353
0
LINE
8
DEFAULT_255_2_778
10
132.102147
20
16.395353
11
129.980747
21
14.273853
0
ARC
8
DEFAULT_255_2_778
10
127.2370389
20
24.3377042
40
2.7955804
50
160.6250898
51
180.0625339
0
ARC
8
DEFAULT_255_2_778
10
127.2445004
20
24.3308633
40
2.8048915
50
101.7948804
51
160.5438283
0
ARC
8
DEFAULT_255_2_778
10
127.2399513
20
24.3224172
40
2.8122362
50
89.9692581
51
101.6689794
0
ARC
8
DEFAULT_255_2_778
10
127.2445057
20
24.3393398
40
2.7953149
50
70.6241591
51
90.0624243
0
ARC
8
DEFAULT_255_2_778
10
127.2375531
20
24.3316195
40
2.8049073
50
11.7946723
51
70.542501
0
ARC
8
DEFAULT_255_2_778
10
127.2291054
20
24.336161
40
2.8122552
50
359.969278
51
11.6689198
0
ARC
8
DEFAULT_255_2_778
10
127.2460204
20
24.3316098
40
2.7953414
50
340.624302
51
0.0623774
0
ARC
8
DEFAULT_255_2_778
10
127.2383336
20
24.3385325
40
2.8048924
50
281.7959826
51
340.5429938
0
ARC
8
DEFAULT_255_2_778
10
127.2429661
20
24.3467015
40
2.8119488
50
269.9693166
51
281.6695586
0
ARC
8
DEFAULT_255_2_778
10
127.2384113
20
24.3303583
40
2.7956069
50
250.6252326
51
270.062487
0
ARC
8
DEFAULT_255_2_778
10
127.2452222
20
24.3377864
40
2.8048766
50
191.7961906
51
250.5443211
0
ARC
8
DEFAULT_255_2_778
10
127.2533896
20
24.3331462
40
2.8119298
50
179.9692966
51
191.6696183
0
LINE
8
DEFAULT_255_2_778
10
124.4414602
20
24.334653
11
124.4414602
21
24.334653
0
LINE
8
DEFAULT_255_2_778
10
128.3019602
20
23.273953
11
126.1805602
21
25.395453
0
LINE
8
DEFAULT_255_2_778
10
128.3019602
20
25.395453
11
126.1805602
21
23.273953
0
ARC
8
DEFAULT_255_2_778
10
115.8372257
20
15.3376042
40
2.7955804
50
160.6250898
51
180.0625339
0
ARC
8
DEFAULT_255_2_778
10
115.8446872
20
15.3307633
40
2.8048915
50
101.7948804
51
160.5438283
0
ARC
8
DEFAULT_255_2_778
10
115.8401381
20
15.3223172
40
2.8122362
50
89.9692581
51
101.6689794
0
ARC
8
DEFAULT_255_2_778
10
115.8446925
20
15.3392398
40
2.7953149
50
70.6241591
51
90.0624243
0
ARC
8
DEFAULT_255_2_778
10
115.8377398
20
15.3315195
40
2.8049073
50
11.7946723
51
70.542501
0
ARC
8
DEFAULT_255_2_778
10
115.8292921
20
15.336061
40
2.8122552
50
359.969278
51
11.6689198
0
ARC
8
DEFAULT_255_2_778
10
115.8462072
20
15.3315098
40
2.7953414
50
340.624302
51
0.0623774
0
ARC
8
DEFAULT_255_2_778
10
115.8385204
20
15.3384325
40
2.8048924
50
281.7959826
51
340.5429938
0
ARC
8
DEFAULT_255_2_778
10
115.8431528
20
15.3466015
40
2.8119488
50
269.9693166
51
281.6695586
0
ARC
8
DEFAULT_255_2_778
10
115.8385981
20
15.3302583
40
2.7956069
50
250.6252326
51
270.062487
0
ARC
8
DEFAULT_255_2_778
10
115.845409
20
15.3376864
40
2.8048766
50
191.7961906
51
250.5443211
0
ARC
8
DEFAULT_255_2_778
10
115.8535764
20
15.3330462
40
2.8119298
50
179.9692966
51
191.6696183
0
LINE
8
DEFAULT_255_2_778
10
113.041647
20
15.334553
11
113.041647
21
15.334553
0
LINE
8
DEFAULT_255_2_778
10
116.902147
20
14.273853
11
114.780747
21
16.395353
0
LINE
8
DEFAULT_255_2_778
10
116.902147
20
16.395353
11
114.780747
21
14.273853
0
ARC
8
DEFAULT_255_2_778
10
108.2370257
20
15.3376042
40
2.7955804
50
160.6250898
51
180.0625339
0
ARC
8
DEFAULT_255_2_778
10
108.2444872
20
15.3307633
40
2.8048915
50
101.7948804
51
160.5438283
0
ARC
8
DEFAULT_255_2_778
10
108.2399381
20
15.3223172
40
2.8122362
50
89.9692581
51
101.6689794
0
ARC
8
DEFAULT_255_2_778
10
108.2444925
20
15.3392398
40
2.7953149
50
70.6241591
51
90.0624243
0
ARC
8
DEFAULT_255_2_778
10
108.2375398
20
15.3315195
40
2.8049073
50
11.7946723
51
70.542501
0
ARC
8
DEFAULT_255_2_778
10
108.2290921
20
15.336061
40
2.8122552
50
359.969278
51
11.6689198
0
ARC
8
DEFAULT_255_2_778
10
108.2460072
20
15.3315098
40
2.7953414
50
340.624302
51
0.0623774
0
ARC
8
DEFAULT_255_2_778
10
108.2383204
20
15.3384325
40
2.8048924
50
281.7959826
51
340.5429938
0
ARC
8
DEFAULT_255_2_778
10
108.2429528
20
15.3466015
40
2.8119488
50
269.9693166
51
281.6695586
0
ARC
8
DEFAULT_255_2_778
10
108.2383981
20
15.3302583
40
2.7956069
50
250.6252326
51
270.062487
0
ARC
8
DEFAULT_255_2_778
10
108.245209
20
15.3376864
40
2.8048766
50
191.7961906
51
250.5443211
0
ARC
8
DEFAULT_255_2_778
10
108.2533764
20
15.3330462
40
2.8119298
50
179.9692966
51
191.6696183
0
LINE
8
DEFAULT_255_2_778
10
105.441447
20
15.334553
11
105.441447
21
15.334553
0
LINE
8
DEFAULT_255_2_778
10
109.301947
20
14.273853
11
107.180547
21
16.395353
0
LINE
8
DEFAULT_255_2_778
10
109.301947
20
16.395353
11
107.180547
21
14.273853
0
ARC
8
DEFAULT_255_2_778
10
123.4371257
20
15.3376042
40
2.7955804
50
160.6250898
51
180.0625339
0
ARC
8
DEFAULT_255_2_778
10
123.4445872
20
15.3307633
40
2.8048915
50
101.7948804
51
160.5438283
0
ARC
8
DEFAULT_255_2_778
10
123.4400381
20
15.3223172
40
2.8122362
50
89.9692581
51
101.6689794
0
ARC
8
DEFAULT_255_2_778
10
123.4445925
20
15.3392398
40
2.7953149
50
70.6241591
51
90.0624243
0
ARC
8
DEFAULT_255_2_778
10
123.4376398
20
15.3315195
40
2.8049073
50
11.7946723
51
70.542501
0
ARC
8
DEFAULT_255_2_778
10
123.4291921
20
15.336061
40
2.8122552
50
359.969278
51
11.6689198
0
ARC
8
DEFAULT_255_2_778
10
123.4461072
20
15.3315098
40
2.7953414
50
340.624302
51
0.0623774
0
ARC
8
DEFAULT_255_2_778
10
123.4384204
20
15.3384325
40
2.8048924
50
281.7959826
51
340.5429938
0
ARC
8
DEFAULT_255_2_778
10
123.4430528
20
15.3466015
40
2.8119488
50
269.9693166
51
281.6695586
0
ARC
8
DEFAULT_255_2_778
10
123.4384981
20
15.3302583
40
2.7956069
50
250.6252326
51
270.062487
0
ARC
8
DEFAULT_255_2_778
10
123.445309
20
15.3376864
40
2.8048766
50
191.7961906
51
250.5443211
0
ARC
8
DEFAULT_255_2_778
10
123.4534764
20
15.3330462
40
2.8119298
50
179.9692966
51
191.6696183
0
LINE
8
DEFAULT_255_2_778
10
120.641547
20
15.334553
11
120.641547
21
15.334553
0
LINE
8
DEFAULT_255_2_778
10
124.502047
20
14.273853
11
122.380647
21
16.395353
0
LINE
8
DEFAULT_255_2_778
10
124.502047
20
16.395353
11
122.380647
21
14.273853
0
ARC
8
DEFAULT_255_2_778
10
104.4371257
20
24.3377042
40
2.7955804
50
160.6250898
51
180.0625339
0
ARC
8
DEFAULT_255_2_778
10
104.4445872
20
24.3308633
40
2.8048915
50
101.7948804
51
160.5438283
0
ARC
8
DEFAULT_255_2_778
10
104.4400381
20
24.3224172
40
2.8122362
50
89.9692581
51
101.6689794
0
ARC
8
DEFAULT_255_2_778
10
104.4445925
20
24.3393398
40
2.7953149
50
70.6241591
51
90.0624243
0
ARC
8
DEFAULT_255_2_778
10
104.4376398
20
24.3316195
40
2.8049073
50
11.7946723
51
70.542501
0
ARC
8
DEFAULT_255_2_778
10
104.4291921
20
24.336161
40
2.8122552
50
359.969278
51
11.6689198
0
ARC
8
DEFAULT_255_2_778
10
104.4461072
20
24.3316098
40
2.7953414
50
340.624302
51
0.0623774
0
ARC
8
DEFAULT_255_2_778
10
104.4384204
20
24.3385325
40
2.8048924
50
281.7959826
51
340.5429938
0
ARC
8
DEFAULT_255_2_778
10
104.4430528
20
24.3467015
40
2.8119488
50
269.9693166
51
281.6695586
0
ARC
8
DEFAULT_255_2_778
10
104.4384981
20
24.3303583
40
2.7956069
50
250.6252326
51
270.062487
0
ARC
8
DEFAULT_255_2_778
10
104.445309
20
24.3377864
40
2.8048766
50
191.7961906
51
250.5443211
0
ARC
8
DEFAULT_255_2_778
10
104.4534764
20
24.3331462
40
2.8119298
50
179.9692966
51
191.6696183
0
LINE
8
DEFAULT_255_2_778
10
101.641547
20
24.334653
11
101.641547
21
24.334653
0
LINE
8
DEFAULT_255_2_778
10
105.502047
20
23.273953
11
103.380647
21
25.395453
0
LINE
8
DEFAULT_255_2_778
10
105.502047
20
25.395453
11
103.380647
21
23.273953
0
ARC
8
DEFAULT_255_2_778
10
112.0370257
20
24.3377042
40
2.7955804
50
160.6250898
51
180.0625339
0
ARC
8
DEFAULT_255_2_778
10
112.0444872
20
24.3308633
40
2.8048915
50
101.7948804
51
160.5438283
0
ARC
8
DEFAULT_255_2_778
10
112.0399381
20
24.3224172
40
2.8122362
50
89.9692581
51
101.6689794
0
ARC
8
DEFAULT_255_2_778
10
112.0444925
20
24.3393398
40
2.7953149
50
70.6241591
51
90.0624243
0
ARC
8
DEFAULT_255_2_778
10
112.0375398
20
24.3316195
40
2.8049073
50
11.7946723
51
70.542501
0
ARC
8
DEFAULT_255_2_778
10
112.0290921
20
24.336161
40
2.8122552
50
359.969278
51
11.6689198
0
ARC
8
DEFAULT_255_2_778
10
112.0460072
20
24.3316098
40
2.7953414
50
340.624302
51
0.0623774
0
ARC
8
DEFAULT_255_2_778
10
112.0383204
20
24.3385325
40
2.8048924
50
281.7959826
51
340.5429938
0
ARC
8
DEFAULT_255_2_778
10
112.0429528
20
24.3467015
40
2.8119488
50
269.9693166
51
281.6695586
0
ARC
8
DEFAULT_255_2_778
10
112.0383981
20
24.3303583
40
2.7956069
50
250.6252326
51
270.062487
0
ARC
8
DEFAULT_255_2_778
10
112.045209
20
24.3377864
40
2.8048766
50
191.7961906
51
250.5443211
0
ARC
8
DEFAULT_255_2_778
10
112.0533764
20
24.3331462
40
2.8119298
50
179.9692966
51
191.6696183
0
LINE
8
DEFAULT_255_2_778
10
109.241447
20
24.334653
11
109.241447
21
24.334653
0
LINE
8
DEFAULT_255_2_778
10
113.101947
20
23.273953
11
110.980547
21
25.395453
0
LINE
8
DEFAULT_255_2_778
10
113.101947
20
25.395453
11
110.980547
21
23.273953
0
ARC
8
DEFAULT_255_2_778
10
119.6371257
20
24.3377042
40
2.7955804
50
160.6250898
51
180.0625339
0
ARC
8
DEFAULT_255_2_778
10
119.6445872
20
24.3308633
40
2.8048915
50
101.7948804
51
160.5438283
0
ARC
8
DEFAULT_255_2_778
10
119.6400381
20
24.3224172
40
2.8122362
50
89.9692581
51
101.6689794
0
ARC
8
DEFAULT_255_2_778
10
119.6445925
20
24.3393398
40
2.7953149
50
70.6241591
51
90.0624243
0
ARC
8
DEFAULT_255_2_778
10
119.6376398
20
24.3316195
40
2.8049073
50
11.7946723
51
70.542501
0
ARC
8
DEFAULT_255_2_778
10
119.6291921
20
24.336161
40
2.8122552
50
359.969278
51
11.6689198
0
ARC
8
DEFAULT_255_2_778
10
119.6461072
20
24.3316098
40
2.7953414
50
340.624302
51
0.0623774
0
ARC
8
DEFAULT_255_2_778
10
119.6384204
20
24.3385325
40
2.8048924
50
281.7959826
51
340.5429938
0
ARC
8
DEFAULT_255_2_778
10
119.6430528
20
24.3467015
40
2.8119488
50
269.9693166
51
281.6695586
0
ARC
8
DEFAULT_255_2_778
10
119.6384981
20
24.3303583
40
2.7956069
50
250.6252326
51
270.062487
0
ARC
8
DEFAULT_255_2_778
10
119.645309
20
24.3377864
40
2.8048766
50
191.7961906
51
250.5443211
0
ARC
8
DEFAULT_255_2_778
10
119.6534764
20
24.3331462
40
2.8119298
50
179.9692966
51
191.6696183
0
LINE
8
DEFAULT_255_2_778
10
116.841547
20
24.334653
11
116.841547
21
24.334653
0
LINE
8
DEFAULT_255_2_778
10
120.702047
20
23.273953
11
118.580647
21
25.395453
0
LINE
8
DEFAULT_255_2_778
10
120.702047
20
25.395453
11
118.580647
21
23.273953
0
ARC
8
DEFAULT_255_2_778
10
138.6371257
20
15.3376042
40
2.7955804
50
160.6250898
51
180.0625339
0
ARC
8
DEFAULT_255_2_778
10
138.6445872
20
15.3307633
40
2.8048915
50
101.7948804
51
160.5438283
0
ARC
8
DEFAULT_255_2_778
10
138.6400381
20
15.3223172
40
2.8122362
50
89.9692581
51
101.6689794
0
ARC
8
DEFAULT_255_2_778
10
138.6445925
20
15.3392398
40
2.7953149
50
70.6241591
51
90.0624243
0
ARC
8
DEFAULT_255_2_778
10
138.6376398
20
15.3315195
40
2.8049073
50
11.7946723
51
70.542501
0
ARC
8
DEFAULT_255_2_778
10
138.6291921
20
15.336061
40
2.8122552
50
359.969278
51
11.6689198
0
ARC
8
DEFAULT_255_2_778
10
138.6461072
20
15.3315098
40
2.7953414
50
340.624302
51
0.0623774
0
ARC
8
DEFAULT_255_2_778
10
138.6384204
20
15.3384325
40
2.8048924
50
281.7959826
51
340.5429938
0
ARC
8
DEFAULT_255_2_778
10
138.6430528
20
15.3466015
40
2.8119488
50
269.9693166
51
281.6695586
0
ARC
8
DEFAULT_255_2_778
10
138.6384981
20
15.3302583
40
2.7956069
50
250.6252326
51
270.062487
0
ARC
8
DEFAULT_255_2_778
10
138.645309
20
15.3376864
40
2.8048766
50
191.7961906
51
250.5443211
0
ARC
8
DEFAULT_255_2_778
10
138.6534764
20
15.3330462
40
2.8119298
50
179.9692966
51
191.6696183
0
LINE
8
DEFAULT_255_2_778
10
135.841547
20
15.334553
11
135.841547
21
15.334553
0
LINE
8
DEFAULT_255_2_778
10
139.702047
20
14.273853
11
137.580647
21
16.395353
0
LINE
8
DEFAULT_255_2_778
10
139.702047
20
16.395353
11
137.580647
21
14.273853
0
ARC
8
DEFAULT_255_2_778
10
134.8372257
20
24.3377042
40
2.7955804
50
160.6250898
51
180.0625339
0
ARC
8
DEFAULT_255_2_778
10
134.8446872
20
24.3308633
40
2.8048915
50
101.7948804
51
160.5438283
0
ARC
8
DEFAULT_255_2_778
10
134.8401381
20
24.3224172
40
2.8122362
50
89.9692581
51
101.6689794
0
ARC
8
DEFAULT_255_2_778
10
134.8446925
20
24.3393398
40
2.7953149
50
70.6241591
51
90.0624243
0
ARC
8
DEFAULT_255_2_778
10
134.8377398
20
24.3316195
40
2.8049073
50
11.7946723
51
70.542501
0
ARC
8
DEFAULT_255_2_778
10
134.8292921
20
24.336161
40
2.8122552
50
359.969278
51
11.6689198
0
ARC
8
DEFAULT_255_2_778
10
134.8462072
20
24.3316098
40
2.7953414
50
340.624302
51
0.0623774
0
ARC
8
DEFAULT_255_2_778
10
134.8385204
20
24.3385325
40
2.8048924
50
281.7959826
51
340.5429938
0
ARC
8
DEFAULT_255_2_778
10
134.8431528
20
24.3467015
40
2.8119488
50
269.9693166
51
281.6695586
0
ARC
8
DEFAULT_255_2_778
10
134.8385981
20
24.3303583
40
2.7956069
50
250.6252326
51
270.062487
0
ARC
8
DEFAULT_255_2_778
10
134.845409
20
24.3377864
40
2.8048766
50
191.7961906
51
250.5443211
0
ARC
8
DEFAULT_255_2_778
10
134.8535764
20
24.3331462
40
2.8119298
50
179.9692966
51
191.6696183
0
LINE
8
DEFAULT_255_2_778
10
132.041647
20
24.334653
11
132.041647
21
24.334653
0
LINE
8
DEFAULT_255_2_778
10
135.902147
20
23.273953
11
133.780747
21
25.395453
0
LINE
8
DEFAULT_255_2_778
10
135.902147
20
25.395453
11
133.780747
21
23.273953
0
ARC
8
DEFAULT_255_2_778
10
43.6372257
20
85.3377042
40
2.7955804
50
160.6250898
51
180.0625339
0
ARC
8
DEFAULT_255_2_778
10
43.6446872
20
85.3308633
40
2.8048915
50
101.7948804
51
160.5438283
0
ARC
8
DEFAULT_255_2_778
10
43.6401381
20
85.3224172
40
2.8122362
50
89.9692581
51
101.6689794
0
ARC
8
DEFAULT_255_2_778
10
43.6446925
20
85.3393398
40
2.7953149
50
70.6241591
51
90.0624243
0
ARC
8
DEFAULT_255_2_778
10
43.6377398
20
85.3316195
40
2.8049073
50
11.7946723
51
70.542501
0
ARC
8
DEFAULT_255_2_778
10
43.6292921
20
85.336161
40
2.8122552
50
359.969278
51
11.6689198
0
ARC
8
DEFAULT_255_2_778
10
43.6462072
20
85.3316098
40
2.7953414
50
340.624302
51
0.0623774
0
ARC
8
DEFAULT_255_2_778
10
43.6385204
20
85.3385325
40
2.8048924
50
281.7959826
51
340.5429938
0
ARC
8
DEFAULT_255_2_778
10
43.6431528
20
85.3467015
40
2.8119488
50
269.9693166
51
281.6695586
0
ARC
8
DEFAULT_255_2_778
10
43.6385981
20
85.3303583
40
2.7956069
50
250.6252326
51
270.062487
0
ARC
8
DEFAULT_255_2_778
10
43.645409
20
85.3377864
40
2.8048766
50
191.7961906
51
250.5443211
0
ARC
8
DEFAULT_255_2_778
10
43.6535764
20
85.3331462
40
2.8119298
50
179.9692966
51
191.6696183
0
LINE
8
DEFAULT_255_2_778
10
40.841647
20
85.334653
11
40.841647
21
85.334653
0
LINE
8
DEFAULT_255_2_778
10
44.702147
20
84.273953
11
42.580747
21
86.395453
0
LINE
8
DEFAULT_255_2_778
10
44.702147
20
86.395453
11
42.580747
21
84.273953
0
ARC
8
DEFAULT_255_2_778
10
39.8372257
20
94.3377042
40
2.7955804
50
160.6250898
51
180.0625339
0
ARC
8
DEFAULT_255_2_778
10
39.8446872
20
94.3308633
40
2.8048915
50
101.7948804
51
160.5438283
0
ARC
8
DEFAULT_255_2_778
10
39.8401381
20
94.3224172
40
2.8122362
50
89.9692581
51
101.6689794
0
ARC
8
DEFAULT_255_2_778
10
39.8446925
20
94.3393398
40
2.7953149
50
70.6241591
51
90.0624243
0
ARC
8
DEFAULT_255_2_778
10
39.8377398
20
94.3316195
40
2.8049073
50
11.7946723
51
70.542501
0
ARC
8
DEFAULT_255_2_778
10
39.8292921
20
94.336161
40
2.8122552
50
359.969278
51
11.6689198
0
ARC
8
DEFAULT_255_2_778
10
39.8462072
20
94.3316098
40
2.7953414
50
340.624302
51
0.0623774
0
ARC
8
DEFAULT_255_2_778
10
39.8385204
20
94.3385325
40
2.8048924
50
281.7959826
51
340.5429938
0
ARC
8
DEFAULT_255_2_778
10
39.8431528
20
94.3467015
40
2.8119488
50
269.9693166
51
281.6695586
0
ARC
8
DEFAULT_255_2_778
10
39.8385981
20
94.3303583
40
2.7956069
50
250.6252326
51
270.062487
0
ARC
8
DEFAULT_255_2_778
10
39.845409
20
94.3377864
40
2.8048766
50
191.7961906
51
250.5443211
0
ARC
8
DEFAULT_255_2_778
10
39.8535764
20
94.3331462
40
2.8119298
50
179.9692966
51
191.6696183
0
LINE
8
DEFAULT_255_2_778
10
37.041647
20
94.334653
11
37.041647
21
94.334653
0
LINE
8
DEFAULT_255_2_778
10
40.902147
20
93.273953
11
38.780747
21
95.395453
0
LINE
8
DEFAULT_255_2_778
10
40.902147
20
95.395453
11
38.780747
21
93.273953
0
ARC
8
DEFAULT_255_2_778
10
32.2371257
20
94.3377042
40
2.7955804
50
160.6250898
51
180.0625339
0
ARC
8
DEFAULT_255_2_778
10
32.2445872
20
94.3308633
40
2.8048915
50
101.7948804
51
160.5438283
0
ARC
8
DEFAULT_255_2_778
10
32.2400381
20
94.3224172
40
2.8122362
50
89.9692581
51
101.6689794
0
ARC
8
DEFAULT_255_2_778
10
32.2445925
20
94.3393398
40
2.7953149
50
70.6241591
51
90.0624243
0
ARC
8
DEFAULT_255_2_778
10
32.2376398
20
94.3316195
40
2.8049073
50
11.7946723
51
70.542501
0
ARC
8
DEFAULT_255_2_778
10
32.2291921
20
94.336161
40
2.8122552
50
359.969278
51
11.6689198
0
ARC
8
DEFAULT_255_2_778
10
32.2461072
20
94.3316098
40
2.7953414
50
340.624302
51
0.0623774
0
ARC
8
DEFAULT_255_2_778
10
32.2384204
20
94.3385325
40
2.8048924
50
281.7959826
51
340.5429938
0
ARC
8
DEFAULT_255_2_778
10
32.2430528
20
94.3467015
40
2.8119488
50
269.9693166
51
281.6695586
0
ARC
8
DEFAULT_255_2_778
10
32.2384981
20
94.3303583
40
2.7956069
50
250.6252326
51
270.062487
0
ARC
8
DEFAULT_255_2_778
10
32.245309
20
94.3377864
40
2.8048766
50
191.7961906
51
250.5443211
0
ARC
8
DEFAULT_255_2_778
10
32.2534764
20
94.3331462
40
2.8119298
50
179.9692966
51
191.6696183
0
LINE
8
DEFAULT_255_2_778
10
29.441547
20
94.334653
11
29.441547
21
94.334653
0
LINE
8
DEFAULT_255_2_778
10
33.302047
20
93.273953
11
31.180647
21
95.395453
0
LINE
8
DEFAULT_255_2_778
10
33.302047
20
95.395453
11
31.180647
21
93.273953
0
ARC
8
DEFAULT_255_2_778
10
36.0370257
20
85.3377042
40
2.7955804
50
160.6250898
51
180.0625339
0
ARC
8
DEFAULT_255_2_778
10
36.0444872
20
85.3308633
40
2.8048915
50
101.7948804
51
160.5438283
0
ARC
8
DEFAULT_255_2_778
10
36.0399381
20
85.3224172
40
2.8122362
50
89.9692581
51
101.6689794
0
ARC
8
DEFAULT_255_2_778
10
36.0444925
20
85.3393398
40
2.7953149
50
70.6241591
51
90.0624243
0
ARC
8
DEFAULT_255_2_778
10
36.0375398
20
85.3316195
40
2.8049073
50
11.7946723
51
70.542501
0
ARC
8
DEFAULT_255_2_778
10
36.0290921
20
85.336161
40
2.8122552
50
359.969278
51
11.6689198
0
ARC
8
DEFAULT_255_2_778
10
36.0460072
20
85.3316098
40
2.7953414
50
340.624302
51
0.0623774
0
ARC
8
DEFAULT_255_2_778
10
36.0383204
20
85.3385325
40
2.8048924
50
281.7959826
51
340.5429938
0
ARC
8
DEFAULT_255_2_778
10
36.0429528
20
85.3467015
40
2.8119488
50
269.9693166
51
281.6695586
0
ARC
8
DEFAULT_255_2_778
10
36.0383981
20
85.3303583
40
2.7956069
50
250.6252326
51
270.062487
0
ARC
8
DEFAULT_255_2_778
10
36.045209
20
85.3377864
40
2.8048766
50
191.7961906
51
250.5443211
0
ARC
8
DEFAULT_255_2_778
10
36.0533764
20
85.3331462
40
2.8119298
50
179.9692966
51
191.6696183
0
LINE
8
DEFAULT_255_2_778
10
33.241447
20
85.334653
11
33.241447
21
85.334653
0
LINE
8
DEFAULT_255_2_778
10
37.101947
20
84.273953
11
34.980547
21
86.395453
0
LINE
8
DEFAULT_255_2_778
10
37.101947
20
86.395453
11
34.980547
21
84.273953
0
ARC
8
DEFAULT_255_2_778
10
100.6371257
20
94.3377042
40
2.7955804
50
160.6250898
51
180.0625339
0
ARC
8
DEFAULT_255_2_778
10
100.6445872
20
94.3308633
40
2.8048915
50
101.7948804
51
160.5438283
0
ARC
8
DEFAULT_255_2_778
10
100.6400381
20
94.3224172
40
2.8122362
50
89.9692581
51
101.6689794
0
ARC
8
DEFAULT_255_2_778
10
100.6445925
20
94.3393398
40
2.7953149
50
70.6241591
51
90.0624243
0
ARC
8
DEFAULT_255_2_778
10
100.6376398
20
94.3316195
40
2.8049073
50
11.7946723
51
70.542501
0
ARC
8
DEFAULT_255_2_778
10
100.6291921
20
94.336161
40
2.8122552
50
359.969278
51
11.6689198
0
ARC
8
DEFAULT_255_2_778
10
100.6461072
20
94.3316098
40
2.7953414
50
340.624302
51
0.0623774
0
ARC
8
DEFAULT_255_2_778
10
100.6384204
20
94.3385325
40
2.8048924
50
281.7959826
51
340.5429938
0
ARC
8
DEFAULT_255_2_778
10
100.6430528
20
94.3467015
40
2.8119488
50
269.9693166
51
281.6695586
0
ARC
8
DEFAULT_255_2_778
10
100.6384981
20
94.3303583
40
2.7956069
50
250.6252326
51
270.062487
0
ARC
8
DEFAULT_255_2_778
10
100.645309
20
94.3377864
40
2.8048766
50
191.7961906
51
250.5443211
0
ARC
8
DEFAULT_255_2_778
10
100.6534764
20
94.3331462
40
2.8119298
50
179.9692966
51
191.6696183
0
LINE
8
DEFAULT_255_2_778
10
97.841547
20
94.334653
11
97.841547
21
94.334653
0
LINE
8
DEFAULT_255_2_778
10
101.702047
20
93.273953
11
99.580647
21
95.395453
0
LINE
8
DEFAULT_255_2_778
10
101.702047
20
95.395453
11
99.580647
21
93.273953
0
ARC
8
DEFAULT_255_2_778
10
74.0370257
20
85.3377042
40
2.7955804
50
160.6250898
51
180.0625339
0
ARC
8
DEFAULT_255_2_778
10
74.0444872
20
85.3308633
40
2.8048915
50
101.7948804
51
160.5438283
0
ARC
8
DEFAULT_255_2_778
10
74.0399381
20
85.3224172
40
2.8122362
50
89.9692581
51
101.6689794
0
ARC
8
DEFAULT_255_2_778
10
74.0444925
20
85.3393398
40
2.7953149
50
70.6241591
51
90.0624243
0
ARC
8
DEFAULT_255_2_778
10
74.0375398
20
85.3316195
40
2.8049073
50
11.7946723
51
70.542501
0
ARC
8
DEFAULT_255_2_778
10
74.0290921
20
85.336161
40
2.8122552
50
359.969278
51
11.6689198
0
ARC
8
DEFAULT_255_2_778
10
74.0460072
20
85.3316098
40
2.7953414
50
340.624302
51
0.0623774
0
ARC
8
DEFAULT_255_2_778
10
74.0383204
20
85.3385325
40
2.8048924
50
281.7959826
51
340.5429938
0
ARC
8
DEFAULT_255_2_778
10
74.0429528
20
85.3467015
40
2.8119488
50
269.9693166
51
281.6695586
0
ARC
8
DEFAULT_255_2_778
10
74.0383981
20
85.3303583
40
2.7956069
50
250.6252326
51
270.062487
0
ARC
8
DEFAULT_255_2_778
10
74.045209
20
85.3377864
40
2.8048766
50
191.7961906
51
250.5443211
0
ARC
8
DEFAULT_255_2_778
10
74.0533764
20
85.3331462
40
2.8119298
50
179.9692966
51
191.6696183
0
LINE
8
DEFAULT_255_2_778
10
71.241447
20
85.334653
11
71.241447
21
85.334653
0
LINE
8
DEFAULT_255_2_778
10
75.101947
20
84.273953
11
72.980547
21
86.395453
0
LINE
8
DEFAULT_255_2_778
10
75.101947
20
86.395453
11
72.980547
21
84.273953
0
ARC
8
DEFAULT_255_2_778
10
70.2370257
20
94.3377042
40
2.7955804
50
160.6250898
51
180.0625339
0
ARC
8
DEFAULT_255_2_778
10
70.2444872
20
94.3308633
40
2.8048915
50
101.7948804
51
160.5438283
0
ARC
8
DEFAULT_255_2_778
10
70.2399381
20
94.3224172
40
2.8122362
50
89.9692581
51
101.6689794
0
ARC
8
DEFAULT_255_2_778
10
70.2444925
20
94.3393398
40
2.7953149
50
70.6241591
51
90.0624243
0
ARC
8
DEFAULT_255_2_778
10
70.2375398
20
94.3316195
40
2.8049073
50
11.7946723
51
70.542501
0
ARC
8
DEFAULT_255_2_778
10
70.2290921
20
94.336161
40
2.8122552
50
359.969278
51
11.6689198
0
ARC
8
DEFAULT_255_2_778
10
70.2460072
20
94.3316098
40
2.7953414
50
340.624302
51
0.0623774
0
ARC
8
DEFAULT_255_2_778
10
70.2383204
20
94.3385325
40
2.8048924
50
281.7959826
51
340.5429938
0
ARC
8
DEFAULT_255_2_778
10
70.2429528
20
94.3467015
40
2.8119488
50
269.9693166
51
281.6695586
0
ARC
8
DEFAULT_255_2_778
10
70.2383981
20
94.3303583
40
2.7956069
50
250.6252326
51
270.062487
0
ARC
8
DEFAULT_255_2_778
10
70.245209
20
94.3377864
40
2.8048766
50
191.7961906
51
250.5443211
0
ARC
8
DEFAULT_255_2_778
10
70.2533764
20
94.3331462
40
2.8119298
50
179.9692966
51
191.6696183
0
LINE
8
DEFAULT_255_2_778
10
67.441447
20
94.334653
11
67.441447
21
94.334653
0
LINE
8
DEFAULT_255_2_778
10
71.301947
20
93.273953
11
69.180547
21
95.395453
0
LINE
8
DEFAULT_255_2_778
10
71.301947
20
95.395453
11
69.180547
21
93.273953
0
ARC
8
DEFAULT_255_2_778
10
62.6372257
20
94.3377042
40
2.7955804
50
160.6250898
51
180.0625339
0
ARC
8
DEFAULT_255_2_778
10
62.6446872
20
94.3308633
40
2.8048915
50
101.7948804
51
160.5438283
0
ARC
8
DEFAULT_255_2_778
10
62.6401381
20
94.3224172
40
2.8122362
50
89.9692581
51
101.6689794
0
ARC
8
DEFAULT_255_2_778
10
62.6446925
20
94.3393398
40
2.7953149
50
70.6241591
51
90.0624243
0
ARC
8
DEFAULT_255_2_778
10
62.6377398
20
94.3316195
40
2.8049073
50
11.7946723
51
70.542501
0
ARC
8
DEFAULT_255_2_778
10
62.6292921
20
94.336161
40
2.8122552
50
359.969278
51
11.6689198
0
ARC
8
DEFAULT_255_2_778
10
62.6462072
20
94.3316098
40
2.7953414
50
340.624302
51
0.0623774
0
ARC
8
DEFAULT_255_2_778
10
62.6385204
20
94.3385325
40
2.8048924
50
281.7959826
51
340.5429938
0
ARC
8
DEFAULT_255_2_778
10
62.6431528
20
94.3467015
40
2.8119488
50
269.9693166
51
281.6695586
0
ARC
8
DEFAULT_255_2_778
10
62.6385981
20
94.3303583
40
2.7956069
50
250.6252326
51
270.062487
0
ARC
8
DEFAULT_255_2_778
10
62.645409
20
94.3377864
40
2.8048766
50
191.7961906
51
250.5443211
0
ARC
8
DEFAULT_255_2_778
10
62.6535764
20
94.3331462
40
2.8119298
50
179.9692966
51
191.6696183
0
LINE
8
DEFAULT_255_2_778
10
59.841647
20
94.334653
11
59.841647
21
94.334653
0
LINE
8
DEFAULT_255_2_778
10
63.702147
20
93.273953
11
61.580747
21
95.395453
0
LINE
8
DEFAULT_255_2_778
10
63.702147
20
95.395453
11
61.580747
21
93.273953
0
ARC
8
DEFAULT_255_2_778
10
55.0370257
20
94.3377042
40
2.7955804
50
160.6250898
51
180.0625339
0
ARC
8
DEFAULT_255_2_778
10
55.0444872
20
94.3308633
40
2.8048915
50
101.7948804
51
160.5438283
0
ARC
8
DEFAULT_255_2_778
10
55.0399381
20
94.3224172
40
2.8122362
50
89.9692581
51
101.6689794
0
ARC
8
DEFAULT_255_2_778
10
55.0444925
20
94.3393398
40
2.7953149
50
70.6241591
51
90.0624243
0
ARC
8
DEFAULT_255_2_778
10
55.0375398
20
94.3316195
40
2.8049073
50
11.7946723
51
70.542501
0
ARC
8
DEFAULT_255_2_778
10
55.0290921
20
94.336161
40
2.8122552
50
359.969278
51
11.6689198
0
ARC
8
DEFAULT_255_2_778
10
55.0460072
20
94.3316098
40
2.7953414
50
340.624302
51
0.0623774
0
ARC
8
DEFAULT_255_2_778
10
55.0383204
20
94.3385325
40
2.8048924
50
281.7959826
51
340.5429938
0
ARC
8
DEFAULT_255_2_778
10
55.0429528
20
94.3467015
40
2.8119488
50
269.9693166
51
281.6695586
0
ARC
8
DEFAULT_255_2_778
10
55.0383981
20
94.3303583
40
2.7956069
50
250.6252326
51
270.062487
0
ARC
8
DEFAULT_255_2_778
10
55.045209
20
94.3377864
40
2.8048766
50
191.7961906
51
250.5443211
0
ARC
8
DEFAULT_255_2_778
10
55.0533764
20
94.3331462
40
2.8119298
50
179.9692966
51
191.6696183
0
LINE
8
DEFAULT_255_2_778
10
52.241447
20
94.334653
11
52.241447
21
94.334653
0
LINE
8
DEFAULT_255_2_778
10
56.101947
20
93.273953
11
53.980547
21
95.395453
0
LINE
8
DEFAULT_255_2_778
10
56.101947
20
95.395453
11
53.980547
21
93.273953
0
ARC
8
DEFAULT_255_2_778
10
47.4371257
20
94.3377042
40
2.7955804
50
160.6250898
51
180.0625339
0
ARC
8
DEFAULT_255_2_778
10
47.4445872
20
94.3308633
40
2.8048915
50
101.7948804
51
160.5438283
0
ARC
8
DEFAULT_255_2_778
10
47.4400381
20
94.3224172
40
2.8122362
50
89.9692581
51
101.6689794
0
ARC
8
DEFAULT_255_2_778
10
47.4445925
20
94.3393398
40
2.7953149
50
70.6241591
51
90.0624243
0
ARC
8
DEFAULT_255_2_778
10
47.4376398
20
94.3316195
40
2.8049073
50
11.7946723
51
70.542501
0
ARC
8
DEFAULT_255_2_778
10
47.4291921
20
94.336161
40
2.8122552
50
359.969278
51
11.6689198
0
ARC
8
DEFAULT_255_2_778
10
47.4461072
20
94.3316098
40
2.7953414
50
340.624302
51
0.0623774
0
ARC
8
DEFAULT_255_2_778
10
47.4384204
20
94.3385325
40
2.8048924
50
281.7959826
51
340.5429938
0
ARC
8
DEFAULT_255_2_778
10
47.4430528
20
94.3467015
40
2.8119488
50
269.9693166
51
281.6695586
0
ARC
8
DEFAULT_255_2_778
10
47.4384981
20
94.3303583
40
2.7956069
50
250.6252326
51
270.062487
0
ARC
8
DEFAULT_255_2_778
10
47.445309
20
94.3377864
40
2.8048766
50
191.7961906
51
250.5443211
0
ARC
8
DEFAULT_255_2_778
10
47.4534764
20
94.3331462
40
2.8119298
50
179.9692966
51
191.6696183
0
LINE
8
DEFAULT_255_2_778
10
44.641547
20
94.334653
11
44.641547
21
94.334653
0
LINE
8
DEFAULT_255_2_778
10
48.502047
20
93.273953
11
46.380647
21
95.395453
0
LINE
8
DEFAULT_255_2_778
10
48.502047
20
95.395453
11
46.380647
21
93.273953
0
ARC
8
DEFAULT_255_2_778
10
58.8372257
20
85.3377042
40
2.7955804
50
160.6250898
51
180.0625339
0
ARC
8
DEFAULT_255_2_778
10
58.8446872
20
85.3308633
40
2.8048915
50
101.7948804
51
160.5438283
0
ARC
8
DEFAULT_255_2_778
10
58.8401381
20
85.3224172
40
2.8122362
50
89.9692581
51
101.6689794
0
ARC
8
DEFAULT_255_2_778
10
58.8446925
20
85.3393398
40
2.7953149
50
70.6241591
51
90.0624243
0
ARC
8
DEFAULT_255_2_778
10
58.8377398
20
85.3316195
40
2.8049073
50
11.7946723
51
70.542501
0
ARC
8
DEFAULT_255_2_778
10
58.8292921
20
85.336161
40
2.8122552
50
359.969278
51
11.6689198
0
ARC
8
DEFAULT_255_2_778
10
58.8462072
20
85.3316098
40
2.7953414
50
340.624302
51
0.0623774
0
ARC
8
DEFAULT_255_2_778
10
58.8385204
20
85.3385325
40
2.8048924
50
281.7959826
51
340.5429938
0
ARC
8
DEFAULT_255_2_778
10
58.8431528
20
85.3467015
40
2.8119488
50
269.9693166
51
281.6695586
0
ARC
8
DEFAULT_255_2_778
10
58.8385981
20
85.3303583
40
2.7956069
50
250.6252326
51
270.062487
0
ARC
8
DEFAULT_255_2_778
10
58.845409
20
85.3377864
40
2.8048766
50
191.7961906
51
250.5443211
0
ARC
8
DEFAULT_255_2_778
10
58.8535764
20
85.3331462
40
2.8119298
50
179.9692966
51
191.6696183
0
LINE
8
DEFAULT_255_2_778
10
56.041647
20
85.334653
11
56.041647
21
85.334653
0
LINE
8
DEFAULT_255_2_778
10
59.902147
20
84.273953
11
57.780747
21
86.395453
0
LINE
8
DEFAULT_255_2_778
10
59.902147
20
86.395453
11
57.780747
21
84.273953
0
ARC
8
DEFAULT_255_2_778
10
51.2371257
20
85.3377042
40
2.7955804
50
160.6250898
51
180.0625339
0
ARC
8
DEFAULT_255_2_778
10
51.2445872
20
85.3308633
40
2.8048915
50
101.7948804
51
160.5438283
0
ARC
8
DEFAULT_255_2_778
10
51.2400381
20
85.3224172
40
2.8122362
50
89.9692581
51
101.6689794
0
ARC
8
DEFAULT_255_2_778
10
51.2445925
20
85.3393398
40
2.7953149
50
70.6241591
51
90.0624243
0
ARC
8
DEFAULT_255_2_778
10
51.2376398
20
85.3316195
40
2.8049073
50
11.7946723
51
70.542501
0
ARC
8
DEFAULT_255_2_778
10
51.2291921
20
85.336161
40
2.8122552
50
359.969278
51
11.6689198
0
ARC
8
DEFAULT_255_2_778
10
51.2461072
20
85.3316098
40
2.7953414
50
340.624302
51
0.0623774
0
ARC
8
DEFAULT_255_2_778
10
51.2384204
20
85.3385325
40
2.8048924
50
281.7959826
51
340.5429938
0
ARC
8
DEFAULT_255_2_778
10
51.2430528
20
85.3467015
40
2.8119488
50
269.9693166
51
281.6695586
0
ARC
8
DEFAULT_255_2_778
10
51.2384981
20
85.3303583
40
2.7956069
50
250.6252326
51
270.062487
0
ARC
8
DEFAULT_255_2_778
10
51.245309
20
85.3377864
40
2.8048766
50
191.7961906
51
250.5443211
0
ARC
8
DEFAULT_255_2_778
10
51.2534764
20
85.3331462
40
2.8119298
50
179.9692966
51
191.6696183
0
LINE
8
DEFAULT_255_2_778
10
48.441547
20
85.334653
11
48.441547
21
85.334653
0
LINE
8
DEFAULT_255_2_778
10
52.302047
20
84.273953
11
50.180647
21
86.395453
0
LINE
8
DEFAULT_255_2_778
10
52.302047
20
86.395453
11
50.180647
21
84.273953
0
ARC
8
DEFAULT_255_2_778
10
66.4371257
20
85.3377042
40
2.7955804
50
160.6250898
51
180.0625339
0
ARC
8
DEFAULT_255_2_778
10
66.4445872
20
85.3308633
40
2.8048915
50
101.7948804
51
160.5438283
0
ARC
8
DEFAULT_255_2_778
10
66.4400381
20
85.3224172
40
2.8122362
50
89.9692581
51
101.6689794
0
ARC
8
DEFAULT_255_2_778
10
66.4445925
20
85.3393398
40
2.7953149
50
70.6241591
51
90.0624243
0
ARC
8
DEFAULT_255_2_778
10
66.4376398
20
85.3316195
40
2.8049073
50
11.7946723
51
70.542501
0
ARC
8
DEFAULT_255_2_778
10
66.4291921
20
85.336161
40
2.8122552
50
359.969278
51
11.6689198
0
ARC
8
DEFAULT_255_2_778
10
66.4461072
20
85.3316098
40
2.7953414
50
340.624302
51
0.0623774
0
ARC
8
DEFAULT_255_2_778
10
66.4384204
20
85.3385325
40
2.8048924
50
281.7959826
51
340.5429938
0
ARC
8
DEFAULT_255_2_778
10
66.4430528
20
85.3467015
40
2.8119488
50
269.9693166
51
281.6695586
0
ARC
8
DEFAULT_255_2_778
10
66.4384981
20
85.3303583
40
2.7956069
50
250.6252326
51
270.062487
0
ARC
8
DEFAULT_255_2_778
10
66.445309
20
85.3377864
40
2.8048766
50
191.7961906
51
250.5443211
0
ARC
8
DEFAULT_255_2_778
10
66.4534764
20
85.3331462
40
2.8119298
50
179.9692966
51
191.6696183
0
LINE
8
DEFAULT_255_2_778
10
63.641547
20
85.334653
11
63.641547
21
85.334653
0
LINE
8
DEFAULT_255_2_778
10
67.502047
20
84.273953
11
65.380647
21
86.395453
0
LINE
8
DEFAULT_255_2_778
10
67.502047
20
86.395453
11
65.380647
21
84.273953
0
ARC
8
DEFAULT_255_2_778
10
93.0370257
20
94.3377042
40
2.7955804
50
160.6250898
51
180.0625339
0
ARC
8
DEFAULT_255_2_778
10
93.0444872
20
94.3308633
40
2.8048915
50
101.7948804
51
160.5438283
0
ARC
8
DEFAULT_255_2_778
10
93.0399381
20
94.3224172
40
2.8122362
50
89.9692581
51
101.6689794
0
ARC
8
DEFAULT_255_2_778
10
93.0444925
20
94.3393398
40
2.7953149
50
70.6241591
51
90.0624243
0
ARC
8
DEFAULT_255_2_778
10
93.0375398
20
94.3316195
40
2.8049073
50
11.7946723
51
70.542501
0
ARC
8
DEFAULT_255_2_778
10
93.0290921
20
94.336161
40
2.8122552
50
359.969278
51
11.6689198
0
ARC
8
DEFAULT_255_2_778
10
93.0460072
20
94.3316098
40
2.7953414
50
340.624302
51
0.0623774
0
ARC
8
DEFAULT_255_2_778
10
93.0383204
20
94.3385325
40
2.8048924
50
281.7959826
51
340.5429938
0
ARC
8
DEFAULT_255_2_778
10
93.0429528
20
94.3467015
40
2.8119488
50
269.9693166
51
281.6695586
0
ARC
8
DEFAULT_255_2_778
10
93.0383981
20
94.3303583
40
2.7956069
50
250.6252326
51
270.062487
0
ARC
8
DEFAULT_255_2_778
10
93.045209
20
94.3377864
40
2.8048766
50
191.7961906
51
250.5443211
0
ARC
8
DEFAULT_255_2_778
10
93.0533764
20
94.3331462
40
2.8119298
50
179.9692966
51
191.6696183
0
LINE
8
DEFAULT_255_2_778
10
90.241447
20
94.334653
11
90.241447
21
94.334653
0
LINE
8
DEFAULT_255_2_778
10
94.101947
20
93.273953
11
91.980547
21
95.395453
0
LINE
8
DEFAULT_255_2_778
10
94.101947
20
95.395453
11
91.980547
21
93.273953
0
ARC
8
DEFAULT_255_2_778
10
85.4371975
20
94.338058
40
2.7956069
50
160.6252326
51
180.062487
0
ARC
8
DEFAULT_255_2_778
10
85.4446256
20
94.3312471
40
2.8048766
50
101.7961906
51
160.5443211
0
ARC
8
DEFAULT_255_2_778
10
85.4399855
20
94.3230797
40
2.8119298
50
89.9692966
51
101.6696183
0
ARC
8
DEFAULT_255_2_778
10
85.4445435
20
94.3394304
40
2.7955804
50
70.6250898
51
90.0625339
0
ARC
8
DEFAULT_255_2_778
10
85.4377026
20
94.3319689
40
2.8048915
50
11.7948804
51
70.5438283
0
ARC
8
DEFAULT_255_2_778
10
85.4292565
20
94.336518
40
2.8122362
50
359.9692581
51
11.6689794
0
ARC
8
DEFAULT_255_2_778
10
85.4460117
20
94.3319527
40
2.7954822
50
340.624745
51
0.0626432
0
ARC
8
DEFAULT_255_2_778
10
85.4385525
20
94.3388228
40
2.8048009
50
281.7931706
51
340.5429042
0
ARC
8
DEFAULT_255_2_778
10
85.4430031
20
94.3475347
40
2.8124259
50
269.9692211
51
281.6681413
0
ARC
8
DEFAULT_255_2_778
10
85.438444
20
94.3305922
40
2.7954848
50
250.6254465
51
270.0624783
0
ARC
8
DEFAULT_255_2_778
10
85.4452649
20
94.3380367
40
2.8047734
50
191.7950273
51
250.5444498
0
ARC
8
DEFAULT_255_2_778
10
85.4537844
20
94.3334991
40
2.8121924
50
179.9692358
51
191.6690502
0
LINE
8
DEFAULT_255_2_778
10
82.6415923
20
94.3350091
11
82.6415923
21
94.3350091
0
LINE
8
DEFAULT_255_2_778
10
86.5020923
20
93.2743091
11
84.3806923
21
95.3957091
0
LINE
8
DEFAULT_255_2_778
10
86.5020923
20
95.3957091
11
84.3806923
21
93.2743091
0
LINE
8
DEFAULT_255_2_778
10
25.0414923
20
99.8349091
11
25.0414923
21
80.6349091
0
LINE
8
DEFAULT_255_2_778
10
25.0414923
20
80.6349091
11
145.8414923
21
80.6349091
0
LINE
8
DEFAULT_255_2_778
10
145.8414923
20
80.6349091
11
145.8414923
21
99.8349091
0
ARC
8
DEFAULT_255_2_778
10
77.8372257
20
94.3377042
40
2.7955804
50
160.6250898
51
180.0625339
0
ARC
8
DEFAULT_255_2_778
10
77.8446872
20
94.3308633
40
2.8048915
50
101.7948804
51
160.5438283
0
ARC
8
DEFAULT_255_2_778
10
77.8401381
20
94.3224172
40
2.8122362
50
89.9692581
51
101.6689794
0
ARC
8
DEFAULT_255_2_778
10
77.8446925
20
94.3393398
40
2.7953149
50
70.6241591
51
90.0624243
0
ARC
8
DEFAULT_255_2_778
10
77.8377398
20
94.3316195
40
2.8049073
50
11.7946723
51
70.542501
0
ARC
8
DEFAULT_255_2_778
10
77.8292921
20
94.336161
40
2.8122552
50
359.969278
51
11.6689198
0
ARC
8
DEFAULT_255_2_778
10
77.8462072
20
94.3316098
40
2.7953414
50
340.624302
51
0.0623774
0
ARC
8
DEFAULT_255_2_778
10
77.8385204
20
94.3385325
40
2.8048924
50
281.7959826
51
340.5429938
0
ARC
8
DEFAULT_255_2_778
10
77.8431528
20
94.3467015
40
2.8119488
50
269.9693166
51
281.6695586
0
ARC
8
DEFAULT_255_2_778
10
77.8385981
20
94.3303583
40
2.7956069
50
250.6252326
51
270.062487
0
ARC
8
DEFAULT_255_2_778
10
77.845409
20
94.3377864
40
2.8048766
50
191.7961906
51
250.5443211
0
ARC
8
DEFAULT_255_2_778
10
77.8535764
20
94.3331462
40
2.8119298
50
179.9692966
51
191.6696183
0
LINE
8
DEFAULT_255_2_778
10
75.041647
20
94.334653
11
75.041647
21
94.334653
0
LINE
8
DEFAULT_255_2_778
10
78.902147
20
93.273953
11
76.780747
21
95.395453
0
LINE
8
DEFAULT_255_2_778
10
78.902147
20
95.395453
11
76.780747
21
93.273953
0
ARC
8
DEFAULT_255_2_778
10
89.2370257
20
85.3377042
40
2.7955804
50
160.6250898
51
180.0625339
0
ARC
8
DEFAULT_255_2_778
10
89.2444872
20
85.3308633
40
2.8048915
50
101.7948804
51
160.5438283
0
ARC
8
DEFAULT_255_2_778
10
89.2399381
20
85.3224172
40
2.8122362
50
89.9692581
51
101.6689794
0
ARC
8
DEFAULT_255_2_778
10
89.2444925
20
85.3393398
40
2.7953149
50
70.6241591
51
90.0624243
0
ARC
8
DEFAULT_255_2_778
10
89.2375398
20
85.3316195
40
2.8049073
50
11.7946723
51
70.542501
0
ARC
8
DEFAULT_255_2_778
10
89.2290921
20
85.336161
40
2.8122552
50
359.969278
51
11.6689198
0
ARC
8
DEFAULT_255_2_778
10
89.2460072
20
85.3316098
40
2.7953414
50
340.624302
51
0.0623774
0
ARC
8
DEFAULT_255_2_778
10
89.2383204
20
85.3385325
40
2.8048924
50
281.7959826
51
340.5429938
0
ARC
8
DEFAULT_255_2_778
10
89.2429528
20
85.3467015
40
2.8119488
50
269.9693166
51
281.6695586
0
ARC
8
DEFAULT_255_2_778
10
89.2383981
20
85.3303583
40
2.7956069
50
250.6252326
51
270.062487
0
ARC
8
DEFAULT_255_2_778
10
89.245209
20
85.3377864
40
2.8048766
50
191.7961906
51
250.5443211
0
ARC
8
DEFAULT_255_2_778
10
89.2533764
20
85.3331462
40
2.8119298
50
179.9692966
51
191.6696183
0
LINE
8
DEFAULT_255_2_778
10
86.441447
20
85.334653
11
86.441447
21
85.334653
0
LINE
8
DEFAULT_255_2_778
10
90.301947
20
84.273953
11
88.180547
21
86.395453
0
LINE
8
DEFAULT_255_2_778
10
90.301947
20
86.395453
11
88.180547
21
84.273953
0
ARC
8
DEFAULT_255_2_778
10
81.6372257
20
85.3377042
40
2.7955804
50
160.6250898
51
180.0625339
0
ARC
8
DEFAULT_255_2_778
10
81.6446872
20
85.3308633
40
2.8048915
50
101.7948804
51
160.5438283
0
ARC
8
DEFAULT_255_2_778
10
81.6401381
20
85.3224172
40
2.8122362
50
89.9692581
51
101.6689794
0
ARC
8
DEFAULT_255_2_778
10
81.6446925
20
85.3393398
40
2.7953149
50
70.6241591
51
90.0624243
0
ARC
8
DEFAULT_255_2_778
10
81.6377398
20
85.3316195
40
2.8049073
50
11.7946723
51
70.542501
0
ARC
8
DEFAULT_255_2_778
10
81.6292921
20
85.336161
40
2.8122552
50
359.969278
51
11.6689198
0
ARC
8
DEFAULT_255_2_778
10
81.6462072
20
85.3316098
40
2.7953414
50
340.624302
51
0.0623774
0
ARC
8
DEFAULT_255_2_778
10
81.6385204
20
85.3385325
40
2.8048924
50
281.7959826
51
340.5429938
0
ARC
8
DEFAULT_255_2_778
10
81.6431528
20
85.3467015
40
2.8119488
50
269.9693166
51
281.6695586
0
ARC
8
DEFAULT_255_2_778
10
81.6385981
20
85.3303583
40
2.7956069
50
250.6252326
51
270.062487
0
ARC
8
DEFAULT_255_2_778
10
81.645409
20
85.3377864
40
2.8048766
50
191.7961906
51
250.5443211
0
ARC
8
DEFAULT_255_2_778
10
81.6535764
20
85.3331462
40
2.8119298
50
179.9692966
51
191.6696183
0
LINE
8
DEFAULT_255_2_778
10
78.841647
20
85.334653
11
78.841647
21
85.334653
0
LINE
8
DEFAULT_255_2_778
10
82.702147
20
84.273953
11
80.580747
21
86.395453
0
LINE
8
DEFAULT_255_2_778
10
82.702147
20
86.395453
11
80.580747
21
84.273953
0
ARC
8
DEFAULT_255_2_778
10
96.8372257
20
85.3377042
40
2.7955804
50
160.6250898
51
180.0625339
0
ARC
8
DEFAULT_255_2_778
10
96.8446872
20
85.3308633
40
2.8048915
50
101.7948804
51
160.5438283
0
ARC
8
DEFAULT_255_2_778
10
96.8401381
20
85.3224172
40
2.8122362
50
89.9692581
51
101.6689794
0
ARC
8
DEFAULT_255_2_778
10
96.8446925
20
85.3393398
40
2.7953149
50
70.6241591
51
90.0624243
0
ARC
8
DEFAULT_255_2_778
10
96.8377398
20
85.3316195
40
2.8049073
50
11.7946723
51
70.542501
0
ARC
8
DEFAULT_255_2_778
10
96.8292921
20
85.336161
40
2.8122552
50
359.969278
51
11.6689198
0
ARC
8
DEFAULT_255_2_778
10
96.8462072
20
85.3316098
40
2.7953414
50
340.624302
51
0.0623774
0
ARC
8
DEFAULT_255_2_778
10
96.8385204
20
85.3385325
40
2.8048924
50
281.7959826
51
340.5429938
0
ARC
8
DEFAULT_255_2_778
10
96.8431528
20
85.3467015
40
2.8119488
50
269.9693166
51
281.6695586
0
ARC
8
DEFAULT_255_2_778
10
96.8385981
20
85.3303583
40
2.7956069
50
250.6252326
51
270.062487
0
ARC
8
DEFAULT_255_2_778
10
96.845409
20
85.3377864
40
2.8048766
50
191.7961906
51
250.5443211
0
ARC
8
DEFAULT_255_2_778
10
96.8535764
20
85.3331462
40
2.8119298
50
179.9692966
51
191.6696183
0
LINE
8
DEFAULT_255_2_778
10
94.041647
20
85.334653
11
94.041647
21
85.334653
0
LINE
8
DEFAULT_255_2_778
10
97.902147
20
84.273953
11
95.780747
21
86.395453
0
LINE
8
DEFAULT_255_2_778
10
97.902147
20
86.395453
11
95.780747
21
84.273953
0
ARC
8
DEFAULT_255_2_778
10
127.2370389
20
85.3377042
40
2.7955804
50
160.6250898
51
180.0625339
0
ARC
8
DEFAULT_255_2_778
10
127.2445004
20
85.3308633
40
2.8048915
50
101.7948804
51
160.5438283
0
ARC
8
DEFAULT_255_2_778
10
127.2399513
20
85.3224172
40
2.8122362
50
89.9692581
51
101.6689794
0
ARC
8
DEFAULT_255_2_778
10
127.2445057
20
85.3393398
40
2.7953149
50
70.6241591
51
90.0624243
0
ARC
8
DEFAULT_255_2_778
10
127.2375531
20
85.3316195
40
2.8049073
50
11.7946723
51
70.542501
0
ARC
8
DEFAULT_255_2_778
10
127.2291054
20
85.336161
40
2.8122552
50
359.969278
51
11.6689198
0
ARC
8
DEFAULT_255_2_778
10
127.2460204
20
85.3316098
40
2.7953414
50
340.624302
51
0.0623774
0
ARC
8
DEFAULT_255_2_778
10
127.2383336
20
85.3385325
40
2.8048924
50
281.7959826
51
340.5429938
0
ARC
8
DEFAULT_255_2_778
10
127.2429661
20
85.3467015
40
2.8119488
50
269.9693166
51
281.6695586
0
ARC
8
DEFAULT_255_2_778
10
127.2384113
20
85.3303583
40
2.7956069
50
250.6252326
51
270.062487
0
ARC
8
DEFAULT_255_2_778
10
127.2452222
20
85.3377864
40
2.8048766
50
191.7961906
51
250.5443211
0
ARC
8
DEFAULT_255_2_778
10
127.2533896
20
85.3331462
40
2.8119298
50
179.9692966
51
191.6696183
0
LINE
8
DEFAULT_255_2_778
10
124.4414602
20
85.334653
11
124.4414602
21
85.334653
0
LINE
8
DEFAULT_255_2_778
10
128.3019602
20
84.273953
11
126.1805602
21
86.395453
0
LINE
8
DEFAULT_255_2_778
10
128.3019602
20
86.395453
11
126.1805602
21
84.273953
0
ARC
8
DEFAULT_255_2_778
10
131.0372257
20
94.3377042
40
2.7955804
50
160.6250898
51
180.0625339
0
ARC
8
DEFAULT_255_2_778
10
131.0446872
20
94.3308633
40
2.8048915
50
101.7948804
51
160.5438283
0
ARC
8
DEFAULT_255_2_778
10
131.0401381
20
94.3224172
40
2.8122362
50
89.9692581
51
101.6689794
0
ARC
8
DEFAULT_255_2_778
10
131.0446925
20
94.3393398
40
2.7953149
50
70.6241591
51
90.0624243
0
ARC
8
DEFAULT_255_2_778
10
131.0377398
20
94.3316195
40
2.8049073
50
11.7946723
51
70.542501
0
ARC
8
DEFAULT_255_2_778
10
131.0292921
20
94.336161
40
2.8122552
50
359.969278
51
11.6689198
0
ARC
8
DEFAULT_255_2_778
10
131.0462072
20
94.3316098
40
2.7953414
50
340.624302
51
0.0623774
0
ARC
8
DEFAULT_255_2_778
10
131.0385204
20
94.3385325
40
2.8048924
50
281.7959826
51
340.5429938
0
ARC
8
DEFAULT_255_2_778
10
131.0431528
20
94.3467015
40
2.8119488
50
269.9693166
51
281.6695586
0
ARC
8
DEFAULT_255_2_778
10
131.0385981
20
94.3303583
40
2.7956069
50
250.6252326
51
270.062487
0
ARC
8
DEFAULT_255_2_778
10
131.045409
20
94.3377864
40
2.8048766
50
191.7961906
51
250.5443211
0
ARC
8
DEFAULT_255_2_778
10
131.0535764
20
94.3331462
40
2.8119298
50
179.9692966
51
191.6696183
0
LINE
8
DEFAULT_255_2_778
10
128.241647
20
94.334653
11
128.241647
21
94.334653
0
LINE
8
DEFAULT_255_2_778
10
132.102147
20
93.273953
11
129.980747
21
95.395453
0
LINE
8
DEFAULT_255_2_778
10
132.102147
20
95.395453
11
129.980747
21
93.273953
0
ARC
8
DEFAULT_255_2_778
10
123.4371257
20
94.3377042
40
2.7955804
50
160.6250898
51
180.0625339
0
ARC
8
DEFAULT_255_2_778
10
123.4445872
20
94.3308633
40
2.8048915
50
101.7948804
51
160.5438283
0
ARC
8
DEFAULT_255_2_778
10
123.4400381
20
94.3224172
40
2.8122362
50
89.9692581
51
101.6689794
0
ARC
8
DEFAULT_255_2_778
10
123.4445925
20
94.3393398
40
2.7953149
50
70.6241591
51
90.0624243
0
ARC
8
DEFAULT_255_2_778
10
123.4376398
20
94.3316195
40
2.8049073
50
11.7946723
51
70.542501
0
ARC
8
DEFAULT_255_2_778
10
123.4291921
20
94.336161
40
2.8122552
50
359.969278
51
11.6689198
0
ARC
8
DEFAULT_255_2_778
10
123.4461072
20
94.3316098
40
2.7953414
50
340.624302
51
0.0623774
0
ARC
8
DEFAULT_255_2_778
10
123.4384204
20
94.3385325
40
2.8048924
50
281.7959826
51
340.5429938
0
ARC
8
DEFAULT_255_2_778
10
123.4430528
20
94.3467015
40
2.8119488
50
269.9693166
51
281.6695586
0
ARC
8
DEFAULT_255_2_778
10
123.4384981
20
94.3303583
40
2.7956069
50
250.6252326
51
270.062487
0
ARC
8
DEFAULT_255_2_778
10
123.445309
20
94.3377864
40
2.8048766
50
191.7961906
51
250.5443211
0
ARC
8
DEFAULT_255_2_778
10
123.4534764
20
94.3331462
40
2.8119298
50
179.9692966
51
191.6696183
0
LINE
8
DEFAULT_255_2_778
10
120.641547
20
94.334653
11
120.641547
21
94.334653
0
LINE
8
DEFAULT_255_2_778
10
124.502047
20
93.273953
11
122.380647
21
95.395453
0
LINE
8
DEFAULT_255_2_778
10
124.502047
20
95.395453
11
122.380647
21
93.273953
0
ARC
8
DEFAULT_255_2_778
10
115.8372257
20
94.3377042
40
2.7955804
50
160.6250898
51
180.0625339
0
ARC
8
DEFAULT_255_2_778
10
115.8446872
20
94.3308633
40
2.8048915
50
101.7948804
51
160.5438283
0
ARC
8
DEFAULT_255_2_778
10
115.8401381
20
94.3224172
40
2.8122362
50
89.9692581
51
101.6689794
0
ARC
8
DEFAULT_255_2_778
10
115.8446925
20
94.3393398
40
2.7953149
50
70.6241591
51
90.0624243
0
ARC
8
DEFAULT_255_2_778
10
115.8377398
20
94.3316195
40
2.8049073
50
11.7946723
51
70.542501
0
ARC
8
DEFAULT_255_2_778
10
115.8292921
20
94.336161
40
2.8122552
50
359.969278
51
11.6689198
0
ARC
8
DEFAULT_255_2_778
10
115.8462072
20
94.3316098
40
2.7953414
50
340.624302
51
0.0623774
0
ARC
8
DEFAULT_255_2_778
10
115.8385204
20
94.3385325
40
2.8048924
50
281.7959826
51
340.5429938
0
ARC
8
DEFAULT_255_2_778
10
115.8431528
20
94.3467015
40
2.8119488
50
269.9693166
51
281.6695586
0
ARC
8
DEFAULT_255_2_778
10
115.8385981
20
94.3303583
40
2.7956069
50
250.6252326
51
270.062487
0
ARC
8
DEFAULT_255_2_778
10
115.845409
20
94.3377864
40
2.8048766
50
191.7961906
51
250.5443211
0
ARC
8
DEFAULT_255_2_778
10
115.8535764
20
94.3331462
40
2.8119298
50
179.9692966
51
191.6696183
0
LINE
8
DEFAULT_255_2_778
10
113.041647
20
94.334653
11
113.041647
21
94.334653
0
LINE
8
DEFAULT_255_2_778
10
116.902147
20
93.273953
11
114.780747
21
95.395453
0
LINE
8
DEFAULT_255_2_778
10
116.902147
20
95.395453
11
114.780747
21
93.273953
0
ARC
8
DEFAULT_255_2_778
10
108.2370257
20
94.3377042
40
2.7955804
50
160.6250898
51
180.0625339
0
ARC
8
DEFAULT_255_2_778
10
108.2444872
20
94.3308633
40
2.8048915
50
101.7948804
51
160.5438283
0
ARC
8
DEFAULT_255_2_778
10
108.2399381
20
94.3224172
40
2.8122362
50
89.9692581
51
101.6689794
0
ARC
8
DEFAULT_255_2_778
10
108.2444925
20
94.3393398
40
2.7953149
50
70.6241591
51
90.0624243
0
ARC
8
DEFAULT_255_2_778
10
108.2375398
20
94.3316195
40
2.8049073
50
11.7946723
51
70.542501
0
ARC
8
DEFAULT_255_2_778
10
108.2290921
20
94.336161
40
2.8122552
50
359.969278
51
11.6689198
0
ARC
8
DEFAULT_255_2_778
10
108.2460072
20
94.3316098
40
2.7953414
50
340.624302
51
0.0623774
0
ARC
8
DEFAULT_255_2_778
10
108.2383204
20
94.3385325
40
2.8048924
50
281.7959826
51
340.5429938
0
ARC
8
DEFAULT_255_2_778
10
108.2429528
20
94.3467015
40
2.8119488
50
269.9693166
51
281.6695586
0
ARC
8
DEFAULT_255_2_778
10
108.2383981
20
94.3303583
40
2.7956069
50
250.6252326
51
270.062487
0
ARC
8
DEFAULT_255_2_778
10
108.245209
20
94.3377864
40
2.8048766
50
191.7961906
51
250.5443211
0
ARC
8
DEFAULT_255_2_778
10
108.2533764
20
94.3331462
40
2.8119298
50
179.9692966
51
191.6696183
0
LINE
8
DEFAULT_255_2_778
10
105.441447
20
94.334653
11
105.441447
21
94.334653
0
LINE
8
DEFAULT_255_2_778
10
109.301947
20
93.273953
11
107.180547
21
95.395453
0
LINE
8
DEFAULT_255_2_778
10
109.301947
20
95.395453
11
107.180547
21
93.273953
0
ARC
8
DEFAULT_255_2_778
10
104.4371257
20
85.3377042
40
2.7955804
50
160.6250898
51
180.0625339
0
ARC
8
DEFAULT_255_2_778
10
104.4445872
20
85.3308633
40
2.8048915
50
101.7948804
51
160.5438283
0
ARC
8
DEFAULT_255_2_778
10
104.4400381
20
85.3224172
40
2.8122362
50
89.9692581
51
101.6689794
0
ARC
8
DEFAULT_255_2_778
10
104.4445925
20
85.3393398
40
2.7953149
50
70.6241591
51
90.0624243
0
ARC
8
DEFAULT_255_2_778
10
104.4376398
20
85.3316195
40
2.8049073
50
11.7946723
51
70.542501
0
ARC
8
DEFAULT_255_2_778
10
104.4291921
20
85.336161
40
2.8122552
50
359.969278
51
11.6689198
0
ARC
8
DEFAULT_255_2_778
10
104.4461072
20
85.3316098
40
2.7953414
50
340.624302
51
0.0623774
0
ARC
8
DEFAULT_255_2_778
10
104.4384204
20
85.3385325
40
2.8048924
50
281.7959826
51
340.5429938
0
ARC
8
DEFAULT_255_2_778
10
104.4430528
20
85.3467015
40
2.8119488
50
269.9693166
51
281.6695586
0
ARC
8
DEFAULT_255_2_778
10
104.4384981
20
85.3303583
40
2.7956069
50
250.6252326
51
270.062487
0
ARC
8
DEFAULT_255_2_778
10
104.445309
20
85.3377864
40
2.8048766
50
191.7961906
51
250.5443211
0
ARC
8
DEFAULT_255_2_778
10
104.4534764
20
85.3331462
40
2.8119298
50
179.9692966
51
191.6696183
0
LINE
8
DEFAULT_255_2_778
10
101.641547
20
85.334653
11
101.641547
21
85.334653
0
LINE
8
DEFAULT_255_2_778
10
105.502047
20
84.273953
11
103.380647
21
86.395453
0
LINE
8
DEFAULT_255_2_778
10
105.502047
20
86.395453
11
103.380647
21
84.273953
0
ARC
8
DEFAULT_255_2_778
10
112.0370257
20
85.3377042
40
2.7955804
50
160.6250898
51
180.0625339
0
ARC
8
DEFAULT_255_2_778
10
112.0444872
20
85.3308633
40
2.8048915
50
101.7948804
51
160.5438283
0
ARC
8
DEFAULT_255_2_778
10
112.0399381
20
85.3224172
40
2.8122362
50
89.9692581
51
101.6689794
0
ARC
8
DEFAULT_255_2_778
10
112.0444925
20
85.3393398
40
2.7953149
50
70.6241591
51
90.0624243
0
ARC
8
DEFAULT_255_2_778
10
112.0375398
20
85.3316195
40
2.8049073
50
11.7946723
51
70.542501
0
ARC
8
DEFAULT_255_2_778
10
112.0290921
20
85.336161
40
2.8122552
50
359.969278
51
11.6689198
0
ARC
8
DEFAULT_255_2_778
10
112.0460072
20
85.3316098
40
2.7953414
50
340.624302
51
0.0623774
0
ARC
8
DEFAULT_255_2_778
10
112.0383204
20
85.3385325
40
2.8048924
50
281.7959826
51
340.5429938
0
ARC
8
DEFAULT_255_2_778
10
112.0429528
20
85.3467015
40
2.8119488
50
269.9693166
51
281.6695586
0
ARC
8
DEFAULT_255_2_778
10
112.0383981
20
85.3303583
40
2.7956069
50
250.6252326
51
270.062487
0
ARC
8
DEFAULT_255_2_778
10
112.045209
20
85.3377864
40
2.8048766
50
191.7961906
51
250.5443211
0
ARC
8
DEFAULT_255_2_778
10
112.0533764
20
85.3331462
40
2.8119298
50
179.9692966
51
191.6696183
0
LINE
8
DEFAULT_255_2_778
10
109.241447
20
85.334653
11
109.241447
21
85.334653
0
LINE
8
DEFAULT_255_2_778
10
113.101947
20
84.273953
11
110.980547
21
86.395453
0
LINE
8
DEFAULT_255_2_778
10
113.101947
20
86.395453
11
110.980547
21
84.273953
0
ARC
8
DEFAULT_255_2_778
10
119.6371257
20
85.3377042
40
2.7955804
50
160.6250898
51
180.0625339
0
ARC
8
DEFAULT_255_2_778
10
119.6445872
20
85.3308633
40
2.8048915
50
101.7948804
51
160.5438283
0
ARC
8
DEFAULT_255_2_778
10
119.6400381
20
85.3224172
40
2.8122362
50
89.9692581
51
101.6689794
0
ARC
8
DEFAULT_255_2_778
10
119.6445925
20
85.3393398
40
2.7953149
50
70.6241591
51
90.0624243
0
ARC
8
DEFAULT_255_2_778
10
119.6376398
20
85.3316195
40
2.8049073
50
11.7946723
51
70.542501
0
ARC
8
DEFAULT_255_2_778
10
119.6291921
20
85.336161
40
2.8122552
50
359.969278
51
11.6689198
0
ARC
8
DEFAULT_255_2_778
10
119.6461072
20
85.3316098
40
2.7953414
50
340.624302
51
0.0623774
0
ARC
8
DEFAULT_255_2_778
10
119.6384204
20
85.3385325
40
2.8048924
50
281.7959826
51
340.5429938
0
ARC
8
DEFAULT_255_2_778
10
119.6430528
20
85.3467015
40
2.8119488
50
269.9693166
51
281.6695586
0
ARC
8
DEFAULT_255_2_778
10
119.6384981
20
85.3303583
40
2.7956069
50
250.6252326
51
270.062487
0
ARC
8
DEFAULT_255_2_778
10
119.645309
20
85.3377864
40
2.8048766
50
191.7961906
51
250.5443211
0
ARC
8
DEFAULT_255_2_778
10
119.6534764
20
85.3331462
40
2.8119298
50
179.9692966
51
191.6696183
0
LINE
8
DEFAULT_255_2_778
10
116.841547
20
85.334653
11
116.841547
21
85.334653
0
LINE
8
DEFAULT_255_2_778
10
120.702047
20
84.273953
11
118.580647
21
86.395453
0
LINE
8
DEFAULT_255_2_778
10
120.702047
20
86.395453
11
118.580647
21
84.273953
0
ARC
8
DEFAULT_255_2_778
10
138.6371257
20
94.3377042
40
2.7955804
50
160.6250898
51
180.0625339
0
ARC
8
DEFAULT_255_2_778
10
138.6445872
20
94.3308633
40
2.8048915
50
101.7948804
51
160.5438283
0
ARC
8
DEFAULT_255_2_778
10
138.6400381
20
94.3224172
40
2.8122362
50
89.9692581
51
101.6689794
0
ARC
8
DEFAULT_255_2_778
10
138.6445925
20
94.3393398
40
2.7953149
50
70.6241591
51
90.0624243
0
ARC
8
DEFAULT_255_2_778
10
138.6376398
20
94.3316195
40
2.8049073
50
11.7946723
51
70.542501
0
ARC
8
DEFAULT_255_2_778
10
138.6291921
20
94.336161
40
2.8122552
50
359.969278
51
11.6689198
0
ARC
8
DEFAULT_255_2_778
10
138.6461072
20
94.3316098
40
2.7953414
50
340.624302
51
0.0623774
0
ARC
8
DEFAULT_255_2_778
10
138.6384204
20
94.3385325
40
2.8048924
50
281.7959826
51
340.5429938
0
ARC
8
DEFAULT_255_2_778
10
138.6430528
20
94.3467015
40
2.8119488
50
269.9693166
51
281.6695586
0
ARC
8
DEFAULT_255_2_778
10
138.6384981
20
94.3303583
40
2.7956069
50
250.6252326
51
270.062487
0
ARC
8
DEFAULT_255_2_778
10
138.645309
20
94.3377864
40
2.8048766
50
191.7961906
51
250.5443211
0
ARC
8
DEFAULT_255_2_778
10
138.6534764
20
94.3331462
40
2.8119298
50
179.9692966
51
191.6696183
0
LINE
8
DEFAULT_255_2_778
10
135.841547
20
94.334653
11
135.841547
21
94.334653
0
LINE
8
DEFAULT_255_2_778
10
139.702047
20
93.273953
11
137.580647
21
95.395453
0
LINE
8
DEFAULT_255_2_778
10
139.702047
20
95.395453
11
137.580647
21
93.273953
0
ARC
8
DEFAULT_255_2_778
10
134.8372257
20
85.3377042
40
2.7955804
50
160.6250898
51
180.0625339
0
ARC
8
DEFAULT_255_2_778
10
134.8446872
20
85.3308633
40
2.8048915
50
101.7948804
51
160.5438283
0
ARC
8
DEFAULT_255_2_778
10
134.8401381
20
85.3224172
40
2.8122362
50
89.9692581
51
101.6689794
0
ARC
8
DEFAULT_255_2_778
10
134.8446925
20
85.3393398
40
2.7953149
50
70.6241591
51
90.0624243
0
ARC
8
DEFAULT_255_2_778
10
134.8377398
20
85.3316195
40
2.8049073
50
11.7946723
51
70.542501
0
ARC
8
DEFAULT_255_2_778
10
134.8292921
20
85.336161
40
2.8122552
50
359.969278
51
11.6689198
0
ARC
8
DEFAULT_255_2_778
10
134.8462072
20
85.3316098
40
2.7953414
50
340.624302
51
0.0623774
0
ARC
8
DEFAULT_255_2_778
10
134.8385204
20
85.3385325
40
2.8048924
50
281.7959826
51
340.5429938
0
ARC
8
DEFAULT_255_2_778
10
134.8431528
20
85.3467015
40
2.8119488
50
269.9693166
51
281.6695586
0
ARC
8
DEFAULT_255_2_778
10
134.8385981
20
85.3303583
40
2.7956069
50
250.6252326
51
270.062487
0
ARC
8
DEFAULT_255_2_778
10
134.845409
20
85.3377864
40
2.8048766
50
191.7961906
51
250.5443211
0
ARC
8
DEFAULT_255_2_778
10
134.8535764
20
85.3331462
40
2.8119298
50
179.9692966
51
191.6696183
0
LINE
8
DEFAULT_255_2_778
10
132.041647
20
85.334653
11
132.041647
21
85.334653
0
LINE
8
DEFAULT_255_2_778
10
135.902147
20
84.273953
11
133.780747
21
86.395453
0
LINE
8
DEFAULT_255_2_778
10
135.902147
20
86.395453
11
133.780747
21
84.273953
0
LINE
8
DEFAULT_255_2_778
10
40.4915605
20
23.6113
11
31.3914605
21
23.6113
0
LINE
8
DEFAULT_255_2_778
10
40.9916303
20
25.3348623
11
30.8917303
21
25.3348623
0
LINE
8
DEFAULT_255_2_778
10
30.8917303
20
25.3348623
11
30.8917303
21
11.6347623
0
LINE
8
DEFAULT_255_2_778
10
30.8917303
20
11.6347623
11
40.9916303
21
11.6347623
0
LINE
8
DEFAULT_255_2_778
10
40.9916303
20
11.6347623
11
40.9916303
21
25.3348623
0
LINE
8
DEFAULT_255_2_778
10
40.4915544
20
24.4847561
11
31.3914544
21
24.4847561
0
LINE
8
DEFAULT_255_2_778
10
31.3914544
20
24.4847561
11
31.3914544
21
12.4848561
0
LINE
8
DEFAULT_255_2_778
10
31.3914544
20
12.4848561
11
40.4915544
21
12.4848561
0
LINE
8
DEFAULT_255_2_778
10
40.4915544
20
12.4848561
11
40.4915544
21
24.4847561
0
LINE
8
DEFAULT_255_2_778
10
26.3416544
20
16.8348561
11
27.1417544
21
16.8348561
0
LINE
8
DEFAULT_255_2_778
10
27.1417544
20
16.8348561
11
27.1417544
21
20.8348561
0
LINE
8
DEFAULT_255_2_778
10
27.1417544
20
20.8348561
11
26.3416544
21
20.8348561
0
LINE
8
DEFAULT_255_2_778
10
26.3416544
20
20.8348561
11
26.3416544
21
16.8348561
0
LINE
8
DEFAULT_255_2_778
10
25.4915544
20
16.1350561
11
25.4915544
21
21.5349561
0
LINE
8
DEFAULT_255_2_778
10
25.4915544
20
21.5349561
11
27.9915544
21
21.5349561
0
LINE
8
DEFAULT_255_2_778
10
27.9915544
20
21.5349561
11
27.9915544
21
16.1350561
0
LINE
8
DEFAULT_255_2_778
10
27.9915544
20
16.1350561
11
25.4915544
21
16.1350561
0
LINE
8
DEFAULT_255_2_778
10
24.9414544
20
15.5849561
11
28.5413544
21
15.5849561
0
LINE
8
DEFAULT_255_2_778
10
28.5413544
20
15.5849561
11
28.5413544
21
22.0849561
0
LINE
8
DEFAULT_255_2_778
10
28.5413544
20
22.0849561
11
24.9414544
21
22.0849561
0
LINE
8
DEFAULT_255_2_778
10
24.9414544
20
22.0849561
11
24.9414544
21
15.5849561
0
LINE
8
DEFAULT_255_2_778
10
39.5114781
20
21.7849
11
37.8914781
21
21.7849
0
ARC
8
DEFAULT_255_2_778
10
39.1414469
20
18.09275
40
2.0393784
50
246.9063912
51
269.9848644
0
LINE
8
DEFAULT_255_2_778
10
39.1409082
20
16.0533718
11
39.1415198
21
16.0533717
0
ARC
8
DEFAULT_255_2_778
10
39.1416289
20
18.0922066
40
2.0388349
50
269.9969351
51
293.096726
0
ARC
8
DEFAULT_255_2_778
10
39.1411798
20
18.534616
40
0.8003338
50
0.0080918
51
59.9862022
0
ARC
8
DEFAULT_255_2_778
10
39.1417838
20
18.5366192
40
0.7982972
50
59.9518248
51
89.9996612
0
LINE
8
DEFAULT_255_2_778
10
39.1417885
20
19.3349165
11
39.1416433
21
19.3349165
0
ARC
8
DEFAULT_255_2_778
10
39.1416527
20
18.5347219
40
0.8001946
50
90.0006723
51
120.0117212
0
ARC
8
DEFAULT_255_2_778
10
39.140804
20
18.535045
40
0.7994907
50
119.9706376
51
180.0226449
0
ARC
8
DEFAULT_255_2_778
10
38.9932302
20
14.6232521
40
1.6022024
50
114.009482
51
120.033678
0
ARC
8
DEFAULT_255_2_778
10
39.1408981
20
16.6388566
40
1.9997639
50
241.6505269
51
267.3775311
0
ARC
8
DEFAULT_255_2_778
10
39.1412752
20
16.642305
40
2.003226
50
267.3712677
51
270.0000239
0
LINE
8
DEFAULT_255_2_778
10
39.1412761
20
14.639079
11
39.1416807
21
14.639079
0
ARC
8
DEFAULT_255_2_778
10
39.1415257
20
16.6395179
40
2.0004389
50
270.0044391
51
297.3859786
0
ARC
8
DEFAULT_255_2_778
10
39.137724
20
16.6471588
40
2.0089723
50
297.3820144
51
298.3375642
0
ARC
8
DEFAULT_255_2_778
10
39.2782427
20
14.6013812
40
1.62672
50
60.0117592
51
65.9450777
0
LINE
8
DEFAULT_255_2_778
10
39.9415136
20
16.086829
11
39.9415136
21
18.534729
0
LINE
8
DEFAULT_255_2_778
10
38.3413136
20
18.534729
11
38.3413136
21
16.086829
0
LINE
8
DEFAULT_255_2_778
10
38.1913136
20
16.010329
11
38.1913136
21
14.878929
0
LINE
8
DEFAULT_255_2_778
10
40.0913136
20
14.878929
11
40.0913136
21
16.010329
0
LINE
8
DEFAULT_255_2_778
10
39.9414323
20
17.4888708
11
39.9134323
21
17.5131708
0
LINE
8
DEFAULT_255_2_778
10
39.9134323
20
17.5131708
11
38.3695323
21
17.5131708
0
LINE
8
DEFAULT_255_2_778
10
38.3695323
20
17.5131708
11
38.3415323
21
17.4888708
0
LINE
8
DEFAULT_255_2_778
10
37.0114781
20
21.7849
11
35.3914781
21
21.7849
0
ARC
8
DEFAULT_255_2_778
10
36.6413636
20
18.0923433
40
2.0389715
50
246.9040612
51
270.0033363
0
ARC
8
DEFAULT_255_2_778
10
36.641601
20
18.0923433
40
2.0389715
50
269.9966637
51
293.0959388
0
ARC
8
DEFAULT_255_2_778
10
36.6410798
20
18.534616
40
0.8003338
50
0.0080918
51
59.9862022
0
ARC
8
DEFAULT_255_2_778
10
36.6416838
20
18.5366192
40
0.7982972
50
59.9518248
51
89.9996612
0
LINE
8
DEFAULT_255_2_778
10
36.6416885
20
19.3349165
11
36.6415433
21
19.3349165
0
ARC
8
DEFAULT_255_2_778
10
36.6415527
20
18.5347219
40
0.8001946
50
90.0006723
51
120.0117212
0
ARC
8
DEFAULT_255_2_778
10
36.640704
20
18.535045
40
0.7994907
50
119.9706376
51
180.0226449
0
ARC
8
DEFAULT_255_2_778
10
36.4931302
20
14.6232521
40
1.6022024
50
114.009482
51
120.033678
0
ARC
8
DEFAULT_255_2_778
10
36.6407981
20
16.6388566
40
1.9997639
50
241.6505269
51
267.3775311
0
ARC
8
DEFAULT_255_2_778
10
36.6411752
20
16.642305
40
2.003226
50
267.3712677
51
270.0000239
0
LINE
8
DEFAULT_255_2_778
10
36.6411761
20
14.639079
11
36.6415807
21
14.639079
0
ARC
8
DEFAULT_255_2_778
10
36.6414257
20
16.6395179
40
2.0004389
50
270.0044391
51
297.3859786
0
ARC
8
DEFAULT_255_2_778
10
36.637624
20
16.6471588
40
2.0089723
50
297.3820144
51
298.3375642
0
ARC
8
DEFAULT_255_2_778
10
36.7781427
20
14.6013812
40
1.62672
50
60.0117592
51
65.9450777
0
LINE
8
DEFAULT_255_2_778
10
37.4414136
20
16.086829
11
37.4414136
21
18.534729
0
LINE
8
DEFAULT_255_2_778
10
35.8412136
20
18.534729
11
35.8412136
21
16.086829
0
LINE
8
DEFAULT_255_2_778
10
35.6912136
20
16.010329
11
35.6912136
21
14.878929
0
LINE
8
DEFAULT_255_2_778
10
37.5912136
20
14.878929
11
37.5912136
21
16.010329
0
LINE
8
DEFAULT_255_2_778
10
37.4414323
20
17.4888708
11
37.4134323
21
17.5131708
0
LINE
8
DEFAULT_255_2_778
10
37.4134323
20
17.5131708
11
35.8695323
21
17.5131708
0
LINE
8
DEFAULT_255_2_778
10
35.8695323
20
17.5131708
11
35.8415323
21
17.4888708
0
LINE
8
DEFAULT_255_2_778
10
34.5116781
20
21.7849
11
32.8916781
21
21.7849
0
ARC
8
DEFAULT_255_2_778
10
34.1412636
20
18.0923433
40
2.0389715
50
246.9040612
51
270.0033363
0
ARC
8
DEFAULT_255_2_778
10
34.141501
20
18.0923433
40
2.0389715
50
269.9966637
51
293.0959388
0
ARC
8
DEFAULT_255_2_778
10
34.1410798
20
18.534616
40
0.8003338
50
0.0080918
51
59.9862022
0
ARC
8
DEFAULT_255_2_778
10
34.1416838
20
18.5366192
40
0.7982972
50
59.9518248
51
89.9996612
0
LINE
8
DEFAULT_255_2_778
10
34.1416885
20
19.3349165
11
34.1415433
21
19.3349165
0
ARC
8
DEFAULT_255_2_778
10
34.1415527
20
18.5347219
40
0.8001946
50
90.0006723
51
120.0117212
0
ARC
8
DEFAULT_255_2_778
10
34.140704
20
18.535045
40
0.7994907
50
119.9706376
51
180.0226449
0
ARC
8
DEFAULT_255_2_778
10
33.9931302
20
14.6232521
40
1.6022024
50
114.009482
51
120.033678
0
ARC
8
DEFAULT_255_2_778
10
34.1407981
20
16.6388566
40
1.9997639
50
241.6505269
51
267.3775311
0
ARC
8
DEFAULT_255_2_778
10
34.1411752
20
16.642305
40
2.003226
50
267.3712677
51
270.0000239
0
LINE
8
DEFAULT_255_2_778
10
34.1411761
20
14.639079
11
34.1415807
21
14.639079
0
ARC
8
DEFAULT_255_2_778
10
34.1414257
20
16.6395179
40
2.0004389
50
270.0044391
51
297.3859786
0
ARC
8
DEFAULT_255_2_778
10
34.137624
20
16.6471588
40
2.0089723
50
297.3820144
51
298.3375642
0
ARC
8
DEFAULT_255_2_778
10
34.2781427
20
14.6013812
40
1.62672
50
60.0117592
51
65.9450777
0
LINE
8
DEFAULT_255_2_778
10
34.9414136
20
16.086829
11
34.9414136
21
18.534729
0
LINE
8
DEFAULT_255_2_778
10
33.3412136
20
18.534729
11
33.3412136
21
16.086829
0
LINE
8
DEFAULT_255_2_778
10
33.1912136
20
16.010329
11
33.1912136
21
14.878929
0
LINE
8
DEFAULT_255_2_778
10
35.0912136
20
14.878929
11
35.0912136
21
16.010329
0
LINE
8
DEFAULT_255_2_778
10
34.9413323
20
17.4888708
11
34.9133323
21
17.5131708
0
LINE
8
DEFAULT_255_2_778
10
34.9133323
20
17.5131708
11
33.3694323
21
17.5131708
0
LINE
8
DEFAULT_255_2_778
10
33.3694323
20
17.5131708
11
33.3414323
21
17.4888708
0
LINE
8
DEFAULT_255_2_778
10
37.8914542
20
22.4847343
11
39.5115542
21
22.4847343
0
LINE
8
DEFAULT_255_2_778
10
39.5115542
20
22.4847343
11
39.5115542
21
19.7846343
0
LINE
8
DEFAULT_255_2_778
10
39.5115542
20
19.7846343
11
37.8914542
21
19.7846343
0
LINE
8
DEFAULT_255_2_778
10
37.8914542
20
19.7846343
11
37.8914542
21
22.4847343
0
LINE
8
DEFAULT_255_2_778
10
35.3914542
20
22.4847343
11
35.3914542
21
19.7846343
0
LINE
8
DEFAULT_255_2_778
10
35.3914542
20
19.7846343
11
37.0114542
21
19.7846343
0
LINE
8
DEFAULT_255_2_778
10
37.0114542
20
19.7846343
11
37.0114542
21
22.4847343
0
LINE
8
DEFAULT_255_2_778
10
37.0114542
20
22.4847343
11
35.3914542
21
22.4847343
0
LINE
8
DEFAULT_255_2_778
10
38.3415542
20
17.1848343
11
37.4414542
21
17.1848343
0
LINE
8
DEFAULT_255_2_778
10
37.4414448
20
18.1548378
11
38.3416448
21
18.1548378
0
LINE
8
DEFAULT_255_2_778
10
37.2909448
20
19.0020378
11
38.4924448
21
19.0020378
0
LINE
8
DEFAULT_255_2_778
10
37.0115448
20
21.3848378
11
37.8915448
21
21.3848378
0
LINE
8
DEFAULT_255_2_778
10
35.8418448
20
17.1848378
11
34.9417448
21
17.1848378
0
LINE
8
DEFAULT_255_2_778
10
34.9417448
20
18.1548378
11
35.8418448
21
18.1548378
0
LINE
8
DEFAULT_255_2_778
10
34.7909448
20
19.0020378
11
35.9923448
21
19.0020378
0
LINE
8
DEFAULT_255_2_778
10
34.5115448
20
21.3848378
11
35.3915448
21
21.3848378
0
LINE
8
DEFAULT_255_2_778
10
39.9415448
20
18.1548378
11
40.4916448
21
18.1548378
0
LINE
8
DEFAULT_255_2_778
10
40.4916448
20
17.1848378
11
39.9415448
21
17.1848378
0
LINE
8
DEFAULT_255_2_778
10
150.1415448
20
39.2847378
11
148.5416448
21
39.2847378
0
LINE
8
DEFAULT_255_2_778
10
148.5416448
20
39.2847378
11
148.5416448
21
38.2345378
0
LINE
8
DEFAULT_255_2_778
10
148.5416448
20
38.2345378
11
141.3415448
21
38.2345378
0
LINE
8
DEFAULT_255_2_778
10
141.3415448
20
38.2345378
11
141.3415448
21
71.4345378
0
LINE
8
DEFAULT_255_2_778
10
141.3415448
20
71.4345378
11
148.5416448
21
71.4345378
0
LINE
8
DEFAULT_255_2_778
10
148.5416448
20
71.4345378
11
148.5416448
21
70.3843378
0
LINE
8
DEFAULT_255_2_778
10
148.5416448
20
70.3843378
11
150.1415448
21
70.3843378
0
LINE
8
DEFAULT_255_2_778
10
150.1415448
20
72.8349378
11
141.1414448
21
72.8349378
0
LINE
8
DEFAULT_255_2_778
10
141.1414448
20
72.8349378
11
141.1414448
21
36.8349378
0
LINE
8
DEFAULT_255_2_778
10
141.1414448
20
36.8349378
11
150.1415448
21
36.8349378
0
LINE
8
DEFAULT_255_2_778
10
143.5915448
20
27.4348378
11
46.2915448
21
27.4348378
0
LINE
8
DEFAULT_255_2_778
10
145.8415448
20
28.8347378
11
44.0415448
21
28.8347378
0
LINE
8
DEFAULT_255_2_778
10
1.9103448
20
72.3348378
11
1.9103448
21
50.2347378
0
LINE
8
DEFAULT_255_2_778
10
0.5416448
20
72.4849378
11
0.5416448
21
50.0850378
0
ARC
8
DEFAULT_255_2_778
10
37.3378466
20
48.6360486
40
0.9962403
50
138.3561595
51
180.0837306
0
ARC
8
DEFAULT_255_2_778
10
37.3404384
20
48.6370578
40
0.9975096
50
91.7301295
51
138.4984071
0
ARC
8
DEFAULT_255_2_778
10
37.3415976
20
48.615837
40
1.0187558
50
89.9994546
51
91.7592604
0
ARC
8
DEFAULT_255_2_778
10
37.3430632
20
48.6383534
40
0.9962403
50
48.3561595
51
90.0837306
0
ARC
8
DEFAULT_255_2_778
10
37.3440725
20
48.6357616
40
0.9975096
50
1.7301295
51
48.4984071
0
ARC
8
DEFAULT_255_2_778
10
37.3228517
20
48.6346024
40
1.0187558
50
359.9994546
51
1.7592604
0
ARC
8
DEFAULT_255_2_778
10
37.3453681
20
48.6331368
40
0.9962403
50
318.3561595
51
0.0837306
0
ARC
8
DEFAULT_255_2_778
10
37.3427762
20
48.6321275
40
0.9975096
50
271.7301295
51
318.4984071
0
ARC
8
DEFAULT_255_2_778
10
37.341617
20
48.6533483
40
1.0187558
50
269.9994546
51
271.7592604
0
ARC
8
DEFAULT_255_2_778
10
37.3401514
20
48.6308319
40
0.9962403
50
228.3561595
51
270.0837306
0
ARC
8
DEFAULT_255_2_778
10
37.3391422
20
48.6334238
40
0.9975096
50
181.7301295
51
228.4984071
0
ARC
8
DEFAULT_255_2_778
10
37.360363
20
48.634583
40
1.0187558
50
179.9994546
51
181.7592604
0
LINE
8
DEFAULT_255_2_778
10
36.3416073
20
48.6345927
11
36.3416073
21
48.6345927
0
ARC
8
DEFAULT_255_2_778
10
37.3378466
20
45.6361486
40
0.9962403
50
138.3561595
51
180.0837306
0
ARC
8
DEFAULT_255_2_778
10
37.3404384
20
45.6371578
40
0.9975096
50
91.7301295
51
138.4984071
0
ARC
8
DEFAULT_255_2_778
10
37.3415976
20
45.615937
40
1.0187558
50
89.9994546
51
91.7592604
0
ARC
8
DEFAULT_255_2_778
10
37.3430632
20
45.6384534
40
0.9962403
50
48.3561595
51
90.0837306
0
ARC
8
DEFAULT_255_2_778
10
37.3440725
20
45.6358616
40
0.9975096
50
1.7301295
51
48.4984071
0
ARC
8
DEFAULT_255_2_778
10
37.3228517
20
45.6347024
40
1.0187558
50
359.9994546
51
1.7592604
0
ARC
8
DEFAULT_255_2_778
10
37.3453681
20
45.6332368
40
0.9962403
50
318.3561595
51
0.0837306
0
ARC
8
DEFAULT_255_2_778
10
37.3427762
20
45.6322275
40
0.9975096
50
271.7301295
51
318.4984071
0
ARC
8
DEFAULT_255_2_778
10
37.341617
20
45.6534483
40
1.0187558
50
269.9994546
51
271.7592604
0
ARC
8
DEFAULT_255_2_778
10
37.3401514
20
45.6309319
40
0.9962403
50
228.3561595
51
270.0837306
0
ARC
8
DEFAULT_255_2_778
10
37.3391422
20
45.6335238
40
0.9975096
50
181.7301295
51
228.4984071
0
ARC
8
DEFAULT_255_2_778
10
37.360363
20
45.634683
40
1.0187558
50
179.9994546
51
181.7592604
0
LINE
8
DEFAULT_255_2_778
10
36.3416073
20
45.6346927
11
36.3416073
21
45.6346927
0
ARC
8
DEFAULT_255_2_778
10
37.3378466
20
48.6360486
40
0.9962403
50
138.3561595
51
180.0837306
0
ARC
8
DEFAULT_255_2_778
10
37.3404384
20
48.6370578
40
0.9975096
50
91.7301295
51
138.4984071
0
ARC
8
DEFAULT_255_2_778
10
37.3415976
20
48.615837
40
1.0187558
50
89.9994546
51
91.7592604
0
ARC
8
DEFAULT_255_2_778
10
37.3430632
20
48.6383534
40
0.9962403
50
48.3561595
51
90.0837306
0
ARC
8
DEFAULT_255_2_778
10
37.3440725
20
48.6357616
40
0.9975096
50
1.7301295
51
48.4984071
0
ARC
8
DEFAULT_255_2_778
10
37.3228517
20
48.6346024
40
1.0187558
50
359.9994546
51
1.7592604
0
ARC
8
DEFAULT_255_2_778
10
37.3453681
20
48.6331368
40
0.9962403
50
318.3561595
51
0.0837306
0
ARC
8
DEFAULT_255_2_778
10
37.3427762
20
48.6321275
40
0.9975096
50
271.7301295
51
318.4984071
0
ARC
8
DEFAULT_255_2_778
10
37.341617
20
48.6533483
40
1.0187558
50
269.9994546
51
271.7592604
0
ARC
8
DEFAULT_255_2_778
10
37.3401514
20
48.6308319
40
0.9962403
50
228.3561595
51
270.0837306
0
ARC
8
DEFAULT_255_2_778
10
37.3391422
20
48.6334238
40
0.9975096
50
181.7301295
51
228.4984071
0
ARC
8
DEFAULT_255_2_778
10
37.360363
20
48.634583
40
1.0187558
50
179.9994546
51
181.7592604
0
LINE
8
DEFAULT_255_2_778
10
36.3416073
20
48.6345927
11
36.3416073
21
48.6345927
0
ARC
8
DEFAULT_255_2_778
10
37.3378466
20
42.6360486
40
0.9962403
50
138.3561595
51
180.0837306
0
ARC
8
DEFAULT_255_2_778
10
37.3404384
20
42.6370578
40
0.9975096
50
91.7301295
51
138.4984071
0
ARC
8
DEFAULT_255_2_778
10
37.3415976
20
42.615837
40
1.0187558
50
89.9994546
51
91.7592604
0
ARC
8
DEFAULT_255_2_778
10
37.3430632
20
42.6383534
40
0.9962403
50
48.3561595
51
90.0837306
0
ARC
8
DEFAULT_255_2_778
10
37.3440725
20
42.6357616
40
0.9975096
50
1.7301295
51
48.4984071
0
ARC
8
DEFAULT_255_2_778
10
37.3228517
20
42.6346024
40
1.0187558
50
359.9994546
51
1.7592604
0
ARC
8
DEFAULT_255_2_778
10
37.3453681
20
42.6331368
40
0.9962403
50
318.3561595
51
0.0837306
0
ARC
8
DEFAULT_255_2_778
10
37.3427762
20
42.6321275
40
0.9975096
50
271.7301295
51
318.4984071
0
ARC
8
DEFAULT_255_2_778
10
37.341617
20
42.6533483
40
1.0187558
50
269.9994546
51
271.7592604
0
ARC
8
DEFAULT_255_2_778
10
37.3401514
20
42.6308319
40
0.9962403
50
228.3561595
51
270.0837306
0
ARC
8
DEFAULT_255_2_778
10
37.3391422
20
42.6334238
40
0.9975096
50
181.7301295
51
228.4984071
0
ARC
8
DEFAULT_255_2_778
10
37.360363
20
42.634583
40
1.0187558
50
179.9994546
51
181.7592604
0
LINE
8
DEFAULT_255_2_778
10
36.3416073
20
42.6345927
11
36.3416073
21
42.6345927
0
ARC
8
DEFAULT_255_2_778
10
37.3378466
20
60.6361486
40
0.9962403
50
138.3561595
51
180.0837306
0
ARC
8
DEFAULT_255_2_778
10
37.3404384
20
60.6371578
40
0.9975096
50
91.7301295
51
138.4984071
0
ARC
8
DEFAULT_255_2_778
10
37.3415976
20
60.615937
40
1.0187558
50
89.9994546
51
91.7592604
0
ARC
8
DEFAULT_255_2_778
10
37.3430632
20
60.6384534
40
0.9962403
50
48.3561595
51
90.0837306
0
ARC
8
DEFAULT_255_2_778
10
37.3440725
20
60.6358616
40
0.9975096
50
1.7301295
51
48.4984071
0
ARC
8
DEFAULT_255_2_778
10
37.3228517
20
60.6347024
40
1.0187558
50
359.9994546
51
1.7592604
0
ARC
8
DEFAULT_255_2_778
10
37.3453681
20
60.6332368
40
0.9962403
50
318.3561595
51
0.0837306
0
ARC
8
DEFAULT_255_2_778
10
37.3427762
20
60.6322275
40
0.9975096
50
271.7301295
51
318.4984071
0
ARC
8
DEFAULT_255_2_778
10
37.341617
20
60.6534483
40
1.0187558
50
269.9994546
51
271.7592604
0
ARC
8
DEFAULT_255_2_778
10
37.3401514
20
60.6309319
40
0.9962403
50
228.3561595
51
270.0837306
0
ARC
8
DEFAULT_255_2_778
10
37.3391422
20
60.6335238
40
0.9975096
50
181.7301295
51
228.4984071
0
ARC
8
DEFAULT_255_2_778
10
37.360363
20
60.634683
40
1.0187558
50
179.9994546
51
181.7592604
0
LINE
8
DEFAULT_255_2_778
10
36.3416073
20
60.6346927
11
36.3416073
21
60.6346927
0
ARC
8
DEFAULT_255_2_778
10
37.3378466
20
63.6360486
40
0.9962403
50
138.3561595
51
180.0837306
0
ARC
8
DEFAULT_255_2_778
10
37.3404384
20
63.6370578
40
0.9975096
50
91.7301295
51
138.4984071
0
ARC
8
DEFAULT_255_2_778
10
37.3415976
20
63.615837
40
1.0187558
50
89.9994546
51
91.7592604
0
ARC
8
DEFAULT_255_2_778
10
37.3430632
20
63.6383534
40
0.9962403
50
48.3561595
51
90.0837306
0
ARC
8
DEFAULT_255_2_778
10
37.3440725
20
63.6357616
40
0.9975096
50
1.7301295
51
48.4984071
0
ARC
8
DEFAULT_255_2_778
10
37.3228517
20
63.6346024
40
1.0187558
50
359.9994546
51
1.7592604
0
ARC
8
DEFAULT_255_2_778
10
37.3453681
20
63.6331368
40
0.9962403
50
318.3561595
51
0.0837306
0
ARC
8
DEFAULT_255_2_778
10
37.3427762
20
63.6321275
40
0.9975096
50
271.7301295
51
318.4984071
0
ARC
8
DEFAULT_255_2_778
10
37.341617
20
63.6533483
40
1.0187558
50
269.9994546
51
271.7592604
0
ARC
8
DEFAULT_255_2_778
10
37.3401514
20
63.6308319
40
0.9962403
50
228.3561595
51
270.0837306
0
ARC
8
DEFAULT_255_2_778
10
37.3391422
20
63.6334238
40
0.9975096
50
181.7301295
51
228.4984071
0
ARC
8
DEFAULT_255_2_778
10
37.360363
20
63.634583
40
1.0187558
50
179.9994546
51
181.7592604
0
LINE
8
DEFAULT_255_2_778
10
36.3416073
20
63.6345927
11
36.3416073
21
63.6345927
0
ARC
8
DEFAULT_255_2_778
10
37.3378466
20
60.6361486
40
0.9962403
50
138.3561595
51
180.0837306
0
ARC
8
DEFAULT_255_2_778
10
37.3404384
20
60.6371578
40
0.9975096
50
91.7301295
51
138.4984071
0
ARC
8
DEFAULT_255_2_778
10
37.3415976
20
60.615937
40
1.0187558
50
89.9994546
51
91.7592604
0
ARC
8
DEFAULT_255_2_778
10
37.3430632
20
60.6384534
40
0.9962403
50
48.3561595
51
90.0837306
0
ARC
8
DEFAULT_255_2_778
10
37.3440725
20
60.6358616
40
0.9975096
50
1.7301295
51
48.4984071
0
ARC
8
DEFAULT_255_2_778
10
37.3228517
20
60.6347024
40
1.0187558
50
359.9994546
51
1.7592604
0
ARC
8
DEFAULT_255_2_778
10
37.3453681
20
60.6332368
40
0.9962403
50
318.3561595
51
0.0837306
0
ARC
8
DEFAULT_255_2_778
10
37.3427762
20
60.6322275
40
0.9975096
50
271.7301295
51
318.4984071
0
ARC
8
DEFAULT_255_2_778
10
37.341617
20
60.6534483
40
1.0187558
50
269.9994546
51
271.7592604
0
ARC
8
DEFAULT_255_2_778
10
37.3401514
20
60.6309319
40
0.9962403
50
228.3561595
51
270.0837306
0
ARC
8
DEFAULT_255_2_778
10
37.3391422
20
60.6335238
40
0.9975096
50
181.7301295
51
228.4984071
0
ARC
8
DEFAULT_255_2_778
10
37.360363
20
60.634683
40
1.0187558
50
179.9994546
51
181.7592604
0
LINE
8
DEFAULT_255_2_778
10
36.3416073
20
60.6346927
11
36.3416073
21
60.6346927
0
ARC
8
DEFAULT_255_2_778
10
37.3378466
20
57.6360486
40
0.9962403
50
138.3561595
51
180.0837306
0
ARC
8
DEFAULT_255_2_778
10
37.3404384
20
57.6370578
40
0.9975096
50
91.7301295
51
138.4984071
0
ARC
8
DEFAULT_255_2_778
10
37.3415976
20
57.615837
40
1.0187558
50
89.9994546
51
91.7592604
0
ARC
8
DEFAULT_255_2_778
10
37.3430632
20
57.6383534
40
0.9962403
50
48.3561595
51
90.0837306
0
ARC
8
DEFAULT_255_2_778
10
37.3440725
20
57.6357616
40
0.9975096
50
1.7301295
51
48.4984071
0
ARC
8
DEFAULT_255_2_778
10
37.3228517
20
57.6346024
40
1.0187558
50
359.9994546
51
1.7592604
0
ARC
8
DEFAULT_255_2_778
10
37.3453681
20
57.6331368
40
0.9962403
50
318.3561595
51
0.0837306
0
ARC
8
DEFAULT_255_2_778
10
37.3427762
20
57.6321275
40
0.9975096
50
271.7301295
51
318.4984071
0
ARC
8
DEFAULT_255_2_778
10
37.341617
20
57.6533483
40
1.0187558
50
269.9994546
51
271.7592604
0
ARC
8
DEFAULT_255_2_778
10
37.3401514
20
57.6308319
40
0.9962403
50
228.3561595
51
270.0837306
0
ARC
8
DEFAULT_255_2_778
10
37.3391422
20
57.6334238
40
0.9975096
50
181.7301295
51
228.4984071
0
ARC
8
DEFAULT_255_2_778
10
37.360363
20
57.634583
40
1.0187558
50
179.9994546
51
181.7592604
0
LINE
8
DEFAULT_255_2_778
10
36.3416073
20
57.6345927
11
36.3416073
21
57.6345927
0
ARC
8
DEFAULT_255_2_778
10
37.3378466
20
63.6360486
40
0.9962403
50
138.3561595
51
180.0837306
0
ARC
8
DEFAULT_255_2_778
10
37.3404384
20
63.6370578
40
0.9975096
50
91.7301295
51
138.4984071
0
ARC
8
DEFAULT_255_2_778
10
37.3415976
20
63.615837
40
1.0187558
50
89.9994546
51
91.7592604
0
ARC
8
DEFAULT_255_2_778
10
37.3430632
20
63.6383534
40
0.9962403
50
48.3561595
51
90.0837306
0
ARC
8
DEFAULT_255_2_778
10
37.3440725
20
63.6357616
40
0.9975096
50
1.7301295
51
48.4984071
0
ARC
8
DEFAULT_255_2_778
10
37.3228517
20
63.6346024
40
1.0187558
50
359.9994546
51
1.7592604
0
ARC
8
DEFAULT_255_2_778
10
37.3453681
20
63.6331368
40
0.9962403
50
318.3561595
51
0.0837306
0
ARC
8
DEFAULT_255_2_778
10
37.3427762
20
63.6321275
40
0.9975096
50
271.7301295
51
318.4984071
0
ARC
8
DEFAULT_255_2_778
10
37.341617
20
63.6533483
40
1.0187558
50
269.9994546
51
271.7592604
0
ARC
8
DEFAULT_255_2_778
10
37.3401514
20
63.6308319
40
0.9962403
50
228.3561595
51
270.0837306
0
ARC
8
DEFAULT_255_2_778
10
37.3391422
20
63.6334238
40
0.9975096
50
181.7301295
51
228.4984071
0
ARC
8
DEFAULT_255_2_778
10
37.360363
20
63.634583
40
1.0187558
50
179.9994546
51
181.7592604
0
LINE
8
DEFAULT_255_2_778
10
36.3416073
20
63.6345927
11
36.3416073
21
63.6345927
0
ARC
8
DEFAULT_255_2_778
10
37.3378466
20
57.6360486
40
0.9962403
50
138.3561595
51
180.0837306
0
ARC
8
DEFAULT_255_2_778
10
37.3404384
20
57.6370578
40
0.9975096
50
91.7301295
51
138.4984071
0
ARC
8
DEFAULT_255_2_778
10
37.3415976
20
57.615837
40
1.0187558
50
89.9994546
51
91.7592604
0
ARC
8
DEFAULT_255_2_778
10
37.3430632
20
57.6383534
40
0.9962403
50
48.3561595
51
90.0837306
0
ARC
8
DEFAULT_255_2_778
10
37.3440725
20
57.6357616
40
0.9975096
50
1.7301295
51
48.4984071
0
ARC
8
DEFAULT_255_2_778
10
37.3228517
20
57.6346024
40
1.0187558
50
359.9994546
51
1.7592604
0
ARC
8
DEFAULT_255_2_778
10
37.3453681
20
57.6331368
40
0.9962403
50
318.3561595
51
0.0837306
0
ARC
8
DEFAULT_255_2_778
10
37.3427762
20
57.6321275
40
0.9975096
50
271.7301295
51
318.4984071
0
ARC
8
DEFAULT_255_2_778
10
37.341617
20
57.6533483
40
1.0187558
50
269.9994546
51
271.7592604
0
ARC
8
DEFAULT_255_2_778
10
37.3401514
20
57.6308319
40
0.9962403
50
228.3561595
51
270.0837306
0
ARC
8
DEFAULT_255_2_778
10
37.3391422
20
57.6334238
40
0.9975096
50
181.7301295
51
228.4984071
0
ARC
8
DEFAULT_255_2_778
10
37.360363
20
57.634583
40
1.0187558
50
179.9994546
51
181.7592604
0
LINE
8
DEFAULT_255_2_778
10
36.3416073
20
57.6345927
11
36.3416073
21
57.6345927
0
ARC
8
DEFAULT_255_2_778
10
37.3378466
20
54.6362486
40
0.9962403
50
138.3561595
51
180.0837306
0
ARC
8
DEFAULT_255_2_778
10
37.3404384
20
54.6372578
40
0.9975096
50
91.7301295
51
138.4984071
0
ARC
8
DEFAULT_255_2_778
10
37.3415976
20
54.616037
40
1.0187558
50
89.9994546
51
91.7592604
0
ARC
8
DEFAULT_255_2_778
10
37.3430632
20
54.6385534
40
0.9962403
50
48.3561595
51
90.0837306
0
ARC
8
DEFAULT_255_2_778
10
37.3440725
20
54.6359616
40
0.9975096
50
1.7301295
51
48.4984071
0
ARC
8
DEFAULT_255_2_778
10
37.3228517
20
54.6348024
40
1.0187558
50
359.9994546
51
1.7592604
0
ARC
8
DEFAULT_255_2_778
10
37.3453681
20
54.6333368
40
0.9962403
50
318.3561595
51
0.0837306
0
ARC
8
DEFAULT_255_2_778
10
37.3427762
20
54.6323275
40
0.9975096
50
271.7301295
51
318.4984071
0
ARC
8
DEFAULT_255_2_778
10
37.341617
20
54.6535483
40
1.0187558
50
269.9994546
51
271.7592604
0
ARC
8
DEFAULT_255_2_778
10
37.3401514
20
54.6310319
40
0.9962403
50
228.3561595
51
270.0837306
0
ARC
8
DEFAULT_255_2_778
10
37.3391422
20
54.6336238
40
0.9975096
50
181.7301295
51
228.4984071
0
ARC
8
DEFAULT_255_2_778
10
37.360363
20
54.634783
40
1.0187558
50
179.9994546
51
181.7592604
0
LINE
8
DEFAULT_255_2_778
10
36.3416073
20
54.6347927
11
36.3416073
21
54.6347927
0
ARC
8
DEFAULT_255_2_778
10
37.3378466
20
51.6361486
40
0.9962403
50
138.3561595
51
180.0837306
0
ARC
8
DEFAULT_255_2_778
10
37.3404384
20
51.6371578
40
0.9975096
50
91.7301295
51
138.4984071
0
ARC
8
DEFAULT_255_2_778
10
37.3415976
20
51.615937
40
1.0187558
50
89.9994546
51
91.7592604
0
ARC
8
DEFAULT_255_2_778
10
37.3430632
20
51.6384534
40
0.9962403
50
48.3561595
51
90.0837306
0
ARC
8
DEFAULT_255_2_778
10
37.3440725
20
51.6358616
40
0.9975096
50
1.7301295
51
48.4984071
0
ARC
8
DEFAULT_255_2_778
10
37.3228517
20
51.6347024
40
1.0187558
50
359.9994546
51
1.7592604
0
ARC
8
DEFAULT_255_2_778
10
37.3453681
20
51.6332368
40
0.9962403
50
318.3561595
51
0.0837306
0
ARC
8
DEFAULT_255_2_778
10
37.3427762
20
51.6322275
40
0.9975096
50
271.7301295
51
318.4984071
0
ARC
8
DEFAULT_255_2_778
10
37.341617
20
51.6534483
40
1.0187558
50
269.9994546
51
271.7592604
0
ARC
8
DEFAULT_255_2_778
10
37.3401514
20
51.6309319
40
0.9962403
50
228.3561595
51
270.0837306
0
ARC
8
DEFAULT_255_2_778
10
37.3391422
20
51.6335238
40
0.9975096
50
181.7301295
51
228.4984071
0
ARC
8
DEFAULT_255_2_778
10
37.360363
20
51.634683
40
1.0187558
50
179.9994546
51
181.7592604
0
LINE
8
DEFAULT_255_2_778
10
36.3416073
20
51.6346927
11
36.3416073
21
51.6346927
0
ARC
8
DEFAULT_255_2_778
10
37.3378466
20
54.6362486
40
0.9962403
50
138.3561595
51
180.0837306
0
ARC
8
DEFAULT_255_2_778
10
37.3404384
20
54.6372578
40
0.9975096
50
91.7301295
51
138.4984071
0
ARC
8
DEFAULT_255_2_778
10
37.3415976
20
54.616037
40
1.0187558
50
89.9994546
51
91.7592604
0
ARC
8
DEFAULT_255_2_778
10
37.3430632
20
54.6385534
40
0.9962403
50
48.3561595
51
90.0837306
0
ARC
8
DEFAULT_255_2_778
10
37.3440725
20
54.6359616
40
0.9975096
50
1.7301295
51
48.4984071
0
ARC
8
DEFAULT_255_2_778
10
37.3228517
20
54.6348024
40
1.0187558
50
359.9994546
51
1.7592604
0
ARC
8
DEFAULT_255_2_778
10
37.3453681
20
54.6333368
40
0.9962403
50
318.3561595
51
0.0837306
0
ARC
8
DEFAULT_255_2_778
10
37.3427762
20
54.6323275
40
0.9975096
50
271.7301295
51
318.4984071
0
ARC
8
DEFAULT_255_2_778
10
37.341617
20
54.6535483
40
1.0187558
50
269.9994546
51
271.7592604
0
ARC
8
DEFAULT_255_2_778
10
37.3401514
20
54.6310319
40
0.9962403
50
228.3561595
51
270.0837306
0
ARC
8
DEFAULT_255_2_778
10
37.3391422
20
54.6336238
40
0.9975096
50
181.7301295
51
228.4984071
0
ARC
8
DEFAULT_255_2_778
10
37.360363
20
54.634783
40
1.0187558
50
179.9994546
51
181.7592604
0
LINE
8
DEFAULT_255_2_778
10
36.3416073
20
54.6347927
11
36.3416073
21
54.6347927
0
ARC
8
DEFAULT_255_2_778
10
37.3378466
20
51.6361486
40
0.9962403
50
138.3561595
51
180.0837306
0
ARC
8
DEFAULT_255_2_778
10
37.3404384
20
51.6371578
40
0.9975096
50
91.7301295
51
138.4984071
0
ARC
8
DEFAULT_255_2_778
10
37.3415976
20
51.615937
40
1.0187558
50
89.9994546
51
91.7592604
0
ARC
8
DEFAULT_255_2_778
10
37.3430632
20
51.6384534
40
0.9962403
50
48.3561595
51
90.0837306
0
ARC
8
DEFAULT_255_2_778
10
37.3440725
20
51.6358616
40
0.9975096
50
1.7301295
51
48.4984071
0
ARC
8
DEFAULT_255_2_778
10
37.3228517
20
51.6347024
40
1.0187558
50
359.9994546
51
1.7592604
0
ARC
8
DEFAULT_255_2_778
10
37.3453681
20
51.6332368
40
0.9962403
50
318.3561595
51
0.0837306
0
ARC
8
DEFAULT_255_2_778
10
37.3427762
20
51.6322275
40
0.9975096
50
271.7301295
51
318.4984071
0
ARC
8
DEFAULT_255_2_778
10
37.341617
20
51.6534483
40
1.0187558
50
269.9994546
51
271.7592604
0
ARC
8
DEFAULT_255_2_778
10
37.3401514
20
51.6309319
40
0.9962403
50
228.3561595
51
270.0837306
0
ARC
8
DEFAULT_255_2_778
10
37.3391422
20
51.6335238
40
0.9975096
50
181.7301295
51
228.4984071
0
ARC
8
DEFAULT_255_2_778
10
37.360363
20
51.634683
40
1.0187558
50
179.9994546
51
181.7592604
0
LINE
8
DEFAULT_255_2_778
10
36.3416073
20
51.6346927
11
36.3416073
21
51.6346927
0
LINE
8
DEFAULT_255_2_778
10
27.3914938
20
85.4047645
11
27.2914938
21
85.4047645
0
LINE
8
DEFAULT_255_2_778
10
27.3914938
20
86.7848645
11
27.2914938
21
86.7848645
0
LINE
8
DEFAULT_255_2_778
10
27.3914938
20
83.6347645
11
27.2914938
21
83.6347645
0
ARC
8
DEFAULT_255_2_778
10
55.5377466
20
54.6362486
40
0.9962403
50
138.3561595
51
180.0837306
0
ARC
8
DEFAULT_255_2_778
10
55.5403384
20
54.6372578
40
0.9975096
50
91.7301295
51
138.4984071
0
ARC
8
DEFAULT_255_2_778
10
55.5414976
20
54.616037
40
1.0187558
50
89.9994546
51
91.7592604
0
ARC
8
DEFAULT_255_2_778
10
55.5429632
20
54.6385534
40
0.9962403
50
48.3561595
51
90.0837306
0
ARC
8
DEFAULT_255_2_778
10
55.5439725
20
54.6359616
40
0.9975096
50
1.7301295
51
48.4984071
0
ARC
8
DEFAULT_255_2_778
10
55.5227517
20
54.6348024
40
1.0187558
50
359.9994546
51
1.7592604
0
ARC
8
DEFAULT_255_2_778
10
55.5452681
20
54.6333368
40
0.9962403
50
318.3561595
51
0.0837306
0
ARC
8
DEFAULT_255_2_778
10
55.5426762
20
54.6323275
40
0.9975096
50
271.7301295
51
318.4984071
0
ARC
8
DEFAULT_255_2_778
10
55.541517
20
54.6535483
40
1.0187558
50
269.9994546
51
271.7592604
0
ARC
8
DEFAULT_255_2_778
10
55.5400514
20
54.6310319
40
0.9962403
50
228.3561595
51
270.0837306
0
ARC
8
DEFAULT_255_2_778
10
55.5390422
20
54.6336238
40
0.9975096
50
181.7301295
51
228.4984071
0
ARC
8
DEFAULT_255_2_778
10
55.560263
20
54.634783
40
1.0187558
50
179.9994546
51
181.7592604
0
LINE
8
DEFAULT_255_2_778
10
54.5415073
20
54.6347927
11
54.5415073
21
54.6347927
0
ARC
8
DEFAULT_255_2_778
10
55.5377466
20
54.6362486
40
0.9962403
50
138.3561595
51
180.0837306
0
ARC
8
DEFAULT_255_2_778
10
55.5403384
20
54.6372578
40
0.9975096
50
91.7301295
51
138.4984071
0
ARC
8
DEFAULT_255_2_778
10
55.5414976
20
54.616037
40
1.0187558
50
89.9994546
51
91.7592604
0
ARC
8
DEFAULT_255_2_778
10
55.5429632
20
54.6385534
40
0.9962403
50
48.3561595
51
90.0837306
0
ARC
8
DEFAULT_255_2_778
10
55.5439725
20
54.6359616
40
0.9975096
50
1.7301295
51
48.4984071
0
ARC
8
DEFAULT_255_2_778
10
55.5227517
20
54.6348024
40
1.0187558
50
359.9994546
51
1.7592604
0
ARC
8
DEFAULT_255_2_778
10
55.5452681
20
54.6333368
40
0.9962403
50
318.3561595
51
0.0837306
0
ARC
8
DEFAULT_255_2_778
10
55.5426762
20
54.6323275
40
0.9975096
50
271.7301295
51
318.4984071
0
ARC
8
DEFAULT_255_2_778
10
55.541517
20
54.6535483
40
1.0187558
50
269.9994546
51
271.7592604
0
ARC
8
DEFAULT_255_2_778
10
55.5400514
20
54.6310319
40
0.9962403
50
228.3561595
51
270.0837306
0
ARC
8
DEFAULT_255_2_778
10
55.5390422
20
54.6336238
40
0.9975096
50
181.7301295
51
228.4984071
0
ARC
8
DEFAULT_255_2_778
10
55.560263
20
54.634783
40
1.0187558
50
179.9994546
51
181.7592604
0
LINE
8
DEFAULT_255_2_778
10
54.5415073
20
54.6347927
11
54.5415073
21
54.6347927
0
ARC
8
DEFAULT_255_2_778
10
58.5378466
20
57.6360486
40
0.9962403
50
138.3561595
51
180.0837306
0
ARC
8
DEFAULT_255_2_778
10
58.5404384
20
57.6370578
40
0.9975096
50
91.7301295
51
138.4984071
0
ARC
8
DEFAULT_255_2_778
10
58.5415976
20
57.615837
40
1.0187558
50
89.9994546
51
91.7592604
0
ARC
8
DEFAULT_255_2_778
10
58.5430632
20
57.6383534
40
0.9962403
50
48.3561595
51
90.0837306
0
ARC
8
DEFAULT_255_2_778
10
58.5440725
20
57.6357616
40
0.9975096
50
1.7301295
51
48.4984071
0
ARC
8
DEFAULT_255_2_778
10
58.5228517
20
57.6346024
40
1.0187558
50
359.9994546
51
1.7592604
0
ARC
8
DEFAULT_255_2_778
10
58.5453681
20
57.6331368
40
0.9962403
50
318.3561595
51
0.0837306
0
ARC
8
DEFAULT_255_2_778
10
58.5427762
20
57.6321275
40
0.9975096
50
271.7301295
51
318.4984071
0
ARC
8
DEFAULT_255_2_778
10
58.541617
20
57.6533483
40
1.0187558
50
269.9994546
51
271.7592604
0
ARC
8
DEFAULT_255_2_778
10
58.5401514
20
57.6308319
40
0.9962403
50
228.3561595
51
270.0837306
0
ARC
8
DEFAULT_255_2_778
10
58.5391422
20
57.6334238
40
0.9975096
50
181.7301295
51
228.4984071
0
ARC
8
DEFAULT_255_2_778
10
58.560363
20
57.634583
40
1.0187558
50
179.9994546
51
181.7592604
0
LINE
8
DEFAULT_255_2_778
10
57.5416073
20
57.6345927
11
57.5416073
21
57.6345927
0
ARC
8
DEFAULT_255_2_778
10
58.5378466
20
60.6361486
40
0.9962403
50
138.3561595
51
180.0837306
0
ARC
8
DEFAULT_255_2_778
10
58.5404384
20
60.6371578
40
0.9975096
50
91.7301295
51
138.4984071
0
ARC
8
DEFAULT_255_2_778
10
58.5415976
20
60.615937
40
1.0187558
50
89.9994546
51
91.7592604
0
ARC
8
DEFAULT_255_2_778
10
58.5430632
20
60.6384534
40
0.9962403
50
48.3561595
51
90.0837306
0
ARC
8
DEFAULT_255_2_778
10
58.5440725
20
60.6358616
40
0.9975096
50
1.7301295
51
48.4984071
0
ARC
8
DEFAULT_255_2_778
10
58.5228517
20
60.6347024
40
1.0187558
50
359.9994546
51
1.7592604
0
ARC
8
DEFAULT_255_2_778
10
58.5453681
20
60.6332368
40
0.9962403
50
318.3561595
51
0.0837306
0
ARC
8
DEFAULT_255_2_778
10
58.5427762
20
60.6322275
40
0.9975096
50
271.7301295
51
318.4984071
0
ARC
8
DEFAULT_255_2_778
10
58.541617
20
60.6534483
40
1.0187558
50
269.9994546
51
271.7592604
0
ARC
8
DEFAULT_255_2_778
10
58.5401514
20
60.6309319
40
0.9962403
50
228.3561595
51
270.0837306
0
ARC
8
DEFAULT_255_2_778
10
58.5391422
20
60.6335238
40
0.9975096
50
181.7301295
51
228.4984071
0
ARC
8
DEFAULT_255_2_778
10
58.560363
20
60.634683
40
1.0187558
50
179.9994546
51
181.7592604
0
LINE
8
DEFAULT_255_2_778
10
57.5416073
20
60.6346927
11
57.5416073
21
60.6346927
0
ARC
8
DEFAULT_255_2_778
10
58.5378466
20
54.6362486
40
0.9962403
50
138.3561595
51
180.0837306
0
ARC
8
DEFAULT_255_2_778
10
58.5404384
20
54.6372578
40
0.9975096
50
91.7301295
51
138.4984071
0
ARC
8
DEFAULT_255_2_778
10
58.5415976
20
54.616037
40
1.0187558
50
89.9994546
51
91.7592604
0
ARC
8
DEFAULT_255_2_778
10
58.5430632
20
54.6385534
40
0.9962403
50
48.3561595
51
90.0837306
0
ARC
8
DEFAULT_255_2_778
10
58.5440725
20
54.6359616
40
0.9975096
50
1.7301295
51
48.4984071
0
ARC
8
DEFAULT_255_2_778
10
58.5228517
20
54.6348024
40
1.0187558
50
359.9994546
51
1.7592604
0
ARC
8
DEFAULT_255_2_778
10
58.5453681
20
54.6333368
40
0.9962403
50
318.3561595
51
0.0837306
0
ARC
8
DEFAULT_255_2_778
10
58.5427762
20
54.6323275
40
0.9975096
50
271.7301295
51
318.4984071
0
ARC
8
DEFAULT_255_2_778
10
58.541617
20
54.6535483
40
1.0187558
50
269.9994546
51
271.7592604
0
ARC
8
DEFAULT_255_2_778
10
58.5401514
20
54.6310319
40
0.9962403
50
228.3561595
51
270.0837306
0
ARC
8
DEFAULT_255_2_778
10
58.5391422
20
54.6336238
40
0.9975096
50
181.7301295
51
228.4984071
0
ARC
8
DEFAULT_255_2_778
10
58.560363
20
54.634783
40
1.0187558
50
179.9994546
51
181.7592604
0
LINE
8
DEFAULT_255_2_778
10
57.5416073
20
54.6347927
11
57.5416073
21
54.6347927
0
ARC
8
DEFAULT_255_2_778
10
58.5378466
20
60.6361486
40
0.9962403
50
138.3561595
51
180.0837306
0
ARC
8
DEFAULT_255_2_778
10
58.5404384
20
60.6371578
40
0.9975096
50
91.7301295
51
138.4984071
0
ARC
8
DEFAULT_255_2_778
10
58.5415976
20
60.615937
40
1.0187558
50
89.9994546
51
91.7592604
0
ARC
8
DEFAULT_255_2_778
10
58.5430632
20
60.6384534
40
0.9962403
50
48.3561595
51
90.0837306
0
ARC
8
DEFAULT_255_2_778
10
58.5440725
20
60.6358616
40
0.9975096
50
1.7301295
51
48.4984071
0
ARC
8
DEFAULT_255_2_778
10
58.5228517
20
60.6347024
40
1.0187558
50
359.9994546
51
1.7592604
0
ARC
8
DEFAULT_255_2_778
10
58.5453681
20
60.6332368
40
0.9962403
50
318.3561595
51
0.0837306
0
ARC
8
DEFAULT_255_2_778
10
58.5427762
20
60.6322275
40
0.9975096
50
271.7301295
51
318.4984071
0
ARC
8
DEFAULT_255_2_778
10
58.541617
20
60.6534483
40
1.0187558
50
269.9994546
51
271.7592604
0
ARC
8
DEFAULT_255_2_778
10
58.5401514
20
60.6309319
40
0.9962403
50
228.3561595
51
270.0837306
0
ARC
8
DEFAULT_255_2_778
10
58.5391422
20
60.6335238
40
0.9975096
50
181.7301295
51
228.4984071
0
ARC
8
DEFAULT_255_2_778
10
58.560363
20
60.634683
40
1.0187558
50
179.9994546
51
181.7592604
0
LINE
8
DEFAULT_255_2_778
10
57.5416073
20
60.6346927
11
57.5416073
21
60.6346927
0
ARC
8
DEFAULT_255_2_778
10
58.5378466
20
54.6362486
40
0.9962403
50
138.3561595
51
180.0837306
0
ARC
8
DEFAULT_255_2_778
10
58.5404384
20
54.6372578
40
0.9975096
50
91.7301295
51
138.4984071
0
ARC
8
DEFAULT_255_2_778
10
58.5415976
20
54.616037
40
1.0187558
50
89.9994546
51
91.7592604
0
ARC
8
DEFAULT_255_2_778
10
58.5430632
20
54.6385534
40
0.9962403
50
48.3561595
51
90.0837306
0
ARC
8
DEFAULT_255_2_778
10
58.5440725
20
54.6359616
40
0.9975096
50
1.7301295
51
48.4984071
0
ARC
8
DEFAULT_255_2_778
10
58.5228517
20
54.6348024
40
1.0187558
50
359.9994546
51
1.7592604
0
ARC
8
DEFAULT_255_2_778
10
58.5453681
20
54.6333368
40
0.9962403
50
318.3561595
51
0.0837306
0
ARC
8
DEFAULT_255_2_778
10
58.5427762
20
54.6323275
40
0.9975096
50
271.7301295
51
318.4984071
0
ARC
8
DEFAULT_255_2_778
10
58.541617
20
54.6535483
40
1.0187558
50
269.9994546
51
271.7592604
0
ARC
8
DEFAULT_255_2_778
10
58.5401514
20
54.6310319
40
0.9962403
50
228.3561595
51
270.0837306
0
ARC
8
DEFAULT_255_2_778
10
58.5391422
20
54.6336238
40
0.9975096
50
181.7301295
51
228.4984071
0
ARC
8
DEFAULT_255_2_778
10
58.560363
20
54.634783
40
1.0187558
50
179.9994546
51
181.7592604
0
LINE
8
DEFAULT_255_2_778
10
57.5416073
20
54.6347927
11
57.5416073
21
54.6347927
0
ARC
8
DEFAULT_255_2_778
10
58.5378466
20
57.6360486
40
0.9962403
50
138.3561595
51
180.0837306
0
ARC
8
DEFAULT_255_2_778
10
58.5404384
20
57.6370578
40
0.9975096
50
91.7301295
51
138.4984071
0
ARC
8
DEFAULT_255_2_778
10
58.5415976
20
57.615837
40
1.0187558
50
89.9994546
51
91.7592604
0
ARC
8
DEFAULT_255_2_778
10
58.5430632
20
57.6383534
40
0.9962403
50
48.3561595
51
90.0837306
0
ARC
8
DEFAULT_255_2_778
10
58.5440725
20
57.6357616
40
0.9975096
50
1.7301295
51
48.4984071
0
ARC
8
DEFAULT_255_2_778
10
58.5228517
20
57.6346024
40
1.0187558
50
359.9994546
51
1.7592604
0
ARC
8
DEFAULT_255_2_778
10
58.5453681
20
57.6331368
40
0.9962403
50
318.3561595
51
0.0837306
0
ARC
8
DEFAULT_255_2_778
10
58.5427762
20
57.6321275
40
0.9975096
50
271.7301295
51
318.4984071
0
ARC
8
DEFAULT_255_2_778
10
58.541617
20
57.6533483
40
1.0187558
50
269.9994546
51
271.7592604
0
ARC
8
DEFAULT_255_2_778
10
58.5401514
20
57.6308319
40
0.9962403
50
228.3561595
51
270.0837306
0
ARC
8
DEFAULT_255_2_778
10
58.5391422
20
57.6334238
40
0.9975096
50
181.7301295
51
228.4984071
0
ARC
8
DEFAULT_255_2_778
10
58.560363
20
57.634583
40
1.0187558
50
179.9994546
51
181.7592604
0
LINE
8
DEFAULT_255_2_778
10
57.5416073
20
57.6345927
11
57.5416073
21
57.6345927
0
ARC
8
DEFAULT_255_2_778
10
52.5378466
20
57.6360486
40
0.9962403
50
138.3561595
51
180.0837306
0
ARC
8
DEFAULT_255_2_778
10
52.5404384
20
57.6370578
40
0.9975096
50
91.7301295
51
138.4984071
0
ARC
8
DEFAULT_255_2_778
10
52.5415976
20
57.615837
40
1.0187558
50
89.9994546
51
91.7592604
0
ARC
8
DEFAULT_255_2_778
10
52.5430632
20
57.6383534
40
0.9962403
50
48.3561595
51
90.0837306
0
ARC
8
DEFAULT_255_2_778
10
52.5440725
20
57.6357616
40
0.9975096
50
1.7301295
51
48.4984071
0
ARC
8
DEFAULT_255_2_778
10
52.5228517
20
57.6346024
40
1.0187558
50
359.9994546
51
1.7592604
0
ARC
8
DEFAULT_255_2_778
10
52.5453681
20
57.6331368
40
0.9962403
50
318.3561595
51
0.0837306
0
ARC
8
DEFAULT_255_2_778
10
52.5427762
20
57.6321275
40
0.9975096
50
271.7301295
51
318.4984071
0
ARC
8
DEFAULT_255_2_778
10
52.541617
20
57.6533483
40
1.0187558
50
269.9994546
51
271.7592604
0
ARC
8
DEFAULT_255_2_778
10
52.5401514
20
57.6308319
40
0.9962403
50
228.3561595
51
270.0837306
0
ARC
8
DEFAULT_255_2_778
10
52.5391422
20
57.6334238
40
0.9975096
50
181.7301295
51
228.4984071
0
ARC
8
DEFAULT_255_2_778
10
52.560363
20
57.634583
40
1.0187558
50
179.9994546
51
181.7592604
0
LINE
8
DEFAULT_255_2_778
10
51.5416073
20
57.6345927
11
51.5416073
21
57.6345927
0
ARC
8
DEFAULT_255_2_778
10
52.5378466
20
63.6360486
40
0.9962403
50
138.3561595
51
180.0837306
0
ARC
8
DEFAULT_255_2_778
10
52.5404384
20
63.6370578
40
0.9975096
50
91.7301295
51
138.4984071
0
ARC
8
DEFAULT_255_2_778
10
52.5415976
20
63.615837
40
1.0187558
50
89.9994546
51
91.7592604
0
ARC
8
DEFAULT_255_2_778
10
52.5430632
20
63.6383534
40
0.9962403
50
48.3561595
51
90.0837306
0
ARC
8
DEFAULT_255_2_778
10
52.5440725
20
63.6357616
40
0.9975096
50
1.7301295
51
48.4984071
0
ARC
8
DEFAULT_255_2_778
10
52.5228517
20
63.6346024
40
1.0187558
50
359.9994546
51
1.7592604
0
ARC
8
DEFAULT_255_2_778
10
52.5453681
20
63.6331368
40
0.9962403
50
318.3561595
51
0.0837306
0
ARC
8
DEFAULT_255_2_778
10
52.5427762
20
63.6321275
40
0.9975096
50
271.7301295
51
318.4984071
0
ARC
8
DEFAULT_255_2_778
10
52.541617
20
63.6533483
40
1.0187558
50
269.9994546
51
271.7592604
0
ARC
8
DEFAULT_255_2_778
10
52.5401514
20
63.6308319
40
0.9962403
50
228.3561595
51
270.0837306
0
ARC
8
DEFAULT_255_2_778
10
52.5391422
20
63.6334238
40
0.9975096
50
181.7301295
51
228.4984071
0
ARC
8
DEFAULT_255_2_778
10
52.560363
20
63.634583
40
1.0187558
50
179.9994546
51
181.7592604
0
LINE
8
DEFAULT_255_2_778
10
51.5416073
20
63.6345927
11
51.5416073
21
63.6345927
0
ARC
8
DEFAULT_255_2_778
10
52.5378466
20
60.6361486
40
0.9962403
50
138.3561595
51
180.0837306
0
ARC
8
DEFAULT_255_2_778
10
52.5404384
20
60.6371578
40
0.9975096
50
91.7301295
51
138.4984071
0
ARC
8
DEFAULT_255_2_778
10
52.5415976
20
60.615937
40
1.0187558
50
89.9994546
51
91.7592604
0
ARC
8
DEFAULT_255_2_778
10
52.5430632
20
60.6384534
40
0.9962403
50
48.3561595
51
90.0837306
0
ARC
8
DEFAULT_255_2_778
10
52.5440725
20
60.6358616
40
0.9975096
50
1.7301295
51
48.4984071
0
ARC
8
DEFAULT_255_2_778
10
52.5228517
20
60.6347024
40
1.0187558
50
359.9994546
51
1.7592604
0
ARC
8
DEFAULT_255_2_778
10
52.5453681
20
60.6332368
40
0.9962403
50
318.3561595
51
0.0837306
0
ARC
8
DEFAULT_255_2_778
10
52.5427762
20
60.6322275
40
0.9975096
50
271.7301295
51
318.4984071
0
ARC
8
DEFAULT_255_2_778
10
52.541617
20
60.6534483
40
1.0187558
50
269.9994546
51
271.7592604
0
ARC
8
DEFAULT_255_2_778
10
52.5401514
20
60.6309319
40
0.9962403
50
228.3561595
51
270.0837306
0
ARC
8
DEFAULT_255_2_778
10
52.5391422
20
60.6335238
40
0.9975096
50
181.7301295
51
228.4984071
0
ARC
8
DEFAULT_255_2_778
10
52.560363
20
60.634683
40
1.0187558
50
179.9994546
51
181.7592604
0
LINE
8
DEFAULT_255_2_778
10
51.5416073
20
60.6346927
11
51.5416073
21
60.6346927
0
ARC
8
DEFAULT_255_2_778
10
52.5378466
20
63.6360486
40
0.9962403
50
138.3561595
51
180.0837306
0
ARC
8
DEFAULT_255_2_778
10
52.5404384
20
63.6370578
40
0.9975096
50
91.7301295
51
138.4984071
0
ARC
8
DEFAULT_255_2_778
10
52.5415976
20
63.615837
40
1.0187558
50
89.9994546
51
91.7592604
0
ARC
8
DEFAULT_255_2_778
10
52.5430632
20
63.6383534
40
0.9962403
50
48.3561595
51
90.0837306
0
ARC
8
DEFAULT_255_2_778
10
52.5440725
20
63.6357616
40
0.9975096
50
1.7301295
51
48.4984071
0
ARC
8
DEFAULT_255_2_778
10
52.5228517
20
63.6346024
40
1.0187558
50
359.9994546
51
1.7592604
0
ARC
8
DEFAULT_255_2_778
10
52.5453681
20
63.6331368
40
0.9962403
50
318.3561595
51
0.0837306
0
ARC
8
DEFAULT_255_2_778
10
52.5427762
20
63.6321275
40
0.9975096
50
271.7301295
51
318.4984071
0
ARC
8
DEFAULT_255_2_778
10
52.541617
20
63.6533483
40
1.0187558
50
269.9994546
51
271.7592604
0
ARC
8
DEFAULT_255_2_778
10
52.5401514
20
63.6308319
40
0.9962403
50
228.3561595
51
270.0837306
0
ARC
8
DEFAULT_255_2_778
10
52.5391422
20
63.6334238
40
0.9975096
50
181.7301295
51
228.4984071
0
ARC
8
DEFAULT_255_2_778
10
52.560363
20
63.634583
40
1.0187558
50
179.9994546
51
181.7592604
0
LINE
8
DEFAULT_255_2_778
10
51.5416073
20
63.6345927
11
51.5416073
21
63.6345927
0
ARC
8
DEFAULT_255_2_778
10
52.5378466
20
54.6362486
40
0.9962403
50
138.3561595
51
180.0837306
0
ARC
8
DEFAULT_255_2_778
10
52.5404384
20
54.6372578
40
0.9975096
50
91.7301295
51
138.4984071
0
ARC
8
DEFAULT_255_2_778
10
52.5415976
20
54.616037
40
1.0187558
50
89.9994546
51
91.7592604
0
ARC
8
DEFAULT_255_2_778
10
52.5430632
20
54.6385534
40
0.9962403
50
48.3561595
51
90.0837306
0
ARC
8
DEFAULT_255_2_778
10
52.5440725
20
54.6359616
40
0.9975096
50
1.7301295
51
48.4984071
0
ARC
8
DEFAULT_255_2_778
10
52.5228517
20
54.6348024
40
1.0187558
50
359.9994546
51
1.7592604
0
ARC
8
DEFAULT_255_2_778
10
52.5453681
20
54.6333368
40
0.9962403
50
318.3561595
51
0.0837306
0
ARC
8
DEFAULT_255_2_778
10
52.5427762
20
54.6323275
40
0.9975096
50
271.7301295
51
318.4984071
0
ARC
8
DEFAULT_255_2_778
10
52.541617
20
54.6535483
40
1.0187558
50
269.9994546
51
271.7592604
0
ARC
8
DEFAULT_255_2_778
10
52.5401514
20
54.6310319
40
0.9962403
50
228.3561595
51
270.0837306
0
ARC
8
DEFAULT_255_2_778
10
52.5391422
20
54.6336238
40
0.9975096
50
181.7301295
51
228.4984071
0
ARC
8
DEFAULT_255_2_778
10
52.560363
20
54.634783
40
1.0187558
50
179.9994546
51
181.7592604
0
LINE
8
DEFAULT_255_2_778
10
51.5416073
20
54.6347927
11
51.5416073
21
54.6347927
0
ARC
8
DEFAULT_255_2_778
10
52.5378466
20
60.6361486
40
0.9962403
50
138.3561595
51
180.0837306
0
ARC
8
DEFAULT_255_2_778
10
52.5404384
20
60.6371578
40
0.9975096
50
91.7301295
51
138.4984071
0
ARC
8
DEFAULT_255_2_778
10
52.5415976
20
60.615937
40
1.0187558
50
89.9994546
51
91.7592604
0
ARC
8
DEFAULT_255_2_778
10
52.5430632
20
60.6384534
40
0.9962403
50
48.3561595
51
90.0837306
0
ARC
8
DEFAULT_255_2_778
10
52.5440725
20
60.6358616
40
0.9975096
50
1.7301295
51
48.4984071
0
ARC
8
DEFAULT_255_2_778
10
52.5228517
20
60.6347024
40
1.0187558
50
359.9994546
51
1.7592604
0
ARC
8
DEFAULT_255_2_778
10
52.5453681
20
60.6332368
40
0.9962403
50
318.3561595
51
0.0837306
0
ARC
8
DEFAULT_255_2_778
10
52.5427762
20
60.6322275
40
0.9975096
50
271.7301295
51
318.4984071
0
ARC
8
DEFAULT_255_2_778
10
52.541617
20
60.6534483
40
1.0187558
50
269.9994546
51
271.7592604
0
ARC
8
DEFAULT_255_2_778
10
52.5401514
20
60.6309319
40
0.9962403
50
228.3561595
51
270.0837306
0
ARC
8
DEFAULT_255_2_778
10
52.5391422
20
60.6335238
40
0.9975096
50
181.7301295
51
228.4984071
0
ARC
8
DEFAULT_255_2_778
10
52.560363
20
60.634683
40
1.0187558
50
179.9994546
51
181.7592604
0
LINE
8
DEFAULT_255_2_778
10
51.5416073
20
60.6346927
11
51.5416073
21
60.6346927
0
ARC
8
DEFAULT_255_2_778
10
52.5378466
20
57.6360486
40
0.9962403
50
138.3561595
51
180.0837306
0
ARC
8
DEFAULT_255_2_778
10
52.5404384
20
57.6370578
40
0.9975096
50
91.7301295
51
138.4984071
0
ARC
8
DEFAULT_255_2_778
10
52.5415976
20
57.615837
40
1.0187558
50
89.9994546
51
91.7592604
0
ARC
8
DEFAULT_255_2_778
10
52.5430632
20
57.6383534
40
0.9962403
50
48.3561595
51
90.0837306
0
ARC
8
DEFAULT_255_2_778
10
52.5440725
20
57.6357616
40
0.9975096
50
1.7301295
51
48.4984071
0
ARC
8
DEFAULT_255_2_778
10
52.5228517
20
57.6346024
40
1.0187558
50
359.9994546
51
1.7592604
0
ARC
8
DEFAULT_255_2_778
10
52.5453681
20
57.6331368
40
0.9962403
50
318.3561595
51
0.0837306
0
ARC
8
DEFAULT_255_2_778
10
52.5427762
20
57.6321275
40
0.9975096
50
271.7301295
51
318.4984071
0
ARC
8
DEFAULT_255_2_778
10
52.541617
20
57.6533483
40
1.0187558
50
269.9994546
51
271.7592604
0
ARC
8
DEFAULT_255_2_778
10
52.5401514
20
57.6308319
40
0.9962403
50
228.3561595
51
270.0837306
0
ARC
8
DEFAULT_255_2_778
10
52.5391422
20
57.6334238
40
0.9975096
50
181.7301295
51
228.4984071
0
ARC
8
DEFAULT_255_2_778
10
52.560363
20
57.634583
40
1.0187558
50
179.9994546
51
181.7592604
0
LINE
8
DEFAULT_255_2_778
10
51.5416073
20
57.6345927
11
51.5416073
21
57.6345927
0
ARC
8
DEFAULT_255_2_778
10
52.5378466
20
54.6362486
40
0.9962403
50
138.3561595
51
180.0837306
0
ARC
8
DEFAULT_255_2_778
10
52.5404384
20
54.6372578
40
0.9975096
50
91.7301295
51
138.4984071
0
ARC
8
DEFAULT_255_2_778
10
52.5415976
20
54.616037
40
1.0187558
50
89.9994546
51
91.7592604
0
ARC
8
DEFAULT_255_2_778
10
52.5430632
20
54.6385534
40
0.9962403
50
48.3561595
51
90.0837306
0
ARC
8
DEFAULT_255_2_778
10
52.5440725
20
54.6359616
40
0.9975096
50
1.7301295
51
48.4984071
0
ARC
8
DEFAULT_255_2_778
10
52.5228517
20
54.6348024
40
1.0187558
50
359.9994546
51
1.7592604
0
ARC
8
DEFAULT_255_2_778
10
52.5453681
20
54.6333368
40
0.9962403
50
318.3561595
51
0.0837306
0
ARC
8
DEFAULT_255_2_778
10
52.5427762
20
54.6323275
40
0.9975096
50
271.7301295
51
318.4984071
0
ARC
8
DEFAULT_255_2_778
10
52.541617
20
54.6535483
40
1.0187558
50
269.9994546
51
271.7592604
0
ARC
8
DEFAULT_255_2_778
10
52.5401514
20
54.6310319
40
0.9962403
50
228.3561595
51
270.0837306
0
ARC
8
DEFAULT_255_2_778
10
52.5391422
20
54.6336238
40
0.9975096
50
181.7301295
51
228.4984071
0
ARC
8
DEFAULT_255_2_778
10
52.560363
20
54.634783
40
1.0187558
50
179.9994546
51
181.7592604
0
LINE
8
DEFAULT_255_2_778
10
51.5416073
20
54.6347927
11
51.5416073
21
54.6347927
0
ARC
8
DEFAULT_255_2_778
10
49.5377466
20
60.6361486
40
0.9962403
50
138.3561595
51
180.0837306
0
ARC
8
DEFAULT_255_2_778
10
49.5403384
20
60.6371578
40
0.9975096
50
91.7301295
51
138.4984071
0
ARC
8
DEFAULT_255_2_778
10
49.5414976
20
60.615937
40
1.0187558
50
89.9994546
51
91.7592604
0
ARC
8
DEFAULT_255_2_778
10
49.5429632
20
60.6384534
40
0.9962403
50
48.3561595
51
90.0837306
0
ARC
8
DEFAULT_255_2_778
10
49.5439725
20
60.6358616
40
0.9975096
50
1.7301295
51
48.4984071
0
ARC
8
DEFAULT_255_2_778
10
49.5227517
20
60.6347024
40
1.0187558
50
359.9994546
51
1.7592604
0
ARC
8
DEFAULT_255_2_778
10
49.5452681
20
60.6332368
40
0.9962403
50
318.3561595
51
0.0837306
0
ARC
8
DEFAULT_255_2_778
10
49.5426762
20
60.6322275
40
0.9975096
50
271.7301295
51
318.4984071
0
ARC
8
DEFAULT_255_2_778
10
49.541517
20
60.6534483
40
1.0187558
50
269.9994546
51
271.7592604
0
ARC
8
DEFAULT_255_2_778
10
49.5400514
20
60.6309319
40
0.9962403
50
228.3561595
51
270.0837306
0
ARC
8
DEFAULT_255_2_778
10
49.5390422
20
60.6335238
40
0.9975096
50
181.7301295
51
228.4984071
0
ARC
8
DEFAULT_255_2_778
10
49.560263
20
60.634683
40
1.0187558
50
179.9994546
51
181.7592604
0
LINE
8
DEFAULT_255_2_778
10
48.5415073
20
60.6346927
11
48.5415073
21
60.6346927
0
ARC
8
DEFAULT_255_2_778
10
49.5377466
20
63.6360486
40
0.9962403
50
138.3561595
51
180.0837306
0
ARC
8
DEFAULT_255_2_778
10
49.5403384
20
63.6370578
40
0.9975096
50
91.7301295
51
138.4984071
0
ARC
8
DEFAULT_255_2_778
10
49.5414976
20
63.615837
40
1.0187558
50
89.9994546
51
91.7592604
0
ARC
8
DEFAULT_255_2_778
10
49.5429632
20
63.6383534
40
0.9962403
50
48.3561595
51
90.0837306
0
ARC
8
DEFAULT_255_2_778
10
49.5439725
20
63.6357616
40
0.9975096
50
1.7301295
51
48.4984071
0
ARC
8
DEFAULT_255_2_778
10
49.5227517
20
63.6346024
40
1.0187558
50
359.9994546
51
1.7592604
0
ARC
8
DEFAULT_255_2_778
10
49.5452681
20
63.6331368
40
0.9962403
50
318.3561595
51
0.0837306
0
ARC
8
DEFAULT_255_2_778
10
49.5426762
20
63.6321275
40
0.9975096
50
271.7301295
51
318.4984071
0
ARC
8
DEFAULT_255_2_778
10
49.541517
20
63.6533483
40
1.0187558
50
269.9994546
51
271.7592604
0
ARC
8
DEFAULT_255_2_778
10
49.5400514
20
63.6308319
40
0.9962403
50
228.3561595
51
270.0837306
0
ARC
8
DEFAULT_255_2_778
10
49.5390422
20
63.6334238
40
0.9975096
50
181.7301295
51
228.4984071
0
ARC
8
DEFAULT_255_2_778
10
49.560263
20
63.634583
40
1.0187558
50
179.9994546
51
181.7592604
0
LINE
8
DEFAULT_255_2_778
10
48.5415073
20
63.6345927
11
48.5415073
21
63.6345927
0
ARC
8
DEFAULT_255_2_778
10
49.5377466
20
57.6360486
40
0.9962403
50
138.3561595
51
180.0837306
0
ARC
8
DEFAULT_255_2_778
10
49.5403384
20
57.6370578
40
0.9975096
50
91.7301295
51
138.4984071
0
ARC
8
DEFAULT_255_2_778
10
49.5414976
20
57.615837
40
1.0187558
50
89.9994546
51
91.7592604
0
ARC
8
DEFAULT_255_2_778
10
49.5429632
20
57.6383534
40
0.9962403
50
48.3561595
51
90.0837306
0
ARC
8
DEFAULT_255_2_778
10
49.5439725
20
57.6357616
40
0.9975096
50
1.7301295
51
48.4984071
0
ARC
8
DEFAULT_255_2_778
10
49.5227517
20
57.6346024
40
1.0187558
50
359.9994546
51
1.7592604
0
ARC
8
DEFAULT_255_2_778
10
49.5452681
20
57.6331368
40
0.9962403
50
318.3561595
51
0.0837306
0
ARC
8
DEFAULT_255_2_778
10
49.5426762
20
57.6321275
40
0.9975096
50
271.7301295
51
318.4984071
0
ARC
8
DEFAULT_255_2_778
10
49.541517
20
57.6533483
40
1.0187558
50
269.9994546
51
271.7592604
0
ARC
8
DEFAULT_255_2_778
10
49.5400514
20
57.6308319
40
0.9962403
50
228.3561595
51
270.0837306
0
ARC
8
DEFAULT_255_2_778
10
49.5390422
20
57.6334238
40
0.9975096
50
181.7301295
51
228.4984071
0
ARC
8
DEFAULT_255_2_778
10
49.560263
20
57.634583
40
1.0187558
50
179.9994546
51
181.7592604
0
LINE
8
DEFAULT_255_2_778
10
48.5415073
20
57.6345927
11
48.5415073
21
57.6345927
0
ARC
8
DEFAULT_255_2_778
10
49.5377466
20
60.6361486
40
0.9962403
50
138.3561595
51
180.0837306
0
ARC
8
DEFAULT_255_2_778
10
49.5403384
20
60.6371578
40
0.9975096
50
91.7301295
51
138.4984071
0
ARC
8
DEFAULT_255_2_778
10
49.5414976
20
60.615937
40
1.0187558
50
89.9994546
51
91.7592604
0
ARC
8
DEFAULT_255_2_778
10
49.5429632
20
60.6384534
40
0.9962403
50
48.3561595
51
90.0837306
0
ARC
8
DEFAULT_255_2_778
10
49.5439725
20
60.6358616
40
0.9975096
50
1.7301295
51
48.4984071
0
ARC
8
DEFAULT_255_2_778
10
49.5227517
20
60.6347024
40
1.0187558
50
359.9994546
51
1.7592604
0
ARC
8
DEFAULT_255_2_778
10
49.5452681
20
60.6332368
40
0.9962403
50
318.3561595
51
0.0837306
0
ARC
8
DEFAULT_255_2_778
10
49.5426762
20
60.6322275
40
0.9975096
50
271.7301295
51
318.4984071
0
ARC
8
DEFAULT_255_2_778
10
49.541517
20
60.6534483
40
1.0187558
50
269.9994546
51
271.7592604
0
ARC
8
DEFAULT_255_2_778
10
49.5400514
20
60.6309319
40
0.9962403
50
228.3561595
51
270.0837306
0
ARC
8
DEFAULT_255_2_778
10
49.5390422
20
60.6335238
40
0.9975096
50
181.7301295
51
228.4984071
0
ARC
8
DEFAULT_255_2_778
10
49.560263
20
60.634683
40
1.0187558
50
179.9994546
51
181.7592604
0
LINE
8
DEFAULT_255_2_778
10
48.5415073
20
60.6346927
11
48.5415073
21
60.6346927
0
ARC
8
DEFAULT_255_2_778
10
49.5377466
20
63.6360486
40
0.9962403
50
138.3561595
51
180.0837306
0
ARC
8
DEFAULT_255_2_778
10
49.5403384
20
63.6370578
40
0.9975096
50
91.7301295
51
138.4984071
0
ARC
8
DEFAULT_255_2_778
10
49.5414976
20
63.615837
40
1.0187558
50
89.9994546
51
91.7592604
0
ARC
8
DEFAULT_255_2_778
10
49.5429632
20
63.6383534
40
0.9962403
50
48.3561595
51
90.0837306
0
ARC
8
DEFAULT_255_2_778
10
49.5439725
20
63.6357616
40
0.9975096
50
1.7301295
51
48.4984071
0
ARC
8
DEFAULT_255_2_778
10
49.5227517
20
63.6346024
40
1.0187558
50
359.9994546
51
1.7592604
0
ARC
8
DEFAULT_255_2_778
10
49.5452681
20
63.6331368
40
0.9962403
50
318.3561595
51
0.0837306
0
ARC
8
DEFAULT_255_2_778
10
49.5426762
20
63.6321275
40
0.9975096
50
271.7301295
51
318.4984071
0
ARC
8
DEFAULT_255_2_778
10
49.541517
20
63.6533483
40
1.0187558
50
269.9994546
51
271.7592604
0
ARC
8
DEFAULT_255_2_778
10
49.5400514
20
63.6308319
40
0.9962403
50
228.3561595
51
270.0837306
0
ARC
8
DEFAULT_255_2_778
10
49.5390422
20
63.6334238
40
0.9975096
50
181.7301295
51
228.4984071
0
ARC
8
DEFAULT_255_2_778
10
49.560263
20
63.634583
40
1.0187558
50
179.9994546
51
181.7592604
0
LINE
8
DEFAULT_255_2_778
10
48.5415073
20
63.6345927
11
48.5415073
21
63.6345927
0
ARC
8
DEFAULT_255_2_778
10
49.5377466
20
54.6362486
40
0.9962403
50
138.3561595
51
180.0837306
0
ARC
8
DEFAULT_255_2_778
10
49.5403384
20
54.6372578
40
0.9975096
50
91.7301295
51
138.4984071
0
ARC
8
DEFAULT_255_2_778
10
49.5414976
20
54.616037
40
1.0187558
50
89.9994546
51
91.7592604
0
ARC
8
DEFAULT_255_2_778
10
49.5429632
20
54.6385534
40
0.9962403
50
48.3561595
51
90.0837306
0
ARC
8
DEFAULT_255_2_778
10
49.5439725
20
54.6359616
40
0.9975096
50
1.7301295
51
48.4984071
0
ARC
8
DEFAULT_255_2_778
10
49.5227517
20
54.6348024
40
1.0187558
50
359.9994546
51
1.7592604
0
ARC
8
DEFAULT_255_2_778
10
49.5452681
20
54.6333368
40
0.9962403
50
318.3561595
51
0.0837306
0
ARC
8
DEFAULT_255_2_778
10
49.5426762
20
54.6323275
40
0.9975096
50
271.7301295
51
318.4984071
0
ARC
8
DEFAULT_255_2_778
10
49.541517
20
54.6535483
40
1.0187558
50
269.9994546
51
271.7592604
0
ARC
8
DEFAULT_255_2_778
10
49.5400514
20
54.6310319
40
0.9962403
50
228.3561595
51
270.0837306
0
ARC
8
DEFAULT_255_2_778
10
49.5390422
20
54.6336238
40
0.9975096
50
181.7301295
51
228.4984071
0
ARC
8
DEFAULT_255_2_778
10
49.560263
20
54.634783
40
1.0187558
50
179.9994546
51
181.7592604
0
LINE
8
DEFAULT_255_2_778
10
48.5415073
20
54.6347927
11
48.5415073
21
54.6347927
0
ARC
8
DEFAULT_255_2_778
10
49.5377466
20
57.6360486
40
0.9962403
50
138.3561595
51
180.0837306
0
ARC
8
DEFAULT_255_2_778
10
49.5403384
20
57.6370578
40
0.9975096
50
91.7301295
51
138.4984071
0
ARC
8
DEFAULT_255_2_778
10
49.5414976
20
57.615837
40
1.0187558
50
89.9994546
51
91.7592604
0
ARC
8
DEFAULT_255_2_778
10
49.5429632
20
57.6383534
40
0.9962403
50
48.3561595
51
90.0837306
0
ARC
8
DEFAULT_255_2_778
10
49.5439725
20
57.6357616
40
0.9975096
50
1.7301295
51
48.4984071
0
ARC
8
DEFAULT_255_2_778
10
49.5227517
20
57.6346024
40
1.0187558
50
359.9994546
51
1.7592604
0
ARC
8
DEFAULT_255_2_778
10
49.5452681
20
57.6331368
40
0.9962403
50
318.3561595
51
0.0837306
0
ARC
8
DEFAULT_255_2_778
10
49.5426762
20
57.6321275
40
0.9975096
50
271.7301295
51
318.4984071
0
ARC
8
DEFAULT_255_2_778
10
49.541517
20
57.6533483
40
1.0187558
50
269.9994546
51
271.7592604
0
ARC
8
DEFAULT_255_2_778
10
49.5400514
20
57.6308319
40
0.9962403
50
228.3561595
51
270.0837306
0
ARC
8
DEFAULT_255_2_778
10
49.5390422
20
57.6334238
40
0.9975096
50
181.7301295
51
228.4984071
0
ARC
8
DEFAULT_255_2_778
10
49.560263
20
57.634583
40
1.0187558
50
179.9994546
51
181.7592604
0
LINE
8
DEFAULT_255_2_778
10
48.5415073
20
57.6345927
11
48.5415073
21
57.6345927
0
ARC
8
DEFAULT_255_2_778
10
49.5377466
20
54.6362486
40
0.9962403
50
138.3561595
51
180.0837306
0
ARC
8
DEFAULT_255_2_778
10
49.5403384
20
54.6372578
40
0.9975096
50
91.7301295
51
138.4984071
0
ARC
8
DEFAULT_255_2_778
10
49.5414976
20
54.616037
40
1.0187558
50
89.9994546
51
91.7592604
0
ARC
8
DEFAULT_255_2_778
10
49.5429632
20
54.6385534
40
0.9962403
50
48.3561595
51
90.0837306
0
ARC
8
DEFAULT_255_2_778
10
49.5439725
20
54.6359616
40
0.9975096
50
1.7301295
51
48.4984071
0
ARC
8
DEFAULT_255_2_778
10
49.5227517
20
54.6348024
40
1.0187558
50
359.9994546
51
1.7592604
0
ARC
8
DEFAULT_255_2_778
10
49.5452681
20
54.6333368
40
0.9962403
50
318.3561595
51
0.0837306
0
ARC
8
DEFAULT_255_2_778
10
49.5426762
20
54.6323275
40
0.9975096
50
271.7301295
51
318.4984071
0
ARC
8
DEFAULT_255_2_778
10
49.541517
20
54.6535483
40
1.0187558
50
269.9994546
51
271.7592604
0
ARC
8
DEFAULT_255_2_778
10
49.5400514
20
54.6310319
40
0.9962403
50
228.3561595
51
270.0837306
0
ARC
8
DEFAULT_255_2_778
10
49.5390422
20
54.6336238
40
0.9975096
50
181.7301295
51
228.4984071
0
ARC
8
DEFAULT_255_2_778
10
49.560263
20
54.634783
40
1.0187558
50
179.9994546
51
181.7592604
0
LINE
8
DEFAULT_255_2_778
10
48.5415073
20
54.6347927
11
48.5415073
21
54.6347927
0
ARC
8
DEFAULT_255_2_778
10
55.5377466
20
63.6360486
40
0.9962403
50
138.3561595
51
180.0837306
0
ARC
8
DEFAULT_255_2_778
10
55.5403384
20
63.6370578
40
0.9975096
50
91.7301295
51
138.4984071
0
ARC
8
DEFAULT_255_2_778
10
55.5414976
20
63.615837
40
1.0187558
50
89.9994546
51
91.7592604
0
ARC
8
DEFAULT_255_2_778
10
55.5429632
20
63.6383534
40
0.9962403
50
48.3561595
51
90.0837306
0
ARC
8
DEFAULT_255_2_778
10
55.5439725
20
63.6357616
40
0.9975096
50
1.7301295
51
48.4984071
0
ARC
8
DEFAULT_255_2_778
10
55.5227517
20
63.6346024
40
1.0187558
50
359.9994546
51
1.7592604
0
ARC
8
DEFAULT_255_2_778
10
55.5452681
20
63.6331368
40
0.9962403
50
318.3561595
51
0.0837306
0
ARC
8
DEFAULT_255_2_778
10
55.5426762
20
63.6321275
40
0.9975096
50
271.7301295
51
318.4984071
0
ARC
8
DEFAULT_255_2_778
10
55.541517
20
63.6533483
40
1.0187558
50
269.9994546
51
271.7592604
0
ARC
8
DEFAULT_255_2_778
10
55.5400514
20
63.6308319
40
0.9962403
50
228.3561595
51
270.0837306
0
ARC
8
DEFAULT_255_2_778
10
55.5390422
20
63.6334238
40
0.9975096
50
181.7301295
51
228.4984071
0
ARC
8
DEFAULT_255_2_778
10
55.560263
20
63.634583
40
1.0187558
50
179.9994546
51
181.7592604
0
LINE
8
DEFAULT_255_2_778
10
54.5415073
20
63.6345927
11
54.5415073
21
63.6345927
0
ARC
8
DEFAULT_255_2_778
10
55.5377466
20
60.6361486
40
0.9962403
50
138.3561595
51
180.0837306
0
ARC
8
DEFAULT_255_2_778
10
55.5403384
20
60.6371578
40
0.9975096
50
91.7301295
51
138.4984071
0
ARC
8
DEFAULT_255_2_778
10
55.5414976
20
60.615937
40
1.0187558
50
89.9994546
51
91.7592604
0
ARC
8
DEFAULT_255_2_778
10
55.5429632
20
60.6384534
40
0.9962403
50
48.3561595
51
90.0837306
0
ARC
8
DEFAULT_255_2_778
10
55.5439725
20
60.6358616
40
0.9975096
50
1.7301295
51
48.4984071
0
ARC
8
DEFAULT_255_2_778
10
55.5227517
20
60.6347024
40
1.0187558
50
359.9994546
51
1.7592604
0
ARC
8
DEFAULT_255_2_778
10
55.5452681
20
60.6332368
40
0.9962403
50
318.3561595
51
0.0837306
0
ARC
8
DEFAULT_255_2_778
10
55.5426762
20
60.6322275
40
0.9975096
50
271.7301295
51
318.4984071
0
ARC
8
DEFAULT_255_2_778
10
55.541517
20
60.6534483
40
1.0187558
50
269.9994546
51
271.7592604
0
ARC
8
DEFAULT_255_2_778
10
55.5400514
20
60.6309319
40
0.9962403
50
228.3561595
51
270.0837306
0
ARC
8
DEFAULT_255_2_778
10
55.5390422
20
60.6335238
40
0.9975096
50
181.7301295
51
228.4984071
0
ARC
8
DEFAULT_255_2_778
10
55.560263
20
60.634683
40
1.0187558
50
179.9994546
51
181.7592604
0
LINE
8
DEFAULT_255_2_778
10
54.5415073
20
60.6346927
11
54.5415073
21
60.6346927
0
ARC
8
DEFAULT_255_2_778
10
55.5377466
20
57.6360486
40
0.9962403
50
138.3561595
51
180.0837306
0
ARC
8
DEFAULT_255_2_778
10
55.5403384
20
57.6370578
40
0.9975096
50
91.7301295
51
138.4984071
0
ARC
8
DEFAULT_255_2_778
10
55.5414976
20
57.615837
40
1.0187558
50
89.9994546
51
91.7592604
0
ARC
8
DEFAULT_255_2_778
10
55.5429632
20
57.6383534
40
0.9962403
50
48.3561595
51
90.0837306
0
ARC
8
DEFAULT_255_2_778
10
55.5439725
20
57.6357616
40
0.9975096
50
1.7301295
51
48.4984071
0
ARC
8
DEFAULT_255_2_778
10
55.5227517
20
57.6346024
40
1.0187558
50
359.9994546
51
1.7592604
0
ARC
8
DEFAULT_255_2_778
10
55.5452681
20
57.6331368
40
0.9962403
50
318.3561595
51
0.0837306
0
ARC
8
DEFAULT_255_2_778
10
55.5426762
20
57.6321275
40
0.9975096
50
271.7301295
51
318.4984071
0
ARC
8
DEFAULT_255_2_778
10
55.541517
20
57.6533483
40
1.0187558
50
269.9994546
51
271.7592604
0
ARC
8
DEFAULT_255_2_778
10
55.5400514
20
57.6308319
40
0.9962403
50
228.3561595
51
270.0837306
0
ARC
8
DEFAULT_255_2_778
10
55.5390422
20
57.6334238
40
0.9975096
50
181.7301295
51
228.4984071
0
ARC
8
DEFAULT_255_2_778
10
55.560263
20
57.634583
40
1.0187558
50
179.9994546
51
181.7592604
0
LINE
8
DEFAULT_255_2_778
10
54.5415073
20
57.6345927
11
54.5415073
21
57.6345927
0
ARC
8
DEFAULT_255_2_778
10
55.5377466
20
57.6360486
40
0.9962403
50
138.3561595
51
180.0837306
0
ARC
8
DEFAULT_255_2_778
10
55.5403384
20
57.6370578
40
0.9975096
50
91.7301295
51
138.4984071
0
ARC
8
DEFAULT_255_2_778
10
55.5414976
20
57.615837
40
1.0187558
50
89.9994546
51
91.7592604
0
ARC
8
DEFAULT_255_2_778
10
55.5429632
20
57.6383534
40
0.9962403
50
48.3561595
51
90.0837306
0
ARC
8
DEFAULT_255_2_778
10
55.5439725
20
57.6357616
40
0.9975096
50
1.7301295
51
48.4984071
0
ARC
8
DEFAULT_255_2_778
10
55.5227517
20
57.6346024
40
1.0187558
50
359.9994546
51
1.7592604
0
ARC
8
DEFAULT_255_2_778
10
55.5452681
20
57.6331368
40
0.9962403
50
318.3561595
51
0.0837306
0
ARC
8
DEFAULT_255_2_778
10
55.5426762
20
57.6321275
40
0.9975096
50
271.7301295
51
318.4984071
0
ARC
8
DEFAULT_255_2_778
10
55.541517
20
57.6533483
40
1.0187558
50
269.9994546
51
271.7592604
0
ARC
8
DEFAULT_255_2_778
10
55.5400514
20
57.6308319
40
0.9962403
50
228.3561595
51
270.0837306
0
ARC
8
DEFAULT_255_2_778
10
55.5390422
20
57.6334238
40
0.9975096
50
181.7301295
51
228.4984071
0
ARC
8
DEFAULT_255_2_778
10
55.560263
20
57.634583
40
1.0187558
50
179.9994546
51
181.7592604
0
LINE
8
DEFAULT_255_2_778
10
54.5415073
20
57.6345927
11
54.5415073
21
57.6345927
0
ARC
8
DEFAULT_255_2_778
10
55.5377466
20
63.6360486
40
0.9962403
50
138.3561595
51
180.0837306
0
ARC
8
DEFAULT_255_2_778
10
55.5403384
20
63.6370578
40
0.9975096
50
91.7301295
51
138.4984071
0
ARC
8
DEFAULT_255_2_778
10
55.5414976
20
63.615837
40
1.0187558
50
89.9994546
51
91.7592604
0
ARC
8
DEFAULT_255_2_778
10
55.5429632
20
63.6383534
40
0.9962403
50
48.3561595
51
90.0837306
0
ARC
8
DEFAULT_255_2_778
10
55.5439725
20
63.6357616
40
0.9975096
50
1.7301295
51
48.4984071
0
ARC
8
DEFAULT_255_2_778
10
55.5227517
20
63.6346024
40
1.0187558
50
359.9994546
51
1.7592604
0
ARC
8
DEFAULT_255_2_778
10
55.5452681
20
63.6331368
40
0.9962403
50
318.3561595
51
0.0837306
0
ARC
8
DEFAULT_255_2_778
10
55.5426762
20
63.6321275
40
0.9975096
50
271.7301295
51
318.4984071
0
ARC
8
DEFAULT_255_2_778
10
55.541517
20
63.6533483
40
1.0187558
50
269.9994546
51
271.7592604
0
ARC
8
DEFAULT_255_2_778
10
55.5400514
20
63.6308319
40
0.9962403
50
228.3561595
51
270.0837306
0
ARC
8
DEFAULT_255_2_778
10
55.5390422
20
63.6334238
40
0.9975096
50
181.7301295
51
228.4984071
0
ARC
8
DEFAULT_255_2_778
10
55.560263
20
63.634583
40
1.0187558
50
179.9994546
51
181.7592604
0
LINE
8
DEFAULT_255_2_778
10
54.5415073
20
63.6345927
11
54.5415073
21
63.6345927
0
ARC
8
DEFAULT_255_2_778
10
55.5377466
20
60.6361486
40
0.9962403
50
138.3561595
51
180.0837306
0
ARC
8
DEFAULT_255_2_778
10
55.5403384
20
60.6371578
40
0.9975096
50
91.7301295
51
138.4984071
0
ARC
8
DEFAULT_255_2_778
10
55.5414976
20
60.615937
40
1.0187558
50
89.9994546
51
91.7592604
0
ARC
8
DEFAULT_255_2_778
10
55.5429632
20
60.6384534
40
0.9962403
50
48.3561595
51
90.0837306
0
ARC
8
DEFAULT_255_2_778
10
55.5439725
20
60.6358616
40
0.9975096
50
1.7301295
51
48.4984071
0
ARC
8
DEFAULT_255_2_778
10
55.5227517
20
60.6347024
40
1.0187558
50
359.9994546
51
1.7592604
0
ARC
8
DEFAULT_255_2_778
10
55.5452681
20
60.6332368
40
0.9962403
50
318.3561595
51
0.0837306
0
ARC
8
DEFAULT_255_2_778
10
55.5426762
20
60.6322275
40
0.9975096
50
271.7301295
51
318.4984071
0
ARC
8
DEFAULT_255_2_778
10
55.541517
20
60.6534483
40
1.0187558
50
269.9994546
51
271.7592604
0
ARC
8
DEFAULT_255_2_778
10
55.5400514
20
60.6309319
40
0.9962403
50
228.3561595
51
270.0837306
0
ARC
8
DEFAULT_255_2_778
10
55.5390422
20
60.6335238
40
0.9975096
50
181.7301295
51
228.4984071
0
ARC
8
DEFAULT_255_2_778
10
55.560263
20
60.634683
40
1.0187558
50
179.9994546
51
181.7592604
0
LINE
8
DEFAULT_255_2_778
10
54.5415073
20
60.6346927
11
54.5415073
21
60.6346927
0
ARC
8
DEFAULT_255_2_778
10
58.5378466
20
63.6360486
40
0.9962403
50
138.3561595
51
180.0837306
0
ARC
8
DEFAULT_255_2_778
10
58.5404384
20
63.6370578
40
0.9975096
50
91.7301295
51
138.4984071
0
ARC
8
DEFAULT_255_2_778
10
58.5415976
20
63.615837
40
1.0187558
50
89.9994546
51
91.7592604
0
ARC
8
DEFAULT_255_2_778
10
58.5430632
20
63.6383534
40
0.9962403
50
48.3561595
51
90.0837306
0
ARC
8
DEFAULT_255_2_778
10
58.5440725
20
63.6357616
40
0.9975096
50
1.7301295
51
48.4984071
0
ARC
8
DEFAULT_255_2_778
10
58.5228517
20
63.6346024
40
1.0187558
50
359.9994546
51
1.7592604
0
ARC
8
DEFAULT_255_2_778
10
58.5453681
20
63.6331368
40
0.9962403
50
318.3561595
51
0.0837306
0
ARC
8
DEFAULT_255_2_778
10
58.5427762
20
63.6321275
40
0.9975096
50
271.7301295
51
318.4984071
0
ARC
8
DEFAULT_255_2_778
10
58.541617
20
63.6533483
40
1.0187558
50
269.9994546
51
271.7592604
0
ARC
8
DEFAULT_255_2_778
10
58.5401514
20
63.6308319
40
0.9962403
50
228.3561595
51
270.0837306
0
ARC
8
DEFAULT_255_2_778
10
58.5391422
20
63.6334238
40
0.9975096
50
181.7301295
51
228.4984071
0
ARC
8
DEFAULT_255_2_778
10
58.560363
20
63.634583
40
1.0187558
50
179.9994546
51
181.7592604
0
LINE
8
DEFAULT_255_2_778
10
57.5416073
20
63.6345927
11
57.5416073
21
63.6345927
0
ARC
8
DEFAULT_255_2_778
10
58.5378466
20
63.6360486
40
0.9962403
50
138.3561595
51
180.0837306
0
ARC
8
DEFAULT_255_2_778
10
58.5404384
20
63.6370578
40
0.9975096
50
91.7301295
51
138.4984071
0
ARC
8
DEFAULT_255_2_778
10
58.5415976
20
63.615837
40
1.0187558
50
89.9994546
51
91.7592604
0
ARC
8
DEFAULT_255_2_778
10
58.5430632
20
63.6383534
40
0.9962403
50
48.3561595
51
90.0837306
0
ARC
8
DEFAULT_255_2_778
10
58.5440725
20
63.6357616
40
0.9975096
50
1.7301295
51
48.4984071
0
ARC
8
DEFAULT_255_2_778
10
58.5228517
20
63.6346024
40
1.0187558
50
359.9994546
51
1.7592604
0
ARC
8
DEFAULT_255_2_778
10
58.5453681
20
63.6331368
40
0.9962403
50
318.3561595
51
0.0837306
0
ARC
8
DEFAULT_255_2_778
10
58.5427762
20
63.6321275
40
0.9975096
50
271.7301295
51
318.4984071
0
ARC
8
DEFAULT_255_2_778
10
58.541617
20
63.6533483
40
1.0187558
50
269.9994546
51
271.7592604
0
ARC
8
DEFAULT_255_2_778
10
58.5401514
20
63.6308319
40
0.9962403
50
228.3561595
51
270.0837306
0
ARC
8
DEFAULT_255_2_778
10
58.5391422
20
63.6334238
40
0.9975096
50
181.7301295
51
228.4984071
0
ARC
8
DEFAULT_255_2_778
10
58.560363
20
63.634583
40
1.0187558
50
179.9994546
51
181.7592604
0
LINE
8
DEFAULT_255_2_778
10
57.5416073
20
63.6345927
11
57.5416073
21
63.6345927
0
ARC
8
DEFAULT_255_2_778
10
64.5377466
20
60.6361486
40
0.9962403
50
138.3561595
51
180.0837306
0
ARC
8
DEFAULT_255_2_778
10
64.5403384
20
60.6371578
40
0.9975096
50
91.7301295
51
138.4984071
0
ARC
8
DEFAULT_255_2_778
10
64.5414976
20
60.615937
40
1.0187558
50
89.9994546
51
91.7592604
0
ARC
8
DEFAULT_255_2_778
10
64.5429632
20
60.6384534
40
0.9962403
50
48.3561595
51
90.0837306
0
ARC
8
DEFAULT_255_2_778
10
64.5439725
20
60.6358616
40
0.9975096
50
1.7301295
51
48.4984071
0
ARC
8
DEFAULT_255_2_778
10
64.5227517
20
60.6347024
40
1.0187558
50
359.9994546
51
1.7592604
0
ARC
8
DEFAULT_255_2_778
10
64.5452681
20
60.6332368
40
0.9962403
50
318.3561595
51
0.0837306
0
ARC
8
DEFAULT_255_2_778
10
64.5426762
20
60.6322275
40
0.9975096
50
271.7301295
51
318.4984071
0
ARC
8
DEFAULT_255_2_778
10
64.541517
20
60.6534483
40
1.0187558
50
269.9994546
51
271.7592604
0
ARC
8
DEFAULT_255_2_778
10
64.5400514
20
60.6309319
40
0.9962403
50
228.3561595
51
270.0837306
0
ARC
8
DEFAULT_255_2_778
10
64.5390422
20
60.6335238
40
0.9975096
50
181.7301295
51
228.4984071
0
ARC
8
DEFAULT_255_2_778
10
64.560263
20
60.634683
40
1.0187558
50
179.9994546
51
181.7592604
0
LINE
8
DEFAULT_255_2_778
10
63.5415073
20
60.6346927
11
63.5415073
21
60.6346927
0
ARC
8
DEFAULT_255_2_778
10
64.5377466
20
63.6360486
40
0.9962403
50
138.3561595
51
180.0837306
0
ARC
8
DEFAULT_255_2_778
10
64.5403384
20
63.6370578
40
0.9975096
50
91.7301295
51
138.4984071
0
ARC
8
DEFAULT_255_2_778
10
64.5414976
20
63.615837
40
1.0187558
50
89.9994546
51
91.7592604
0
ARC
8
DEFAULT_255_2_778
10
64.5429632
20
63.6383534
40
0.9962403
50
48.3561595
51
90.0837306
0
ARC
8
DEFAULT_255_2_778
10
64.5439725
20
63.6357616
40
0.9975096
50
1.7301295
51
48.4984071
0
ARC
8
DEFAULT_255_2_778
10
64.5227517
20
63.6346024
40
1.0187558
50
359.9994546
51
1.7592604
0
ARC
8
DEFAULT_255_2_778
10
64.5452681
20
63.6331368
40
0.9962403
50
318.3561595
51
0.0837306
0
ARC
8
DEFAULT_255_2_778
10
64.5426762
20
63.6321275
40
0.9975096
50
271.7301295
51
318.4984071
0
ARC
8
DEFAULT_255_2_778
10
64.541517
20
63.6533483
40
1.0187558
50
269.9994546
51
271.7592604
0
ARC
8
DEFAULT_255_2_778
10
64.5400514
20
63.6308319
40
0.9962403
50
228.3561595
51
270.0837306
0
ARC
8
DEFAULT_255_2_778
10
64.5390422
20
63.6334238
40
0.9975096
50
181.7301295
51
228.4984071
0
ARC
8
DEFAULT_255_2_778
10
64.560263
20
63.634583
40
1.0187558
50
179.9994546
51
181.7592604
0
LINE
8
DEFAULT_255_2_778
10
63.5415073
20
63.6345927
11
63.5415073
21
63.6345927
0
ARC
8
DEFAULT_255_2_778
10
64.5377466
20
63.6360486
40
0.9962403
50
138.3561595
51
180.0837306
0
ARC
8
DEFAULT_255_2_778
10
64.5403384
20
63.6370578
40
0.9975096
50
91.7301295
51
138.4984071
0
ARC
8
DEFAULT_255_2_778
10
64.5414976
20
63.615837
40
1.0187558
50
89.9994546
51
91.7592604
0
ARC
8
DEFAULT_255_2_778
10
64.5429632
20
63.6383534
40
0.9962403
50
48.3561595
51
90.0837306
0
ARC
8
DEFAULT_255_2_778
10
64.5439725
20
63.6357616
40
0.9975096
50
1.7301295
51
48.4984071
0
ARC
8
DEFAULT_255_2_778
10
64.5227517
20
63.6346024
40
1.0187558
50
359.9994546
51
1.7592604
0
ARC
8
DEFAULT_255_2_778
10
64.5452681
20
63.6331368
40
0.9962403
50
318.3561595
51
0.0837306
0
ARC
8
DEFAULT_255_2_778
10
64.5426762
20
63.6321275
40
0.9975096
50
271.7301295
51
318.4984071
0
ARC
8
DEFAULT_255_2_778
10
64.541517
20
63.6533483
40
1.0187558
50
269.9994546
51
271.7592604
0
ARC
8
DEFAULT_255_2_778
10
64.5400514
20
63.6308319
40
0.9962403
50
228.3561595
51
270.0837306
0
ARC
8
DEFAULT_255_2_778
10
64.5390422
20
63.6334238
40
0.9975096
50
181.7301295
51
228.4984071
0
ARC
8
DEFAULT_255_2_778
10
64.560263
20
63.634583
40
1.0187558
50
179.9994546
51
181.7592604
0
LINE
8
DEFAULT_255_2_778
10
63.5415073
20
63.6345927
11
63.5415073
21
63.6345927
0
ARC
8
DEFAULT_255_2_778
10
64.5377466
20
57.6360486
40
0.9962403
50
138.3561595
51
180.0837306
0
ARC
8
DEFAULT_255_2_778
10
64.5403384
20
57.6370578
40
0.9975096
50
91.7301295
51
138.4984071
0
ARC
8
DEFAULT_255_2_778
10
64.5414976
20
57.615837
40
1.0187558
50
89.9994546
51
91.7592604
0
ARC
8
DEFAULT_255_2_778
10
64.5429632
20
57.6383534
40
0.9962403
50
48.3561595
51
90.0837306
0
ARC
8
DEFAULT_255_2_778
10
64.5439725
20
57.6357616
40
0.9975096
50
1.7301295
51
48.4984071
0
ARC
8
DEFAULT_255_2_778
10
64.5227517
20
57.6346024
40
1.0187558
50
359.9994546
51
1.7592604
0
ARC
8
DEFAULT_255_2_778
10
64.5452681
20
57.6331368
40
0.9962403
50
318.3561595
51
0.0837306
0
ARC
8
DEFAULT_255_2_778
10
64.5426762
20
57.6321275
40
0.9975096
50
271.7301295
51
318.4984071
0
ARC
8
DEFAULT_255_2_778
10
64.541517
20
57.6533483
40
1.0187558
50
269.9994546
51
271.7592604
0
ARC
8
DEFAULT_255_2_778
10
64.5400514
20
57.6308319
40
0.9962403
50
228.3561595
51
270.0837306
0
ARC
8
DEFAULT_255_2_778
10
64.5390422
20
57.6334238
40
0.9975096
50
181.7301295
51
228.4984071
0
ARC
8
DEFAULT_255_2_778
10
64.560263
20
57.634583
40
1.0187558
50
179.9994546
51
181.7592604
0
LINE
8
DEFAULT_255_2_778
10
63.5415073
20
57.6345927
11
63.5415073
21
57.6345927
0
ARC
8
DEFAULT_255_2_778
10
64.5377466
20
54.6362486
40
0.9962403
50
138.3561595
51
180.0837306
0
ARC
8
DEFAULT_255_2_778
10
64.5403384
20
54.6372578
40
0.9975096
50
91.7301295
51
138.4984071
0
ARC
8
DEFAULT_255_2_778
10
64.5414976
20
54.616037
40
1.0187558
50
89.9994546
51
91.7592604
0
ARC
8
DEFAULT_255_2_778
10
64.5429632
20
54.6385534
40
0.9962403
50
48.3561595
51
90.0837306
0
ARC
8
DEFAULT_255_2_778
10
64.5439725
20
54.6359616
40
0.9975096
50
1.7301295
51
48.4984071
0
ARC
8
DEFAULT_255_2_778
10
64.5227517
20
54.6348024
40
1.0187558
50
359.9994546
51
1.7592604
0
ARC
8
DEFAULT_255_2_778
10
64.5452681
20
54.6333368
40
0.9962403
50
318.3561595
51
0.0837306
0
ARC
8
DEFAULT_255_2_778
10
64.5426762
20
54.6323275
40
0.9975096
50
271.7301295
51
318.4984071
0
ARC
8
DEFAULT_255_2_778
10
64.541517
20
54.6535483
40
1.0187558
50
269.9994546
51
271.7592604
0
ARC
8
DEFAULT_255_2_778
10
64.5400514
20
54.6310319
40
0.9962403
50
228.3561595
51
270.0837306
0
ARC
8
DEFAULT_255_2_778
10
64.5390422
20
54.6336238
40
0.9975096
50
181.7301295
51
228.4984071
0
ARC
8
DEFAULT_255_2_778
10
64.560263
20
54.634783
40
1.0187558
50
179.9994546
51
181.7592604
0
LINE
8
DEFAULT_255_2_778
10
63.5415073
20
54.6347927
11
63.5415073
21
54.6347927
0
ARC
8
DEFAULT_255_2_778
10
64.5377466
20
60.6361486
40
0.9962403
50
138.3561595
51
180.0837306
0
ARC
8
DEFAULT_255_2_778
10
64.5403384
20
60.6371578
40
0.9975096
50
91.7301295
51
138.4984071
0
ARC
8
DEFAULT_255_2_778
10
64.5414976
20
60.615937
40
1.0187558
50
89.9994546
51
91.7592604
0
ARC
8
DEFAULT_255_2_778
10
64.5429632
20
60.6384534
40
0.9962403
50
48.3561595
51
90.0837306
0
ARC
8
DEFAULT_255_2_778
10
64.5439725
20
60.6358616
40
0.9975096
50
1.7301295
51
48.4984071
0
ARC
8
DEFAULT_255_2_778
10
64.5227517
20
60.6347024
40
1.0187558
50
359.9994546
51
1.7592604
0
ARC
8
DEFAULT_255_2_778
10
64.5452681
20
60.6332368
40
0.9962403
50
318.3561595
51
0.0837306
0
ARC
8
DEFAULT_255_2_778
10
64.5426762
20
60.6322275
40
0.9975096
50
271.7301295
51
318.4984071
0
ARC
8
DEFAULT_255_2_778
10
64.541517
20
60.6534483
40
1.0187558
50
269.9994546
51
271.7592604
0
ARC
8
DEFAULT_255_2_778
10
64.5400514
20
60.6309319
40
0.9962403
50
228.3561595
51
270.0837306
0
ARC
8
DEFAULT_255_2_778
10
64.5390422
20
60.6335238
40
0.9975096
50
181.7301295
51
228.4984071
0
ARC
8
DEFAULT_255_2_778
10
64.560263
20
60.634683
40
1.0187558
50
179.9994546
51
181.7592604
0
LINE
8
DEFAULT_255_2_778
10
63.5415073
20
60.6346927
11
63.5415073
21
60.6346927
0
ARC
8
DEFAULT_255_2_778
10
64.5377466
20
57.6360486
40
0.9962403
50
138.3561595
51
180.0837306
0
ARC
8
DEFAULT_255_2_778
10
64.5403384
20
57.6370578
40
0.9975096
50
91.7301295
51
138.4984071
0
ARC
8
DEFAULT_255_2_778
10
64.5414976
20
57.615837
40
1.0187558
50
89.9994546
51
91.7592604
0
ARC
8
DEFAULT_255_2_778
10
64.5429632
20
57.6383534
40
0.9962403
50
48.3561595
51
90.0837306
0
ARC
8
DEFAULT_255_2_778
10
64.5439725
20
57.6357616
40
0.9975096
50
1.7301295
51
48.4984071
0
ARC
8
DEFAULT_255_2_778
10
64.5227517
20
57.6346024
40
1.0187558
50
359.9994546
51
1.7592604
0
ARC
8
DEFAULT_255_2_778
10
64.5452681
20
57.6331368
40
0.9962403
50
318.3561595
51
0.0837306
0
ARC
8
DEFAULT_255_2_778
10
64.5426762
20
57.6321275
40
0.9975096
50
271.7301295
51
318.4984071
0
ARC
8
DEFAULT_255_2_778
10
64.541517
20
57.6533483
40
1.0187558
50
269.9994546
51
271.7592604
0
ARC
8
DEFAULT_255_2_778
10
64.5400514
20
57.6308319
40
0.9962403
50
228.3561595
51
270.0837306
0
ARC
8
DEFAULT_255_2_778
10
64.5390422
20
57.6334238
40
0.9975096
50
181.7301295
51
228.4984071
0
ARC
8
DEFAULT_255_2_778
10
64.560263
20
57.634583
40
1.0187558
50
179.9994546
51
181.7592604
0
LINE
8
DEFAULT_255_2_778
10
63.5415073
20
57.6345927
11
63.5415073
21
57.6345927
0
ARC
8
DEFAULT_255_2_778
10
64.5377466
20
54.6362486
40
0.9962403
50
138.3561595
51
180.0837306
0
ARC
8
DEFAULT_255_2_778
10
64.5403384
20
54.6372578
40
0.9975096
50
91.7301295
51
138.4984071
0
ARC
8
DEFAULT_255_2_778
10
64.5414976
20
54.616037
40
1.0187558
50
89.9994546
51
91.7592604
0
ARC
8
DEFAULT_255_2_778
10
64.5429632
20
54.6385534
40
0.9962403
50
48.3561595
51
90.0837306
0
ARC
8
DEFAULT_255_2_778
10
64.5439725
20
54.6359616
40
0.9975096
50
1.7301295
51
48.4984071
0
ARC
8
DEFAULT_255_2_778
10
64.5227517
20
54.6348024
40
1.0187558
50
359.9994546
51
1.7592604
0
ARC
8
DEFAULT_255_2_778
10
64.5452681
20
54.6333368
40
0.9962403
50
318.3561595
51
0.0837306
0
ARC
8
DEFAULT_255_2_778
10
64.5426762
20
54.6323275
40
0.9975096
50
271.7301295
51
318.4984071
0
ARC
8
DEFAULT_255_2_778
10
64.541517
20
54.6535483
40
1.0187558
50
269.9994546
51
271.7592604
0
ARC
8
DEFAULT_255_2_778
10
64.5400514
20
54.6310319
40
0.9962403
50
228.3561595
51
270.0837306
0
ARC
8
DEFAULT_255_2_778
10
64.5390422
20
54.6336238
40
0.9975096
50
181.7301295
51
228.4984071
0
ARC
8
DEFAULT_255_2_778
10
64.560263
20
54.634783
40
1.0187558
50
179.9994546
51
181.7592604
0
LINE
8
DEFAULT_255_2_778
10
63.5415073
20
54.6347927
11
63.5415073
21
54.6347927
0
ARC
8
DEFAULT_255_2_778
10
61.5379466
20
60.6361486
40
0.9962403
50
138.3561595
51
180.0837306
0
ARC
8
DEFAULT_255_2_778
10
61.5405384
20
60.6371578
40
0.9975096
50
91.7301295
51
138.4984071
0
ARC
8
DEFAULT_255_2_778
10
61.5416976
20
60.615937
40
1.0187558
50
89.9994546
51
91.7592604
0
ARC
8
DEFAULT_255_2_778
10
61.5431632
20
60.6384534
40
0.9962403
50
48.3561595
51
90.0837306
0
ARC
8
DEFAULT_255_2_778
10
61.5441725
20
60.6358616
40
0.9975096
50
1.7301295
51
48.4984071
0
ARC
8
DEFAULT_255_2_778
10
61.5229517
20
60.6347024
40
1.0187558
50
359.9994546
51
1.7592604
0
ARC
8
DEFAULT_255_2_778
10
61.5454681
20
60.6332368
40
0.9962403
50
318.3561595
51
0.0837306
0
ARC
8
DEFAULT_255_2_778
10
61.5428762
20
60.6322275
40
0.9975096
50
271.7301295
51
318.4984071
0
ARC
8
DEFAULT_255_2_778
10
61.541717
20
60.6534483
40
1.0187558
50
269.9994546
51
271.7592604
0
ARC
8
DEFAULT_255_2_778
10
61.5402514
20
60.6309319
40
0.9962403
50
228.3561595
51
270.0837306
0
ARC
8
DEFAULT_255_2_778
10
61.5392422
20
60.6335238
40
0.9975096
50
181.7301295
51
228.4984071
0
ARC
8
DEFAULT_255_2_778
10
61.560463
20
60.634683
40
1.0187558
50
179.9994546
51
181.7592604
0
LINE
8
DEFAULT_255_2_778
10
60.5417073
20
60.6346927
11
60.5417073
21
60.6346927
0
ARC
8
DEFAULT_255_2_778
10
61.5379466
20
63.6360486
40
0.9962403
50
138.3561595
51
180.0837306
0
ARC
8
DEFAULT_255_2_778
10
61.5405384
20
63.6370578
40
0.9975096
50
91.7301295
51
138.4984071
0
ARC
8
DEFAULT_255_2_778
10
61.5416976
20
63.615837
40
1.0187558
50
89.9994546
51
91.7592604
0
ARC
8
DEFAULT_255_2_778
10
61.5431632
20
63.6383534
40
0.9962403
50
48.3561595
51
90.0837306
0
ARC
8
DEFAULT_255_2_778
10
61.5441725
20
63.6357616
40
0.9975096
50
1.7301295
51
48.4984071
0
ARC
8
DEFAULT_255_2_778
10
61.5229517
20
63.6346024
40
1.0187558
50
359.9994546
51
1.7592604
0
ARC
8
DEFAULT_255_2_778
10
61.5454681
20
63.6331368
40
0.9962403
50
318.3561595
51
0.0837306
0
ARC
8
DEFAULT_255_2_778
10
61.5428762
20
63.6321275
40
0.9975096
50
271.7301295
51
318.4984071
0
ARC
8
DEFAULT_255_2_778
10
61.541717
20
63.6533483
40
1.0187558
50
269.9994546
51
271.7592604
0
ARC
8
DEFAULT_255_2_778
10
61.5402514
20
63.6308319
40
0.9962403
50
228.3561595
51
270.0837306
0
ARC
8
DEFAULT_255_2_778
10
61.5392422
20
63.6334238
40
0.9975096
50
181.7301295
51
228.4984071
0
ARC
8
DEFAULT_255_2_778
10
61.560463
20
63.634583
40
1.0187558
50
179.9994546
51
181.7592604
0
LINE
8
DEFAULT_255_2_778
10
60.5417073
20
63.6345927
11
60.5417073
21
63.6345927
0
ARC
8
DEFAULT_255_2_778
10
61.5379466
20
63.6360486
40
0.9962403
50
138.3561595
51
180.0837306
0
ARC
8
DEFAULT_255_2_778
10
61.5405384
20
63.6370578
40
0.9975096
50
91.7301295
51
138.4984071
0
ARC
8
DEFAULT_255_2_778
10
61.5416976
20
63.615837
40
1.0187558
50
89.9994546
51
91.7592604
0
ARC
8
DEFAULT_255_2_778
10
61.5431632
20
63.6383534
40
0.9962403
50
48.3561595
51
90.0837306
0
ARC
8
DEFAULT_255_2_778
10
61.5441725
20
63.6357616
40
0.9975096
50
1.7301295
51
48.4984071
0
ARC
8
DEFAULT_255_2_778
10
61.5229517
20
63.6346024
40
1.0187558
50
359.9994546
51
1.7592604
0
ARC
8
DEFAULT_255_2_778
10
61.5454681
20
63.6331368
40
0.9962403
50
318.3561595
51
0.0837306
0
ARC
8
DEFAULT_255_2_778
10
61.5428762
20
63.6321275
40
0.9975096
50
271.7301295
51
318.4984071
0
ARC
8
DEFAULT_255_2_778
10
61.541717
20
63.6533483
40
1.0187558
50
269.9994546
51
271.7592604
0
ARC
8
DEFAULT_255_2_778
10
61.5402514
20
63.6308319
40
0.9962403
50
228.3561595
51
270.0837306
0
ARC
8
DEFAULT_255_2_778
10
61.5392422
20
63.6334238
40
0.9975096
50
181.7301295
51
228.4984071
0
ARC
8
DEFAULT_255_2_778
10
61.560463
20
63.634583
40
1.0187558
50
179.9994546
51
181.7592604
0
LINE
8
DEFAULT_255_2_778
10
60.5417073
20
63.6345927
11
60.5417073
21
63.6345927
0
ARC
8
DEFAULT_255_2_778
10
61.5379466
20
57.6360486
40
0.9962403
50
138.3561595
51
180.0837306
0
ARC
8
DEFAULT_255_2_778
10
61.5405384
20
57.6370578
40
0.9975096
50
91.7301295
51
138.4984071
0
ARC
8
DEFAULT_255_2_778
10
61.5416976
20
57.615837
40
1.0187558
50
89.9994546
51
91.7592604
0
ARC
8
DEFAULT_255_2_778
10
61.5431632
20
57.6383534
40
0.9962403
50
48.3561595
51
90.0837306
0
ARC
8
DEFAULT_255_2_778
10
61.5441725
20
57.6357616
40
0.9975096
50
1.7301295
51
48.4984071
0
ARC
8
DEFAULT_255_2_778
10
61.5229517
20
57.6346024
40
1.0187558
50
359.9994546
51
1.7592604
0
ARC
8
DEFAULT_255_2_778
10
61.5454681
20
57.6331368
40
0.9962403
50
318.3561595
51
0.0837306
0
ARC
8
DEFAULT_255_2_778
10
61.5428762
20
57.6321275
40
0.9975096
50
271.7301295
51
318.4984071
0
ARC
8
DEFAULT_255_2_778
10
61.541717
20
57.6533483
40
1.0187558
50
269.9994546
51
271.7592604
0
ARC
8
DEFAULT_255_2_778
10
61.5402514
20
57.6308319
40
0.9962403
50
228.3561595
51
270.0837306
0
ARC
8
DEFAULT_255_2_778
10
61.5392422
20
57.6334238
40
0.9975096
50
181.7301295
51
228.4984071
0
ARC
8
DEFAULT_255_2_778
10
61.560463
20
57.634583
40
1.0187558
50
179.9994546
51
181.7592604
0
LINE
8
DEFAULT_255_2_778
10
60.5417073
20
57.6345927
11
60.5417073
21
57.6345927
0
ARC
8
DEFAULT_255_2_778
10
61.5379466
20
54.6362486
40
0.9962403
50
138.3561595
51
180.0837306
0
ARC
8
DEFAULT_255_2_778
10
61.5405384
20
54.6372578
40
0.9975096
50
91.7301295
51
138.4984071
0
ARC
8
DEFAULT_255_2_778
10
61.5416976
20
54.616037
40
1.0187558
50
89.9994546
51
91.7592604
0
ARC
8
DEFAULT_255_2_778
10
61.5431632
20
54.6385534
40
0.9962403
50
48.3561595
51
90.0837306
0
ARC
8
DEFAULT_255_2_778
10
61.5441725
20
54.6359616
40
0.9975096
50
1.7301295
51
48.4984071
0
ARC
8
DEFAULT_255_2_778
10
61.5229517
20
54.6348024
40
1.0187558
50
359.9994546
51
1.7592604
0
ARC
8
DEFAULT_255_2_778
10
61.5454681
20
54.6333368
40
0.9962403
50
318.3561595
51
0.0837306
0
ARC
8
DEFAULT_255_2_778
10
61.5428762
20
54.6323275
40
0.9975096
50
271.7301295
51
318.4984071
0
ARC
8
DEFAULT_255_2_778
10
61.541717
20
54.6535483
40
1.0187558
50
269.9994546
51
271.7592604
0
ARC
8
DEFAULT_255_2_778
10
61.5402514
20
54.6310319
40
0.9962403
50
228.3561595
51
270.0837306
0
ARC
8
DEFAULT_255_2_778
10
61.5392422
20
54.6336238
40
0.9975096
50
181.7301295
51
228.4984071
0
ARC
8
DEFAULT_255_2_778
10
61.560463
20
54.634783
40
1.0187558
50
179.9994546
51
181.7592604
0
LINE
8
DEFAULT_255_2_778
10
60.5417073
20
54.6347927
11
60.5417073
21
54.6347927
0
ARC
8
DEFAULT_255_2_778
10
61.5379466
20
60.6361486
40
0.9962403
50
138.3561595
51
180.0837306
0
ARC
8
DEFAULT_255_2_778
10
61.5405384
20
60.6371578
40
0.9975096
50
91.7301295
51
138.4984071
0
ARC
8
DEFAULT_255_2_778
10
61.5416976
20
60.615937
40
1.0187558
50
89.9994546
51
91.7592604
0
ARC
8
DEFAULT_255_2_778
10
61.5431632
20
60.6384534
40
0.9962403
50
48.3561595
51
90.0837306
0
ARC
8
DEFAULT_255_2_778
10
61.5441725
20
60.6358616
40
0.9975096
50
1.7301295
51
48.4984071
0
ARC
8
DEFAULT_255_2_778
10
61.5229517
20
60.6347024
40
1.0187558
50
359.9994546
51
1.7592604
0
ARC
8
DEFAULT_255_2_778
10
61.5454681
20
60.6332368
40
0.9962403
50
318.3561595
51
0.0837306
0
ARC
8
DEFAULT_255_2_778
10
61.5428762
20
60.6322275
40
0.9975096
50
271.7301295
51
318.4984071
0
ARC
8
DEFAULT_255_2_778
10
61.541717
20
60.6534483
40
1.0187558
50
269.9994546
51
271.7592604
0
ARC
8
DEFAULT_255_2_778
10
61.5402514
20
60.6309319
40
0.9962403
50
228.3561595
51
270.0837306
0
ARC
8
DEFAULT_255_2_778
10
61.5392422
20
60.6335238
40
0.9975096
50
181.7301295
51
228.4984071
0
ARC
8
DEFAULT_255_2_778
10
61.560463
20
60.634683
40
1.0187558
50
179.9994546
51
181.7592604
0
LINE
8
DEFAULT_255_2_778
10
60.5417073
20
60.6346927
11
60.5417073
21
60.6346927
0
ARC
8
DEFAULT_255_2_778
10
61.5379466
20
57.6360486
40
0.9962403
50
138.3561595
51
180.0837306
0
ARC
8
DEFAULT_255_2_778
10
61.5405384
20
57.6370578
40
0.9975096
50
91.7301295
51
138.4984071
0
ARC
8
DEFAULT_255_2_778
10
61.5416976
20
57.615837
40
1.0187558
50
89.9994546
51
91.7592604
0
ARC
8
DEFAULT_255_2_778
10
61.5431632
20
57.6383534
40
0.9962403
50
48.3561595
51
90.0837306
0
ARC
8
DEFAULT_255_2_778
10
61.5441725
20
57.6357616
40
0.9975096
50
1.7301295
51
48.4984071
0
ARC
8
DEFAULT_255_2_778
10
61.5229517
20
57.6346024
40
1.0187558
50
359.9994546
51
1.7592604
0
ARC
8
DEFAULT_255_2_778
10
61.5454681
20
57.6331368
40
0.9962403
50
318.3561595
51
0.0837306
0
ARC
8
DEFAULT_255_2_778
10
61.5428762
20
57.6321275
40
0.9975096
50
271.7301295
51
318.4984071
0
ARC
8
DEFAULT_255_2_778
10
61.541717
20
57.6533483
40
1.0187558
50
269.9994546
51
271.7592604
0
ARC
8
DEFAULT_255_2_778
10
61.5402514
20
57.6308319
40
0.9962403
50
228.3561595
51
270.0837306
0
ARC
8
DEFAULT_255_2_778
10
61.5392422
20
57.6334238
40
0.9975096
50
181.7301295
51
228.4984071
0
ARC
8
DEFAULT_255_2_778
10
61.560463
20
57.634583
40
1.0187558
50
179.9994546
51
181.7592604
0
LINE
8
DEFAULT_255_2_778
10
60.5417073
20
57.6345927
11
60.5417073
21
57.6345927
0
ARC
8
DEFAULT_255_2_778
10
61.5379466
20
54.6362486
40
0.9962403
50
138.3561595
51
180.0837306
0
ARC
8
DEFAULT_255_2_778
10
61.5405384
20
54.6372578
40
0.9975096
50
91.7301295
51
138.4984071
0
ARC
8
DEFAULT_255_2_778
10
61.5416976
20
54.616037
40
1.0187558
50
89.9994546
51
91.7592604
0
ARC
8
DEFAULT_255_2_778
10
61.5431632
20
54.6385534
40
0.9962403
50
48.3561595
51
90.0837306
0
ARC
8
DEFAULT_255_2_778
10
61.5441725
20
54.6359616
40
0.9975096
50
1.7301295
51
48.4984071
0
ARC
8
DEFAULT_255_2_778
10
61.5229517
20
54.6348024
40
1.0187558
50
359.9994546
51
1.7592604
0
ARC
8
DEFAULT_255_2_778
10
61.5454681
20
54.6333368
40
0.9962403
50
318.3561595
51
0.0837306
0
ARC
8
DEFAULT_255_2_778
10
61.5428762
20
54.6323275
40
0.9975096
50
271.7301295
51
318.4984071
0
ARC
8
DEFAULT_255_2_778
10
61.541717
20
54.6535483
40
1.0187558
50
269.9994546
51
271.7592604
0
ARC
8
DEFAULT_255_2_778
10
61.5402514
20
54.6310319
40
0.9962403
50
228.3561595
51
270.0837306
0
ARC
8
DEFAULT_255_2_778
10
61.5392422
20
54.6336238
40
0.9975096
50
181.7301295
51
228.4984071
0
ARC
8
DEFAULT_255_2_778
10
61.560463
20
54.634783
40
1.0187558
50
179.9994546
51
181.7592604
0
LINE
8
DEFAULT_255_2_778
10
60.5417073
20
54.6347927
11
60.5417073
21
54.6347927
0
ARC
8
DEFAULT_255_2_778
10
67.5378466
20
57.6360486
40
0.9962403
50
138.3561595
51
180.0837306
0
ARC
8
DEFAULT_255_2_778
10
67.5404384
20
57.6370578
40
0.9975096
50
91.7301295
51
138.4984071
0
ARC
8
DEFAULT_255_2_778
10
67.5415976
20
57.615837
40
1.0187558
50
89.9994546
51
91.7592604
0
ARC
8
DEFAULT_255_2_778
10
67.5430632
20
57.6383534
40
0.9962403
50
48.3561595
51
90.0837306
0
ARC
8
DEFAULT_255_2_778
10
67.5440725
20
57.6357616
40
0.9975096
50
1.7301295
51
48.4984071
0
ARC
8
DEFAULT_255_2_778
10
67.5228517
20
57.6346024
40
1.0187558
50
359.9994546
51
1.7592604
0
ARC
8
DEFAULT_255_2_778
10
67.5453681
20
57.6331368
40
0.9962403
50
318.3561595
51
0.0837306
0
ARC
8
DEFAULT_255_2_778
10
67.5427762
20
57.6321275
40
0.9975096
50
271.7301295
51
318.4984071
0
ARC
8
DEFAULT_255_2_778
10
67.541617
20
57.6533483
40
1.0187558
50
269.9994546
51
271.7592604
0
ARC
8
DEFAULT_255_2_778
10
67.5401514
20
57.6308319
40
0.9962403
50
228.3561595
51
270.0837306
0
ARC
8
DEFAULT_255_2_778
10
67.5391422
20
57.6334238
40
0.9975096
50
181.7301295
51
228.4984071
0
ARC
8
DEFAULT_255_2_778
10
67.560363
20
57.634583
40
1.0187558
50
179.9994546
51
181.7592604
0
LINE
8
DEFAULT_255_2_778
10
66.5416073
20
57.6345927
11
66.5416073
21
57.6345927
0
ARC
8
DEFAULT_255_2_778
10
67.5378466
20
63.6360486
40
0.9962403
50
138.3561595
51
180.0837306
0
ARC
8
DEFAULT_255_2_778
10
67.5404384
20
63.6370578
40
0.9975096
50
91.7301295
51
138.4984071
0
ARC
8
DEFAULT_255_2_778
10
67.5415976
20
63.615837
40
1.0187558
50
89.9994546
51
91.7592604
0
ARC
8
DEFAULT_255_2_778
10
67.5430632
20
63.6383534
40
0.9962403
50
48.3561595
51
90.0837306
0
ARC
8
DEFAULT_255_2_778
10
67.5440725
20
63.6357616
40
0.9975096
50
1.7301295
51
48.4984071
0
ARC
8
DEFAULT_255_2_778
10
67.5228517
20
63.6346024
40
1.0187558
50
359.9994546
51
1.7592604
0
ARC
8
DEFAULT_255_2_778
10
67.5453681
20
63.6331368
40
0.9962403
50
318.3561595
51
0.0837306
0
ARC
8
DEFAULT_255_2_778
10
67.5427762
20
63.6321275
40
0.9975096
50
271.7301295
51
318.4984071
0
ARC
8
DEFAULT_255_2_778
10
67.541617
20
63.6533483
40
1.0187558
50
269.9994546
51
271.7592604
0
ARC
8
DEFAULT_255_2_778
10
67.5401514
20
63.6308319
40
0.9962403
50
228.3561595
51
270.0837306
0
ARC
8
DEFAULT_255_2_778
10
67.5391422
20
63.6334238
40
0.9975096
50
181.7301295
51
228.4984071
0
ARC
8
DEFAULT_255_2_778
10
67.560363
20
63.634583
40
1.0187558
50
179.9994546
51
181.7592604
0
LINE
8
DEFAULT_255_2_778
10
66.5416073
20
63.6345927
11
66.5416073
21
63.6345927
0
ARC
8
DEFAULT_255_2_778
10
67.5378466
20
60.6361486
40
0.9962403
50
138.3561595
51
180.0837306
0
ARC
8
DEFAULT_255_2_778
10
67.5404384
20
60.6371578
40
0.9975096
50
91.7301295
51
138.4984071
0
ARC
8
DEFAULT_255_2_778
10
67.5415976
20
60.615937
40
1.0187558
50
89.9994546
51
91.7592604
0
ARC
8
DEFAULT_255_2_778
10
67.5430632
20
60.6384534
40
0.9962403
50
48.3561595
51
90.0837306
0
ARC
8
DEFAULT_255_2_778
10
67.5440725
20
60.6358616
40
0.9975096
50
1.7301295
51
48.4984071
0
ARC
8
DEFAULT_255_2_778
10
67.5228517
20
60.6347024
40
1.0187558
50
359.9994546
51
1.7592604
0
ARC
8
DEFAULT_255_2_778
10
67.5453681
20
60.6332368
40
0.9962403
50
318.3561595
51
0.0837306
0
ARC
8
DEFAULT_255_2_778
10
67.5427762
20
60.6322275
40
0.9975096
50
271.7301295
51
318.4984071
0
ARC
8
DEFAULT_255_2_778
10
67.541617
20
60.6534483
40
1.0187558
50
269.9994546
51
271.7592604
0
ARC
8
DEFAULT_255_2_778
10
67.5401514
20
60.6309319
40
0.9962403
50
228.3561595
51
270.0837306
0
ARC
8
DEFAULT_255_2_778
10
67.5391422
20
60.6335238
40
0.9975096
50
181.7301295
51
228.4984071
0
ARC
8
DEFAULT_255_2_778
10
67.560363
20
60.634683
40
1.0187558
50
179.9994546
51
181.7592604
0
LINE
8
DEFAULT_255_2_778
10
66.5416073
20
60.6346927
11
66.5416073
21
60.6346927
0
ARC
8
DEFAULT_255_2_778
10
67.5378466
20
63.6360486
40
0.9962403
50
138.3561595
51
180.0837306
0
ARC
8
DEFAULT_255_2_778
10
67.5404384
20
63.6370578
40
0.9975096
50
91.7301295
51
138.4984071
0
ARC
8
DEFAULT_255_2_778
10
67.5415976
20
63.615837
40
1.0187558
50
89.9994546
51
91.7592604
0
ARC
8
DEFAULT_255_2_778
10
67.5430632
20
63.6383534
40
0.9962403
50
48.3561595
51
90.0837306
0
ARC
8
DEFAULT_255_2_778
10
67.5440725
20
63.6357616
40
0.9975096
50
1.7301295
51
48.4984071
0
ARC
8
DEFAULT_255_2_778
10
67.5228517
20
63.6346024
40
1.0187558
50
359.9994546
51
1.7592604
0
ARC
8
DEFAULT_255_2_778
10
67.5453681
20
63.6331368
40
0.9962403
50
318.3561595
51
0.0837306
0
ARC
8
DEFAULT_255_2_778
10
67.5427762
20
63.6321275
40
0.9975096
50
271.7301295
51
318.4984071
0
ARC
8
DEFAULT_255_2_778
10
67.541617
20
63.6533483
40
1.0187558
50
269.9994546
51
271.7592604
0
ARC
8
DEFAULT_255_2_778
10
67.5401514
20
63.6308319
40
0.9962403
50
228.3561595
51
270.0837306
0
ARC
8
DEFAULT_255_2_778
10
67.5391422
20
63.6334238
40
0.9975096
50
181.7301295
51
228.4984071
0
ARC
8
DEFAULT_255_2_778
10
67.560363
20
63.634583
40
1.0187558
50
179.9994546
51
181.7592604
0
LINE
8
DEFAULT_255_2_778
10
66.5416073
20
63.6345927
11
66.5416073
21
63.6345927
0
ARC
8
DEFAULT_255_2_778
10
67.5378466
20
54.6362486
40
0.9962403
50
138.3561595
51
180.0837306
0
ARC
8
DEFAULT_255_2_778
10
67.5404384
20
54.6372578
40
0.9975096
50
91.7301295
51
138.4984071
0
ARC
8
DEFAULT_255_2_778
10
67.5415976
20
54.616037
40
1.0187558
50
89.9994546
51
91.7592604
0
ARC
8
DEFAULT_255_2_778
10
67.5430632
20
54.6385534
40
0.9962403
50
48.3561595
51
90.0837306
0
ARC
8
DEFAULT_255_2_778
10
67.5440725
20
54.6359616
40
0.9975096
50
1.7301295
51
48.4984071
0
ARC
8
DEFAULT_255_2_778
10
67.5228517
20
54.6348024
40
1.0187558
50
359.9994546
51
1.7592604
0
ARC
8
DEFAULT_255_2_778
10
67.5453681
20
54.6333368
40
0.9962403
50
318.3561595
51
0.0837306
0
ARC
8
DEFAULT_255_2_778
10
67.5427762
20
54.6323275
40
0.9975096
50
271.7301295
51
318.4984071
0
ARC
8
DEFAULT_255_2_778
10
67.541617
20
54.6535483
40
1.0187558
50
269.9994546
51
271.7592604
0
ARC
8
DEFAULT_255_2_778
10
67.5401514
20
54.6310319
40
0.9962403
50
228.3561595
51
270.0837306
0
ARC
8
DEFAULT_255_2_778
10
67.5391422
20
54.6336238
40
0.9975096
50
181.7301295
51
228.4984071
0
ARC
8
DEFAULT_255_2_778
10
67.560363
20
54.634783
40
1.0187558
50
179.9994546
51
181.7592604
0
LINE
8
DEFAULT_255_2_778
10
66.5416073
20
54.6347927
11
66.5416073
21
54.6347927
0
ARC
8
DEFAULT_255_2_778
10
67.5378466
20
54.6362486
40
0.9962403
50
138.3561595
51
180.0837306
0
ARC
8
DEFAULT_255_2_778
10
67.5404384
20
54.6372578
40
0.9975096
50
91.7301295
51
138.4984071
0
ARC
8
DEFAULT_255_2_778
10
67.5415976
20
54.616037
40
1.0187558
50
89.9994546
51
91.7592604
0
ARC
8
DEFAULT_255_2_778
10
67.5430632
20
54.6385534
40
0.9962403
50
48.3561595
51
90.0837306
0
ARC
8
DEFAULT_255_2_778
10
67.5440725
20
54.6359616
40
0.9975096
50
1.7301295
51
48.4984071
0
ARC
8
DEFAULT_255_2_778
10
67.5228517
20
54.6348024
40
1.0187558
50
359.9994546
51
1.7592604
0
ARC
8
DEFAULT_255_2_778
10
67.5453681
20
54.6333368
40
0.9962403
50
318.3561595
51
0.0837306
0
ARC
8
DEFAULT_255_2_778
10
67.5427762
20
54.6323275
40
0.9975096
50
271.7301295
51
318.4984071
0
ARC
8
DEFAULT_255_2_778
10
67.541617
20
54.6535483
40
1.0187558
50
269.9994546
51
271.7592604
0
ARC
8
DEFAULT_255_2_778
10
67.5401514
20
54.6310319
40
0.9962403
50
228.3561595
51
270.0837306
0
ARC
8
DEFAULT_255_2_778
10
67.5391422
20
54.6336238
40
0.9975096
50
181.7301295
51
228.4984071
0
ARC
8
DEFAULT_255_2_778
10
67.560363
20
54.634783
40
1.0187558
50
179.9994546
51
181.7592604
0
LINE
8
DEFAULT_255_2_778
10
66.5416073
20
54.6347927
11
66.5416073
21
54.6347927
0
ARC
8
DEFAULT_255_2_778
10
67.5378466
20
60.6361486
40
0.9962403
50
138.3561595
51
180.0837306
0
ARC
8
DEFAULT_255_2_778
10
67.5404384
20
60.6371578
40
0.9975096
50
91.7301295
51
138.4984071
0
ARC
8
DEFAULT_255_2_778
10
67.5415976
20
60.615937
40
1.0187558
50
89.9994546
51
91.7592604
0
ARC
8
DEFAULT_255_2_778
10
67.5430632
20
60.6384534
40
0.9962403
50
48.3561595
51
90.0837306
0
ARC
8
DEFAULT_255_2_778
10
67.5440725
20
60.6358616
40
0.9975096
50
1.7301295
51
48.4984071
0
ARC
8
DEFAULT_255_2_778
10
67.5228517
20
60.6347024
40
1.0187558
50
359.9994546
51
1.7592604
0
ARC
8
DEFAULT_255_2_778
10
67.5453681
20
60.6332368
40
0.9962403
50
318.3561595
51
0.0837306
0
ARC
8
DEFAULT_255_2_778
10
67.5427762
20
60.6322275
40
0.9975096
50
271.7301295
51
318.4984071
0
ARC
8
DEFAULT_255_2_778
10
67.541617
20
60.6534483
40
1.0187558
50
269.9994546
51
271.7592604
0
ARC
8
DEFAULT_255_2_778
10
67.5401514
20
60.6309319
40
0.9962403
50
228.3561595
51
270.0837306
0
ARC
8
DEFAULT_255_2_778
10
67.5391422
20
60.6335238
40
0.9975096
50
181.7301295
51
228.4984071
0
ARC
8
DEFAULT_255_2_778
10
67.560363
20
60.634683
40
1.0187558
50
179.9994546
51
181.7592604
0
LINE
8
DEFAULT_255_2_778
10
66.5416073
20
60.6346927
11
66.5416073
21
60.6346927
0
ARC
8
DEFAULT_255_2_778
10
67.5378466
20
57.6360486
40
0.9962403
50
138.3561595
51
180.0837306
0
ARC
8
DEFAULT_255_2_778
10
67.5404384
20
57.6370578
40
0.9975096
50
91.7301295
51
138.4984071
0
ARC
8
DEFAULT_255_2_778
10
67.5415976
20
57.615837
40
1.0187558
50
89.9994546
51
91.7592604
0
ARC
8
DEFAULT_255_2_778
10
67.5430632
20
57.6383534
40
0.9962403
50
48.3561595
51
90.0837306
0
ARC
8
DEFAULT_255_2_778
10
67.5440725
20
57.6357616
40
0.9975096
50
1.7301295
51
48.4984071
0
ARC
8
DEFAULT_255_2_778
10
67.5228517
20
57.6346024
40
1.0187558
50
359.9994546
51
1.7592604
0
ARC
8
DEFAULT_255_2_778
10
67.5453681
20
57.6331368
40
0.9962403
50
318.3561595
51
0.0837306
0
ARC
8
DEFAULT_255_2_778
10
67.5427762
20
57.6321275
40
0.9975096
50
271.7301295
51
318.4984071
0
ARC
8
DEFAULT_255_2_778
10
67.541617
20
57.6533483
40
1.0187558
50
269.9994546
51
271.7592604
0
ARC
8
DEFAULT_255_2_778
10
67.5401514
20
57.6308319
40
0.9962403
50
228.3561595
51
270.0837306
0
ARC
8
DEFAULT_255_2_778
10
67.5391422
20
57.6334238
40
0.9975096
50
181.7301295
51
228.4984071
0
ARC
8
DEFAULT_255_2_778
10
67.560363
20
57.634583
40
1.0187558
50
179.9994546
51
181.7592604
0
LINE
8
DEFAULT_255_2_778
10
66.5416073
20
57.6345927
11
66.5416073
21
57.6345927
0
ARC
8
DEFAULT_255_2_778
10
70.5377466
20
60.6361486
40
0.9962403
50
138.3561595
51
180.0837306
0
ARC
8
DEFAULT_255_2_778
10
70.5403384
20
60.6371578
40
0.9975096
50
91.7301295
51
138.4984071
0
ARC
8
DEFAULT_255_2_778
10
70.5414976
20
60.615937
40
1.0187558
50
89.9994546
51
91.7592604
0
ARC
8
DEFAULT_255_2_778
10
70.5429632
20
60.6384534
40
0.9962403
50
48.3561595
51
90.0837306
0
ARC
8
DEFAULT_255_2_778
10
70.5439725
20
60.6358616
40
0.9975096
50
1.7301295
51
48.4984071
0
ARC
8
DEFAULT_255_2_778
10
70.5227517
20
60.6347024
40
1.0187558
50
359.9994546
51
1.7592604
0
ARC
8
DEFAULT_255_2_778
10
70.5452681
20
60.6332368
40
0.9962403
50
318.3561595
51
0.0837306
0
ARC
8
DEFAULT_255_2_778
10
70.5426762
20
60.6322275
40
0.9975096
50
271.7301295
51
318.4984071
0
ARC
8
DEFAULT_255_2_778
10
70.541517
20
60.6534483
40
1.0187558
50
269.9994546
51
271.7592604
0
ARC
8
DEFAULT_255_2_778
10
70.5400514
20
60.6309319
40
0.9962403
50
228.3561595
51
270.0837306
0
ARC
8
DEFAULT_255_2_778
10
70.5390422
20
60.6335238
40
0.9975096
50
181.7301295
51
228.4984071
0
ARC
8
DEFAULT_255_2_778
10
70.560263
20
60.634683
40
1.0187558
50
179.9994546
51
181.7592604
0
LINE
8
DEFAULT_255_2_778
10
69.5415073
20
60.6346927
11
69.5415073
21
60.6346927
0
ARC
8
DEFAULT_255_2_778
10
70.5377466
20
63.6360486
40
0.9962403
50
138.3561595
51
180.0837306
0
ARC
8
DEFAULT_255_2_778
10
70.5403384
20
63.6370578
40
0.9975096
50
91.7301295
51
138.4984071
0
ARC
8
DEFAULT_255_2_778
10
70.5414976
20
63.615837
40
1.0187558
50
89.9994546
51
91.7592604
0
ARC
8
DEFAULT_255_2_778
10
70.5429632
20
63.6383534
40
0.9962403
50
48.3561595
51
90.0837306
0
ARC
8
DEFAULT_255_2_778
10
70.5439725
20
63.6357616
40
0.9975096
50
1.7301295
51
48.4984071
0
ARC
8
DEFAULT_255_2_778
10
70.5227517
20
63.6346024
40
1.0187558
50
359.9994546
51
1.7592604
0
ARC
8
DEFAULT_255_2_778
10
70.5452681
20
63.6331368
40
0.9962403
50
318.3561595
51
0.0837306
0
ARC
8
DEFAULT_255_2_778
10
70.5426762
20
63.6321275
40
0.9975096
50
271.7301295
51
318.4984071
0
ARC
8
DEFAULT_255_2_778
10
70.541517
20
63.6533483
40
1.0187558
50
269.9994546
51
271.7592604
0
ARC
8
DEFAULT_255_2_778
10
70.5400514
20
63.6308319
40
0.9962403
50
228.3561595
51
270.0837306
0
ARC
8
DEFAULT_255_2_778
10
70.5390422
20
63.6334238
40
0.9975096
50
181.7301295
51
228.4984071
0
ARC
8
DEFAULT_255_2_778
10
70.560263
20
63.634583
40
1.0187558
50
179.9994546
51
181.7592604
0
LINE
8
DEFAULT_255_2_778
10
69.5415073
20
63.6345927
11
69.5415073
21
63.6345927
0
ARC
8
DEFAULT_255_2_778
10
70.5377466
20
57.6360486
40
0.9962403
50
138.3561595
51
180.0837306
0
ARC
8
DEFAULT_255_2_778
10
70.5403384
20
57.6370578
40
0.9975096
50
91.7301295
51
138.4984071
0
ARC
8
DEFAULT_255_2_778
10
70.5414976
20
57.615837
40
1.0187558
50
89.9994546
51
91.7592604
0
ARC
8
DEFAULT_255_2_778
10
70.5429632
20
57.6383534
40
0.9962403
50
48.3561595
51
90.0837306
0
ARC
8
DEFAULT_255_2_778
10
70.5439725
20
57.6357616
40
0.9975096
50
1.7301295
51
48.4984071
0
ARC
8
DEFAULT_255_2_778
10
70.5227517
20
57.6346024
40
1.0187558
50
359.9994546
51
1.7592604
0
ARC
8
DEFAULT_255_2_778
10
70.5452681
20
57.6331368
40
0.9962403
50
318.3561595
51
0.0837306
0
ARC
8
DEFAULT_255_2_778
10
70.5426762
20
57.6321275
40
0.9975096
50
271.7301295
51
318.4984071
0
ARC
8
DEFAULT_255_2_778
10
70.541517
20
57.6533483
40
1.0187558
50
269.9994546
51
271.7592604
0
ARC
8
DEFAULT_255_2_778
10
70.5400514
20
57.6308319
40
0.9962403
50
228.3561595
51
270.0837306
0
ARC
8
DEFAULT_255_2_778
10
70.5390422
20
57.6334238
40
0.9975096
50
181.7301295
51
228.4984071
0
ARC
8
DEFAULT_255_2_778
10
70.560263
20
57.634583
40
1.0187558
50
179.9994546
51
181.7592604
0
LINE
8
DEFAULT_255_2_778
10
69.5415073
20
57.6345927
11
69.5415073
21
57.6345927
0
ARC
8
DEFAULT_255_2_778
10
70.5377466
20
60.6361486
40
0.9962403
50
138.3561595
51
180.0837306
0
ARC
8
DEFAULT_255_2_778
10
70.5403384
20
60.6371578
40
0.9975096
50
91.7301295
51
138.4984071
0
ARC
8
DEFAULT_255_2_778
10
70.5414976
20
60.615937
40
1.0187558
50
89.9994546
51
91.7592604
0
ARC
8
DEFAULT_255_2_778
10
70.5429632
20
60.6384534
40
0.9962403
50
48.3561595
51
90.0837306
0
ARC
8
DEFAULT_255_2_778
10
70.5439725
20
60.6358616
40
0.9975096
50
1.7301295
51
48.4984071
0
ARC
8
DEFAULT_255_2_778
10
70.5227517
20
60.6347024
40
1.0187558
50
359.9994546
51
1.7592604
0
ARC
8
DEFAULT_255_2_778
10
70.5452681
20
60.6332368
40
0.9962403
50
318.3561595
51
0.0837306
0
ARC
8
DEFAULT_255_2_778
10
70.5426762
20
60.6322275
40
0.9975096
50
271.7301295
51
318.4984071
0
ARC
8
DEFAULT_255_2_778
10
70.541517
20
60.6534483
40
1.0187558
50
269.9994546
51
271.7592604
0
ARC
8
DEFAULT_255_2_778
10
70.5400514
20
60.6309319
40
0.9962403
50
228.3561595
51
270.0837306
0
ARC
8
DEFAULT_255_2_778
10
70.5390422
20
60.6335238
40
0.9975096
50
181.7301295
51
228.4984071
0
ARC
8
DEFAULT_255_2_778
10
70.560263
20
60.634683
40
1.0187558
50
179.9994546
51
181.7592604
0
LINE
8
DEFAULT_255_2_778
10
69.5415073
20
60.6346927
11
69.5415073
21
60.6346927
0
ARC
8
DEFAULT_255_2_778
10
70.5377466
20
63.6360486
40
0.9962403
50
138.3561595
51
180.0837306
0
ARC
8
DEFAULT_255_2_778
10
70.5403384
20
63.6370578
40
0.9975096
50
91.7301295
51
138.4984071
0
ARC
8
DEFAULT_255_2_778
10
70.5414976
20
63.615837
40
1.0187558
50
89.9994546
51
91.7592604
0
ARC
8
DEFAULT_255_2_778
10
70.5429632
20
63.6383534
40
0.9962403
50
48.3561595
51
90.0837306
0
ARC
8
DEFAULT_255_2_778
10
70.5439725
20
63.6357616
40
0.9975096
50
1.7301295
51
48.4984071
0
ARC
8
DEFAULT_255_2_778
10
70.5227517
20
63.6346024
40
1.0187558
50
359.9994546
51
1.7592604
0
ARC
8
DEFAULT_255_2_778
10
70.5452681
20
63.6331368
40
0.9962403
50
318.3561595
51
0.0837306
0
ARC
8
DEFAULT_255_2_778
10
70.5426762
20
63.6321275
40
0.9975096
50
271.7301295
51
318.4984071
0
ARC
8
DEFAULT_255_2_778
10
70.541517
20
63.6533483
40
1.0187558
50
269.9994546
51
271.7592604
0
ARC
8
DEFAULT_255_2_778
10
70.5400514
20
63.6308319
40
0.9962403
50
228.3561595
51
270.0837306
0
ARC
8
DEFAULT_255_2_778
10
70.5390422
20
63.6334238
40
0.9975096
50
181.7301295
51
228.4984071
0
ARC
8
DEFAULT_255_2_778
10
70.560263
20
63.634583
40
1.0187558
50
179.9994546
51
181.7592604
0
LINE
8
DEFAULT_255_2_778
10
69.5415073
20
63.6345927
11
69.5415073
21
63.6345927
0
ARC
8
DEFAULT_255_2_778
10
70.5377466
20
54.6362486
40
0.9962403
50
138.3561595
51
180.0837306
0
ARC
8
DEFAULT_255_2_778
10
70.5403384
20
54.6372578
40
0.9975096
50
91.7301295
51
138.4984071
0
ARC
8
DEFAULT_255_2_778
10
70.5414976
20
54.616037
40
1.0187558
50
89.9994546
51
91.7592604
0
ARC
8
DEFAULT_255_2_778
10
70.5429632
20
54.6385534
40
0.9962403
50
48.3561595
51
90.0837306
0
ARC
8
DEFAULT_255_2_778
10
70.5439725
20
54.6359616
40
0.9975096
50
1.7301295
51
48.4984071
0
ARC
8
DEFAULT_255_2_778
10
70.5227517
20
54.6348024
40
1.0187558
50
359.9994546
51
1.7592604
0
ARC
8
DEFAULT_255_2_778
10
70.5452681
20
54.6333368
40
0.9962403
50
318.3561595
51
0.0837306
0
ARC
8
DEFAULT_255_2_778
10
70.5426762
20
54.6323275
40
0.9975096
50
271.7301295
51
318.4984071
0
ARC
8
DEFAULT_255_2_778
10
70.541517
20
54.6535483
40
1.0187558
50
269.9994546
51
271.7592604
0
ARC
8
DEFAULT_255_2_778
10
70.5400514
20
54.6310319
40
0.9962403
50
228.3561595
51
270.0837306
0
ARC
8
DEFAULT_255_2_778
10
70.5390422
20
54.6336238
40
0.9975096
50
181.7301295
51
228.4984071
0
ARC
8
DEFAULT_255_2_778
10
70.560263
20
54.634783
40
1.0187558
50
179.9994546
51
181.7592604
0
LINE
8
DEFAULT_255_2_778
10
69.5415073
20
54.6347927
11
69.5415073
21
54.6347927
0
ARC
8
DEFAULT_255_2_778
10
70.5377466
20
57.6360486
40
0.9962403
50
138.3561595
51
180.0837306
0
ARC
8
DEFAULT_255_2_778
10
70.5403384
20
57.6370578
40
0.9975096
50
91.7301295
51
138.4984071
0
ARC
8
DEFAULT_255_2_778
10
70.5414976
20
57.615837
40
1.0187558
50
89.9994546
51
91.7592604
0
ARC
8
DEFAULT_255_2_778
10
70.5429632
20
57.6383534
40
0.9962403
50
48.3561595
51
90.0837306
0
ARC
8
DEFAULT_255_2_778
10
70.5439725
20
57.6357616
40
0.9975096
50
1.7301295
51
48.4984071
0
ARC
8
DEFAULT_255_2_778
10
70.5227517
20
57.6346024
40
1.0187558
50
359.9994546
51
1.7592604
0
ARC
8
DEFAULT_255_2_778
10
70.5452681
20
57.6331368
40
0.9962403
50
318.3561595
51
0.0837306
0
ARC
8
DEFAULT_255_2_778
10
70.5426762
20
57.6321275
40
0.9975096
50
271.7301295
51
318.4984071
0
ARC
8
DEFAULT_255_2_778
10
70.541517
20
57.6533483
40
1.0187558
50
269.9994546
51
271.7592604
0
ARC
8
DEFAULT_255_2_778
10
70.5400514
20
57.6308319
40
0.9962403
50
228.3561595
51
270.0837306
0
ARC
8
DEFAULT_255_2_778
10
70.5390422
20
57.6334238
40
0.9975096
50
181.7301295
51
228.4984071
0
ARC
8
DEFAULT_255_2_778
10
70.560263
20
57.634583
40
1.0187558
50
179.9994546
51
181.7592604
0
LINE
8
DEFAULT_255_2_778
10
69.5415073
20
57.6345927
11
69.5415073
21
57.6345927
0
ARC
8
DEFAULT_255_2_778
10
70.5377466
20
54.6362486
40
0.9962403
50
138.3561595
51
180.0837306
0
ARC
8
DEFAULT_255_2_778
10
70.5403384
20
54.6372578
40
0.9975096
50
91.7301295
51
138.4984071
0
ARC
8
DEFAULT_255_2_778
10
70.5414976
20
54.616037
40
1.0187558
50
89.9994546
51
91.7592604
0
ARC
8
DEFAULT_255_2_778
10
70.5429632
20
54.6385534
40
0.9962403
50
48.3561595
51
90.0837306
0
ARC
8
DEFAULT_255_2_778
10
70.5439725
20
54.6359616
40
0.9975096
50
1.7301295
51
48.4984071
0
ARC
8
DEFAULT_255_2_778
10
70.5227517
20
54.6348024
40
1.0187558
50
359.9994546
51
1.7592604
0
ARC
8
DEFAULT_255_2_778
10
70.5452681
20
54.6333368
40
0.9962403
50
318.3561595
51
0.0837306
0
ARC
8
DEFAULT_255_2_778
10
70.5426762
20
54.6323275
40
0.9975096
50
271.7301295
51
318.4984071
0
ARC
8
DEFAULT_255_2_778
10
70.541517
20
54.6535483
40
1.0187558
50
269.9994546
51
271.7592604
0
ARC
8
DEFAULT_255_2_778
10
70.5400514
20
54.6310319
40
0.9962403
50
228.3561595
51
270.0837306
0
ARC
8
DEFAULT_255_2_778
10
70.5390422
20
54.6336238
40
0.9975096
50
181.7301295
51
228.4984071
0
ARC
8
DEFAULT_255_2_778
10
70.560263
20
54.634783
40
1.0187558
50
179.9994546
51
181.7592604
0
LINE
8
DEFAULT_255_2_778
10
69.5415073
20
54.6347927
11
69.5415073
21
54.6347927
0
ARC
8
DEFAULT_255_2_778
10
76.5376466
20
63.6360486
40
0.9962403
50
138.3561595
51
180.0837306
0
ARC
8
DEFAULT_255_2_778
10
76.5402384
20
63.6370578
40
0.9975096
50
91.7301295
51
138.4984071
0
ARC
8
DEFAULT_255_2_778
10
76.5413976
20
63.615837
40
1.0187558
50
89.9994546
51
91.7592604
0
ARC
8
DEFAULT_255_2_778
10
76.5428632
20
63.6383534
40
0.9962403
50
48.3561595
51
90.0837306
0
ARC
8
DEFAULT_255_2_778
10
76.5438725
20
63.6357616
40
0.9975096
50
1.7301295
51
48.4984071
0
ARC
8
DEFAULT_255_2_778
10
76.5226517
20
63.6346024
40
1.0187558
50
359.9994546
51
1.7592604
0
ARC
8
DEFAULT_255_2_778
10
76.5451681
20
63.6331368
40
0.9962403
50
318.3561595
51
0.0837306
0
ARC
8
DEFAULT_255_2_778
10
76.5425762
20
63.6321275
40
0.9975096
50
271.7301295
51
318.4984071
0
ARC
8
DEFAULT_255_2_778
10
76.541417
20
63.6533483
40
1.0187558
50
269.9994546
51
271.7592604
0
ARC
8
DEFAULT_255_2_778
10
76.5399514
20
63.6308319
40
0.9962403
50
228.3561595
51
270.0837306
0
ARC
8
DEFAULT_255_2_778
10
76.5389422
20
63.6334238
40
0.9975096
50
181.7301295
51
228.4984071
0
ARC
8
DEFAULT_255_2_778
10
76.560163
20
63.634583
40
1.0187558
50
179.9994546
51
181.7592604
0
LINE
8
DEFAULT_255_2_778
10
75.5414073
20
63.6345927
11
75.5414073
21
63.6345927
0
ARC
8
DEFAULT_255_2_778
10
76.5376466
20
60.6361486
40
0.9962403
50
138.3561595
51
180.0837306
0
ARC
8
DEFAULT_255_2_778
10
76.5402384
20
60.6371578
40
0.9975096
50
91.7301295
51
138.4984071
0
ARC
8
DEFAULT_255_2_778
10
76.5413976
20
60.615937
40
1.0187558
50
89.9994546
51
91.7592604
0
ARC
8
DEFAULT_255_2_778
10
76.5428632
20
60.6384534
40
0.9962403
50
48.3561595
51
90.0837306
0
ARC
8
DEFAULT_255_2_778
10
76.5438725
20
60.6358616
40
0.9975096
50
1.7301295
51
48.4984071
0
ARC
8
DEFAULT_255_2_778
10
76.5226517
20
60.6347024
40
1.0187558
50
359.9994546
51
1.7592604
0
ARC
8
DEFAULT_255_2_778
10
76.5451681
20
60.6332368
40
0.9962403
50
318.3561595
51
0.0837306
0
ARC
8
DEFAULT_255_2_778
10
76.5425762
20
60.6322275
40
0.9975096
50
271.7301295
51
318.4984071
0
ARC
8
DEFAULT_255_2_778
10
76.541417
20
60.6534483
40
1.0187558
50
269.9994546
51
271.7592604
0
ARC
8
DEFAULT_255_2_778
10
76.5399514
20
60.6309319
40
0.9962403
50
228.3561595
51
270.0837306
0
ARC
8
DEFAULT_255_2_778
10
76.5389422
20
60.6335238
40
0.9975096
50
181.7301295
51
228.4984071
0
ARC
8
DEFAULT_255_2_778
10
76.560163
20
60.634683
40
1.0187558
50
179.9994546
51
181.7592604
0
LINE
8
DEFAULT_255_2_778
10
75.5414073
20
60.6346927
11
75.5414073
21
60.6346927
0
ARC
8
DEFAULT_255_2_778
10
76.5376466
20
63.6360486
40
0.9962403
50
138.3561595
51
180.0837306
0
ARC
8
DEFAULT_255_2_778
10
76.5402384
20
63.6370578
40
0.9975096
50
91.7301295
51
138.4984071
0
ARC
8
DEFAULT_255_2_778
10
76.5413976
20
63.615837
40
1.0187558
50
89.9994546
51
91.7592604
0
ARC
8
DEFAULT_255_2_778
10
76.5428632
20
63.6383534
40
0.9962403
50
48.3561595
51
90.0837306
0
ARC
8
DEFAULT_255_2_778
10
76.5438725
20
63.6357616
40
0.9975096
50
1.7301295
51
48.4984071
0
ARC
8
DEFAULT_255_2_778
10
76.5226517
20
63.6346024
40
1.0187558
50
359.9994546
51
1.7592604
0
ARC
8
DEFAULT_255_2_778
10
76.5451681
20
63.6331368
40
0.9962403
50
318.3561595
51
0.0837306
0
ARC
8
DEFAULT_255_2_778
10
76.5425762
20
63.6321275
40
0.9975096
50
271.7301295
51
318.4984071
0
ARC
8
DEFAULT_255_2_778
10
76.541417
20
63.6533483
40
1.0187558
50
269.9994546
51
271.7592604
0
ARC
8
DEFAULT_255_2_778
10
76.5399514
20
63.6308319
40
0.9962403
50
228.3561595
51
270.0837306
0
ARC
8
DEFAULT_255_2_778
10
76.5389422
20
63.6334238
40
0.9975096
50
181.7301295
51
228.4984071
0
ARC
8
DEFAULT_255_2_778
10
76.560163
20
63.634583
40
1.0187558
50
179.9994546
51
181.7592604
0
LINE
8
DEFAULT_255_2_778
10
75.5414073
20
63.6345927
11
75.5414073
21
63.6345927
0
ARC
8
DEFAULT_255_2_778
10
76.5376466
20
60.6361486
40
0.9962403
50
138.3561595
51
180.0837306
0
ARC
8
DEFAULT_255_2_778
10
76.5402384
20
60.6371578
40
0.9975096
50
91.7301295
51
138.4984071
0
ARC
8
DEFAULT_255_2_778
10
76.5413976
20
60.615937
40
1.0187558
50
89.9994546
51
91.7592604
0
ARC
8
DEFAULT_255_2_778
10
76.5428632
20
60.6384534
40
0.9962403
50
48.3561595
51
90.0837306
0
ARC
8
DEFAULT_255_2_778
10
76.5438725
20
60.6358616
40
0.9975096
50
1.7301295
51
48.4984071
0
ARC
8
DEFAULT_255_2_778
10
76.5226517
20
60.6347024
40
1.0187558
50
359.9994546
51
1.7592604
0
ARC
8
DEFAULT_255_2_778
10
76.5451681
20
60.6332368
40
0.9962403
50
318.3561595
51
0.0837306
0
ARC
8
DEFAULT_255_2_778
10
76.5425762
20
60.6322275
40
0.9975096
50
271.7301295
51
318.4984071
0
ARC
8
DEFAULT_255_2_778
10
76.541417
20
60.6534483
40
1.0187558
50
269.9994546
51
271.7592604
0
ARC
8
DEFAULT_255_2_778
10
76.5399514
20
60.6309319
40
0.9962403
50
228.3561595
51
270.0837306
0
ARC
8
DEFAULT_255_2_778
10
76.5389422
20
60.6335238
40
0.9975096
50
181.7301295
51
228.4984071
0
ARC
8
DEFAULT_255_2_778
10
76.560163
20
60.634683
40
1.0187558
50
179.9994546
51
181.7592604
0
LINE
8
DEFAULT_255_2_778
10
75.5414073
20
60.6346927
11
75.5414073
21
60.6346927
0
ARC
8
DEFAULT_255_2_778
10
73.5378466
20
63.6360486
40
0.9962403
50
138.3561595
51
180.0837306
0
ARC
8
DEFAULT_255_2_778
10
73.5404384
20
63.6370578
40
0.9975096
50
91.7301295
51
138.4984071
0
ARC
8
DEFAULT_255_2_778
10
73.5415976
20
63.615837
40
1.0187558
50
89.9994546
51
91.7592604
0
ARC
8
DEFAULT_255_2_778
10
73.5430632
20
63.6383534
40
0.9962403
50
48.3561595
51
90.0837306
0
ARC
8
DEFAULT_255_2_778
10
73.5440725
20
63.6357616
40
0.9975096
50
1.7301295
51
48.4984071
0
ARC
8
DEFAULT_255_2_778
10
73.5228517
20
63.6346024
40
1.0187558
50
359.9994546
51
1.7592604
0
ARC
8
DEFAULT_255_2_778
10
73.5453681
20
63.6331368
40
0.9962403
50
318.3561595
51
0.0837306
0
ARC
8
DEFAULT_255_2_778
10
73.5427762
20
63.6321275
40
0.9975096
50
271.7301295
51
318.4984071
0
ARC
8
DEFAULT_255_2_778
10
73.541617
20
63.6533483
40
1.0187558
50
269.9994546
51
271.7592604
0
ARC
8
DEFAULT_255_2_778
10
73.5401514
20
63.6308319
40
0.9962403
50
228.3561595
51
270.0837306
0
ARC
8
DEFAULT_255_2_778
10
73.5391422
20
63.6334238
40
0.9975096
50
181.7301295
51
228.4984071
0
ARC
8
DEFAULT_255_2_778
10
73.560363
20
63.634583
40
1.0187558
50
179.9994546
51
181.7592604
0
LINE
8
DEFAULT_255_2_778
10
72.5416073
20
63.6345927
11
72.5416073
21
63.6345927
0
ARC
8
DEFAULT_255_2_778
10
73.5378466
20
60.6361486
40
0.9962403
50
138.3561595
51
180.0837306
0
ARC
8
DEFAULT_255_2_778
10
73.5404384
20
60.6371578
40
0.9975096
50
91.7301295
51
138.4984071
0
ARC
8
DEFAULT_255_2_778
10
73.5415976
20
60.615937
40
1.0187558
50
89.9994546
51
91.7592604
0
ARC
8
DEFAULT_255_2_778
10
73.5430632
20
60.6384534
40
0.9962403
50
48.3561595
51
90.0837306
0
ARC
8
DEFAULT_255_2_778
10
73.5440725
20
60.6358616
40
0.9975096
50
1.7301295
51
48.4984071
0
ARC
8
DEFAULT_255_2_778
10
73.5228517
20
60.6347024
40
1.0187558
50
359.9994546
51
1.7592604
0
ARC
8
DEFAULT_255_2_778
10
73.5453681
20
60.6332368
40
0.9962403
50
318.3561595
51
0.0837306
0
ARC
8
DEFAULT_255_2_778
10
73.5427762
20
60.6322275
40
0.9975096
50
271.7301295
51
318.4984071
0
ARC
8
DEFAULT_255_2_778
10
73.541617
20
60.6534483
40
1.0187558
50
269.9994546
51
271.7592604
0
ARC
8
DEFAULT_255_2_778
10
73.5401514
20
60.6309319
40
0.9962403
50
228.3561595
51
270.0837306
0
ARC
8
DEFAULT_255_2_778
10
73.5391422
20
60.6335238
40
0.9975096
50
181.7301295
51
228.4984071
0
ARC
8
DEFAULT_255_2_778
10
73.560363
20
60.634683
40
1.0187558
50
179.9994546
51
181.7592604
0
LINE
8
DEFAULT_255_2_778
10
72.5416073
20
60.6346927
11
72.5416073
21
60.6346927
0
ARC
8
DEFAULT_255_2_778
10
73.5378466
20
63.6360486
40
0.9962403
50
138.3561595
51
180.0837306
0
ARC
8
DEFAULT_255_2_778
10
73.5404384
20
63.6370578
40
0.9975096
50
91.7301295
51
138.4984071
0
ARC
8
DEFAULT_255_2_778
10
73.5415976
20
63.615837
40
1.0187558
50
89.9994546
51
91.7592604
0
ARC
8
DEFAULT_255_2_778
10
73.5430632
20
63.6383534
40
0.9962403
50
48.3561595
51
90.0837306
0
ARC
8
DEFAULT_255_2_778
10
73.5440725
20
63.6357616
40
0.9975096
50
1.7301295
51
48.4984071
0
ARC
8
DEFAULT_255_2_778
10
73.5228517
20
63.6346024
40
1.0187558
50
359.9994546
51
1.7592604
0
ARC
8
DEFAULT_255_2_778
10
73.5453681
20
63.6331368
40
0.9962403
50
318.3561595
51
0.0837306
0
ARC
8
DEFAULT_255_2_778
10
73.5427762
20
63.6321275
40
0.9975096
50
271.7301295
51
318.4984071
0
ARC
8
DEFAULT_255_2_778
10
73.541617
20
63.6533483
40
1.0187558
50
269.9994546
51
271.7592604
0
ARC
8
DEFAULT_255_2_778
10
73.5401514
20
63.6308319
40
0.9962403
50
228.3561595
51
270.0837306
0
ARC
8
DEFAULT_255_2_778
10
73.5391422
20
63.6334238
40
0.9975096
50
181.7301295
51
228.4984071
0
ARC
8
DEFAULT_255_2_778
10
73.560363
20
63.634583
40
1.0187558
50
179.9994546
51
181.7592604
0
LINE
8
DEFAULT_255_2_778
10
72.5416073
20
63.6345927
11
72.5416073
21
63.6345927
0
ARC
8
DEFAULT_255_2_778
10
73.5378466
20
60.6361486
40
0.9962403
50
138.3561595
51
180.0837306
0
ARC
8
DEFAULT_255_2_778
10
73.5404384
20
60.6371578
40
0.9975096
50
91.7301295
51
138.4984071
0
ARC
8
DEFAULT_255_2_778
10
73.5415976
20
60.615937
40
1.0187558
50
89.9994546
51
91.7592604
0
ARC
8
DEFAULT_255_2_778
10
73.5430632
20
60.6384534
40
0.9962403
50
48.3561595
51
90.0837306
0
ARC
8
DEFAULT_255_2_778
10
73.5440725
20
60.6358616
40
0.9975096
50
1.7301295
51
48.4984071
0
ARC
8
DEFAULT_255_2_778
10
73.5228517
20
60.6347024
40
1.0187558
50
359.9994546
51
1.7592604
0
ARC
8
DEFAULT_255_2_778
10
73.5453681
20
60.6332368
40
0.9962403
50
318.3561595
51
0.0837306
0
ARC
8
DEFAULT_255_2_778
10
73.5427762
20
60.6322275
40
0.9975096
50
271.7301295
51
318.4984071
0
ARC
8
DEFAULT_255_2_778
10
73.541617
20
60.6534483
40
1.0187558
50
269.9994546
51
271.7592604
0
ARC
8
DEFAULT_255_2_778
10
73.5401514
20
60.6309319
40
0.9962403
50
228.3561595
51
270.0837306
0
ARC
8
DEFAULT_255_2_778
10
73.5391422
20
60.6335238
40
0.9975096
50
181.7301295
51
228.4984071
0
ARC
8
DEFAULT_255_2_778
10
73.560363
20
60.634683
40
1.0187558
50
179.9994546
51
181.7592604
0
LINE
8
DEFAULT_255_2_778
10
72.5416073
20
60.6346927
11
72.5416073
21
60.6346927
0
ARC
8
DEFAULT_255_2_778
10
79.5378466
20
63.6360486
40
0.9962403
50
138.3561595
51
180.0837306
0
ARC
8
DEFAULT_255_2_778
10
79.5404384
20
63.6370578
40
0.9975096
50
91.7301295
51
138.4984071
0
ARC
8
DEFAULT_255_2_778
10
79.5415976
20
63.615837
40
1.0187558
50
89.9994546
51
91.7592604
0
ARC
8
DEFAULT_255_2_778
10
79.5430632
20
63.6383534
40
0.9962403
50
48.3561595
51
90.0837306
0
ARC
8
DEFAULT_255_2_778
10
79.5440725
20
63.6357616
40
0.9975096
50
1.7301295
51
48.4984071
0
ARC
8
DEFAULT_255_2_778
10
79.5228517
20
63.6346024
40
1.0187558
50
359.9994546
51
1.7592604
0
ARC
8
DEFAULT_255_2_778
10
79.5453681
20
63.6331368
40
0.9962403
50
318.3561595
51
0.0837306
0
ARC
8
DEFAULT_255_2_778
10
79.5427762
20
63.6321275
40
0.9975096
50
271.7301295
51
318.4984071
0
ARC
8
DEFAULT_255_2_778
10
79.541617
20
63.6533483
40
1.0187558
50
269.9994546
51
271.7592604
0
ARC
8
DEFAULT_255_2_778
10
79.5401514
20
63.6308319
40
0.9962403
50
228.3561595
51
270.0837306
0
ARC
8
DEFAULT_255_2_778
10
79.5391422
20
63.6334238
40
0.9975096
50
181.7301295
51
228.4984071
0
ARC
8
DEFAULT_255_2_778
10
79.560363
20
63.634583
40
1.0187558
50
179.9994546
51
181.7592604
0
LINE
8
DEFAULT_255_2_778
10
78.5416073
20
63.6345927
11
78.5416073
21
63.6345927
0
ARC
8
DEFAULT_255_2_778
10
79.5378466
20
60.6361486
40
0.9962403
50
138.3561595
51
180.0837306
0
ARC
8
DEFAULT_255_2_778
10
79.5404384
20
60.6371578
40
0.9975096
50
91.7301295
51
138.4984071
0
ARC
8
DEFAULT_255_2_778
10
79.5415976
20
60.615937
40
1.0187558
50
89.9994546
51
91.7592604
0
ARC
8
DEFAULT_255_2_778
10
79.5430632
20
60.6384534
40
0.9962403
50
48.3561595
51
90.0837306
0
ARC
8
DEFAULT_255_2_778
10
79.5440725
20
60.6358616
40
0.9975096
50
1.7301295
51
48.4984071
0
ARC
8
DEFAULT_255_2_778
10
79.5228517
20
60.6347024
40
1.0187558
50
359.9994546
51
1.7592604
0
ARC
8
DEFAULT_255_2_778
10
79.5453681
20
60.6332368
40
0.9962403
50
318.3561595
51
0.0837306
0
ARC
8
DEFAULT_255_2_778
10
79.5427762
20
60.6322275
40
0.9975096
50
271.7301295
51
318.4984071
0
ARC
8
DEFAULT_255_2_778
10
79.541617
20
60.6534483
40
1.0187558
50
269.9994546
51
271.7592604
0
ARC
8
DEFAULT_255_2_778
10
79.5401514
20
60.6309319
40
0.9962403
50
228.3561595
51
270.0837306
0
ARC
8
DEFAULT_255_2_778
10
79.5391422
20
60.6335238
40
0.9975096
50
181.7301295
51
228.4984071
0
ARC
8
DEFAULT_255_2_778
10
79.560363
20
60.634683
40
1.0187558
50
179.9994546
51
181.7592604
0
LINE
8
DEFAULT_255_2_778
10
78.5416073
20
60.6346927
11
78.5416073
21
60.6346927
0
ARC
8
DEFAULT_255_2_778
10
79.5378466
20
60.6361486
40
0.9962403
50
138.3561595
51
180.0837306
0
ARC
8
DEFAULT_255_2_778
10
79.5404384
20
60.6371578
40
0.9975096
50
91.7301295
51
138.4984071
0
ARC
8
DEFAULT_255_2_778
10
79.5415976
20
60.615937
40
1.0187558
50
89.9994546
51
91.7592604
0
ARC
8
DEFAULT_255_2_778
10
79.5430632
20
60.6384534
40
0.9962403
50
48.3561595
51
90.0837306
0
ARC
8
DEFAULT_255_2_778
10
79.5440725
20
60.6358616
40
0.9975096
50
1.7301295
51
48.4984071
0
ARC
8
DEFAULT_255_2_778
10
79.5228517
20
60.6347024
40
1.0187558
50
359.9994546
51
1.7592604
0
ARC
8
DEFAULT_255_2_778
10
79.5453681
20
60.6332368
40
0.9962403
50
318.3561595
51
0.0837306
0
ARC
8
DEFAULT_255_2_778
10
79.5427762
20
60.6322275
40
0.9975096
50
271.7301295
51
318.4984071
0
ARC
8
DEFAULT_255_2_778
10
79.541617
20
60.6534483
40
1.0187558
50
269.9994546
51
271.7592604
0
ARC
8
DEFAULT_255_2_778
10
79.5401514
20
60.6309319
40
0.9962403
50
228.3561595
51
270.0837306
0
ARC
8
DEFAULT_255_2_778
10
79.5391422
20
60.6335238
40
0.9975096
50
181.7301295
51
228.4984071
0
ARC
8
DEFAULT_255_2_778
10
79.560363
20
60.634683
40
1.0187558
50
179.9994546
51
181.7592604
0
LINE
8
DEFAULT_255_2_778
10
78.5416073
20
60.6346927
11
78.5416073
21
60.6346927
0
ARC
8
DEFAULT_255_2_778
10
79.5378466
20
63.6360486
40
0.9962403
50
138.3561595
51
180.0837306
0
ARC
8
DEFAULT_255_2_778
10
79.5404384
20
63.6370578
40
0.9975096
50
91.7301295
51
138.4984071
0
ARC
8
DEFAULT_255_2_778
10
79.5415976
20
63.615837
40
1.0187558
50
89.9994546
51
91.7592604
0
ARC
8
DEFAULT_255_2_778
10
79.5430632
20
63.6383534
40
0.9962403
50
48.3561595
51
90.0837306
0
ARC
8
DEFAULT_255_2_778
10
79.5440725
20
63.6357616
40
0.9975096
50
1.7301295
51
48.4984071
0
ARC
8
DEFAULT_255_2_778
10
79.5228517
20
63.6346024
40
1.0187558
50
359.9994546
51
1.7592604
0
ARC
8
DEFAULT_255_2_778
10
79.5453681
20
63.6331368
40
0.9962403
50
318.3561595
51
0.0837306
0
ARC
8
DEFAULT_255_2_778
10
79.5427762
20
63.6321275
40
0.9975096
50
271.7301295
51
318.4984071
0
ARC
8
DEFAULT_255_2_778
10
79.541617
20
63.6533483
40
1.0187558
50
269.9994546
51
271.7592604
0
ARC
8
DEFAULT_255_2_778
10
79.5401514
20
63.6308319
40
0.9962403
50
228.3561595
51
270.0837306
0
ARC
8
DEFAULT_255_2_778
10
79.5391422
20
63.6334238
40
0.9975096
50
181.7301295
51
228.4984071
0
ARC
8
DEFAULT_255_2_778
10
79.560363
20
63.634583
40
1.0187558
50
179.9994546
51
181.7592604
0
LINE
8
DEFAULT_255_2_778
10
78.5416073
20
63.6345927
11
78.5416073
21
63.6345927
0
ARC
8
DEFAULT_255_2_778
10
82.5379466
20
60.6361486
40
0.9962403
50
138.3561595
51
180.0837306
0
ARC
8
DEFAULT_255_2_778
10
82.5405384
20
60.6371578
40
0.9975096
50
91.7301295
51
138.4984071
0
ARC
8
DEFAULT_255_2_778
10
82.5416976
20
60.615937
40
1.0187558
50
89.9994546
51
91.7592604
0
ARC
8
DEFAULT_255_2_778
10
82.5431632
20
60.6384534
40
0.9962403
50
48.3561595
51
90.0837306
0
ARC
8
DEFAULT_255_2_778
10
82.5441725
20
60.6358616
40
0.9975096
50
1.7301295
51
48.4984071
0
ARC
8
DEFAULT_255_2_778
10
82.5229517
20
60.6347024
40
1.0187558
50
359.9994546
51
1.7592604
0
ARC
8
DEFAULT_255_2_778
10
82.5454681
20
60.6332368
40
0.9962403
50
318.3561595
51
0.0837306
0
ARC
8
DEFAULT_255_2_778
10
82.5428762
20
60.6322275
40
0.9975096
50
271.7301295
51
318.4984071
0
ARC
8
DEFAULT_255_2_778
10
82.541717
20
60.6534483
40
1.0187558
50
269.9994546
51
271.7592604
0
ARC
8
DEFAULT_255_2_778
10
82.5402514
20
60.6309319
40
0.9962403
50
228.3561595
51
270.0837306
0
ARC
8
DEFAULT_255_2_778
10
82.5392422
20
60.6335238
40
0.9975096
50
181.7301295
51
228.4984071
0
ARC
8
DEFAULT_255_2_778
10
82.560463
20
60.634683
40
1.0187558
50
179.9994546
51
181.7592604
0
LINE
8
DEFAULT_255_2_778
10
81.5417073
20
60.6346927
11
81.5417073
21
60.6346927
0
ARC
8
DEFAULT_255_2_778
10
82.5379466
20
63.6360486
40
0.9962403
50
138.3561595
51
180.0837306
0
ARC
8
DEFAULT_255_2_778
10
82.5405384
20
63.6370578
40
0.9975096
50
91.7301295
51
138.4984071
0
ARC
8
DEFAULT_255_2_778
10
82.5416976
20
63.615837
40
1.0187558
50
89.9994546
51
91.7592604
0
ARC
8
DEFAULT_255_2_778
10
82.5431632
20
63.6383534
40
0.9962403
50
48.3561595
51
90.0837306
0
ARC
8
DEFAULT_255_2_778
10
82.5441725
20
63.6357616
40
0.9975096
50
1.7301295
51
48.4984071
0
ARC
8
DEFAULT_255_2_778
10
82.5229517
20
63.6346024
40
1.0187558
50
359.9994546
51
1.7592604
0
ARC
8
DEFAULT_255_2_778
10
82.5454681
20
63.6331368
40
0.9962403
50
318.3561595
51
0.0837306
0
ARC
8
DEFAULT_255_2_778
10
82.5428762
20
63.6321275
40
0.9975096
50
271.7301295
51
318.4984071
0
ARC
8
DEFAULT_255_2_778
10
82.541717
20
63.6533483
40
1.0187558
50
269.9994546
51
271.7592604
0
ARC
8
DEFAULT_255_2_778
10
82.5402514
20
63.6308319
40
0.9962403
50
228.3561595
51
270.0837306
0
ARC
8
DEFAULT_255_2_778
10
82.5392422
20
63.6334238
40
0.9975096
50
181.7301295
51
228.4984071
0
ARC
8
DEFAULT_255_2_778
10
82.560463
20
63.634583
40
1.0187558
50
179.9994546
51
181.7592604
0
LINE
8
DEFAULT_255_2_778
10
81.5417073
20
63.6345927
11
81.5417073
21
63.6345927
0
ARC
8
DEFAULT_255_2_778
10
82.5379466
20
63.6360486
40
0.9962403
50
138.3561595
51
180.0837306
0
ARC
8
DEFAULT_255_2_778
10
82.5405384
20
63.6370578
40
0.9975096
50
91.7301295
51
138.4984071
0
ARC
8
DEFAULT_255_2_778
10
82.5416976
20
63.615837
40
1.0187558
50
89.9994546
51
91.7592604
0
ARC
8
DEFAULT_255_2_778
10
82.5431632
20
63.6383534
40
0.9962403
50
48.3561595
51
90.0837306
0
ARC
8
DEFAULT_255_2_778
10
82.5441725
20
63.6357616
40
0.9975096
50
1.7301295
51
48.4984071
0
ARC
8
DEFAULT_255_2_778
10
82.5229517
20
63.6346024
40
1.0187558
50
359.9994546
51
1.7592604
0
ARC
8
DEFAULT_255_2_778
10
82.5454681
20
63.6331368
40
0.9962403
50
318.3561595
51
0.0837306
0
ARC
8
DEFAULT_255_2_778
10
82.5428762
20
63.6321275
40
0.9975096
50
271.7301295
51
318.4984071
0
ARC
8
DEFAULT_255_2_778
10
82.541717
20
63.6533483
40
1.0187558
50
269.9994546
51
271.7592604
0
ARC
8
DEFAULT_255_2_778
10
82.5402514
20
63.6308319
40
0.9962403
50
228.3561595
51
270.0837306
0
ARC
8
DEFAULT_255_2_778
10
82.5392422
20
63.6334238
40
0.9975096
50
181.7301295
51
228.4984071
0
ARC
8
DEFAULT_255_2_778
10
82.560463
20
63.634583
40
1.0187558
50
179.9994546
51
181.7592604
0
LINE
8
DEFAULT_255_2_778
10
81.5417073
20
63.6345927
11
81.5417073
21
63.6345927
0
ARC
8
DEFAULT_255_2_778
10
82.5379466
20
60.6361486
40
0.9962403
50
138.3561595
51
180.0837306
0
ARC
8
DEFAULT_255_2_778
10
82.5405384
20
60.6371578
40
0.9975096
50
91.7301295
51
138.4984071
0
ARC
8
DEFAULT_255_2_778
10
82.5416976
20
60.615937
40
1.0187558
50
89.9994546
51
91.7592604
0
ARC
8
DEFAULT_255_2_778
10
82.5431632
20
60.6384534
40
0.9962403
50
48.3561595
51
90.0837306
0
ARC
8
DEFAULT_255_2_778
10
82.5441725
20
60.6358616
40
0.9975096
50
1.7301295
51
48.4984071
0
ARC
8
DEFAULT_255_2_778
10
82.5229517
20
60.6347024
40
1.0187558
50
359.9994546
51
1.7592604
0
ARC
8
DEFAULT_255_2_778
10
82.5454681
20
60.6332368
40
0.9962403
50
318.3561595
51
0.0837306
0
ARC
8
DEFAULT_255_2_778
10
82.5428762
20
60.6322275
40
0.9975096
50
271.7301295
51
318.4984071
0
ARC
8
DEFAULT_255_2_778
10
82.541717
20
60.6534483
40
1.0187558
50
269.9994546
51
271.7592604
0
ARC
8
DEFAULT_255_2_778
10
82.5402514
20
60.6309319
40
0.9962403
50
228.3561595
51
270.0837306
0
ARC
8
DEFAULT_255_2_778
10
82.5392422
20
60.6335238
40
0.9975096
50
181.7301295
51
228.4984071
0
ARC
8
DEFAULT_255_2_778
10
82.560463
20
60.634683
40
1.0187558
50
179.9994546
51
181.7592604
0
LINE
8
DEFAULT_255_2_778
10
81.5417073
20
60.6346927
11
81.5417073
21
60.6346927
0
ARC
8
DEFAULT_255_2_778
10
145.1543497
20
4.8317423
40
5.0127463
50
179.9670322
51
193.6926998
0
ARC
8
DEFAULT_255_2_778
10
145.1180122
20
4.8264233
40
4.9761836
50
193.7322363
51
214.6215753
0
ARC
8
DEFAULT_255_2_778
10
145.151733
20
4.8451115
40
5.0145525
50
214.5783896
51
250.3718191
0
ARC
8
DEFAULT_255_2_778
10
145.132878
20
4.8113972
40
4.9764678
50
250.4458992
51
265.7012398
0
ARC
8
DEFAULT_255_2_778
10
145.1417766
20
4.9053666
40
5.0708401
50
265.6805635
51
269.999183
0
ARC
8
DEFAULT_255_2_778
10
145.1451391
20
104.822492
40
5.0123358
50
76.3116743
51
90.0392625
0
ARC
8
DEFAULT_255_2_778
10
145.1504981
20
104.8590117
40
4.9755863
50
55.3795793
51
76.2721162
0
ARC
8
DEFAULT_255_2_778
10
145.1317979
20
104.8252858
40
5.0139661
50
19.6243069
51
55.4226824
0
ARC
8
DEFAULT_255_2_778
10
145.1654111
20
104.8440991
40
4.975991
50
4.2930336
51
19.5502512
0
ARC
8
DEFAULT_255_2_778
10
145.0713418
20
104.8352021
40
5.0704627
50
359.9946267
51
4.3137155
0
ARC
8
DEFAULT_255_2_778
10
145.1296905
20
4.8314976
40
5.012115
50
346.3113713
51
0.0391979
0
ARC
8
DEFAULT_255_2_778
10
145.1659351
20
4.8262093
40
4.9756495
50
325.3796246
51
346.2717703
0
ARC
8
DEFAULT_255_2_778
10
145.1321622
20
4.8449256
40
5.0140772
50
289.625083
51
325.4228799
0
ARC
8
DEFAULT_255_2_778
10
145.151071
20
4.8110765
40
4.9758479
50
274.293225
51
289.5509081
0
ARC
8
DEFAULT_255_2_778
10
145.1421851
20
4.9050075
40
5.0701808
50
269.9945665
51
274.3138957
0
LINE
8
DEFAULT_255_2_778
10
141.1415043
20
39.3847266
11
141.3415043
21
39.3847266
0
LINE
8
DEFAULT_255_2_778
10
141.1415043
20
38.4849266
11
141.3415043
21
38.4849266
0
LINE
8
DEFAULT_255_2_778
10
141.3415043
20
70.2849266
11
141.1415043
21
70.2849266
0
LINE
8
DEFAULT_255_2_778
10
141.3415043
20
71.1847266
11
141.1415043
21
71.1847266
0
LINE
8
DEFAULT_255_2_778
10
143.7915043
20
85.4048266
11
143.6915043
21
85.4048266
0
LINE
8
DEFAULT_255_2_778
10
143.7915043
20
86.7848266
11
143.6915043
21
86.7848266
0
LINE
8
DEFAULT_255_2_778
10
143.7915043
20
83.6347266
11
143.6915043
21
83.6347266
0
LINE
8
DEFAULT_255_2_778
10
140.1416043
20
9.8347266
11
140.1416043
21
4.8346266
0
LINE
8
DEFAULT_255_2_778
10
150.1418043
20
104.8347266
11
150.1418043
21
4.8349266
0
ARC
8
DEFAULT_255_2_778
10
145.1538867
20
104.8380982
40
5.0123358
50
166.3116743
51
180.0392625
0
ARC
8
DEFAULT_255_2_778
10
145.1173671
20
104.8434572
40
4.9755863
50
145.3795793
51
166.2721162
0
ARC
8
DEFAULT_255_2_778
10
145.1510929
20
104.824757
40
5.0139661
50
109.6243069
51
145.4226824
0
ARC
8
DEFAULT_255_2_778
10
145.1322796
20
104.8583702
40
4.975991
50
94.2930336
51
109.5502512
0
ARC
8
DEFAULT_255_2_778
10
145.1411766
20
104.7643009
40
5.0704627
50
89.9946267
51
94.3137155
0
LINE
8
DEFAULT_255_2_778
10
140.1415522
20
99.8348634
11
140.1415522
21
104.8346634
0
ARC
8
DEFAULT_255_2_778
10
145.6477844
20
4.8377592
40
2.2436706
50
359.9271976
51
22.19754
0
ARC
8
DEFAULT_255_2_778
10
145.6395962
20
4.8322503
40
2.2533342
50
22.248575
51
79.7568595
0
ARC
8
DEFAULT_255_2_778
10
145.6424206
20
4.8210306
40
2.2638779
50
79.8776982
51
90.0244846
0
ARC
8
DEFAULT_255_2_778
10
144.6387023
20
4.8412395
40
2.2436706
50
89.9271976
51
112.19754
0
ARC
8
DEFAULT_255_2_778
10
144.6442112
20
4.8330513
40
2.2533342
50
112.248575
51
169.7568595
0
ARC
8
DEFAULT_255_2_778
10
144.6554309
20
4.8358757
40
2.2638779
50
169.8776982
51
180.0244846
0
LINE
8
DEFAULT_255_2_778
10
145.6414532
20
7.0849083
11
144.6415532
21
7.0849083
0
ARC
8
DEFAULT_255_2_778
10
145.6477844
20
4.8320574
40
2.2436706
50
337.80246
51
0.0728024
0
ARC
8
DEFAULT_255_2_778
10
145.6395962
20
4.8375663
40
2.2533342
50
280.2431405
51
337.751425
0
ARC
8
DEFAULT_255_2_778
10
145.6424206
20
4.848786
40
2.2638779
50
269.9755154
51
280.1223018
0
ARC
8
DEFAULT_255_2_778
10
144.6387023
20
4.8285771
40
2.2436706
50
247.80246
51
270.0728024
0
ARC
8
DEFAULT_255_2_778
10
144.6442112
20
4.8367653
40
2.2533342
50
190.2431405
51
247.751425
0
ARC
8
DEFAULT_255_2_778
10
144.6554309
20
4.8339409
40
2.2638779
50
179.9755154
51
190.1223018
0
LINE
8
DEFAULT_255_2_778
10
145.6414532
20
2.5849083
11
144.6415532
21
2.5849083
0
ARC
8
DEFAULT_255_2_778
10
145.6477844
20
104.8375592
40
2.2436706
50
359.9271976
51
22.19754
0
ARC
8
DEFAULT_255_2_778
10
145.6395962
20
104.8320503
40
2.2533342
50
22.248575
51
79.7568595
0
ARC
8
DEFAULT_255_2_778
10
145.6424206
20
104.8208306
40
2.2638779
50
79.8776982
51
90.0244846
0
ARC
8
DEFAULT_255_2_778
10
144.6387023
20
104.8410395
40
2.2436706
50
89.9271976
51
112.19754
0
ARC
8
DEFAULT_255_2_778
10
144.6442112
20
104.8328513
40
2.2533342
50
112.248575
51
169.7568595
0
ARC
8
DEFAULT_255_2_778
10
144.6554309
20
104.8356757
40
2.2638779
50
169.8776982
51
180.0244846
0
LINE
8
DEFAULT_255_2_778
10
145.6414532
20
107.0847083
11
144.6415532
21
107.0847083
0
ARC
8
DEFAULT_255_2_778
10
145.6477844
20
104.8318574
40
2.2436706
50
337.80246
51
0.0728024
0
ARC
8
DEFAULT_255_2_778
10
145.6395962
20
104.8373663
40
2.2533342
50
280.2431405
51
337.751425
0
ARC
8
DEFAULT_255_2_778
10
145.6424206
20
104.848586
40
2.2638779
50
269.9755154
51
280.1223018
0
ARC
8
DEFAULT_255_2_778
10
144.6387023
20
104.8283771
40
2.2436706
50
247.80246
51
270.0728024
0
ARC
8
DEFAULT_255_2_778
10
144.6442112
20
104.8365653
40
2.2533342
50
190.2431405
51
247.751425
0
ARC
8
DEFAULT_255_2_778
10
144.6554309
20
104.8337409
40
2.2638779
50
179.9755154
51
190.1223018
0
LINE
8
DEFAULT_255_2_778
10
145.6414532
20
102.5847083
11
144.6415532
21
102.5847083
0
LINE
8
DEFAULT_255_2_778
10
120.64157
20
9.8347156
11
120.64157
21
8.8346156
0
LINE
8
DEFAULT_255_2_778
10
113.14167
20
4.8349156
11
115.64177
21
4.8349156
0
LINE
8
DEFAULT_255_2_778
10
115.64177
20
4.8349156
11
118.64187
21
7.0349156
0
LINE
8
DEFAULT_255_2_778
10
118.64187
20
7.0349156
11
118.64187
21
8.8348156
0
LINE
8
DEFAULT_255_2_778
10
118.64187
20
8.8348156
11
120.64187
21
8.8348156
0
LINE
8
DEFAULT_255_2_778
10
105.64157
20
9.8347156
11
105.64157
21
8.8346156
0
LINE
8
DEFAULT_255_2_778
10
113.14167
20
4.8349156
11
110.64167
21
4.8349156
0
LINE
8
DEFAULT_255_2_778
10
110.64167
20
4.8349156
11
107.64157
21
7.0349156
0
LINE
8
DEFAULT_255_2_778
10
107.64157
20
7.0349156
11
107.64157
21
8.8348156
0
LINE
8
DEFAULT_255_2_778
10
107.64157
20
8.8348156
11
105.64157
21
8.8348156
0
LINE
8
DEFAULT_255_2_778
10
44.64157
20
9.8347156
11
44.64157
21
8.8346156
0
LINE
8
DEFAULT_255_2_778
10
37.14167
20
4.8349156
11
39.64177
21
4.8349156
0
LINE
8
DEFAULT_255_2_778
10
39.64177
20
4.8349156
11
42.64187
21
7.0349156
0
LINE
8
DEFAULT_255_2_778
10
42.64187
20
7.0349156
11
42.64187
21
8.8348156
0
LINE
8
DEFAULT_255_2_778
10
42.64187
20
8.8348156
11
44.64187
21
8.8348156
0
LINE
8
DEFAULT_255_2_778
10
29.64157
20
9.8347156
11
29.64157
21
8.8346156
0
LINE
8
DEFAULT_255_2_778
10
37.14147
20
4.8349156
11
34.64137
21
4.8349156
0
LINE
8
DEFAULT_255_2_778
10
34.64137
20
4.8349156
11
31.64157
21
7.0349156
0
LINE
8
DEFAULT_255_2_778
10
31.64157
20
7.0349156
11
31.64157
21
8.8348156
0
LINE
8
DEFAULT_255_2_778
10
31.64157
20
8.8348156
11
29.64157
21
8.8348156
0
ARC
8
DEFAULT_255_2_778
10
5.1370633
20
4.8384497
40
2.2545229
50
359.9100005
51
21.7598393
0
ARC
8
DEFAULT_255_2_778
10
5.1466172
20
4.8395309
40
2.2452504
50
21.8245969
51
79.53818
0
ARC
8
DEFAULT_255_2_778
10
5.1427748
20
4.8051419
40
2.2797667
50
79.6001523
51
90.0299435
0
ARC
8
DEFAULT_255_2_778
10
5.1380484
20
4.8305243
40
2.2543868
50
89.9101572
51
111.7613949
0
ARC
8
DEFAULT_255_2_778
10
5.1370664
20
4.8398464
40
2.2453665
50
111.826312
51
169.5454888
0
ARC
8
DEFAULT_255_2_778
10
5.1710953
20
4.836097
40
2.2795122
50
169.6080143
51
180.0298779
0
ARC
8
DEFAULT_255_2_778
10
5.1369186
20
4.8313533
40
2.2546676
50
338.2408662
51
0.0903398
0
ARC
8
DEFAULT_255_2_778
10
5.1467067
20
4.8301966
40
2.2451496
50
280.4535565
51
338.1756829
0
ARC
8
DEFAULT_255_2_778
10
5.1427766
20
4.8648602
40
2.2799523
50
269.9700133
51
280.3926283
0
ARC
8
DEFAULT_255_2_778
10
5.138042
20
4.8394284
40
2.2545229
50
248.2401607
51
270.0899995
0
ARC
8
DEFAULT_255_2_778
10
5.1369608
20
4.8298745
40
2.2452504
50
190.46182
51
248.1754031
0
ARC
8
DEFAULT_255_2_778
10
5.1713498
20
4.8337169
40
2.2797667
50
179.9700565
51
190.3998477
0
ARC
8
DEFAULT_255_2_778
10
5.1295905
20
4.8311976
40
5.012115
50
346.3113713
51
0.0391979
0
ARC
8
DEFAULT_255_2_778
10
5.1658351
20
4.8259093
40
4.9756495
50
325.3796246
51
346.2717703
0
ARC
8
DEFAULT_255_2_778
10
5.1320622
20
4.8446256
40
5.0140772
50
289.625083
51
325.4228799
0
ARC
8
DEFAULT_255_2_778
10
5.150971
20
4.8107765
40
4.9758479
50
274.293225
51
289.5509081
0
ARC
8
DEFAULT_255_2_778
10
5.1420851
20
4.9047075
40
5.0701808
50
269.9945665
51
274.3138957
0
ARC
8
DEFAULT_255_2_778
10
5.1381696
20
104.822492
40
5.0123358
50
89.9607375
51
103.6883257
0
ARC
8
DEFAULT_255_2_778
10
5.1328106
20
104.8590117
40
4.9755863
50
103.7278838
51
124.6204207
0
ARC
8
DEFAULT_255_2_778
10
5.1515107
20
104.8252858
40
5.0139661
50
124.5773176
51
160.3756931
0
ARC
8
DEFAULT_255_2_778
10
5.1178975
20
104.8440991
40
4.975991
50
160.4497488
51
175.7069664
0
ARC
8
DEFAULT_255_2_778
10
5.2119669
20
104.8352021
40
5.0704627
50
175.6862845
51
180.0053733
0
ARC
8
DEFAULT_255_2_778
10
5.1542497
20
4.8320423
40
5.0127463
50
179.9670322
51
193.6926998
0
ARC
8
DEFAULT_255_2_778
10
5.1179122
20
4.8267233
40
4.9761836
50
193.7322363
51
214.6215753
0
ARC
8
DEFAULT_255_2_778
10
5.151633
20
4.8454115
40
5.0145525
50
214.5783896
51
250.3718191
0
ARC
8
DEFAULT_255_2_778
10
5.132778
20
4.8116972
40
4.9764678
50
250.4458992
51
265.7012398
0
ARC
8
DEFAULT_255_2_778
10
5.1416766
20
4.9056666
40
5.0708401
50
265.6805635
51
269.999183
0
LINE
8
DEFAULT_255_2_778
10
10.1417043
20
9.8347266
11
10.1417043
21
4.8346266
0
LINE
8
DEFAULT_255_2_778
10
0.1415043
20
104.8347266
11
0.1415043
21
4.8349266
0
ARC
8
DEFAULT_255_2_778
10
5.129376
20
104.8381855
40
5.0123358
50
359.9607375
51
13.6883257
0
ARC
8
DEFAULT_255_2_778
10
5.1658957
20
104.8435445
40
4.9755863
50
13.7278838
51
34.6204207
0
ARC
8
DEFAULT_255_2_778
10
5.1321698
20
104.8248444
40
5.0139661
50
34.5773176
51
70.3756931
0
ARC
8
DEFAULT_255_2_778
10
5.1509831
20
104.8584575
40
4.975991
50
70.4497488
51
85.7069664
0
ARC
8
DEFAULT_255_2_778
10
5.1420861
20
104.7643882
40
5.0704627
50
85.6862845
51
90.0053733
0
ARC
8
DEFAULT_255_2_778
10
11.1445504
20
16.536161
40
2.9964117
50
269.9437869
51
288.6703074
0
ARC
8
DEFAULT_255_2_778
10
11.1367383
20
16.5441121
40
3.0064492
50
288.7628438
51
346.3777708
0
ARC
8
DEFAULT_255_2_778
10
11.133481
20
16.5382022
40
3.00823
50
346.5017782
51
0.0313981
0
ARC
8
DEFAULT_255_2_778
10
11.1446417
20
41.5325165
40
2.9970701
50
359.9471256
51
18.6705446
0
ARC
8
DEFAULT_255_2_778
10
11.1374387
20
41.5250627
40
3.0062841
50
18.7611815
51
76.3788718
0
ARC
8
DEFAULT_255_2_778
10
11.1434431
20
41.52191
40
3.0079414
50
76.5041705
51
90.0349062
0
ARC
8
DEFAULT_255_2_778
10
11.1386608
20
41.5330237
40
2.9968285
50
89.9436045
51
108.6684106
0
ARC
8
DEFAULT_255_2_778
10
11.1462606
20
41.5255812
40
3.0063159
50
108.7602268
51
166.3783296
0
ARC
8
DEFAULT_255_2_778
10
11.1498645
20
41.531403
40
3.0084544
50
166.5022518
51
180.031468
0
ARC
8
DEFAULT_255_2_778
10
11.1382864
20
16.5370936
40
2.9968771
50
179.9472869
51
198.6711863
0
ARC
8
DEFAULT_255_2_778
10
11.1457832
20
16.5446594
40
3.0064051
50
198.7620476
51
256.3786753
0
ARC
8
DEFAULT_255_2_778
10
11.1397761
20
16.5478043
40
3.0080541
50
256.5039838
51
270.0349418
0
ARC
8
DEFAULT_255_2_778
10
12.5541065
20
23.91701
40
1.7345303
50
279.9465391
51
310.8339334
0
ARC
8
DEFAULT_255_2_778
10
12.5522138
20
23.9215841
40
1.7392295
50
310.7825809
51
355.0241318
0
ARC
8
DEFAULT_255_2_778
10
12.5385131
20
23.9218027
40
1.7528976
50
355.0558549
51
0.0048374
0
ARC
8
DEFAULT_255_2_778
10
12.5565779
20
34.1491774
40
1.7348334
50
359.9495807
51
30.8278365
0
ARC
8
DEFAULT_255_2_778
10
12.5521471
20
34.1483958
40
1.7390394
50
30.775141
51
74.8260801
0
ARC
8
DEFAULT_255_2_778
10
12.549615
20
34.1351158
40
1.7525197
50
74.8598255
51
80.0075123
0
ARC
8
DEFAULT_255_2_778
10
9.7312612
20
34.6452278
40
1.7395181
50
79.9871148
51
84.9437871
0
ARC
8
DEFAULT_255_2_778
10
9.731483
20
34.6474844
40
1.7372507
50
84.9445144
51
89.9998986
0
ARC
8
DEFAULT_255_2_778
10
9.7316247
20
34.6454958
40
1.7392395
50
90.004569
51
130.0194628
0
ARC
8
DEFAULT_255_2_778
10
9.7324813
20
34.6442156
40
1.7407708
50
130.0139593
51
179.9889698
0
ARC
8
DEFAULT_255_2_778
10
9.7324813
20
23.4248859
40
1.7407708
50
180.0110302
51
229.9860407
0
ARC
8
DEFAULT_255_2_778
10
9.7316026
20
23.424035
40
1.7395541
50
229.9901877
51
270.0071636
0
ARC
8
DEFAULT_255_2_778
10
9.7318129
20
23.4252987
40
1.7408177
50
270.0002368
51
275.0341997
0
ARC
8
DEFAULT_255_2_778
10
9.7315744
20
23.4278266
40
1.7433567
50
275.0347163
51
279.9801592
0
ARC
8
DEFAULT_255_2_778
10
12.5546008
20
23.9162042
40
2.5335038
50
279.9557152
51
303.4045023
0
ARC
8
DEFAULT_255_2_778
10
12.5498932
20
23.9231932
40
2.54193
50
303.4063563
51
351.6396414
0
ARC
8
DEFAULT_255_2_778
10
12.5406183
20
23.9217103
40
2.5508922
50
351.7028842
51
0.0121394
0
ARC
8
DEFAULT_255_2_778
10
12.558031
20
34.1499337
40
2.5334805
50
359.9528921
51
23.4026324
0
ARC
8
DEFAULT_255_2_778
10
12.5504839
20
34.1465714
40
2.541742
50
23.4046194
51
71.641598
0
ARC
8
DEFAULT_255_2_778
10
12.5502915
20
34.1370976
40
2.5507959
50
71.704519
51
80.0141859
0
ARC
8
DEFAULT_255_2_778
10
9.7311234
20
34.6427034
40
2.5425875
50
79.998365
51
84.865424
0
ARC
8
DEFAULT_255_2_778
10
9.7314924
20
34.6465485
40
2.538725
50
84.8659525
51
89.9998143
0
ARC
8
DEFAULT_255_2_778
10
9.7315759
20
34.6452368
40
2.5400368
50
90.0016959
51
129.9988509
0
ARC
8
DEFAULT_255_2_778
10
9.7318507
20
34.645202
40
2.5402403
50
130.0030958
51
179.9989005
0
ARC
8
DEFAULT_255_2_778
10
9.7316455
20
23.4254035
40
2.5400349
50
180.0011909
51
229.9990593
0
ARC
8
DEFAULT_255_2_778
10
9.7315759
20
23.4254647
40
2.540037
50
230.0011491
51
269.9983041
0
ARC
8
DEFAULT_255_2_778
10
9.7314924
20
23.424153
40
2.5387251
50
270.0001857
51
275.1340475
0
ARC
8
DEFAULT_255_2_778
10
9.7311234
20
23.4279981
40
2.5425877
50
275.134576
51
280.001635
0
ARC
8
DEFAULT_255_2_778
10
11.139569
20
41.53317
40
1.4203619
50
150.5380646
51
180.1258258
0
ARC
8
DEFAULT_255_2_778
10
11.1378332
20
41.533648
40
1.4186155
50
97.8534708
51
150.5203946
0
ARC
8
DEFAULT_255_2_778
10
11.1411447
20
41.5053648
40
1.4470859
50
89.9815559
51
97.8303419
0
ARC
8
DEFAULT_255_2_778
10
11.1446692
20
41.5325366
40
1.4199174
50
60.2715001
51
90.1234186
0
ARC
8
DEFAULT_255_2_778
10
11.1449229
20
41.5335291
40
1.4189297
50
7.8897422
51
60.2605242
0
ARC
8
DEFAULT_255_2_778
10
11.117887
20
41.5305153
40
1.4461236
50
359.9815925
51
7.8609816
0
ARC
8
DEFAULT_255_2_778
10
11.1439837
20
41.5269754
40
1.4200303
50
330.3593971
51
0.1240842
0
ARC
8
DEFAULT_255_2_778
10
11.1451606
20
41.5266748
40
1.4188587
50
277.8376927
51
330.3464433
0
ARC
8
DEFAULT_255_2_778
10
11.1420687
20
41.5541009
40
1.4464503
50
269.9818514
51
277.8108746
0
ARC
8
DEFAULT_255_2_778
10
11.1385237
20
41.527776
40
1.4201286
50
240.3621923
51
270.1245405
0
ARC
8
DEFAULT_255_2_778
10
11.1381372
20
41.5264137
40
1.4187536
50
187.8966313
51
240.3485524
0
ARC
8
DEFAULT_255_2_778
10
11.1657985
20
41.5295826
40
1.4465881
50
179.9814581
51
187.8704332
0
ARC
8
DEFAULT_255_2_778
10
11.1369089
20
41.5316959
40
1.0737996
50
141.101284
51
180.0877827
0
ARC
8
DEFAULT_255_2_778
10
11.1406228
20
41.5318038
40
1.0766249
50
93.3149634
51
141.2298637
0
ARC
8
DEFAULT_255_2_778
10
11.1415484
20
41.5130409
40
1.0954099
50
89.9967465
51
93.3065443
0
ARC
8
DEFAULT_255_2_778
10
11.143273
20
41.5345631
40
1.0738889
50
51.1063165
51
90.0886941
0
ARC
8
DEFAULT_255_2_778
10
11.1435317
20
41.5310599
40
1.0764558
50
3.3143211
51
51.2341081
0
ARC
8
DEFAULT_255_2_778
10
11.1246142
20
41.530113
40
1.0953965
50
359.996744
51
3.3065628
0
ARC
8
DEFAULT_255_2_778
10
11.1459679
20
41.5284035
40
1.074044
50
321.1092424
51
0.0878761
0
ARC
8
DEFAULT_255_2_778
10
11.1425775
20
41.5280106
40
1.0764389
50
273.3166262
51
321.2388179
0
ARC
8
DEFAULT_255_2_778
10
11.1416763
20
41.5467073
40
1.0951565
50
269.9965622
51
273.307107
0
ARC
8
DEFAULT_255_2_778
10
11.1399805
20
41.5255041
40
1.0739546
50
231.1042103
51
270.0869647
0
ARC
8
DEFAULT_255_2_778
10
11.1397385
20
41.5291053
40
1.076608
50
183.3172682
51
231.2345733
0
ARC
8
DEFAULT_255_2_778
10
11.1582805
20
41.5299851
40
1.0951699
50
179.9965647
51
183.3070884
0
ARC
8
DEFAULT_255_2_778
10
11.139569
20
16.54327
40
1.4203619
50
150.5380646
51
180.1258258
0
ARC
8
DEFAULT_255_2_778
10
11.1378332
20
16.543748
40
1.4186155
50
97.8534708
51
150.5203946
0
ARC
8
DEFAULT_255_2_778
10
11.1411447
20
16.5154648
40
1.4470859
50
89.9815559
51
97.8303419
0
ARC
8
DEFAULT_255_2_778
10
11.1446692
20
16.5426366
40
1.4199174
50
60.2715001
51
90.1234186
0
ARC
8
DEFAULT_255_2_778
10
11.1449229
20
16.5436291
40
1.4189297
50
7.8897422
51
60.2605242
0
ARC
8
DEFAULT_255_2_778
10
11.117887
20
16.5406153
40
1.4461236
50
359.9815925
51
7.8609816
0
ARC
8
DEFAULT_255_2_778
10
11.1439837
20
16.5370754
40
1.4200303
50
330.3593971
51
0.1240842
0
ARC
8
DEFAULT_255_2_778
10
11.1451606
20
16.5367748
40
1.4188587
50
277.8376927
51
330.3464433
0
ARC
8
DEFAULT_255_2_778
10
11.1420687
20
16.5642009
40
1.4464503
50
269.9818514
51
277.8108746
0
ARC
8
DEFAULT_255_2_778
10
11.1385237
20
16.537876
40
1.4201286
50
240.3621923
51
270.1245405
0
ARC
8
DEFAULT_255_2_778
10
11.1381372
20
16.5365137
40
1.4187536
50
187.8966313
51
240.3485524
0
ARC
8
DEFAULT_255_2_778
10
11.1657985
20
16.5396826
40
1.4465881
50
179.9814581
51
187.8704332
0
ARC
8
DEFAULT_255_2_778
10
11.1369089
20
16.5417959
40
1.0737996
50
141.101284
51
180.0877827
0
ARC
8
DEFAULT_255_2_778
10
11.1406228
20
16.5419038
40
1.0766249
50
93.3149634
51
141.2298637
0
ARC
8
DEFAULT_255_2_778
10
11.1415484
20
16.5231409
40
1.0954099
50
89.9967465
51
93.3065443
0
ARC
8
DEFAULT_255_2_778
10
11.143273
20
16.5446631
40
1.0738889
50
51.1063165
51
90.0886941
0
ARC
8
DEFAULT_255_2_778
10
11.1435317
20
16.5411599
40
1.0764558
50
3.3143211
51
51.2341081
0
ARC
8
DEFAULT_255_2_778
10
11.1246142
20
16.540213
40
1.0953965
50
359.996744
51
3.3065628
0
ARC
8
DEFAULT_255_2_778
10
11.1459679
20
16.5385035
40
1.074044
50
321.1092424
51
0.0878761
0
ARC
8
DEFAULT_255_2_778
10
11.1425775
20
16.5381106
40
1.0764389
50
273.3166262
51
321.2388179
0
ARC
8
DEFAULT_255_2_778
10
11.1416763
20
16.5568073
40
1.0951565
50
269.9965622
51
273.307107
0
ARC
8
DEFAULT_255_2_778
10
11.1399805
20
16.5356041
40
1.0739546
50
231.1042103
51
270.0869647
0
ARC
8
DEFAULT_255_2_778
10
11.1397385
20
16.5392053
40
1.076608
50
183.3172682
51
231.2345733
0
ARC
8
DEFAULT_255_2_778
10
11.1582805
20
16.5400851
40
1.0951699
50
179.9965647
51
183.3070884
0
LINE
8
DEFAULT_255_2_778
10
10.1417106
20
99.8349507
11
10.1417106
21
104.8347507
0
LINE
8
DEFAULT_255_2_778
10
14.1417106
20
16.5398507
11
14.1417106
21
18.0397507
0
LINE
8
DEFAULT_255_2_778
10
14.1417106
20
18.0397507
11
16.6166106
21
18.0397507
0
LINE
8
DEFAULT_255_2_778
10
16.6166106
20
18.0397507
11
16.6166106
21
29.0348507
0
LINE
8
DEFAULT_255_2_778
10
16.6166106
20
29.0348507
11
16.6166106
21
40.0298507
0
LINE
8
DEFAULT_255_2_778
10
16.6166106
20
40.0298507
11
14.1417106
21
40.0298507
0
LINE
8
DEFAULT_255_2_778
10
14.1417106
20
40.0298507
11
14.1417106
21
41.5297507
0
LINE
8
DEFAULT_255_2_778
10
8.1414106
20
41.5297507
11
8.1414106
21
40.0298507
0
LINE
8
DEFAULT_255_2_778
10
8.1414106
20
40.0298507
11
5.6665106
21
40.0298507
0
LINE
8
DEFAULT_255_2_778
10
5.6665106
20
40.0298507
11
5.6665106
21
29.0348507
0
LINE
8
DEFAULT_255_2_778
10
5.6665106
20
29.0348507
11
5.6665106
21
18.0397507
0
LINE
8
DEFAULT_255_2_778
10
5.6665106
20
18.0397507
11
8.1414106
21
18.0397507
0
LINE
8
DEFAULT_255_2_778
10
8.1414106
20
18.0397507
11
8.1414106
21
16.5398507
0
LINE
8
DEFAULT_255_2_778
10
11.1416106
20
13.5397507
11
11.1416106
21
13.5397507
0
LINE
8
DEFAULT_255_2_778
10
11.1416106
20
21.9066507
11
12.8537106
21
22.2085507
0
LINE
8
DEFAULT_255_2_778
10
14.2914106
20
23.9219507
11
14.2914106
21
29.0348507
0
LINE
8
DEFAULT_255_2_778
10
14.2914106
20
29.0348507
11
14.2914106
21
34.1476507
0
LINE
8
DEFAULT_255_2_778
10
12.8537106
20
35.8610507
11
11.1416106
21
36.1629507
0
LINE
8
DEFAULT_255_2_778
10
11.1416106
20
36.1629507
11
10.0337106
21
36.3582507
0
LINE
8
DEFAULT_255_2_778
10
7.9917106
20
34.6445507
11
7.9917106
21
29.0345507
0
LINE
8
DEFAULT_255_2_778
10
7.9917106
20
29.0345507
11
7.9917106
21
23.4245507
0
LINE
8
DEFAULT_255_2_778
10
10.0337106
20
21.7108507
11
11.1416106
21
21.9066507
0
LINE
8
DEFAULT_255_2_778
10
11.1416106
20
21.0943507
11
12.9926106
21
21.4208507
0
LINE
8
DEFAULT_255_2_778
10
15.0915106
20
23.9222507
11
15.0915106
21
29.0350507
0
LINE
8
DEFAULT_255_2_778
10
15.0915106
20
29.0350507
11
15.0915106
21
34.1478507
0
LINE
8
DEFAULT_255_2_778
10
12.9926106
20
36.6492507
11
11.1416106
21
36.9757507
0
LINE
8
DEFAULT_255_2_778
10
11.1416106
20
36.9757507
11
10.1727106
21
37.1466507
0
LINE
8
DEFAULT_255_2_778
10
7.1916106
20
34.6452507
11
7.1916106
21
29.0353507
0
LINE
8
DEFAULT_255_2_778
10
7.1916106
20
29.0353507
11
7.1916106
21
23.4253507
0
LINE
8
DEFAULT_255_2_778
10
10.1727106
20
20.9240507
11
11.1416106
21
21.0943507
0
LINE
8
DEFAULT_255_2_778
10
9.7192106
20
41.5300507
11
9.7192106
21
41.5300507
0
LINE
8
DEFAULT_255_2_778
10
10.0631106
20
41.5300507
11
10.0631106
21
41.5300507
0
LINE
8
DEFAULT_255_2_778
10
13.5315106
20
40.1502507
11
13.5315106
21
42.9098507
0
LINE
8
DEFAULT_255_2_778
10
13.5315106
20
42.9098507
11
11.1416106
21
44.2896507
0
LINE
8
DEFAULT_255_2_778
10
11.1416106
20
44.2896507
11
8.7516106
21
42.9098507
0
LINE
8
DEFAULT_255_2_778
10
8.7516106
20
42.9098507
11
8.7516106
21
40.1502507
0
LINE
8
DEFAULT_255_2_778
10
8.7516106
20
40.1502507
11
11.1416106
21
38.7704507
0
LINE
8
DEFAULT_255_2_778
10
11.1416106
20
38.7704507
11
13.5315106
21
40.1502507
0
LINE
8
DEFAULT_255_2_778
10
9.7192106
20
16.5401507
11
9.7192106
21
16.5401507
0
LINE
8
DEFAULT_255_2_778
10
10.0631106
20
16.5401507
11
10.0631106
21
16.5401507
0
LINE
8
DEFAULT_255_2_778
10
13.5315106
20
15.1603507
11
13.5315106
21
17.9199507
0
LINE
8
DEFAULT_255_2_778
10
13.5315106
20
17.9199507
11
11.1416106
21
19.2997507
0
LINE
8
DEFAULT_255_2_778
10
11.1416106
20
19.2997507
11
8.7516106
21
17.9199507
0
LINE
8
DEFAULT_255_2_778
10
8.7516106
20
17.9199507
11
8.7516106
21
15.1603507
0
LINE
8
DEFAULT_255_2_778
10
8.7516106
20
15.1603507
11
11.1416106
21
13.7805507
0
LINE
8
DEFAULT_255_2_778
10
11.1416106
20
13.7805507
11
13.5315106
21
15.1603507
0
LINE
8
DEFAULT_255_2_778
10
14.6415106
20
58.4347507
11
14.6415106
21
61.2205507
0
LINE
8
DEFAULT_255_2_778
10
14.6415106
20
61.2205507
11
13.2273106
21
62.6347507
0
LINE
8
DEFAULT_255_2_778
10
13.2273106
20
62.6347507
11
10.6415106
21
62.6347507
0
LINE
8
DEFAULT_255_2_778
10
6.8416418
20
58.4346957
11
6.8416418
21
62.6346957
0
LINE
8
DEFAULT_255_2_778
10
6.8416418
20
62.6346957
11
10.6415418
21
62.6346957
0
LINE
8
DEFAULT_255_2_778
10
10.6415418
20
54.2346957
11
6.8416418
21
54.2346957
0
LINE
8
DEFAULT_255_2_778
10
6.8416418
20
54.2346957
11
6.8416418
21
58.4346957
0
LINE
8
DEFAULT_255_2_778
10
14.6415418
20
58.4346957
11
14.6415418
21
55.6488957
0
LINE
8
DEFAULT_255_2_778
10
14.6415418
20
55.6488957
11
13.2273418
21
54.2346957
0
LINE
8
DEFAULT_255_2_778
10
13.2273418
20
54.2346957
11
10.6415418
21
54.2346957
0
LINE
8
DEFAULT_255_2_778
10
9.0415646
20
58.4346791
11
9.0415646
21
61.1847791
0
LINE
8
DEFAULT_255_2_778
10
9.0415646
20
61.1847791
11
10.6414646
21
61.1847791
0
LINE
8
DEFAULT_255_2_778
10
12.2414646
20
58.4346791
11
12.2414646
21
61.1847791
0
LINE
8
DEFAULT_255_2_778
10
12.2414646
20
61.1847791
11
10.6414646
21
61.1847791
0
LINE
8
DEFAULT_255_2_778
10
10.6414646
20
55.6845791
11
9.0415646
21
55.6845791
0
LINE
8
DEFAULT_255_2_778
10
9.0415646
20
55.6845791
11
9.0415646
21
58.4346791
0
LINE
8
DEFAULT_255_2_778
10
12.2414646
20
58.4346791
11
12.2414646
21
55.6845791
0
LINE
8
DEFAULT_255_2_778
10
12.2414646
20
55.6845791
11
10.6414646
21
55.6845791
0
ARC
8
DEFAULT_255_2_778
10
5.1370633
20
104.8382497
40
2.2545229
50
359.9100005
51
21.7598393
0
ARC
8
DEFAULT_255_2_778
10
5.1466172
20
104.8393309
40
2.2452504
50
21.8245969
51
79.53818
0
ARC
8
DEFAULT_255_2_778
10
5.1427748
20
104.8049419
40
2.2797667
50
79.6001523
51
90.0299435
0
ARC
8
DEFAULT_255_2_778
10
5.1380484
20
104.8303243
40
2.2543868
50
89.9101572
51
111.7613949
0
ARC
8
DEFAULT_255_2_778
10
5.1370664
20
104.8396464
40
2.2453665
50
111.826312
51
169.5454888
0
ARC
8
DEFAULT_255_2_778
10
5.1710953
20
104.835897
40
2.2795122
50
169.6080143
51
180.0298779
0
ARC
8
DEFAULT_255_2_778
10
5.1369186
20
104.8311533
40
2.2546676
50
338.2408662
51
0.0903398
0
ARC
8
DEFAULT_255_2_778
10
5.1467067
20
104.8299966
40
2.2451496
50
280.4535565
51
338.1756829
0
ARC
8
DEFAULT_255_2_778
10
5.1427766
20
104.8646602
40
2.2799523
50
269.9700133
51
280.3926283
0
ARC
8
DEFAULT_255_2_778
10
5.138042
20
104.8392284
40
2.2545229
50
248.2401607
51
270.0899995
0
ARC
8
DEFAULT_255_2_778
10
5.1369608
20
104.8296745
40
2.2452504
50
190.46182
51
248.1754031
0
ARC
8
DEFAULT_255_2_778
10
5.1713498
20
104.8335169
40
2.2797667
50
179.9700565
51
190.3998477
0
ENDSEC
0
EOF