0
SECTION
2
HEADER
9
$MEASUREMENT
70
1
0
ENDSEC
0
SECTION
2
TABLES
0
TABLE
2
LTYPE
0
LTYPE
72
65
70
64
2
CONTINUOUS
3
______
73
0
40
0
0
ENDTAB
0
TABLE
2
LAYER
0
LAYER
2
DEFAULT_255_2_778
70
0
62
255
6
CONTINUOUS
0
ENDTAB
0
ENDSEC
0
SECTION
2
ENTITIES
0
ARC
8
DEFAULT_255_2_778
10
151.2409004
20
28.8315792
40
150.9855847
50
180.0001611
51
187.2282048
0
LINE
8
DEFAULT_255_2_778
10
0.2553157
20
28.8311546
11
0.2553157
21
28.8335309
0
LINE
8
DEFAULT_255_2_778
10
0.2553157
20
80.8355309
11
0.2553157
21
80.8379071
0
ARC
8
DEFAULT_255_2_778
10
151.2361556
20
80.8374822
40
150.98084
50
172.7716815
51
179.9998388
0
LINE
8
DEFAULT_255_2_778
10
1.4552157
20
99.8344309
11
28.3551157
21
99.8344309
0
LINE
8
DEFAULT_255_2_778
10
28.3551157
20
99.8344309
11
28.3551157
21
95.0589309
0
LINE
8
DEFAULT_255_2_778
10
28.3551157
20
95.0589309
11
31.5550157
21
91.0590309
0
LINE
8
DEFAULT_255_2_778
10
31.5550157
20
91.0590309
11
31.5550157
21
18.6097309
0
LINE
8
DEFAULT_255_2_778
10
31.5550157
20
18.6097309
11
28.3551157
21
14.6097309
0
LINE
8
DEFAULT_255_2_778
10
28.3551157
20
14.6097309
11
28.3551157
21
9.8343309
0
LINE
8
DEFAULT_255_2_778
10
28.3551157
20
9.8343309
11
1.4552157
21
9.8343309
0
LINE
8
DEFAULT_255_2_778
10
0.2553157
20
28.8335309
11
0.2553157
21
80.8355309
0
LINE
8
DEFAULT_255_2_778
10
61.0552157
20
10.3343309
11
61.0552157
21
9.8343309
0
LINE
8
DEFAULT_255_2_778
10
61.0552157
20
9.8343309
11
63.0552157
21
9.8343309
0
LINE
8
DEFAULT_255_2_778
10
63.0552157
20
9.8343309
11
63.0552157
21
10.3343309
0
LINE
8
DEFAULT_255_2_778
10
63.0552157
20
10.3343309
11
65.0552157
21
10.3343309
0
LINE
8
DEFAULT_255_2_778
10
65.0552157
20
10.3343309
11
65.0552157
21
9.8343309
0
LINE
8
DEFAULT_255_2_778
10
65.0552157
20
9.8343309
11
67.0552157
21
9.8343309
0
LINE
8
DEFAULT_255_2_778
10
67.0552157
20
9.8343309
11
67.0552157
21
10.3343309
0
LINE
8
DEFAULT_255_2_778
10
67.0552157
20
10.3343309
11
69.0552157
21
10.3343309
0
LINE
8
DEFAULT_255_2_778
10
69.0552157
20
10.3343309
11
69.0552157
21
9.8343309
0
LINE
8
DEFAULT_255_2_778
10
69.0552157
20
9.8343309
11
70.8551157
21
9.8343309
0
LINE
8
DEFAULT_255_2_778
10
70.8551157
20
9.8343309
11
70.8551157
21
-0.1656691
0
LINE
8
DEFAULT_255_2_778
10
70.8551157
20
-0.1656691
11
78.8551157
21
-0.1656691
0
LINE
8
DEFAULT_255_2_778
10
78.8551157
20
-0.1656691
11
78.8551157
21
37.3343309
0
LINE
8
DEFAULT_255_2_778
10
78.8551157
20
37.3343309
11
74.8551157
21
37.3343309
0
LINE
8
DEFAULT_255_2_778
10
74.8551157
20
37.3343309
11
74.8551157
21
72.8342309
0
LINE
8
DEFAULT_255_2_778
10
74.8551157
20
72.8342309
11
78.8551157
21
72.8342309
0
LINE
8
DEFAULT_255_2_778
10
75.055448
20
29.2343309
11
75.055448
21
20.6343309
0
LINE
8
DEFAULT_255_2_778
10
75.055448
20
20.6343309
11
72.255348
21
20.6343309
0
LINE
8
DEFAULT_255_2_778
10
72.255348
20
20.6343309
11
72.255348
21
29.2343309
0
LINE
8
DEFAULT_255_2_778
10
72.255348
20
29.2343309
11
75.055448
21
29.2343309
0
LINE
8
DEFAULT_255_2_778
10
0.255348
20
38.2343309
11
2.055348
21
38.2343309
0
LINE
8
DEFAULT_255_2_778
10
43.055148
20
9.8342309
11
43.055148
21
10.3343309
0
LINE
8
DEFAULT_255_2_778
10
43.055148
20
10.3343309
11
61.055048
21
10.3343309
0
LINE
8
DEFAULT_255_2_778
10
61.055048
20
10.3343309
11
43.055148
21
10.3343309
0
LINE
8
DEFAULT_255_2_778
10
43.055148
20
10.3343309
11
43.055148
21
9.8342309
0
LINE
8
DEFAULT_255_2_778
10
43.055148
20
9.8342309
11
41.055148
21
9.8342309
0
LINE
8
DEFAULT_255_2_778
10
41.055148
20
9.8342309
11
41.055148
21
10.3343309
0
LINE
8
DEFAULT_255_2_778
10
41.055148
20
10.3343309
11
39.055148
21
10.3343309
0
LINE
8
DEFAULT_255_2_778
10
39.055148
20
10.3343309
11
39.055148
21
9.8342309
0
LINE
8
DEFAULT_255_2_778
10
39.055148
20
9.8342309
11
37.055148
21
9.8342309
0
LINE
8
DEFAULT_255_2_778
10
37.055148
20
9.8342309
11
37.055148
21
10.3343309
0
LINE
8
DEFAULT_255_2_778
10
37.055148
20
10.3343309
11
35.055248
21
10.3343309
0
LINE
8
DEFAULT_255_2_778
10
35.055248
20
10.3343309
11
35.055248
21
9.8342309
0
LINE
8
DEFAULT_255_2_778
10
35.055248
20
9.8342309
11
28.855248
21
9.8342309
0
LINE
8
DEFAULT_255_2_778
10
28.855248
20
9.8342309
11
28.855248
21
14.4343309
0
LINE
8
DEFAULT_255_2_778
10
28.855248
20
14.4343309
11
32.055048
21
18.4343309
0
LINE
8
DEFAULT_255_2_778
10
32.055048
20
18.4343309
11
32.055048
21
91.2344309
0
LINE
8
DEFAULT_255_2_778
10
32.055048
20
91.2344309
11
28.855248
21
95.2343309
0
LINE
8
DEFAULT_255_2_778
10
28.855248
20
95.2343309
11
28.855248
21
99.8344309
0
LINE
8
DEFAULT_255_2_778
10
28.855248
20
99.8344309
11
35.055248
21
99.8344309
0
LINE
8
DEFAULT_255_2_778
10
35.055248
20
99.8344309
11
35.055248
21
99.3343309
0
LINE
8
DEFAULT_255_2_778
10
35.055248
20
99.3343309
11
37.055148
21
99.3343309
0
LINE
8
DEFAULT_255_2_778
10
37.055148
20
99.3343309
11
37.055148
21
99.8344309
0
LINE
8
DEFAULT_255_2_778
10
37.055148
20
99.8344309
11
39.055148
21
99.8344309
0
LINE
8
DEFAULT_255_2_778
10
39.055148
20
99.8344309
11
39.055148
21
99.3343309
0
LINE
8
DEFAULT_255_2_778
10
39.055148
20
99.3343309
11
41.055148
21
99.3343309
0
LINE
8
DEFAULT_255_2_778
10
41.055148
20
99.3343309
11
41.055148
21
99.8344309
0
LINE
8
DEFAULT_255_2_778
10
41.055148
20
99.8344309
11
43.055148
21
99.8344309
0
LINE
8
DEFAULT_255_2_778
10
43.055148
20
99.8344309
11
43.055148
21
99.3343309
0
LINE
8
DEFAULT_255_2_778
10
43.055148
20
99.3343309
11
61.055048
21
99.3343309
0
LINE
8
DEFAULT_255_2_778
10
61.055048
20
99.3343309
11
61.055048
21
99.8344309
0
LINE
8
DEFAULT_255_2_778
10
61.055048
20
99.8344309
11
63.054948
21
99.8344309
0
LINE
8
DEFAULT_255_2_778
10
63.054948
20
99.8344309
11
63.054948
21
99.3343309
0
LINE
8
DEFAULT_255_2_778
10
63.054948
20
99.3343309
11
65.054948
21
99.3343309
0
LINE
8
DEFAULT_255_2_778
10
65.054948
20
99.3343309
11
65.054948
21
99.8344309
0
LINE
8
DEFAULT_255_2_778
10
65.054948
20
99.8344309
11
67.054948
21
99.8344309
0
LINE
8
DEFAULT_255_2_778
10
67.054948
20
99.8344309
11
67.054948
21
99.3343309
0
LINE
8
DEFAULT_255_2_778
10
67.054948
20
99.3343309
11
69.054948
21
99.3343309
0
LINE
8
DEFAULT_255_2_778
10
69.054948
20
99.3343309
11
69.054948
21
99.8344309
0
LINE
8
DEFAULT_255_2_778
10
69.054948
20
99.8344309
11
70.854948
21
99.8344309
0
LINE
8
DEFAULT_255_2_778
10
70.854948
20
99.8344309
11
70.854948
21
109.8343309
0
LINE
8
DEFAULT_255_2_778
10
70.854948
20
109.8343309
11
78.854848
21
109.8343309
0
LINE
8
DEFAULT_255_2_778
10
78.854848
20
109.8343309
11
78.854848
21
70.3042309
0
LINE
8
DEFAULT_255_2_778
10
78.854848
20
70.3042309
11
76.854848
21
70.3042309
0
LINE
8
DEFAULT_255_2_778
10
76.854848
20
70.3042309
11
76.854848
21
72.8342309
0
LINE
8
DEFAULT_255_2_778
10
13.3054073
20
47.4842249
11
11.3054073
21
47.4842249
0
LINE
8
DEFAULT_255_2_778
10
11.3054073
20
47.4842249
11
11.3054073
21
42.0042249
0
LINE
8
DEFAULT_255_2_778
10
11.3054073
20
42.0042249
11
13.3054073
21
42.0042249
0
LINE
8
DEFAULT_255_2_778
10
13.3054073
20
42.0042249
11
13.3054073
21
47.4842249
0
LINE
8
DEFAULT_255_2_778
10
78.675174
20
37.3343555
11
77.055074
21
40.0344555
0
LINE
8
DEFAULT_255_2_778
10
77.055074
20
40.0344555
11
76.054974
21
40.0344555
0
LINE
8
DEFAULT_255_2_778
10
76.054974
20
40.0344555
11
75.854974
21
37.8344555
0
LINE
8
DEFAULT_255_2_778
10
74.855374
20
37.8344555
11
76.655274
21
37.8344555
0
LINE
8
DEFAULT_255_2_778
10
76.655274
20
37.8344555
11
76.655274
21
37.3343555
0
LINE
8
DEFAULT_255_2_778
10
75.055374
20
80.4344555
11
75.055374
21
89.0344555
0
LINE
8
DEFAULT_255_2_778
10
75.055374
20
89.0344555
11
72.255274
21
89.0344555
0
LINE
8
DEFAULT_255_2_778
10
72.255274
20
89.0344555
11
72.255274
21
80.4344555
0
LINE
8
DEFAULT_255_2_778
10
72.255274
20
80.4344555
11
75.055374
21
80.4344555
0
LINE
8
DEFAULT_255_2_778
10
2.055274
20
71.4343555
11
0.255274
21
71.4343555
0
LINE
8
DEFAULT_255_2_778
10
13.3054073
20
67.6643249
11
11.3054073
21
67.6643249
0
LINE
8
DEFAULT_255_2_778
10
11.3054073
20
67.6643249
11
11.3054073
21
62.1843249
0
LINE
8
DEFAULT_255_2_778
10
11.3054073
20
62.1843249
11
13.3054073
21
62.1843249
0
LINE
8
DEFAULT_255_2_778
10
13.3054073
20
62.1843249
11
13.3054073
21
67.6643249
0
ARC
8
DEFAULT_255_2_778
10
73.970306
20
67.8442963
40
1.4990444
50
306.1918131
51
343.2487528
0
ARC
8
DEFAULT_255_2_778
10
73.9696096
20
67.8452767
40
1.499994
50
343.2205611
51
359.992708
0
ARC
8
DEFAULT_255_2_778
10
73.9731369
20
67.8450813
40
1.4964667
50
0.0001715
51
6.5492254
0
ARC
8
DEFAULT_255_2_778
10
73.9666961
20
67.8442133
40
1.5029644
50
6.5540949
51
14.9957144
0
LINE
8
DEFAULT_255_2_778
10
75.4184773
20
68.2331005
11
74.8554773
21
70.3345005
0
LINE
8
DEFAULT_255_2_778
10
0.2553773
20
36.8345005
11
2.0553773
21
36.8345005
0
LINE
8
DEFAULT_255_2_778
10
2.0553773
20
36.8345005
11
2.0553773
21
39.1345005
0
LINE
8
DEFAULT_255_2_778
10
2.0553773
20
39.1345005
11
20.8552773
21
39.1345005
0
LINE
8
DEFAULT_255_2_778
10
20.8552773
20
39.1345005
11
20.8552773
21
70.5345005
0
LINE
8
DEFAULT_255_2_778
10
20.8552773
20
70.5345005
11
2.0553773
21
70.5345005
0
LINE
8
DEFAULT_255_2_778
10
2.0553773
20
70.5345005
11
2.0553773
21
72.8345005
0
LINE
8
DEFAULT_255_2_778
10
2.0553773
20
72.8345005
11
0.2553773
21
72.8345005
0
LINE
8
DEFAULT_255_2_778
10
0.2553346
20
39.2845589
11
18.7552346
21
39.2845589
0
LINE
8
DEFAULT_255_2_778
10
18.7552346
20
39.2845589
11
18.7552346
21
70.3844589
0
LINE
8
DEFAULT_255_2_778
10
18.7552346
20
70.3844589
11
0.2553346
21
70.3844589
0
LINE
8
DEFAULT_255_2_778
10
9.3054366
20
61.1843998
11
7.3054366
21
61.1843998
0
LINE
8
DEFAULT_255_2_778
10
7.3054366
20
61.1843998
11
7.3054366
21
48.4843998
0
LINE
8
DEFAULT_255_2_778
10
7.3054366
20
48.4843998
11
9.3054366
21
48.4843998
0
LINE
8
DEFAULT_255_2_778
10
9.3054366
20
48.4843998
11
9.3054366
21
61.1843998
0
LINE
8
DEFAULT_255_2_778
10
13.3053366
20
61.1843998
11
11.3053366
21
61.1843998
0
LINE
8
DEFAULT_255_2_778
10
11.3053366
20
61.1843998
11
11.3053366
21
48.4843998
0
LINE
8
DEFAULT_255_2_778
10
11.3053366
20
48.4843998
11
13.3053366
21
48.4843998
0
LINE
8
DEFAULT_255_2_778
10
13.3053366
20
48.4843998
11
13.3053366
21
61.1843998
0
LINE
8
DEFAULT_255_2_778
10
5.3054366
20
61.1843998
11
3.3054366
21
61.1843998
0
LINE
8
DEFAULT_255_2_778
10
3.3054366
20
61.1843998
11
3.3054366
21
48.4843998
0
LINE
8
DEFAULT_255_2_778
10
3.3054366
20
48.4843998
11
5.3054366
21
48.4843998
0
LINE
8
DEFAULT_255_2_778
10
5.3054366
20
48.4843998
11
5.3054366
21
61.1843998
0
LINE
8
DEFAULT_255_2_778
10
5.3054073
20
47.4842249
11
3.3054073
21
47.4842249
0
LINE
8
DEFAULT_255_2_778
10
3.3054073
20
47.4842249
11
3.3054073
21
42.0042249
0
LINE
8
DEFAULT_255_2_778
10
3.3054073
20
42.0042249
11
5.3054073
21
42.0042249
0
LINE
8
DEFAULT_255_2_778
10
5.3054073
20
42.0042249
11
5.3054073
21
47.4842249
0
LINE
8
DEFAULT_255_2_778
10
9.3053835
20
42.0042926
11
9.3053835
21
47.4842926
0
LINE
8
DEFAULT_255_2_778
10
9.3053835
20
47.4842926
11
7.3053835
21
47.4842926
0
LINE
8
DEFAULT_255_2_778
10
7.3053835
20
47.4842926
11
7.3053835
21
42.0042926
0
LINE
8
DEFAULT_255_2_778
10
7.3053835
20
42.0042926
11
9.3053835
21
42.0042926
0
LINE
8
DEFAULT_255_2_778
10
18.1553835
20
39.2842926
11
18.1553835
21
39.1342926
0
LINE
8
DEFAULT_255_2_778
10
16.0352835
20
39.1342926
11
16.0352835
21
39.2842926
0
LINE
8
DEFAULT_255_2_778
10
5.3054073
20
67.6643249
11
3.3054073
21
67.6643249
0
LINE
8
DEFAULT_255_2_778
10
3.3054073
20
67.6643249
11
3.3054073
21
62.1843249
0
LINE
8
DEFAULT_255_2_778
10
3.3054073
20
62.1843249
11
5.3054073
21
62.1843249
0
LINE
8
DEFAULT_255_2_778
10
5.3054073
20
62.1843249
11
5.3054073
21
67.6643249
0
LINE
8
DEFAULT_255_2_778
10
9.3053763
20
62.184255
11
9.3053763
21
67.664355
0
LINE
8
DEFAULT_255_2_778
10
9.3053763
20
67.664355
11
7.3053763
21
67.664355
0
LINE
8
DEFAULT_255_2_778
10
7.3053763
20
67.664355
11
7.3053763
21
62.184255
0
LINE
8
DEFAULT_255_2_778
10
7.3053763
20
62.184255
11
9.3053763
21
62.184255
0
LINE
8
DEFAULT_255_2_778
10
18.1553763
20
70.534555
11
18.1553763
21
70.384455
0
LINE
8
DEFAULT_255_2_778
10
16.0352763
20
70.384455
11
16.0352763
21
70.534555
0
LINE
8
DEFAULT_255_2_778
10
28.3553763
20
99.334455
11
28.8553763
21
99.334455
0
LINE
8
DEFAULT_255_2_778
10
28.8553763
20
99.734455
11
28.3553763
21
99.734455
0
LINE
8
DEFAULT_255_2_778
10
28.3553763
20
10.334355
11
28.8553763
21
10.334355
0
LINE
8
DEFAULT_255_2_778
10
28.3553763
20
9.934355
11
28.8553763
21
9.934355
0
ENDSEC
0
EOF