0
SECTION
2
HEADER
9
$MEASUREMENT
70
1
0
ENDSEC
0
SECTION
2
TABLES
0
TABLE
2
LTYPE
0
LTYPE
72
65
70
64
2
CONTINUOUS
3
______
73
0
40
0
0
ENDTAB
0
TABLE
2
LAYER
0
LAYER
2
DEFAULT_255_2_778
70
0
62
255
6
CONTINUOUS
0
ENDTAB
0
ENDSEC
0
SECTION
2
ENTITIES
0
LINE
8
DEFAULT_255_2_778
10
5.2802709
20
48.4843313
11
5.2802709
21
61.1843313
0
LINE
8
DEFAULT_255_2_778
10
5.2802709
20
61.1843313
11
3.2802709
21
61.1843313
0
LINE
8
DEFAULT_255_2_778
10
3.2802709
20
61.1843313
11
3.2802709
21
48.4843313
0
LINE
8
DEFAULT_255_2_778
10
3.2802709
20
48.4843313
11
5.2802709
21
48.4843313
0
LINE
8
DEFAULT_255_2_778
10
34.7302709
20
10.3343313
11
35.2302709
21
10.3343313
0
LINE
8
DEFAULT_255_2_778
10
20.5101709
20
39.2842313
11
20.5101709
21
39.0943313
0
LINE
8
DEFAULT_255_2_778
10
38.4301709
20
36.6593313
11
39.4302709
21
36.6593313
0
LINE
8
DEFAULT_255_2_778
10
39.4302709
20
36.6593313
11
39.4302709
21
31.1962313
0
LINE
8
DEFAULT_255_2_778
10
39.4302709
20
31.1962313
11
38.4301709
21
31.1962313
0
LINE
8
DEFAULT_255_2_778
10
69.4300709
20
9.8343313
11
69.4300709
21
10.3343313
0
LINE
8
DEFAULT_255_2_778
10
69.4300709
20
10.3343313
11
71.4300709
21
10.3343313
0
LINE
8
DEFAULT_255_2_778
10
71.4300709
20
10.3343313
11
71.4300709
21
9.8343313
0
LINE
8
DEFAULT_255_2_778
10
71.4300709
20
9.8343313
11
73.4300709
21
9.8343313
0
LINE
8
DEFAULT_255_2_778
10
73.4300709
20
9.8343313
11
73.4300709
21
10.3343313
0
LINE
8
DEFAULT_255_2_778
10
73.4300709
20
10.3343313
11
75.4300709
21
10.3343313
0
LINE
8
DEFAULT_255_2_778
10
75.4300709
20
10.3343313
11
75.4300709
21
9.8343313
0
LINE
8
DEFAULT_255_2_778
10
75.4300709
20
9.8343313
11
77.2299709
21
9.8343313
0
LINE
8
DEFAULT_255_2_778
10
77.2299709
20
9.8343313
11
77.2299709
21
-0.1656687
0
LINE
8
DEFAULT_255_2_778
10
77.2299709
20
-0.1656687
11
85.2299709
21
-0.1656687
0
LINE
8
DEFAULT_255_2_778
10
85.2299709
20
-0.1656687
11
85.2299709
21
37.3343313
0
LINE
8
DEFAULT_255_2_778
10
85.2299709
20
37.3343313
11
81.2299709
21
37.3343313
0
LINE
8
DEFAULT_255_2_778
10
81.2299709
20
37.3343313
11
81.2299709
21
72.8342313
0
LINE
8
DEFAULT_255_2_778
10
81.2299709
20
72.8342313
11
85.2299709
21
72.8342313
0
LINE
8
DEFAULT_255_2_778
10
81.2302709
20
38.1344313
11
83.0301709
21
38.1344313
0
LINE
8
DEFAULT_255_2_778
10
83.0301709
20
38.1344313
11
83.0301709
21
37.3343313
0
ARC
8
DEFAULT_255_2_778
10
80.345526
20
67.8441644
40
1.4986222
50
306.1802594
51
343.2948441
0
ARC
8
DEFAULT_255_2_778
10
80.3444194
20
67.8453048
40
1.50001
50
343.2652715
51
359.9928171
0
ARC
8
DEFAULT_255_2_778
10
80.3479798
20
67.8451158
40
1.4964495
50
0.0000375
51
6.5344783
0
ARC
8
DEFAULT_255_2_778
10
80.3415752
20
67.8442568
40
1.5029102
50
6.5392294
51
14.9957494
0
LINE
8
DEFAULT_255_2_778
10
85.230204
20
37.3342309
11
83.430204
21
40.3343309
0
LINE
8
DEFAULT_255_2_778
10
83.430204
20
40.3343309
11
82.430104
21
40.3343309
0
LINE
8
DEFAULT_255_2_778
10
82.430104
20
40.3343309
11
82.230104
21
38.1343309
0
LINE
8
DEFAULT_255_2_778
10
20.510204
20
70.5744309
11
20.510204
21
70.3844309
0
LINE
8
DEFAULT_255_2_778
10
38.430204
20
73.0091309
11
39.430304
21
73.0091309
0
LINE
8
DEFAULT_255_2_778
10
39.430304
20
73.0091309
11
39.430304
21
78.4722309
0
LINE
8
DEFAULT_255_2_778
10
39.430304
20
78.4722309
11
38.430204
21
78.4722309
0
LINE
8
DEFAULT_255_2_778
10
34.730204
20
99.3343309
11
35.230304
21
99.3343309
0
LINE
8
DEFAULT_255_2_778
10
83.229904
20
72.8342309
11
83.229904
21
70.3042309
0
LINE
8
DEFAULT_255_2_778
10
83.229904
20
70.3042309
11
85.229904
21
70.3042309
0
LINE
8
DEFAULT_255_2_778
10
85.229904
20
70.3042309
11
85.229904
21
109.8343309
0
LINE
8
DEFAULT_255_2_778
10
85.229904
20
109.8343309
11
77.230004
21
109.8343309
0
LINE
8
DEFAULT_255_2_778
10
77.230004
20
109.8343309
11
77.230004
21
99.8344309
0
LINE
8
DEFAULT_255_2_778
10
77.230004
20
99.8344309
11
75.430004
21
99.8344309
0
LINE
8
DEFAULT_255_2_778
10
75.430004
20
99.8344309
11
75.430004
21
99.3343309
0
LINE
8
DEFAULT_255_2_778
10
75.430004
20
99.3343309
11
73.430004
21
99.3343309
0
LINE
8
DEFAULT_255_2_778
10
73.430004
20
99.3343309
11
73.430004
21
99.8344309
0
LINE
8
DEFAULT_255_2_778
10
73.430004
20
99.8344309
11
71.430104
21
99.8344309
0
LINE
8
DEFAULT_255_2_778
10
71.430104
20
99.8344309
11
71.430104
21
99.3343309
0
LINE
8
DEFAULT_255_2_778
10
71.430104
20
99.3343309
11
69.430104
21
99.3343309
0
LINE
8
DEFAULT_255_2_778
10
69.430104
20
99.3343309
11
69.430104
21
99.8344309
0
LINE
8
DEFAULT_255_2_778
10
81.793304
20
68.2331309
11
81.230204
21
70.3344309
0
LINE
8
DEFAULT_255_2_778
10
69.430304
20
9.8342309
11
47.430204
21
9.8342309
0
LINE
8
DEFAULT_255_2_778
10
69.4303482
20
99.8344
11
47.4302482
21
99.8344
0
LINE
8
DEFAULT_255_2_778
10
13.2302073
20
67.6643249
11
11.2302073
21
67.6643249
0
LINE
8
DEFAULT_255_2_778
10
11.2302073
20
67.6643249
11
11.2302073
21
62.1843249
0
LINE
8
DEFAULT_255_2_778
10
11.2302073
20
62.1843249
11
13.2302073
21
62.1843249
0
LINE
8
DEFAULT_255_2_778
10
13.2302073
20
62.1843249
11
13.2302073
21
67.6643249
0
LINE
8
DEFAULT_255_2_778
10
17.2302073
20
67.6643249
11
15.2302073
21
67.6643249
0
LINE
8
DEFAULT_255_2_778
10
15.2302073
20
67.6643249
11
15.2302073
21
62.1843249
0
LINE
8
DEFAULT_255_2_778
10
15.2302073
20
62.1843249
11
17.2302073
21
62.1843249
0
LINE
8
DEFAULT_255_2_778
10
17.2302073
20
62.1843249
11
17.2302073
21
67.6643249
0
LINE
8
DEFAULT_255_2_778
10
5.2803073
20
67.6643249
11
3.2803073
21
67.6643249
0
LINE
8
DEFAULT_255_2_778
10
3.2803073
20
67.6643249
11
3.2803073
21
62.1843249
0
LINE
8
DEFAULT_255_2_778
10
3.2803073
20
62.1843249
11
5.2803073
21
62.1843249
0
LINE
8
DEFAULT_255_2_778
10
5.2803073
20
62.1843249
11
5.2803073
21
67.6643249
0
LINE
8
DEFAULT_255_2_778
10
9.2803073
20
67.6643249
11
7.2803073
21
67.6643249
0
LINE
8
DEFAULT_255_2_778
10
7.2803073
20
67.6643249
11
7.2803073
21
62.1843249
0
LINE
8
DEFAULT_255_2_778
10
7.2803073
20
62.1843249
11
9.2803073
21
62.1843249
0
LINE
8
DEFAULT_255_2_778
10
9.2803073
20
62.1843249
11
9.2803073
21
67.6643249
0
LINE
8
DEFAULT_255_2_778
10
9.2803073
20
47.4842249
11
7.2803073
21
47.4842249
0
LINE
8
DEFAULT_255_2_778
10
7.2803073
20
47.4842249
11
7.2803073
21
42.0042249
0
LINE
8
DEFAULT_255_2_778
10
7.2803073
20
42.0042249
11
9.2803073
21
42.0042249
0
LINE
8
DEFAULT_255_2_778
10
9.2803073
20
42.0042249
11
9.2803073
21
47.4842249
0
LINE
8
DEFAULT_255_2_778
10
5.2803073
20
42.0042249
11
5.2803073
21
47.4842249
0
LINE
8
DEFAULT_255_2_778
10
5.2803073
20
47.4842249
11
3.2803073
21
47.4842249
0
LINE
8
DEFAULT_255_2_778
10
3.2803073
20
47.4842249
11
3.2803073
21
42.0042249
0
LINE
8
DEFAULT_255_2_778
10
3.2803073
20
42.0042249
11
5.2803073
21
42.0042249
0
LINE
8
DEFAULT_255_2_778
10
13.2302073
20
47.4842249
11
11.2302073
21
47.4842249
0
LINE
8
DEFAULT_255_2_778
10
11.2302073
20
47.4842249
11
11.2302073
21
42.0042249
0
LINE
8
DEFAULT_255_2_778
10
11.2302073
20
42.0042249
11
13.2302073
21
42.0042249
0
LINE
8
DEFAULT_255_2_778
10
13.2302073
20
42.0042249
11
13.2302073
21
47.4842249
0
LINE
8
DEFAULT_255_2_778
10
17.2302073
20
47.4842249
11
15.2302073
21
47.4842249
0
LINE
8
DEFAULT_255_2_778
10
15.2302073
20
47.4842249
11
15.2302073
21
42.0042249
0
LINE
8
DEFAULT_255_2_778
10
15.2302073
20
42.0042249
11
17.2302073
21
42.0042249
0
LINE
8
DEFAULT_255_2_778
10
17.2302073
20
42.0042249
11
17.2302073
21
47.4842249
0
LINE
8
DEFAULT_255_2_778
10
17.2302105
20
61.1843621
11
15.2302105
21
61.1843621
0
LINE
8
DEFAULT_255_2_778
10
15.2302105
20
61.1843621
11
15.2302105
21
48.4843621
0
LINE
8
DEFAULT_255_2_778
10
15.2302105
20
48.4843621
11
17.2302105
21
48.4843621
0
LINE
8
DEFAULT_255_2_778
10
17.2302105
20
48.4843621
11
17.2302105
21
61.1843621
0
LINE
8
DEFAULT_255_2_778
10
23.5302105
20
39.0943621
11
23.5302105
21
70.5744621
0
LINE
8
DEFAULT_255_2_778
10
34.7303255
20
85.2590352
11
37.9301255
21
81.2591352
0
LINE
8
DEFAULT_255_2_778
10
37.9301255
20
81.2591352
11
37.9301255
21
28.4099352
0
LINE
8
DEFAULT_255_2_778
10
37.9301255
20
28.4099352
11
34.7303255
21
24.4099352
0
LINE
8
DEFAULT_255_2_778
10
34.7303255
20
24.4099352
11
34.7303255
21
9.8345352
0
LINE
8
DEFAULT_255_2_778
10
34.7303255
20
9.8345352
11
0.2302255
21
9.8345352
0
LINE
8
DEFAULT_255_2_778
10
0.2302255
20
9.8345352
11
0.2302255
21
99.8344352
0
LINE
8
DEFAULT_255_2_778
10
0.2302255
20
99.8344352
11
34.7303255
21
99.8344352
0
LINE
8
DEFAULT_255_2_778
10
34.7303255
20
99.8344352
11
34.7303255
21
85.2590352
0
LINE
8
DEFAULT_255_2_778
10
2.0301618
20
39.0943621
11
25.5492618
21
39.0943621
0
LINE
8
DEFAULT_255_2_778
10
25.5492618
20
39.0943621
11
25.5492618
21
70.5744621
0
LINE
8
DEFAULT_255_2_778
10
25.5492618
20
70.5744621
11
2.0301618
21
70.5744621
0
LINE
8
DEFAULT_255_2_778
10
13.2301251
20
61.1843998
11
11.2302251
21
61.1843998
0
LINE
8
DEFAULT_255_2_778
10
11.2302251
20
61.1843998
11
11.2302251
21
48.4843998
0
LINE
8
DEFAULT_255_2_778
10
11.2302251
20
48.4843998
11
13.2301251
21
48.4843998
0
LINE
8
DEFAULT_255_2_778
10
13.2301251
20
48.4843998
11
13.2301251
21
61.1843998
0
LINE
8
DEFAULT_255_2_778
10
9.2802251
20
61.1843998
11
7.2802251
21
61.1843998
0
LINE
8
DEFAULT_255_2_778
10
7.2802251
20
61.1843998
11
7.2802251
21
48.4843998
0
LINE
8
DEFAULT_255_2_778
10
7.2802251
20
48.4843998
11
9.2802251
21
48.4843998
0
LINE
8
DEFAULT_255_2_778
10
9.2802251
20
48.4843998
11
9.2802251
21
61.1843998
0
LINE
8
DEFAULT_255_2_778
10
0.2301611
20
36.8345675
11
2.0301611
21
36.8345675
0
LINE
8
DEFAULT_255_2_778
10
2.0301611
20
36.8345675
11
2.0301611
21
39.2845675
0
LINE
8
DEFAULT_255_2_778
10
2.0301611
20
39.2845675
11
23.2301611
21
39.2845675
0
LINE
8
DEFAULT_255_2_778
10
23.2301611
20
39.2845675
11
23.2301611
21
70.3844675
0
LINE
8
DEFAULT_255_2_778
10
23.2301611
20
70.3844675
11
2.0301611
21
70.3844675
0
LINE
8
DEFAULT_255_2_778
10
2.0301611
20
70.3844675
11
2.0301611
21
72.8345675
0
LINE
8
DEFAULT_255_2_778
10
2.0301611
20
72.8345675
11
0.2301611
21
72.8345675
0
LINE
8
DEFAULT_255_2_778
10
47.4302611
20
99.8344675
11
47.4302611
21
99.3343675
0
LINE
8
DEFAULT_255_2_778
10
47.4302611
20
99.3343675
11
45.4302611
21
99.3343675
0
LINE
8
DEFAULT_255_2_778
10
45.4302611
20
99.3343675
11
45.4302611
21
99.8344675
0
LINE
8
DEFAULT_255_2_778
10
45.4302611
20
99.8344675
11
43.4302611
21
99.8344675
0
LINE
8
DEFAULT_255_2_778
10
43.4302611
20
99.8344675
11
43.4302611
21
99.3343675
0
LINE
8
DEFAULT_255_2_778
10
43.4302611
20
99.3343675
11
41.4302611
21
99.3343675
0
LINE
8
DEFAULT_255_2_778
10
41.4302611
20
99.3343675
11
41.4302611
21
99.8344675
0
LINE
8
DEFAULT_255_2_778
10
41.4302611
20
99.8344675
11
35.2302611
21
99.8344675
0
LINE
8
DEFAULT_255_2_778
10
35.2302611
20
99.8344675
11
35.2302611
21
85.4345675
0
LINE
8
DEFAULT_255_2_778
10
35.2302611
20
85.4345675
11
38.4304611
21
81.4345675
0
LINE
8
DEFAULT_255_2_778
10
38.4304611
20
81.4345675
11
38.4304611
21
54.8346675
0
LINE
8
DEFAULT_255_2_778
10
47.4302611
20
9.8343675
11
47.4302611
21
10.3343675
0
LINE
8
DEFAULT_255_2_778
10
47.4302611
20
10.3343675
11
45.4302611
21
10.3343675
0
LINE
8
DEFAULT_255_2_778
10
45.4302611
20
10.3343675
11
45.4302611
21
9.8343675
0
LINE
8
DEFAULT_255_2_778
10
45.4302611
20
9.8343675
11
43.4302611
21
9.8343675
0
LINE
8
DEFAULT_255_2_778
10
43.4302611
20
9.8343675
11
43.4302611
21
10.3343675
0
LINE
8
DEFAULT_255_2_778
10
43.4302611
20
10.3343675
11
41.4302611
21
10.3343675
0
LINE
8
DEFAULT_255_2_778
10
41.4302611
20
10.3343675
11
41.4302611
21
9.8343675
0
LINE
8
DEFAULT_255_2_778
10
41.4302611
20
9.8343675
11
35.2302611
21
9.8343675
0
LINE
8
DEFAULT_255_2_778
10
35.2302611
20
9.8343675
11
35.2302611
21
24.2342675
0
LINE
8
DEFAULT_255_2_778
10
35.2302611
20
24.2342675
11
38.4304611
21
28.2342675
0
LINE
8
DEFAULT_255_2_778
10
38.4304611
20
28.2342675
11
38.4304611
21
54.8343675
0
ENDSEC
0
EOF