0
SECTION
2
HEADER
9
$MEASUREMENT
70
1
0
ENDSEC
0
SECTION
2
TABLES
0
TABLE
2
LTYPE
0
LTYPE
72
65
70
64
2
CONTINUOUS
3
______
73
0
40
0
0
ENDTAB
0
TABLE
2
LAYER
0
LAYER
2
DEFAULT_255_2_778
70
0
62
255
6
CONTINUOUS
0
ENDTAB
0
ENDSEC
0
SECTION
2
ENTITIES
0
LINE
8
DEFAULT_255_2_778
10
149.9414854
20
71.4645328
11
141.1414854
21
71.4645328
0
LINE
8
DEFAULT_255_2_778
10
141.1414854
20
71.4645328
11
141.1414854
21
38.2646328
0
LINE
8
DEFAULT_255_2_778
10
141.1414854
20
38.2646328
11
149.9414854
21
38.2646328
0
LINE
8
DEFAULT_255_2_778
10
149.9414854
20
38.2646328
11
149.9414854
21
71.4645328
0
LINE
8
DEFAULT_255_2_778
10
77.8816854
20
72.8845328
11
77.8816854
21
36.9845328
0
LINE
8
DEFAULT_255_2_778
10
77.8816854
20
36.9845328
11
87.8316854
21
36.9845328
0
LINE
8
DEFAULT_255_2_778
10
0.9154854
20
36.8842328
11
22.6414854
21
36.8842328
0
LINE
8
DEFAULT_255_2_778
10
22.6414854
20
36.8842328
11
22.6414854
21
69.0843328
0
LINE
8
DEFAULT_255_2_778
10
22.6414854
20
69.0843328
11
0.9154854
21
69.0843328
0
ARC
8
DEFAULT_255_2_778
10
5.1287332
20
104.8371748
40
5.0126874
50
359.9670756
51
13.6924625
0
ARC
8
DEFAULT_255_2_778
10
5.1649376
20
104.8424588
40
4.9762624
50
13.732025
51
34.6205008
0
ARC
8
DEFAULT_255_2_778
10
5.1312568
20
104.8238166
40
5.0145723
50
34.5771507
51
70.3692284
0
ARC
8
DEFAULT_255_2_778
10
5.1502485
20
104.8578659
40
4.9761259
50
70.4434798
51
85.6989767
0
ARC
8
DEFAULT_255_2_778
10
5.1413627
20
104.7640118
40
5.0703824
50
85.6783882
51
89.9970952
0
ARC
8
DEFAULT_255_2_778
10
5.138185
20
104.8220597
40
5.0123358
50
89.9607375
51
103.6883257
0
ARC
8
DEFAULT_255_2_778
10
5.132826
20
104.8585794
40
4.9755863
50
103.7278838
51
124.6204207
0
ARC
8
DEFAULT_255_2_778
10
5.1515262
20
104.8248535
40
5.0139661
50
124.5773176
51
160.3756931
0
ARC
8
DEFAULT_255_2_778
10
5.117913
20
104.8436668
40
4.975991
50
160.4497488
51
175.7069664
0
ARC
8
DEFAULT_255_2_778
10
5.2119823
20
104.8347698
40
5.0704627
50
175.6862845
51
180.0053733
0
ARC
8
DEFAULT_255_2_778
10
5.1536336
20
4.8310654
40
5.012115
50
179.9608021
51
193.6886287
0
ARC
8
DEFAULT_255_2_778
10
5.117389
20
4.825777
40
4.9756495
50
193.7282297
51
214.6203754
0
ARC
8
DEFAULT_255_2_778
10
5.1511619
20
4.8444933
40
5.0140772
50
214.5771201
51
250.374917
0
ARC
8
DEFAULT_255_2_778
10
5.1322531
20
4.8106443
40
4.9758479
50
250.4490919
51
265.706775
0
ARC
8
DEFAULT_255_2_778
10
5.141139
20
4.9045752
40
5.0701808
50
265.6861043
51
270.0054335
0
ARC
8
DEFAULT_255_2_778
10
5.145052
20
4.8465514
40
5.0121582
50
269.9607648
51
283.6888491
0
ARC
8
DEFAULT_255_2_778
10
5.1503676
20
4.8101986
40
4.9755814
50
283.728442
51
304.6211021
0
ARC
8
DEFAULT_255_2_778
10
5.1315872
20
4.8440506
40
5.0141106
50
304.5779318
51
340.3753607
0
ARC
8
DEFAULT_255_2_778
10
5.1654514
20
4.8251428
40
4.9758672
50
340.4494684
51
355.7067627
0
ARC
8
DEFAULT_255_2_778
10
5.0715779
20
4.8340194
40
5.0701421
50
355.6861485
51
0.0053671
0
LINE
8
DEFAULT_255_2_778
10
87.8316198
20
72.8842943
11
77.6816198
21
72.8842943
0
LINE
8
DEFAULT_255_2_778
10
77.6816198
20
72.8842943
11
77.6816198
21
36.7842943
0
LINE
8
DEFAULT_255_2_778
10
77.6816198
20
36.7842943
11
87.8316198
21
36.7842943
0
LINE
8
DEFAULT_255_2_778
10
150.1415198
20
71.5343943
11
141.1414198
21
71.5343943
0
LINE
8
DEFAULT_255_2_778
10
141.1414198
20
71.5343943
11
141.1414198
21
38.1343943
0
LINE
8
DEFAULT_255_2_778
10
141.1414198
20
38.1343943
11
150.1415198
21
38.1343943
0
LINE
8
DEFAULT_255_2_778
10
0.1415198
20
36.7143943
11
23.6415198
21
36.7143943
0
LINE
8
DEFAULT_255_2_778
10
23.6415198
20
36.7143943
11
23.6415198
21
69.3843943
0
LINE
8
DEFAULT_255_2_778
10
23.6415198
20
69.3843943
11
0.1415198
21
69.3843943
0
LINE
8
DEFAULT_255_2_778
10
46.0417198
20
12.9092943
11
45.5416198
21
12.9092943
0
LINE
8
DEFAULT_255_2_778
10
45.5416198
20
12.9092943
11
45.5416198
21
11.7593943
0
LINE
8
DEFAULT_255_2_778
10
45.5416198
20
11.7593943
11
46.0417198
21
11.7593943
0
LINE
8
DEFAULT_255_2_778
10
45.3916198
20
13.6344943
11
44.4415198
21
13.6344943
0
LINE
8
DEFAULT_255_2_778
10
44.4415198
20
13.6344943
11
44.4415198
21
9.9345943
0
LINE
8
DEFAULT_255_2_778
10
150.1415198
20
9.8342943
11
0.1415198
21
9.8342943
0
LINE
8
DEFAULT_255_2_778
10
10.1414198
20
99.8344943
11
10.1414198
21
104.8342943
0
LINE
8
DEFAULT_255_2_778
10
0.1415198
20
104.8342943
11
0.1415198
21
4.8344943
0
LINE
8
DEFAULT_255_2_778
10
10.1417198
20
4.8344943
11
10.1417198
21
9.8345943
0
LINE
8
DEFAULT_255_2_778
10
44.6415565
20
9.8343291
11
44.6415565
21
9.1342291
0
LINE
8
DEFAULT_255_2_778
10
44.6415565
20
9.1342291
11
42.6415565
21
9.1342291
0
LINE
8
DEFAULT_255_2_778
10
42.6415565
20
9.1342291
11
42.6415565
21
7.3343291
0
LINE
8
DEFAULT_255_2_778
10
42.6415565
20
7.3343291
11
39.6414565
21
5.1342291
0
LINE
8
DEFAULT_255_2_778
10
39.6414565
20
5.1342291
11
34.6413565
21
5.1342291
0
LINE
8
DEFAULT_255_2_778
10
34.6413565
20
5.1342291
11
31.6412565
21
7.3343291
0
LINE
8
DEFAULT_255_2_778
10
31.6412565
20
7.3343291
11
31.6412565
21
9.1342291
0
LINE
8
DEFAULT_255_2_778
10
31.6412565
20
9.1342291
11
29.6412565
21
9.1342291
0
LINE
8
DEFAULT_255_2_778
10
29.6412565
20
9.1342291
11
29.6412565
21
9.8343291
0
LINE
8
DEFAULT_255_2_778
10
145.7418229
20
9.9342808
11
43.4417229
21
9.9342808
0
LINE
8
DEFAULT_255_2_778
10
0.5416229
20
36.7143808
11
0.5416229
21
42.9844808
0
LINE
8
DEFAULT_255_2_778
10
0.5416229
20
42.9844808
11
2.5416229
21
42.9844808
0
LINE
8
DEFAULT_255_2_778
10
13.6416229
20
36.8844808
11
13.6416229
21
36.7143808
0
LINE
8
DEFAULT_255_2_778
10
45.3916732
20
29.4343255
11
45.3916732
21
9.9342255
0
LINE
8
DEFAULT_255_2_778
10
48.0414732
20
28.3405255
11
48.0414732
21
29.4343255
0
LINE
8
DEFAULT_255_2_778
10
28.0415732
20
44.5343255
11
30.2415732
21
44.5343255
0
LINE
8
DEFAULT_255_2_778
10
30.2415732
20
44.5343255
11
30.2415732
21
46.3343255
0
LINE
8
DEFAULT_255_2_778
10
30.2415732
20
46.3343255
11
28.0415732
21
46.3343255
0
LINE
8
DEFAULT_255_2_778
10
28.0415732
20
46.3343255
11
28.0415732
21
44.5343255
0
LINE
8
DEFAULT_255_2_778
10
30.2415948
20
55.1343802
11
30.2415948
21
56.9343802
0
LINE
8
DEFAULT_255_2_778
10
30.2415948
20
56.9343802
11
28.0415948
21
56.9343802
0
LINE
8
DEFAULT_255_2_778
10
28.0415948
20
56.9343802
11
28.0415948
21
55.1343802
0
LINE
8
DEFAULT_255_2_778
10
28.0415948
20
55.1343802
11
30.2415948
21
55.1343802
0
LINE
8
DEFAULT_255_2_778
10
30.2415948
20
49.8344802
11
30.2415948
21
51.6344802
0
LINE
8
DEFAULT_255_2_778
10
30.2415948
20
51.6344802
11
28.0415948
21
51.6344802
0
LINE
8
DEFAULT_255_2_778
10
28.0415948
20
51.6344802
11
28.0415948
21
49.8344802
0
LINE
8
DEFAULT_255_2_778
10
28.0415948
20
49.8344802
11
30.2415948
21
49.8344802
0
LINE
8
DEFAULT_255_2_778
10
49.2315
20
38.8845552
11
49.2315
21
40.2844552
0
LINE
8
DEFAULT_255_2_778
10
120.6415565
20
9.8343291
11
120.6415565
21
9.1342291
0
LINE
8
DEFAULT_255_2_778
10
120.6415565
20
9.1342291
11
118.6415565
21
9.1342291
0
LINE
8
DEFAULT_255_2_778
10
118.6415565
20
9.1342291
11
118.6415565
21
7.3343291
0
LINE
8
DEFAULT_255_2_778
10
118.6415565
20
7.3343291
11
115.6414565
21
5.1342291
0
LINE
8
DEFAULT_255_2_778
10
115.6414565
20
5.1342291
11
110.6413565
21
5.1342291
0
LINE
8
DEFAULT_255_2_778
10
110.6413565
20
5.1342291
11
107.6412565
21
7.3343291
0
LINE
8
DEFAULT_255_2_778
10
107.6412565
20
7.3343291
11
107.6412565
21
9.1342291
0
LINE
8
DEFAULT_255_2_778
10
107.6412565
20
9.1342291
11
105.6412565
21
9.1342291
0
LINE
8
DEFAULT_255_2_778
10
105.6412565
20
9.1342291
11
105.6412565
21
9.8343291
0
LINE
8
DEFAULT_255_2_778
10
60.5414521
20
35.1342927
11
57.1415521
21
35.1342927
0
LINE
8
DEFAULT_255_2_778
10
57.1415521
20
35.1342927
11
57.1415521
21
33.1342927
0
LINE
8
DEFAULT_255_2_778
10
57.1415521
20
33.1342927
11
60.5414521
21
33.1342927
0
LINE
8
DEFAULT_255_2_778
10
60.5414521
20
33.1342927
11
60.5414521
21
35.1342927
0
LINE
8
DEFAULT_255_2_778
10
68.1415521
20
35.1342927
11
64.7416521
21
35.1342927
0
LINE
8
DEFAULT_255_2_778
10
64.7416521
20
35.1342927
11
64.7416521
21
33.1342927
0
LINE
8
DEFAULT_255_2_778
10
64.7416521
20
33.1342927
11
68.1415521
21
33.1342927
0
LINE
8
DEFAULT_255_2_778
10
68.1415521
20
33.1342927
11
68.1415521
21
35.1342927
0
LINE
8
DEFAULT_255_2_778
10
75.7414521
20
35.1342927
11
72.3415521
21
35.1342927
0
LINE
8
DEFAULT_255_2_778
10
72.3415521
20
35.1342927
11
72.3415521
21
33.1342927
0
LINE
8
DEFAULT_255_2_778
10
72.3415521
20
33.1342927
11
75.7414521
21
33.1342927
0
LINE
8
DEFAULT_255_2_778
10
75.7414521
20
33.1342927
11
75.7414521
21
35.1342927
0
LINE
8
DEFAULT_255_2_778
10
83.3413521
20
35.1342927
11
79.9414521
21
35.1342927
0
LINE
8
DEFAULT_255_2_778
10
79.9414521
20
35.1342927
11
79.9414521
21
33.1342927
0
LINE
8
DEFAULT_255_2_778
10
79.9414521
20
33.1342927
11
83.3413521
21
33.1342927
0
LINE
8
DEFAULT_255_2_778
10
83.3413521
20
33.1342927
11
83.3413521
21
35.1342927
0
LINE
8
DEFAULT_255_2_778
10
62.2316
20
40.2844552
11
62.2316
21
38.8845552
0
LINE
8
DEFAULT_255_2_778
10
98.5414521
20
35.1342927
11
95.1415521
21
35.1342927
0
LINE
8
DEFAULT_255_2_778
10
95.1415521
20
35.1342927
11
95.1415521
21
33.1342927
0
LINE
8
DEFAULT_255_2_778
10
95.1415521
20
33.1342927
11
98.5414521
21
33.1342927
0
LINE
8
DEFAULT_255_2_778
10
98.5414521
20
33.1342927
11
98.5414521
21
35.1342927
0
LINE
8
DEFAULT_255_2_778
10
106.1415521
20
35.1342927
11
102.7416521
21
35.1342927
0
LINE
8
DEFAULT_255_2_778
10
102.7416521
20
35.1342927
11
102.7416521
21
33.1342927
0
LINE
8
DEFAULT_255_2_778
10
102.7416521
20
33.1342927
11
106.1415521
21
33.1342927
0
LINE
8
DEFAULT_255_2_778
10
106.1415521
20
33.1342927
11
106.1415521
21
35.1342927
0
LINE
8
DEFAULT_255_2_778
10
113.7414521
20
35.1342927
11
110.3415521
21
35.1342927
0
LINE
8
DEFAULT_255_2_778
10
110.3415521
20
35.1342927
11
110.3415521
21
33.1342927
0
LINE
8
DEFAULT_255_2_778
10
110.3415521
20
33.1342927
11
113.7414521
21
33.1342927
0
LINE
8
DEFAULT_255_2_778
10
113.7414521
20
33.1342927
11
113.7414521
21
35.1342927
0
LINE
8
DEFAULT_255_2_778
10
90.9415521
20
35.1342927
11
87.5416521
21
35.1342927
0
LINE
8
DEFAULT_255_2_778
10
87.5416521
20
35.1342927
11
87.5416521
21
33.1342927
0
LINE
8
DEFAULT_255_2_778
10
87.5416521
20
33.1342927
11
90.9415521
21
33.1342927
0
LINE
8
DEFAULT_255_2_778
10
90.9415521
20
33.1342927
11
90.9415521
21
35.1342927
0
LINE
8
DEFAULT_255_2_778
10
102.3414064
20
30.5344927
11
102.3414064
21
32.5344927
0
LINE
8
DEFAULT_255_2_778
10
102.3414064
20
32.5344927
11
98.9415064
21
32.5344927
0
LINE
8
DEFAULT_255_2_778
10
98.9415064
20
32.5344927
11
98.9415064
21
30.5344927
0
LINE
8
DEFAULT_255_2_778
10
98.9415064
20
30.5344927
11
102.3414064
21
30.5344927
0
LINE
8
DEFAULT_255_2_778
10
94.7415064
20
30.5344927
11
94.7415064
21
32.5344927
0
LINE
8
DEFAULT_255_2_778
10
94.7415064
20
32.5344927
11
91.3416064
21
32.5344927
0
LINE
8
DEFAULT_255_2_778
10
91.3416064
20
32.5344927
11
91.3416064
21
30.5344927
0
LINE
8
DEFAULT_255_2_778
10
91.3416064
20
30.5344927
11
94.7415064
21
30.5344927
0
LINE
8
DEFAULT_255_2_778
10
117.5414521
20
32.5344927
11
114.1415521
21
32.5344927
0
LINE
8
DEFAULT_255_2_778
10
114.1415521
20
32.5344927
11
114.1415521
21
30.5344927
0
LINE
8
DEFAULT_255_2_778
10
114.1415521
20
30.5344927
11
117.5414521
21
30.5344927
0
LINE
8
DEFAULT_255_2_778
10
117.5414521
20
30.5344927
11
117.5414521
21
32.5344927
0
LINE
8
DEFAULT_255_2_778
10
143.1417323
20
12.9092279
11
143.6418323
21
12.9092279
0
LINE
8
DEFAULT_255_2_778
10
143.6418323
20
12.9092279
11
143.6418323
21
11.7593279
0
LINE
8
DEFAULT_255_2_778
10
143.6418323
20
11.7593279
11
143.1417323
21
11.7593279
0
LINE
8
DEFAULT_255_2_778
10
143.7915323
20
29.4343279
11
143.7915323
21
9.9342279
0
LINE
8
DEFAULT_255_2_778
10
144.7416323
20
9.9345279
11
144.7416323
21
13.6344279
0
LINE
8
DEFAULT_255_2_778
10
144.7416323
20
13.6344279
11
143.7915323
21
13.6344279
0
ARC
8
DEFAULT_255_2_778
10
145.1539389
20
4.8310815
40
5.0123358
50
179.9607375
51
193.6883257
0
ARC
8
DEFAULT_255_2_778
10
145.1174192
20
4.8257225
40
4.9755863
50
193.7278838
51
214.6204207
0
ARC
8
DEFAULT_255_2_778
10
145.1511451
20
4.8444226
40
5.0139661
50
214.5773176
51
250.3756931
0
ARC
8
DEFAULT_255_2_778
10
145.1323318
20
4.8108095
40
4.975991
50
250.4497488
51
265.7069664
0
ARC
8
DEFAULT_255_2_778
10
145.1412288
20
4.9048788
40
5.0704627
50
265.6862845
51
270.0053733
0
ARC
8
DEFAULT_255_2_778
10
145.1451391
20
4.8467508
40
5.0123358
50
269.9607375
51
283.6883257
0
ARC
8
DEFAULT_255_2_778
10
145.1504981
20
4.8102312
40
4.9755863
50
283.7278838
51
304.6204207
0
ARC
8
DEFAULT_255_2_778
10
145.1317979
20
4.843957
40
5.0139661
50
304.5773176
51
340.3756931
0
ARC
8
DEFAULT_255_2_778
10
145.1654111
20
4.8251437
40
4.975991
50
340.4497488
51
355.7069664
0
ARC
8
DEFAULT_255_2_778
10
145.0713418
20
4.8340407
40
5.0704627
50
355.6862845
51
0.0053733
0
LINE
8
DEFAULT_255_2_778
10
140.1416043
20
9.8346162
11
140.1416043
21
4.8345162
0
LINE
8
DEFAULT_255_2_778
10
150.1418043
20
4.8345162
11
150.1418043
21
104.8250162
0
LINE
8
DEFAULT_255_2_778
10
141.8415
20
10.440774
11
141.8415
21
9.934674
0
LINE
8
DEFAULT_255_2_778
10
128.9415521
20
35.1342927
11
125.5416521
21
35.1342927
0
LINE
8
DEFAULT_255_2_778
10
125.5416521
20
35.1342927
11
125.5416521
21
33.1342927
0
LINE
8
DEFAULT_255_2_778
10
125.5416521
20
33.1342927
11
128.9415521
21
33.1342927
0
LINE
8
DEFAULT_255_2_778
10
128.9415521
20
33.1342927
11
128.9415521
21
35.1342927
0
LINE
8
DEFAULT_255_2_778
10
136.5414521
20
35.1342927
11
133.1415521
21
35.1342927
0
LINE
8
DEFAULT_255_2_778
10
133.1415521
20
35.1342927
11
133.1415521
21
33.1342927
0
LINE
8
DEFAULT_255_2_778
10
133.1415521
20
33.1342927
11
136.5414521
21
33.1342927
0
LINE
8
DEFAULT_255_2_778
10
136.5414521
20
33.1342927
11
136.5414521
21
35.1342927
0
LINE
8
DEFAULT_255_2_778
10
121.3413521
20
35.1342927
11
117.9414521
21
35.1342927
0
LINE
8
DEFAULT_255_2_778
10
117.9414521
20
35.1342927
11
117.9414521
21
33.1342927
0
LINE
8
DEFAULT_255_2_778
10
117.9414521
20
33.1342927
11
121.3413521
21
33.1342927
0
LINE
8
DEFAULT_255_2_778
10
121.3413521
20
33.1342927
11
121.3413521
21
35.1342927
0
LINE
8
DEFAULT_255_2_778
10
129.3415198
20
30.5345271
11
132.7414198
21
30.5345271
0
LINE
8
DEFAULT_255_2_778
10
132.7414198
20
30.5345271
11
132.7414198
21
32.5345271
0
LINE
8
DEFAULT_255_2_778
10
132.7414198
20
32.5345271
11
129.3415198
21
32.5345271
0
LINE
8
DEFAULT_255_2_778
10
129.3415198
20
32.5345271
11
129.3415198
21
30.5345271
0
LINE
8
DEFAULT_255_2_778
10
138.0415198
20
29.4343271
11
138.0415198
21
28.3405271
0
LINE
8
DEFAULT_255_2_778
10
136.9414198
20
30.5345271
11
140.3413198
21
30.5345271
0
LINE
8
DEFAULT_255_2_778
10
140.3413198
20
30.5345271
11
140.3413198
21
32.5345271
0
LINE
8
DEFAULT_255_2_778
10
140.3413198
20
32.5345271
11
136.9414198
21
32.5345271
0
LINE
8
DEFAULT_255_2_778
10
136.9414198
20
32.5345271
11
136.9414198
21
30.5345271
0
LINE
8
DEFAULT_255_2_778
10
149.9414198
20
39.1342271
11
150.1415198
21
39.1342271
0
LINE
8
DEFAULT_255_2_778
10
24.7414198
20
99.7381271
11
145.7414198
21
99.7381271
0
LINE
8
DEFAULT_255_2_778
10
150.1415198
20
99.8344271
11
0.1415198
21
99.8344271
0
LINE
8
DEFAULT_255_2_778
10
52.9415521
20
74.2344114
11
52.9415521
21
76.5344114
0
LINE
8
DEFAULT_255_2_778
10
52.9415521
20
76.5344114
11
49.5416521
21
76.5344114
0
LINE
8
DEFAULT_255_2_778
10
49.5416521
20
76.5344114
11
49.5416521
21
74.2344114
0
LINE
8
DEFAULT_255_2_778
10
49.5416521
20
74.2344114
11
52.9415521
21
74.2344114
0
LINE
8
DEFAULT_255_2_778
10
0.1415295
20
73.7044997
11
20.8414295
21
73.7044997
0
LINE
8
DEFAULT_255_2_778
10
20.8414295
20
73.7044997
11
20.8414295
21
97.8344997
0
LINE
8
DEFAULT_255_2_778
10
20.8414295
20
97.8344997
11
0.1415295
21
97.8344997
0
ARC
8
DEFAULT_255_2_778
10
1.377486
20
69.7296299
40
21.8453247
50
88.7310769
51
89.7007386
0
ARC
8
DEFAULT_255_2_778
10
1.3748345
20
69.3602207
40
22.2147428
50
89.6988763
51
90.0001933
0
ARC
8
DEFAULT_255_2_778
10
1.3769062
20
68.8098861
40
22.7650775
50
90.0054029
51
91.57184
0
LINE
8
DEFAULT_255_2_778
10
0.7524524
20
91.5663974
11
0.7418524
21
91.5645974
0
LINE
8
DEFAULT_255_2_778
10
0.7418524
20
91.5645974
11
0.7418524
21
79.9644974
0
LINE
8
DEFAULT_255_2_778
10
0.7418524
20
79.9644974
11
0.5418524
21
79.9644974
0
LINE
8
DEFAULT_255_2_778
10
0.5418524
20
79.9644974
11
0.5418524
21
73.8644974
0
LINE
8
DEFAULT_255_2_778
10
0.5418524
20
73.8644974
11
19.8418524
21
73.8644974
0
LINE
8
DEFAULT_255_2_778
10
19.8418524
20
73.8644974
11
19.8418524
21
97.6642974
0
LINE
8
DEFAULT_255_2_778
10
19.8418524
20
97.6642974
11
0.5415524
21
97.6642974
0
LINE
8
DEFAULT_255_2_778
10
0.5415524
20
69.3842974
11
0.5415524
21
62.9842974
0
LINE
8
DEFAULT_255_2_778
10
0.5415524
20
62.9842974
11
2.5415524
21
62.9842974
0
LINE
8
DEFAULT_255_2_778
10
2.1414962
20
69.0843422
11
2.1414962
21
69.3843422
0
LINE
8
DEFAULT_255_2_778
10
8.2414962
20
69.3843422
11
8.2414962
21
69.0843422
0
LINE
8
DEFAULT_255_2_778
10
0.5415962
20
97.8344422
11
0.5415962
21
91.5643422
0
LINE
8
DEFAULT_255_2_778
10
0.5415962
20
91.5643422
11
0.9156962
21
91.5762422
0
LINE
8
DEFAULT_255_2_778
10
0.9156962
20
91.5762422
11
2.5415962
21
91.5940422
0
LINE
8
DEFAULT_255_2_778
10
2.5415962
20
91.5940422
11
2.5171962
21
91.5696422
0
LINE
8
DEFAULT_255_2_778
10
2.5171962
20
91.5696422
11
2.5415962
21
91.5940422
0
LINE
8
DEFAULT_255_2_778
10
26.6916962
20
80.2343422
11
26.6916962
21
81.8343422
0
LINE
8
DEFAULT_255_2_778
10
26.6916962
20
81.8343422
11
25.8915962
21
81.8343422
0
LINE
8
DEFAULT_255_2_778
10
25.8915962
20
81.8343422
11
25.8915962
21
85.3345422
0
LINE
8
DEFAULT_255_2_778
10
25.8915962
20
85.3345422
11
26.6916962
21
85.3345422
0
LINE
8
DEFAULT_255_2_778
10
26.6916962
20
85.3345422
11
26.6916962
21
96.7343422
0
LINE
8
DEFAULT_255_2_778
10
26.6916962
20
96.7343422
11
25.7415962
21
96.7343422
0
LINE
8
DEFAULT_255_2_778
10
25.7415962
20
96.7343422
11
25.7415962
21
99.7344422
0
LINE
8
DEFAULT_255_2_778
10
28.0415962
20
60.4345422
11
30.2415962
21
60.4345422
0
LINE
8
DEFAULT_255_2_778
10
30.2415962
20
60.4345422
11
30.2415962
21
62.2345422
0
LINE
8
DEFAULT_255_2_778
10
30.2415962
20
62.2345422
11
28.0415962
21
62.2345422
0
LINE
8
DEFAULT_255_2_778
10
28.0415962
20
62.2345422
11
28.0415962
21
60.4345422
0
LINE
8
DEFAULT_255_2_778
10
30.2415948
20
65.7343802
11
30.2415948
21
67.5343802
0
LINE
8
DEFAULT_255_2_778
10
30.2415948
20
67.5343802
11
28.0415948
21
67.5343802
0
LINE
8
DEFAULT_255_2_778
10
28.0415948
20
67.5343802
11
28.0415948
21
65.7343802
0
LINE
8
DEFAULT_255_2_778
10
28.0415948
20
65.7343802
11
30.2415948
21
65.7343802
0
LINE
8
DEFAULT_255_2_778
10
30.2415948
20
71.0344802
11
30.2415948
21
72.8344802
0
LINE
8
DEFAULT_255_2_778
10
30.2415948
20
72.8344802
11
28.0415948
21
72.8344802
0
LINE
8
DEFAULT_255_2_778
10
28.0415948
20
72.8344802
11
28.0415948
21
71.0344802
0
LINE
8
DEFAULT_255_2_778
10
28.0415948
20
71.0344802
11
30.2415948
21
71.0344802
0
LINE
8
DEFAULT_255_2_778
10
37.7817046
20
70.094484
11
37.6817046
21
70.094484
0
LINE
8
DEFAULT_255_2_778
10
49.2316046
20
70.094484
11
49.2316046
21
70.784584
0
LINE
8
DEFAULT_255_2_778
10
27.1918046
20
84.044384
11
26.4917046
21
84.044384
0
LINE
8
DEFAULT_255_2_778
10
26.4917046
20
84.044384
11
26.4917046
21
85.044484
0
LINE
8
DEFAULT_255_2_778
10
26.4917046
20
85.044484
11
27.1918046
21
85.044484
0
LINE
8
DEFAULT_255_2_778
10
27.1918046
20
97.269584
11
26.6917046
21
97.269584
0
LINE
8
DEFAULT_255_2_778
10
26.6917046
20
97.269584
11
26.6917046
21
98.419484
0
LINE
8
DEFAULT_255_2_778
10
26.6917046
20
98.419484
11
27.1918046
21
98.419484
0
LINE
8
DEFAULT_255_2_778
10
19.2416046
20
97.664384
11
19.2416046
21
97.834484
0
LINE
8
DEFAULT_255_2_778
10
87.1415521
20
77.1343114
11
87.1415521
21
79.4343114
0
LINE
8
DEFAULT_255_2_778
10
87.1415521
20
79.4343114
11
83.7416521
21
79.4343114
0
LINE
8
DEFAULT_255_2_778
10
83.7416521
20
79.4343114
11
83.7416521
21
77.1343114
0
LINE
8
DEFAULT_255_2_778
10
83.7416521
20
77.1343114
11
87.1415521
21
77.1343114
0
LINE
8
DEFAULT_255_2_778
10
60.5414521
20
74.2344114
11
60.5414521
21
76.5344114
0
LINE
8
DEFAULT_255_2_778
10
60.5414521
20
76.5344114
11
57.1415521
21
76.5344114
0
LINE
8
DEFAULT_255_2_778
10
57.1415521
20
76.5344114
11
57.1415521
21
74.2344114
0
LINE
8
DEFAULT_255_2_778
10
57.1415521
20
74.2344114
11
60.5414521
21
74.2344114
0
LINE
8
DEFAULT_255_2_778
10
56.7414521
20
77.1343114
11
56.7414521
21
79.4343114
0
LINE
8
DEFAULT_255_2_778
10
56.7414521
20
79.4343114
11
53.3415521
21
79.4343114
0
LINE
8
DEFAULT_255_2_778
10
53.3415521
20
79.4343114
11
53.3415521
21
77.1343114
0
LINE
8
DEFAULT_255_2_778
10
53.3415521
20
77.1343114
11
56.7414521
21
77.1343114
0
LINE
8
DEFAULT_255_2_778
10
62.2316
20
70.7845167
11
62.2316
21
70.0945167
0
LINE
8
DEFAULT_255_2_778
10
64.3413521
20
77.1343114
11
64.3413521
21
79.4343114
0
LINE
8
DEFAULT_255_2_778
10
64.3413521
20
79.4343114
11
60.9414521
21
79.4343114
0
LINE
8
DEFAULT_255_2_778
10
60.9414521
20
79.4343114
11
60.9414521
21
77.1343114
0
LINE
8
DEFAULT_255_2_778
10
60.9414521
20
77.1343114
11
64.3413521
21
77.1343114
0
LINE
8
DEFAULT_255_2_778
10
64.7416521
20
74.2344114
11
68.1415521
21
74.2344114
0
LINE
8
DEFAULT_255_2_778
10
68.1415521
20
74.2344114
11
68.1415521
21
76.5344114
0
LINE
8
DEFAULT_255_2_778
10
68.1415521
20
76.5344114
11
64.7416521
21
76.5344114
0
LINE
8
DEFAULT_255_2_778
10
64.7416521
20
76.5344114
11
64.7416521
21
74.2344114
0
LINE
8
DEFAULT_255_2_778
10
79.5414521
20
77.1343114
11
79.5414521
21
79.4343114
0
LINE
8
DEFAULT_255_2_778
10
79.5414521
20
79.4343114
11
76.1415521
21
79.4343114
0
LINE
8
DEFAULT_255_2_778
10
76.1415521
20
79.4343114
11
76.1415521
21
77.1343114
0
LINE
8
DEFAULT_255_2_778
10
76.1415521
20
77.1343114
11
79.5414521
21
77.1343114
0
LINE
8
DEFAULT_255_2_778
10
73.7816938
20
70.0945
11
73.6816938
21
70.0945
0
LINE
8
DEFAULT_255_2_778
10
68.5416521
20
77.1343114
11
71.9415521
21
77.1343114
0
LINE
8
DEFAULT_255_2_778
10
71.9415521
20
77.1343114
11
71.9415521
21
79.4343114
0
LINE
8
DEFAULT_255_2_778
10
71.9415521
20
79.4343114
11
68.5416521
21
79.4343114
0
LINE
8
DEFAULT_255_2_778
10
68.5416521
20
79.4343114
11
68.5416521
21
77.1343114
0
LINE
8
DEFAULT_255_2_778
10
72.3415521
20
74.2344114
11
75.7414521
21
74.2344114
0
LINE
8
DEFAULT_255_2_778
10
75.7414521
20
74.2344114
11
75.7414521
21
76.5344114
0
LINE
8
DEFAULT_255_2_778
10
75.7414521
20
76.5344114
11
72.3415521
21
76.5344114
0
LINE
8
DEFAULT_255_2_778
10
72.3415521
20
76.5344114
11
72.3415521
21
74.2344114
0
LINE
8
DEFAULT_255_2_778
10
79.9414521
20
74.2344114
11
83.3413521
21
74.2344114
0
LINE
8
DEFAULT_255_2_778
10
83.3413521
20
74.2344114
11
83.3413521
21
76.5344114
0
LINE
8
DEFAULT_255_2_778
10
83.3413521
20
76.5344114
11
79.9414521
21
76.5344114
0
LINE
8
DEFAULT_255_2_778
10
79.9414521
20
76.5344114
11
79.9414521
21
74.2344114
0
LINE
8
DEFAULT_255_2_778
10
102.3413521
20
77.1343114
11
102.3413521
21
79.4343114
0
LINE
8
DEFAULT_255_2_778
10
102.3413521
20
79.4343114
11
98.9414521
21
79.4343114
0
LINE
8
DEFAULT_255_2_778
10
98.9414521
20
79.4343114
11
98.9414521
21
77.1343114
0
LINE
8
DEFAULT_255_2_778
10
98.9414521
20
77.1343114
11
102.3413521
21
77.1343114
0
LINE
8
DEFAULT_255_2_778
10
94.7414521
20
77.1343114
11
94.7414521
21
79.4343114
0
LINE
8
DEFAULT_255_2_778
10
94.7414521
20
79.4343114
11
91.3415521
21
79.4343114
0
LINE
8
DEFAULT_255_2_778
10
91.3415521
20
79.4343114
11
91.3415521
21
77.1343114
0
LINE
8
DEFAULT_255_2_778
10
91.3415521
20
77.1343114
11
94.7414521
21
77.1343114
0
LINE
8
DEFAULT_255_2_778
10
87.5416521
20
74.2344114
11
90.9415521
21
74.2344114
0
LINE
8
DEFAULT_255_2_778
10
90.9415521
20
74.2344114
11
90.9415521
21
76.5344114
0
LINE
8
DEFAULT_255_2_778
10
90.9415521
20
76.5344114
11
87.5416521
21
76.5344114
0
LINE
8
DEFAULT_255_2_778
10
87.5416521
20
76.5344114
11
87.5416521
21
74.2344114
0
LINE
8
DEFAULT_255_2_778
10
95.1415521
20
74.2344114
11
98.5414521
21
74.2344114
0
LINE
8
DEFAULT_255_2_778
10
98.5414521
20
74.2344114
11
98.5414521
21
76.5344114
0
LINE
8
DEFAULT_255_2_778
10
98.5414521
20
76.5344114
11
95.1415521
21
76.5344114
0
LINE
8
DEFAULT_255_2_778
10
95.1415521
20
76.5344114
11
95.1415521
21
74.2344114
0
LINE
8
DEFAULT_255_2_778
10
109.9415521
20
77.1343114
11
109.9415521
21
79.4343114
0
LINE
8
DEFAULT_255_2_778
10
109.9415521
20
79.4343114
11
106.5416521
21
79.4343114
0
LINE
8
DEFAULT_255_2_778
10
106.5416521
20
79.4343114
11
106.5416521
21
77.1343114
0
LINE
8
DEFAULT_255_2_778
10
106.5416521
20
77.1343114
11
109.9415521
21
77.1343114
0
LINE
8
DEFAULT_255_2_778
10
102.7416521
20
74.2344114
11
106.1415521
21
74.2344114
0
LINE
8
DEFAULT_255_2_778
10
106.1415521
20
74.2344114
11
106.1415521
21
76.5344114
0
LINE
8
DEFAULT_255_2_778
10
106.1415521
20
76.5344114
11
102.7416521
21
76.5344114
0
LINE
8
DEFAULT_255_2_778
10
102.7416521
20
76.5344114
11
102.7416521
21
74.2344114
0
LINE
8
DEFAULT_255_2_778
10
114.1415521
20
77.1343114
11
117.5414521
21
77.1343114
0
LINE
8
DEFAULT_255_2_778
10
117.5414521
20
77.1343114
11
117.5414521
21
79.4343114
0
LINE
8
DEFAULT_255_2_778
10
117.5414521
20
79.4343114
11
114.1415521
21
79.4343114
0
LINE
8
DEFAULT_255_2_778
10
114.1415521
20
79.4343114
11
114.1415521
21
77.1343114
0
LINE
8
DEFAULT_255_2_778
10
110.3415521
20
74.2344114
11
113.7414521
21
74.2344114
0
LINE
8
DEFAULT_255_2_778
10
113.7414521
20
74.2344114
11
113.7414521
21
76.5344114
0
LINE
8
DEFAULT_255_2_778
10
113.7414521
20
76.5344114
11
110.3415521
21
76.5344114
0
LINE
8
DEFAULT_255_2_778
10
110.3415521
20
76.5344114
11
110.3415521
21
74.2344114
0
LINE
8
DEFAULT_255_2_778
10
136.5414521
20
74.2344114
11
136.5414521
21
76.5344114
0
LINE
8
DEFAULT_255_2_778
10
136.5414521
20
76.5344114
11
133.1415521
21
76.5344114
0
LINE
8
DEFAULT_255_2_778
10
133.1415521
20
76.5344114
11
133.1415521
21
74.2344114
0
LINE
8
DEFAULT_255_2_778
10
133.1415521
20
74.2344114
11
136.5414521
21
74.2344114
0
LINE
8
DEFAULT_255_2_778
10
128.9415521
20
74.2344114
11
128.9415521
21
76.5344114
0
LINE
8
DEFAULT_255_2_778
10
128.9415521
20
76.5344114
11
125.5416521
21
76.5344114
0
LINE
8
DEFAULT_255_2_778
10
125.5416521
20
76.5344114
11
125.5416521
21
74.2344114
0
LINE
8
DEFAULT_255_2_778
10
125.5416521
20
74.2344114
11
128.9415521
21
74.2344114
0
LINE
8
DEFAULT_255_2_778
10
121.7416521
20
77.1343114
11
125.1415521
21
77.1343114
0
LINE
8
DEFAULT_255_2_778
10
125.1415521
20
77.1343114
11
125.1415521
21
79.4343114
0
LINE
8
DEFAULT_255_2_778
10
125.1415521
20
79.4343114
11
121.7416521
21
79.4343114
0
LINE
8
DEFAULT_255_2_778
10
121.7416521
20
79.4343114
11
121.7416521
21
77.1343114
0
LINE
8
DEFAULT_255_2_778
10
117.9414521
20
74.2344114
11
121.3413521
21
74.2344114
0
LINE
8
DEFAULT_255_2_778
10
121.3413521
20
74.2344114
11
121.3413521
21
76.5344114
0
LINE
8
DEFAULT_255_2_778
10
121.3413521
20
76.5344114
11
117.9414521
21
76.5344114
0
LINE
8
DEFAULT_255_2_778
10
117.9414521
20
76.5344114
11
117.9414521
21
74.2344114
0
LINE
8
DEFAULT_255_2_778
10
129.3415521
20
77.1343114
11
132.7414521
21
77.1343114
0
LINE
8
DEFAULT_255_2_778
10
132.7414521
20
77.1343114
11
132.7414521
21
79.4343114
0
LINE
8
DEFAULT_255_2_778
10
132.7414521
20
79.4343114
11
129.3415521
21
79.4343114
0
LINE
8
DEFAULT_255_2_778
10
129.3415521
20
79.4343114
11
129.3415521
21
77.1343114
0
LINE
8
DEFAULT_255_2_778
10
140.3413448
20
79.4342725
11
136.9414448
21
79.4342725
0
LINE
8
DEFAULT_255_2_778
10
136.9414448
20
79.4342725
11
136.9414448
21
77.1342725
0
LINE
8
DEFAULT_255_2_778
10
136.9414448
20
77.1342725
11
140.3413448
21
77.1342725
0
LINE
8
DEFAULT_255_2_778
10
140.3413448
20
77.1342725
11
140.3413448
21
79.4342725
0
LINE
8
DEFAULT_255_2_778
10
150.1415448
20
70.5345725
11
149.9415448
21
70.5345725
0
LINE
8
DEFAULT_255_2_778
10
144.7416448
20
99.7344725
11
144.7416448
21
96.7343725
0
LINE
8
DEFAULT_255_2_778
10
144.7416448
20
96.7343725
11
143.7915448
21
96.7343725
0
LINE
8
DEFAULT_255_2_778
10
143.7915448
20
96.7343725
11
143.7915448
21
85.3342725
0
LINE
8
DEFAULT_255_2_778
10
143.7915448
20
85.3342725
11
144.5916448
21
85.3342725
0
LINE
8
DEFAULT_255_2_778
10
144.5916448
20
85.3342725
11
144.5916448
21
81.8343725
0
LINE
8
DEFAULT_255_2_778
10
144.5916448
20
81.8343725
11
143.7915448
21
81.8343725
0
LINE
8
DEFAULT_255_2_778
10
143.7915448
20
81.8343725
11
143.7915448
21
80.2343725
0
LINE
8
DEFAULT_255_2_778
10
143.2914448
20
84.0443725
11
143.9915448
21
84.0443725
0
LINE
8
DEFAULT_255_2_778
10
143.9915448
20
84.0443725
11
143.9915448
21
85.0445725
0
LINE
8
DEFAULT_255_2_778
10
143.9915448
20
85.0445725
11
143.2914448
21
85.0445725
0
LINE
8
DEFAULT_255_2_778
10
143.2914448
20
97.2695725
11
143.7915448
21
97.2695725
0
LINE
8
DEFAULT_255_2_778
10
143.7915448
20
97.2695725
11
143.7915448
21
98.4194725
0
LINE
8
DEFAULT_255_2_778
10
143.7915448
20
98.4194725
11
143.2914448
21
98.4194725
0
LINE
8
DEFAULT_255_2_778
10
0.5416448
20
79.9645725
11
0.9157448
21
79.9526725
0
LINE
8
DEFAULT_255_2_778
10
0.9157448
20
79.9526725
11
2.5416448
21
79.9348725
0
LINE
8
DEFAULT_255_2_778
10
2.5416448
20
79.9348725
11
2.5172448
21
79.9592725
0
LINE
8
DEFAULT_255_2_778
10
2.5172448
20
79.9592725
11
1.8613448
21
79.9592725
0
LINE
8
DEFAULT_255_2_778
10
1.8613448
20
79.9592725
11
1.8613448
21
91.5696725
0
LINE
8
DEFAULT_255_2_778
10
1.8613448
20
91.5696725
11
2.5172448
21
91.5696725
0
LINE
8
DEFAULT_255_2_778
10
2.5172448
20
91.5696725
11
2.5172448
21
79.9592725
0
LINE
8
DEFAULT_255_2_778
10
0.7416068
20
79.9645317
11
0.7522068
21
79.9626317
0
LINE
8
DEFAULT_255_2_778
10
0.7522068
20
79.9626317
11
1.8611068
21
79.9595317
0
LINE
8
DEFAULT_255_2_778
10
103.8315068
20
36.7842317
11
113.7814068
21
36.7842317
0
LINE
8
DEFAULT_255_2_778
10
113.7814068
20
36.7842317
11
113.7814068
21
71.0843317
0
LINE
8
DEFAULT_255_2_778
10
113.7814068
20
71.0843317
11
111.9814068
21
72.8843317
0
LINE
8
DEFAULT_255_2_778
10
111.9814068
20
72.8843317
11
103.8315068
21
72.8843317
0
LINE
8
DEFAULT_255_2_778
10
103.8315073
20
36.9845391
11
113.7814073
21
36.9845391
0
LINE
8
DEFAULT_255_2_778
10
113.7814073
20
36.9845391
11
113.7814073
21
70.8845391
0
LINE
8
DEFAULT_255_2_778
10
113.7814073
20
70.8845391
11
111.7814073
21
72.8845391
0
LINE
8
DEFAULT_255_2_778
10
47.7313073
20
72.8842391
11
37.6814073
21
72.8842391
0
LINE
8
DEFAULT_255_2_778
10
37.6814073
20
72.8842391
11
37.6814073
21
36.7842391
0
LINE
8
DEFAULT_255_2_778
10
37.6814073
20
36.7842391
11
47.7313073
21
36.7842391
0
LINE
8
DEFAULT_255_2_778
10
47.7312995
20
72.7845068
11
37.7813995
21
72.7845068
0
LINE
8
DEFAULT_255_2_778
10
37.7813995
20
72.7845068
11
37.7813995
21
36.8845068
0
LINE
8
DEFAULT_255_2_778
10
37.7813995
20
36.8845068
11
47.7312995
21
36.8845068
0
LINE
8
DEFAULT_255_2_778
10
63.7314995
20
36.7842068
11
73.7813995
21
36.7842068
0
LINE
8
DEFAULT_255_2_778
10
73.7813995
20
36.7842068
11
73.7813995
21
71.0842068
0
LINE
8
DEFAULT_255_2_778
10
73.7813995
20
71.0842068
11
71.9813995
21
72.8842068
0
LINE
8
DEFAULT_255_2_778
10
71.9813995
20
72.8842068
11
63.7314995
21
72.8842068
0
LINE
8
DEFAULT_255_2_778
10
63.7315056
20
36.8844943
11
73.6814056
21
36.8844943
0
LINE
8
DEFAULT_255_2_778
10
73.6814056
20
36.8844943
11
73.6814056
21
70.7844943
0
LINE
8
DEFAULT_255_2_778
10
73.6814056
20
70.7844943
11
71.6814056
21
72.7844943
0
LINE
8
DEFAULT_255_2_778
10
71.6814056
20
72.7844943
11
63.7315056
21
72.7844943
0
LINE
8
DEFAULT_255_2_778
10
65.7317056
20
38.8844943
11
45.7316056
21
38.8844943
0
LINE
8
DEFAULT_255_2_778
10
63.7315353
20
38.8844981
11
63.7315353
21
36.1843981
0
LINE
8
DEFAULT_255_2_778
10
63.7315353
20
36.1843981
11
47.7316353
21
36.1843981
0
LINE
8
DEFAULT_255_2_778
10
47.7316353
20
36.1843981
11
47.7316353
21
38.8844981
0
LINE
8
DEFAULT_255_2_778
10
65.7317353
20
36.8844981
11
65.7317353
21
40.2843981
0
LINE
8
DEFAULT_255_2_778
10
65.7317353
20
40.2843981
11
45.7316353
21
40.2843981
0
LINE
8
DEFAULT_255_2_778
10
45.7316353
20
40.2843981
11
45.7316353
21
36.8844981
0
LINE
8
DEFAULT_255_2_778
10
43.4416353
20
29.9343981
11
145.7417353
21
29.9343981
0
LINE
8
DEFAULT_255_2_778
10
145.7417353
20
29.4343981
11
43.4416353
21
29.4343981
0
LINE
8
DEFAULT_255_2_778
10
48.0414353
20
9.9345981
11
48.0414353
21
10.4406981
0
LINE
8
DEFAULT_255_2_778
10
51.8416353
20
9.9345981
11
51.8416353
21
10.4406981
0
LINE
8
DEFAULT_255_2_778
10
2.5416353
20
36.8841981
11
2.5416353
21
69.0842981
0
LINE
8
DEFAULT_255_2_778
10
0.7416353
20
62.9842981
11
0.7416353
21
42.9841981
0
LINE
8
DEFAULT_255_2_778
10
1.8611353
20
42.9841981
11
1.8611353
21
62.9842981
0
LINE
8
DEFAULT_255_2_778
10
2.1415353
20
36.7143981
11
2.1415353
21
36.8844981
0
LINE
8
DEFAULT_255_2_778
10
2.2415353
20
36.8844981
11
2.2415353
21
36.7143981
0
LINE
8
DEFAULT_255_2_778
10
46.0417353
20
28.1844981
11
45.3916353
21
28.1844981
0
LINE
8
DEFAULT_255_2_778
10
45.3916353
20
26.8842981
11
46.0417353
21
26.8842981
0
LINE
8
DEFAULT_255_2_778
10
22.0416353
20
36.7143981
11
22.0416353
21
36.8844981
0
LINE
8
DEFAULT_255_2_778
10
21.0415353
20
36.7143981
11
21.0415353
21
36.8844981
0
LINE
8
DEFAULT_255_2_778
10
37.7817353
20
42.7343981
11
37.6817353
21
42.7343981
0
LINE
8
DEFAULT_255_2_778
10
37.6817353
20
41.2342981
11
37.7817353
21
41.2342981
0
LINE
8
DEFAULT_255_2_778
10
145.7417353
20
9.8342981
11
145.7417353
21
35.9343981
0
LINE
8
DEFAULT_255_2_778
10
145.7417353
20
35.9343981
11
43.4416353
21
35.9343981
0
LINE
8
DEFAULT_255_2_778
10
43.4416353
20
35.9343981
11
43.4416353
21
9.8342981
0
LINE
8
DEFAULT_255_2_778
10
59.4616353
20
9.9345981
11
59.4616353
21
10.4406981
0
LINE
8
DEFAULT_255_2_778
10
58.2416353
20
10.4406981
11
58.2416353
21
9.9345981
0
LINE
8
DEFAULT_255_2_778
10
67.0615353
20
9.9345981
11
67.0615353
21
10.4406981
0
LINE
8
DEFAULT_255_2_778
10
65.8415353
20
10.4406981
11
65.8415353
21
9.9345981
0
LINE
8
DEFAULT_255_2_778
10
74.6614353
20
9.9345981
11
74.6614353
21
10.4406981
0
LINE
8
DEFAULT_255_2_778
10
73.4414353
20
10.4406981
11
73.4414353
21
9.9345981
0
LINE
8
DEFAULT_255_2_778
10
82.2616353
20
9.9345981
11
82.2616353
21
10.4406981
0
LINE
8
DEFAULT_255_2_778
10
81.0416353
20
10.4406981
11
81.0416353
21
9.9345981
0
LINE
8
DEFAULT_255_2_778
10
89.8615353
20
9.9345981
11
89.8615353
21
10.4406981
0
LINE
8
DEFAULT_255_2_778
10
88.6415353
20
10.4406981
11
88.6415353
21
9.9345981
0
LINE
8
DEFAULT_255_2_778
10
97.4616353
20
9.9345981
11
97.4616353
21
10.4406981
0
LINE
8
DEFAULT_255_2_778
10
96.2416353
20
10.4406981
11
96.2416353
21
9.9345981
0
LINE
8
DEFAULT_255_2_778
10
105.0615353
20
9.9345981
11
105.0615353
21
10.4406981
0
LINE
8
DEFAULT_255_2_778
10
103.8415353
20
10.4406981
11
103.8415353
21
9.9345981
0
LINE
8
DEFAULT_255_2_778
10
112.6617353
20
9.9345981
11
112.6617353
21
10.4406981
0
LINE
8
DEFAULT_255_2_778
10
111.4417353
20
10.4406981
11
111.4417353
21
9.9345981
0
LINE
8
DEFAULT_255_2_778
10
73.7816754
20
42.734402
11
73.6816754
21
42.734402
0
LINE
8
DEFAULT_255_2_778
10
73.6816754
20
41.234202
11
73.7816754
21
41.234202
0
LINE
8
DEFAULT_255_2_778
10
105.8316754
20
38.984202
11
85.8315754
21
38.984202
0
LINE
8
DEFAULT_255_2_778
10
103.831456
20
38.9845183
11
103.831456
21
36.2844183
0
LINE
8
DEFAULT_255_2_778
10
103.831456
20
36.2844183
11
87.831656
21
36.2844183
0
LINE
8
DEFAULT_255_2_778
10
87.831656
20
36.2844183
11
87.831656
21
38.9845183
0
LINE
8
DEFAULT_255_2_778
10
105.831756
20
36.9845183
11
105.831756
21
40.3844183
0
LINE
8
DEFAULT_255_2_778
10
105.831756
20
40.3844183
11
85.831656
21
40.3844183
0
LINE
8
DEFAULT_255_2_778
10
85.831656
20
40.3844183
11
85.831656
21
36.9845183
0
LINE
8
DEFAULT_255_2_778
10
120.261656
20
9.9346183
11
120.261656
21
10.4407183
0
LINE
8
DEFAULT_255_2_778
10
119.041556
20
10.4407183
11
119.041556
21
9.9346183
0
LINE
8
DEFAULT_255_2_778
10
127.861556
20
9.9346183
11
127.861556
21
10.4407183
0
LINE
8
DEFAULT_255_2_778
10
126.641456
20
10.4407183
11
126.641456
21
9.9346183
0
LINE
8
DEFAULT_255_2_778
10
135.461656
20
9.9346183
11
135.461656
21
10.4407183
0
LINE
8
DEFAULT_255_2_778
10
134.241656
20
10.4407183
11
134.241656
21
9.9346183
0
LINE
8
DEFAULT_255_2_778
10
143.141456
20
26.8843183
11
143.791556
21
26.8843183
0
LINE
8
DEFAULT_255_2_778
10
143.7915316
20
28.1845202
11
143.1414316
21
28.1845202
0
LINE
8
DEFAULT_255_2_778
10
148.5415316
20
38.1344202
11
148.5415316
21
38.2643202
0
LINE
8
DEFAULT_255_2_778
10
148.1415316
20
38.1344202
11
148.1415316
21
38.2643202
0
LINE
8
DEFAULT_255_2_778
10
65.7317316
20
70.0945202
11
45.7316316
21
70.0945202
0
LINE
8
DEFAULT_255_2_778
10
65.7317316
20
70.7842202
11
45.7316316
21
70.7842202
0
LINE
8
DEFAULT_255_2_778
10
63.7315316
20
70.7842202
11
63.7315316
21
73.4843202
0
LINE
8
DEFAULT_255_2_778
10
63.7315316
20
73.4843202
11
47.7316316
21
73.4843202
0
LINE
8
DEFAULT_255_2_778
10
47.7316316
20
73.4843202
11
47.7316316
21
70.7842202
0
LINE
8
DEFAULT_255_2_778
10
65.7317798
20
72.7844842
11
65.7317798
21
69.3845842
0
LINE
8
DEFAULT_255_2_778
10
65.7317798
20
69.3845842
11
45.7316798
21
69.3845842
0
LINE
8
DEFAULT_255_2_778
10
45.7316798
20
69.3845842
11
45.7316798
21
72.7844842
0
LINE
8
DEFAULT_255_2_778
10
145.7414798
20
79.7342842
11
24.7414798
21
79.7342842
0
LINE
8
DEFAULT_255_2_778
10
24.7414798
20
80.2343842
11
145.7414798
21
80.2343842
0
LINE
8
DEFAULT_255_2_778
10
24.7413551
20
74.0344246
11
145.7414551
21
74.0344246
0
LINE
8
DEFAULT_255_2_778
10
145.7414551
20
74.0344246
11
145.7414551
21
99.8344246
0
LINE
8
DEFAULT_255_2_778
10
6.1414551
20
73.8642246
11
6.1414551
21
73.7042246
0
LINE
8
DEFAULT_255_2_778
10
0.5415551
20
73.8642246
11
0.5444551
21
73.7042246
0
LINE
8
DEFAULT_255_2_778
10
2.1388551
20
73.7042246
11
2.1417551
21
73.8642246
0
LINE
8
DEFAULT_255_2_778
10
2.2414551
20
73.8642246
11
2.2414551
21
73.7042246
0
LINE
8
DEFAULT_255_2_778
10
1.0850551
20
87.2643246
11
1.0850551
21
84.2642246
0
LINE
8
DEFAULT_255_2_778
10
0.9664551
20
84.2642246
11
0.9664551
21
87.2643246
0
LINE
8
DEFAULT_255_2_778
10
2.5415551
20
97.6643246
11
2.5415551
21
73.8642246
0
LINE
8
DEFAULT_255_2_778
10
0.7897551
20
84.2642246
11
1.5157551
21
84.2642246
0
LINE
8
DEFAULT_255_2_778
10
0.7898223
20
87.2643767
11
1.5158223
21
87.2643767
0
LINE
8
DEFAULT_255_2_778
10
2.1416223
20
97.6643767
11
2.1386223
21
97.8344767
0
LINE
8
DEFAULT_255_2_778
10
2.2416223
20
97.8344767
11
2.2416223
21
97.6643767
0
LINE
8
DEFAULT_255_2_778
10
22.0417223
20
69.0842767
11
22.0417223
21
69.3843767
0
LINE
8
DEFAULT_255_2_778
10
21.0415223
20
69.0842767
11
21.0415223
21
69.3843767
0
LINE
8
DEFAULT_255_2_778
10
24.7415223
20
73.6343767
11
33.8916223
21
73.6343767
0
LINE
8
DEFAULT_255_2_778
10
24.7414722
20
99.8344658
11
24.7414722
21
38.9845658
0
LINE
8
DEFAULT_255_2_778
10
24.7414722
20
38.9845658
11
33.8915722
21
38.9845658
0
LINE
8
DEFAULT_255_2_778
10
33.8915722
20
38.9845658
11
33.8915722
21
74.0344658
0
LINE
8
DEFAULT_255_2_778
10
19.2415722
20
73.7042658
11
19.2415722
21
73.8642658
0
LINE
8
DEFAULT_255_2_778
10
14.1414722
20
73.7042658
11
14.1414722
21
73.8642658
0
LINE
8
DEFAULT_255_2_778
10
37.6816722
20
59.1843658
11
37.7817722
21
59.1843658
0
LINE
8
DEFAULT_255_2_778
10
37.6816722
20
56.7343658
11
37.7817722
21
56.7343658
0
LINE
8
DEFAULT_255_2_778
10
27.1915261
20
83.2942663
11
25.8916261
21
83.2942663
0
LINE
8
DEFAULT_255_2_778
10
25.8916261
20
81.9943663
11
27.1915261
21
81.9943663
0
LINE
8
DEFAULT_255_2_778
10
73.6817261
20
59.1843663
11
73.7817261
21
59.1843663
0
LINE
8
DEFAULT_255_2_778
10
73.6817261
20
56.7343663
11
73.7817261
21
56.7343663
0
LINE
8
DEFAULT_255_2_778
10
103.8315261
20
70.8842663
11
103.8315261
21
73.5843663
0
LINE
8
DEFAULT_255_2_778
10
103.8315261
20
73.5843663
11
87.8316261
21
73.5843663
0
LINE
8
DEFAULT_255_2_778
10
87.8316261
20
73.5843663
11
87.8316261
21
70.8842663
0
LINE
8
DEFAULT_255_2_778
10
105.8317261
20
72.8844663
11
105.8317261
21
69.4845663
0
LINE
8
DEFAULT_255_2_778
10
105.8317261
20
69.4845663
11
85.8316261
21
69.4845663
0
LINE
8
DEFAULT_255_2_778
10
85.8316261
20
69.4845663
11
85.8316261
21
72.8844663
0
ARC
8
DEFAULT_255_2_778
10
5.138092
20
104.8299312
40
2.2543868
50
89.9101572
51
111.7613949
0
ARC
8
DEFAULT_255_2_778
10
5.13711
20
104.8392533
40
2.2453665
50
111.826312
51
169.5454888
0
ARC
8
DEFAULT_255_2_778
10
5.1711389
20
104.8355039
40
2.2795122
50
169.6080143
51
180.0298779
0
ARC
8
DEFAULT_255_2_778
10
5.1380857
20
104.8388353
40
2.2545229
50
248.2401607
51
270.0899995
0
ARC
8
DEFAULT_255_2_778
10
5.1370044
20
104.8292814
40
2.2452504
50
190.46182
51
248.1754031
0
ARC
8
DEFAULT_255_2_778
10
5.1713934
20
104.8331238
40
2.2797667
50
179.9700565
51
190.3998477
0
ARC
8
DEFAULT_255_2_778
10
5.1451756
20
104.8297866
40
2.2545315
50
68.2393107
51
90.0901832
0
ARC
8
DEFAULT_255_2_778
10
5.1462325
20
104.8393418
40
2.2452669
50
10.452684
51
68.1739611
0
ARC
8
DEFAULT_255_2_778
10
5.1118988
20
104.8355028
40
2.2797285
50
359.9701533
51
10.3910176
0
ARC
8
DEFAULT_255_2_778
10
5.145182
20
104.83898
40
2.2546676
50
269.9096602
51
291.7591338
0
ARC
8
DEFAULT_255_2_778
10
5.1463387
20
104.8291919
40
2.2451496
50
291.8243171
51
349.5464435
0
ARC
8
DEFAULT_255_2_778
10
5.1116751
20
104.833122
40
2.2799523
50
349.6073717
51
0.0299867
0
ARC
8
DEFAULT_255_2_778
10
5.146011
20
4.8380502
40
2.2543868
50
158.2386051
51
180.0898428
0
ARC
8
DEFAULT_255_2_778
10
5.136689
20
4.8390322
40
2.2453665
50
100.4545112
51
158.173688
0
ARC
8
DEFAULT_255_2_778
10
5.1404383
20
4.8050033
40
2.2795122
50
89.9701221
51
100.3919857
0
ARC
8
DEFAULT_255_2_778
10
5.1371069
20
4.8380566
40
2.2545229
50
359.9100005
51
21.7598393
0
ARC
8
DEFAULT_255_2_778
10
5.1466609
20
4.8391378
40
2.2452504
50
21.8245969
51
79.53818
0
ARC
8
DEFAULT_255_2_778
10
5.1428185
20
4.8047488
40
2.2797667
50
79.6001523
51
90.0299435
0
ARC
8
DEFAULT_255_2_778
10
5.1369622
20
4.8309602
40
2.2546676
50
338.2408662
51
0.0903398
0
ARC
8
DEFAULT_255_2_778
10
5.1467503
20
4.8298035
40
2.2451496
50
280.4535565
51
338.1756829
0
ARC
8
DEFAULT_255_2_778
10
5.1428203
20
4.8644671
40
2.2799523
50
269.9700133
51
280.3926283
0
ARC
8
DEFAULT_255_2_778
10
5.1461557
20
4.8309666
40
2.2545315
50
179.9098168
51
201.7606893
0
ARC
8
DEFAULT_255_2_778
10
5.1366005
20
4.8299097
40
2.2452669
50
201.8260389
51
259.547316
0
ARC
8
DEFAULT_255_2_778
10
5.1404395
20
4.8642434
40
2.2797285
50
259.6089824
51
270.0298467
0
ARC
8
DEFAULT_255_2_778
10
145.6477437
20
4.8316485
40
2.2437852
50
337.8029373
51
0.0732012
0
ARC
8
DEFAULT_255_2_778
10
145.6397441
20
4.837121
40
2.2532603
50
280.2397401
51
337.7509448
0
ARC
8
DEFAULT_255_2_778
10
145.6424005
20
4.8488583
40
2.2643433
50
269.9753667
51
280.1207988
0
ARC
8
DEFAULT_255_2_778
10
144.6355752
20
4.8316446
40
2.24395
50
179.9267041
51
202.1952373
0
ARC
8
DEFAULT_255_2_778
10
144.6432986
20
4.8369779
40
2.2531168
50
202.2466166
51
259.7599784
0
ARC
8
DEFAULT_255_2_778
10
144.6406521
20
4.8488043
40
2.2642893
50
259.8790806
51
270.0246708
0
LINE
8
DEFAULT_255_2_778
10
105.831727
20
70.8843152
11
85.831627
21
70.8843152
0
LINE
8
DEFAULT_255_2_778
10
148.541527
20
71.4642152
11
148.541527
21
71.5344152
0
LINE
8
DEFAULT_255_2_778
10
148.141527
20
71.4642152
11
148.141527
21
71.5344152
0
LINE
8
DEFAULT_255_2_778
10
144.591327
20
83.2943152
11
143.291427
21
83.2943152
0
LINE
8
DEFAULT_255_2_778
10
143.291427
20
81.9944152
11
144.591327
21
81.9944152
0
LINE
8
DEFAULT_255_2_778
10
145.641427
20
2.5845152
11
145.141427
21
2.5845152
0
LINE
8
DEFAULT_255_2_778
10
144.641627
20
2.5845152
11
145.141727
21
2.5845152
0
ARC
8
DEFAULT_255_2_778
10
145.6476897
20
4.8373505
40
2.2438099
50
359.9268356
51
22.196844
0
ARC
8
DEFAULT_255_2_778
10
145.639729
20
4.8319153
40
2.253235
50
22.2483356
51
79.7586841
0
ARC
8
DEFAULT_255_2_778
10
145.6424696
20
4.8204553
40
2.2640302
50
79.8785003
51
90.024595
0
ARC
8
DEFAULT_255_2_778
10
144.6353811
20
4.837352
40
2.2437852
50
157.8029373
51
180.0732012
0
ARC
8
DEFAULT_255_2_778
10
144.6433806
20
4.8318795
40
2.2532603
50
100.2397401
51
157.7509448
0
ARC
8
DEFAULT_255_2_778
10
144.6407242
20
4.8201423
40
2.2643433
50
89.9753667
51
100.1207988
0
LINE
8
DEFAULT_255_2_778
10
145.1413978
20
109.8330853
11
145.1438018
21
109.8330859
0
ARC
8
DEFAULT_255_2_778
10
145.1473064
20
104.8254622
40
5.0076249
50
76.3092157
51
90.0400988
0
ARC
8
DEFAULT_255_2_778
10
145.1533388
20
104.8648643
40
4.9679158
50
55.0620995
51
76.2692557
0
ARC
8
DEFAULT_255_2_778
10
145.1300585
20
104.8264741
40
5.0127202
50
20.3295386
51
55.0952587
0
ARC
8
DEFAULT_255_2_778
10
145.1490763
20
104.8389047
40
4.9905708
50
5.0889314
51
20.2715703
0
ARC
8
DEFAULT_255_2_778
10
145.0477543
20
104.82819
40
5.0924442
50
359.9922072
51
5.1078904
0
ARC
8
DEFAULT_255_2_778
10
142.8679069
20
104.8281004
40
7.2722914
50
359.9762454
51
359.995249
0
LINE
8
DEFAULT_255_2_778
10
145.1413978
20
109.8330853
11
145.1389938
21
109.8330859
0
ARC
8
DEFAULT_255_2_778
10
145.1354869
20
104.8258918
40
5.0071953
50
89.9598719
51
103.6919729
0
ARC
8
DEFAULT_255_2_778
10
145.1294764
20
104.8652397
40
4.9675441
50
103.7320417
51
124.9408473
0
ARC
8
DEFAULT_255_2_778
10
145.1531547
20
104.8263484
40
5.012987
50
124.9081128
51
159.6731734
0
ARC
8
DEFAULT_255_2_778
10
145.1346582
20
104.8385417
40
4.9914092
50
159.7306684
51
174.9116847
0
ARC
8
DEFAULT_255_2_778
10
145.2359821
20
104.8278237
40
5.0932848
50
174.8926821
51
180.0078415
0
ARC
8
DEFAULT_255_2_778
10
145.3532576
20
104.8276374
40
5.2105602
50
180.0056163
51
180.0280632
0
ARC
8
DEFAULT_255_2_778
10
144.6386189
20
104.8431358
40
2.2411516
50
89.9212882
51
112.5639424
0
ARC
8
DEFAULT_255_2_778
10
144.6473187
20
104.8317889
40
2.2549711
50
112.657443
51
167.7893439
0
ARC
8
DEFAULT_255_2_778
10
144.6787161
20
104.8272509
40
2.2866191
50
167.8446059
51
180.0384265
0
ARC
8
DEFAULT_255_2_778
10
143.4779262
20
104.8254843
40
1.0858287
50
179.9877051
51
180.036886
0
LINE
8
DEFAULT_255_2_778
10
145.6414978
20
7.0844853
11
145.1413978
21
7.0844853
0
LINE
8
DEFAULT_255_2_778
10
144.6416978
20
7.0844853
11
145.1416978
21
7.0844853
0
LINE
8
DEFAULT_255_2_778
10
140.1415978
20
99.8344853
11
140.1426978
21
104.8250853
0
LINE
8
DEFAULT_255_2_778
10
145.1416978
20
107.0842853
11
144.6416978
21
107.0842853
0
ARC
8
DEFAULT_255_2_778
10
144.6389357
20
104.8306286
40
2.2461191
50
247.8292288
51
270.0687505
0
ARC
8
DEFAULT_255_2_778
10
144.6393487
20
104.8329609
40
2.248435
50
188.0686042
51
247.841909
0
ARC
8
DEFAULT_255_2_778
10
144.6303717
20
104.8235552
40
2.238241
50
179.9862235
51
187.8624678
0
ARC
8
DEFAULT_255_2_778
10
143.4453397
20
104.8243228
40
1.053209
50
179.9625515
51
180.0124825
0
ARC
8
DEFAULT_255_2_778
10
145.6445956
20
104.8435436
40
2.2407696
50
67.4331913
51
90.078364
0
ARC
8
DEFAULT_255_2_778
10
145.6356773
20
104.8317182
40
2.2551152
50
12.211596
51
67.3392538
0
ARC
8
DEFAULT_255_2_778
10
145.6046306
20
104.8272711
40
2.286401
50
359.9617091
51
12.1559479
0
ARC
8
DEFAULT_255_2_778
10
146.805289
20
104.8255101
40
1.085742
50
359.963114
51
0.0122949
0
ARC
8
DEFAULT_255_2_778
10
145.6445493
20
104.8301467
40
2.2456372
50
269.9306396
51
292.4738165
0
ARC
8
DEFAULT_255_2_778
10
145.6440191
20
104.8329773
40
2.2484556
50
292.4587288
51
351.8500345
0
ARC
8
DEFAULT_255_2_778
10
145.6539078
20
104.8234895
40
2.2373363
50
352.0546547
51
359.8033666
0
LINE
8
DEFAULT_255_2_778
10
145.1417308
20
102.5845112
11
144.6416308
21
102.5845112
0
LINE
8
DEFAULT_255_2_778
10
145.1414308
20
107.0843112
11
145.6415308
21
107.0843112
0
LINE
8
DEFAULT_255_2_778
10
145.1417308
20
102.5845112
11
145.6418308
21
102.5845112
0
LINE
8
DEFAULT_255_2_778
10
27.1915308
20
99.7381112
11
27.1915308
21
81.8380112
0
LINE
8
DEFAULT_255_2_778
10
27.1915308
20
81.8380112
11
76.3416308
21
81.8380112
0
LINE
8
DEFAULT_255_2_778
10
76.3416308
20
81.8380112
11
76.3416308
21
83.8380112
0
LINE
8
DEFAULT_255_2_778
10
76.3416308
20
83.8380112
11
78.6416308
21
83.8380112
0
LINE
8
DEFAULT_255_2_778
10
78.6416308
20
83.8380112
11
78.6416308
21
81.8380112
0
LINE
8
DEFAULT_255_2_778
10
78.6416308
20
81.8380112
11
143.2915308
21
81.8380112
0
LINE
8
DEFAULT_255_2_778
10
143.2915308
20
81.8380112
11
143.2915308
21
99.7381112
0
LINE
8
DEFAULT_255_2_778
10
78.4416308
20
83.8380112
11
78.4416308
21
82.1344112
0
LINE
8
DEFAULT_255_2_778
10
77.2417308
20
82.1344112
11
77.2417308
21
83.8380112
0
LINE
8
DEFAULT_255_2_778
10
76.3416308
20
82.1341112
11
78.6416308
21
82.1341112
0
LINE
8
DEFAULT_255_2_778
10
143.1414308
20
10.4405112
11
143.1414308
21
28.3406112
0
LINE
8
DEFAULT_255_2_778
10
143.1414308
20
28.3406112
11
86.3915308
21
28.3406112
0
LINE
8
DEFAULT_255_2_778
10
86.3915308
20
28.3406112
11
86.3915308
21
26.3406112
0
LINE
8
DEFAULT_255_2_778
10
86.3915308
20
26.3406112
11
84.0915308
21
26.3406112
0
LINE
8
DEFAULT_255_2_778
10
84.0915308
20
26.3406112
11
84.0915308
21
28.3406112
0
LINE
8
DEFAULT_255_2_778
10
84.0915308
20
28.3406112
11
46.0415308
21
28.3406112
0
LINE
8
DEFAULT_255_2_778
10
46.0415308
20
28.3406112
11
46.0415308
21
10.4405112
0
LINE
8
DEFAULT_255_2_778
10
46.0415308
20
10.4405112
11
143.1414308
21
10.4405112
0
LINE
8
DEFAULT_255_2_778
10
84.8416308
20
26.3406112
11
84.8416308
21
27.5344112
0
LINE
8
DEFAULT_255_2_778
10
86.0414308
20
27.5344112
11
86.0414308
21
26.3406112
0
LINE
8
DEFAULT_255_2_778
10
86.0414308
20
26.9600112
11
84.8416308
21
26.9600112
0
LINE
8
DEFAULT_255_2_778
10
84.0915308
20
27.5344112
11
86.3915308
21
27.5344112
0
ENDSEC
0
EOF