0
SECTION
2
HEADER
9
$MEASUREMENT
70
1
0
ENDSEC
0
SECTION
2
TABLES
0
TABLE
2
LTYPE
0
LTYPE
72
65
70
64
2
CONTINUOUS
3
______
73
0
40
0
0
ENDTAB
0
TABLE
2
LAYER
0
LAYER
2
DEFAULT_255_2_778
70
0
62
255
6
CONTINUOUS
0
LAYER
2
DEFAULT_255_1_388
70
0
62
255
6
CONTINUOUS
0
ENDTAB
0
ENDSEC
0
SECTION
2
ENTITIES
0
ARC
8
DEFAULT_255_2_778
10
3.5700693
20
163.1176518
40
0.7914215
50
129.1312896
51
180.1450914
0
ARC
8
DEFAULT_255_2_778
10
3.5703345
20
163.1181389
40
0.7912112
50
89.854026
51
129.1684493
0
ARC
8
DEFAULT_255_2_778
10
25.7993937
20
163.1178255
40
0.7915249
50
39.4792447
51
90.147911
0
ARC
8
DEFAULT_255_2_778
10
25.7999935
20
163.1176721
40
0.7911595
50
359.8533901
51
39.5154338
0
ARC
8
DEFAULT_255_2_778
10
25.7996693
20
-1.9864004
40
0.7914836
50
309.4761667
51
0.1482649
0
ARC
8
DEFAULT_255_2_778
10
25.799398
20
-1.9868315
40
0.7913235
50
269.8517415
51
309.511178
0
ARC
8
DEFAULT_255_2_778
10
3.570342
20
-1.9867734
40
0.7913815
50
219.1282118
51
270.1454017
0
ARC
8
DEFAULT_255_2_778
10
3.5700247
20
-1.9863909
40
0.7913769
50
179.8524075
51
219.1641908
0
LINE
8
DEFAULT_255_2_778
10
3.5723503
20
163.9093477
11
25.7973503
21
163.9093477
0
LINE
8
DEFAULT_255_2_778
10
26.5911503
20
163.1156477
11
26.5911503
21
-1.9843523
0
LINE
8
DEFAULT_255_2_778
10
25.7973503
20
-2.7781523
11
3.5723503
21
-2.7781523
0
LINE
8
DEFAULT_255_2_778
10
2.7786503
20
-1.9843523
11
2.7786503
21
163.1156477
0
LINE
8
DEFAULT_255_1_388
10
8.401032
20
-0.2223532
11
8.5754199
21
-0.2223532
0
LINE
8
DEFAULT_255_1_388
10
7.5625242
20
-0.0434475
11
7.5625242
21
0.0830516
0
LINE
8
DEFAULT_255_1_388
10
8.5754199
20
0.2529217
11
8.401032
21
0.2529217
0
LINE
8
DEFAULT_255_1_388
10
7.7369121
20
0.0785337
11
7.7369121
21
-0.0488688
0
ARC
8
DEFAULT_255_1_388
10
7.9588433
20
-0.1551671
40
0.6202263
50
340.1774904
51
353.7812217
0
ARC
8
DEFAULT_255_1_388
10
8.1356286
20
-0.2210107
40
0.4315926
50
311.4560052
51
340.4420756
0
ARC
8
DEFAULT_255_1_388
10
8.1318826
20
-0.2085335
40
0.4434573
50
282.4332229
51
310.7514507
0
ARC
8
DEFAULT_255_1_388
10
8.0824644
20
-0.0043297
40
0.6535262
50
269.9358869
51
282.8096729
0
ARC
8
DEFAULT_255_1_388
10
8.0766583
20
0.1469329
40
0.8048043
50
269.9995752
51
270.3612856
0
ARC
8
DEFAULT_255_1_388
10
8.0707073
20
-0.1329219
40
0.5249831
50
250.7885263
51
270.6488451
0
ARC
8
DEFAULT_255_1_388
10
8.0517898
20
-0.2046147
40
0.4510942
50
219.3628377
51
250.0611024
0
ARC
8
DEFAULT_255_1_388
10
8.1450772
20
-0.1253347
40
0.5735046
50
193.5480293
51
219.5755675
0
ARC
8
DEFAULT_255_1_388
10
8.4118981
20
-0.056048
40
0.849146
50
181.1220183
51
193.8754971
0
ARC
8
DEFAULT_255_1_388
10
8.6442214
20
-0.0436086
40
1.0816971
50
179.9914644
51
181.5398227
0
ARC
8
DEFAULT_255_1_388
10
8.4365525
20
0.0872586
40
0.8740384
50
169.5837606
51
180.275782
0
ARC
8
DEFAULT_255_1_388
10
8.2298873
20
0.1254439
40
0.6638751
50
155.0367033
51
169.6002779
0
ARC
8
DEFAULT_255_1_388
10
8.1021331
20
0.1870336
40
0.5220662
50
136.7831557
51
155.2472983
0
ARC
8
DEFAULT_255_1_388
10
8.0583122
20
0.2242577
40
0.4646502
50
121.7633063
51
136.4281161
0
ARC
8
DEFAULT_255_1_388
10
8.0734962
20
0.1962049
40
0.4964979
50
95.6460018
51
121.5489589
0
ARC
8
DEFAULT_255_1_388
10
8.0911936
20
0.0714704
40
0.6223912
50
89.9245727
51
96.1375919
0
ARC
8
DEFAULT_255_1_388
10
8.0968641
20
0.0848721
40
0.6090084
50
76.6779212
51
90.456405
0
ARC
8
DEFAULT_255_1_388
10
8.1411454
20
0.263806
40
0.42469
50
47.4858803
51
76.9287069
0
ARC
8
DEFAULT_255_1_388
10
8.1246068
20
0.2525623
40
0.4441778
50
16.5424081
51
46.8934505
0
ARC
8
DEFAULT_255_1_388
10
7.9437118
20
0.1931265
40
0.6345318
50
5.4072971
51
17.0363711
0
ARC
8
DEFAULT_255_1_388
10
7.7818843
20
0.1671304
40
0.6250632
50
7.8888693
51
15.9242022
0
ARC
8
DEFAULT_255_1_388
10
8.0053828
20
0.2320309
40
0.3923364
50
15.7650676
51
27.9410069
0
ARC
8
DEFAULT_255_1_388
10
8.1295997
20
0.2985317
40
0.2514401
50
27.8167196
51
46.4007942
0
ARC
8
DEFAULT_255_1_388
10
8.1351839
20
0.2978882
40
0.2480958
50
47.4372362
51
75.0695672
0
ARC
8
DEFAULT_255_1_388
10
8.1004675
20
0.1770277
40
0.3738281
50
74.7009379
51
87.8124314
0
ARC
8
DEFAULT_255_1_388
10
8.0922292
20
0.0586659
40
0.4924321
50
87.3802571
51
90.0251599
0
ARC
8
DEFAULT_255_1_388
10
8.0878939
20
0.1906997
40
0.3604218
50
89.3451886
51
108.5744412
0
ARC
8
DEFAULT_255_1_388
10
8.0724931
20
0.2484836
40
0.3007661
50
109.2998307
51
143.3037387
0
ARC
8
DEFAULT_255_1_388
10
8.1582221
20
0.1825584
40
0.4089031
50
143.075267
51
163.1918576
0
ARC
8
DEFAULT_255_1_388
10
8.3778055
20
0.1132652
40
0.6391492
50
162.9375929
51
174.6208776
0
ARC
8
DEFAULT_255_1_388
10
8.6732437
20
0.0808711
40
0.9363344
50
174.342123
51
180.1430283
0
ARC
8
DEFAULT_255_1_388
10
8.5684978
20
-0.0534883
40
0.8315986
50
179.6817261
51
189.150555
0
ARC
8
DEFAULT_255_1_388
10
8.2871727
20
-0.1003441
40
0.5464044
50
188.9911061
51
203.5772363
0
ARC
8
DEFAULT_255_1_388
10
8.1657019
20
-0.1507461
40
0.4149206
50
203.9075402
51
215.1312435
0
ARC
8
DEFAULT_255_1_388
10
8.0618817
20
-0.2312093
40
0.2837747
50
213.9071511
51
263.8848919
0
ARC
8
DEFAULT_255_1_388
10
8.075981
20
-0.1429481
40
0.3730641
50
263.1757928
51
270.1031044
0
ARC
8
DEFAULT_255_1_388
10
8.079589
20
-0.0026489
40
0.5133712
50
269.6722503
51
279.0606936
0
ARC
8
DEFAULT_255_1_388
10
8.1096045
20
-0.184085
40
0.3294739
50
278.8749101
51
293.6349581
0
ARC
8
DEFAULT_255_1_388
10
8.1456249
20
-0.2686749
40
0.2375405
50
293.8553806
51
310.0518171
0
ARC
8
DEFAULT_255_1_388
10
8.1461758
20
-0.2756979
40
0.2318463
50
311.0644687
51
332.0111037
0
ARC
8
DEFAULT_255_1_388
10
8.0120431
20
-0.2017298
40
0.3850112
50
331.6586806
51
343.2877423
0
ARC
8
DEFAULT_255_1_388
10
7.7799896
20
-0.1304194
40
0.6277712
50
343.1446576
51
351.0103568
0
ARC
8
DEFAULT_255_1_388
10
7.616722
20
-0.1004127
40
0.7937327
50
350.71248
51
351.1626997
0
LINE
8
DEFAULT_255_1_388
10
9.2955608
20
-0.1247683
11
8.9856382
21
-0.1247683
0
LINE
8
DEFAULT_255_1_388
10
8.9856382
20
-0.1247683
11
8.9856382
21
-0.6398
0
LINE
8
DEFAULT_255_1_388
10
8.9856382
20
-0.6398
11
8.8121538
21
-0.6398
0
LINE
8
DEFAULT_255_1_388
10
8.8121538
20
-0.6398
11
8.8121538
21
0.6757898
0
LINE
8
DEFAULT_255_1_388
10
8.8121538
20
0.6757898
11
9.2973679
21
0.6757898
0
LINE
8
DEFAULT_255_1_388
10
8.9856382
20
0.5330267
11
8.9856382
21
0.0170914
0
LINE
8
DEFAULT_255_1_388
10
8.9856382
20
0.0170914
11
9.2973679
21
0.0170914
0
LINE
8
DEFAULT_255_1_388
10
9.3073071
20
0.5330267
11
8.9856382
21
0.5330267
0
ARC
8
DEFAULT_255_1_388
10
9.3021053
20
-0.0058666
40
0.6816729
50
78.8380084
51
90.398184
0
ARC
8
DEFAULT_255_1_388
10
9.3489083
20
0.2214796
40
0.449571
50
58.9633273
51
79.0810717
0
ARC
8
DEFAULT_255_1_388
10
9.3828468
20
0.2844823
40
0.3781049
50
48.0194715
51
58.4475592
0
ARC
8
DEFAULT_255_1_388
10
9.3928287
20
0.2940818
40
0.3642936
50
3.3374546
51
48.1766642
0
ARC
8
DEFAULT_255_1_388
10
9.2543094
20
0.2741581
40
0.5038766
50
359.9483251
51
4.6822857
0
ARC
8
DEFAULT_255_1_388
10
9.2683017
20
0.2693779
40
0.4899031
50
346.1879032
51
0.5059221
0
ARC
8
DEFAULT_255_1_388
10
9.4211809
20
0.2296763
40
0.3319729
50
310.8832219
51
346.5426612
0
ARC
8
DEFAULT_255_1_388
10
9.3864657
20
0.2765853
40
0.3901853
50
286.6925305
51
310.228778
0
ARC
8
DEFAULT_255_1_388
10
9.3224387
20
0.4779585
40
0.6014737
50
274.6848219
51
287.0247342
0
ARC
8
DEFAULT_255_1_388
10
9.2970936
20
0.7264088
40
0.8511785
50
269.8968222
51
275.0192639
0
ARC
8
DEFAULT_255_1_388
10
9.3001929
20
0.4926144
40
0.4755314
50
269.6596206
51
279.4150542
0
ARC
8
DEFAULT_255_1_388
10
9.3291387
20
0.3248945
40
0.3053379
50
279.2050006
51
294.9901776
0
ARC
8
DEFAULT_255_1_388
10
9.3618022
20
0.2520353
40
0.2255036
50
295.2886769
51
311.2912669
0
ARC
8
DEFAULT_255_1_388
10
9.3697763
20
0.2401938
40
0.2113522
50
311.7853512
51
347.2860549
0
ARC
8
DEFAULT_255_1_388
10
9.2590925
20
0.268643
40
0.3256011
50
346.6891629
51
0.1057086
0
ARC
8
DEFAULT_255_1_388
10
9.1668384
20
0.2719247
40
0.417863
50
359.63239
51
359.9961329
0
ARC
8
DEFAULT_255_1_388
10
9.2832989
20
0.2746987
40
0.3014155
50
359.4673371
51
15.5931159
0
ARC
8
DEFAULT_255_1_388
10
9.3536052
20
0.2936937
40
0.2285918
50
15.7441779
51
46.620186
0
ARC
8
DEFAULT_255_1_388
10
9.3369812
20
0.2745361
40
0.2539359
50
46.8628482
51
75.6676625
0
ARC
8
DEFAULT_255_1_388
10
9.3038869
20
0.1554243
40
0.3775415
50
75.2763152
51
88.2916439
0
ARC
8
DEFAULT_255_1_388
10
9.2972868
20
0.0552097
40
0.4779221
50
87.8589087
51
88.7986197
0
LINE
8
DEFAULT_255_1_388
10
10.4855552
20
0.6821148
11
10.4855552
21
-0.6398
0
LINE
8
DEFAULT_255_1_388
10
10.4855552
20
-0.6398
11
10.3174922
21
-0.6398
0
LINE
8
DEFAULT_255_1_388
10
10.3174922
20
-0.6398
11
10.3174922
21
0.474295
0
LINE
8
DEFAULT_255_1_388
10
10.3174922
20
0.474295
11
9.9804626
21
0.3505066
0
LINE
8
DEFAULT_255_1_388
10
9.9804626
20
0.3505066
11
9.9804626
21
0.5023055
0
LINE
8
DEFAULT_255_1_388
10
9.9804626
20
0.5023055
11
10.4593518
21
0.6821148
0
LINE
8
DEFAULT_255_1_388
10
10.4593518
20
0.6821148
11
10.4855552
21
0.6821148
0
LINE
8
DEFAULT_255_1_388
10
11.7622917
20
0.1101585
11
11.7622917
21
-0.0317011
0
LINE
8
DEFAULT_255_1_388
10
11.7622917
20
-0.0317011
11
11.1921426
21
-0.0317011
0
LINE
8
DEFAULT_255_1_388
10
11.1921426
20
-0.0317011
11
11.1921426
21
-0.4979404
0
LINE
8
DEFAULT_255_1_388
10
11.1921426
20
-0.4979404
11
11.8544553
21
-0.4979404
0
LINE
8
DEFAULT_255_1_388
10
11.8544553
20
-0.4979404
11
11.8544553
21
-0.6398
0
LINE
8
DEFAULT_255_1_388
10
11.8544553
20
-0.6398
11
11.0186582
21
-0.6398
0
LINE
8
DEFAULT_255_1_388
10
11.0186582
20
-0.6398
11
11.0186582
21
0.6757898
0
LINE
8
DEFAULT_255_1_388
10
11.0186582
20
0.6757898
11
11.8454197
21
0.6757898
0
LINE
8
DEFAULT_255_1_388
10
11.8454197
20
0.6757898
11
11.8454197
21
0.5330267
0
LINE
8
DEFAULT_255_1_388
10
11.8454197
20
0.5330267
11
11.1921426
21
0.5330267
0
LINE
8
DEFAULT_255_1_388
10
11.1921426
20
0.5330267
11
11.1921426
21
0.1101585
0
LINE
8
DEFAULT_255_1_388
10
11.1921426
20
0.1101585
11
11.7622917
21
0.1101585
0
LINE
8
DEFAULT_255_1_388
10
12.3920762
20
-0.0127263
11
12.3920762
21
-0.1491645
0
LINE
8
DEFAULT_255_1_388
10
12.3920762
20
-0.1491645
11
11.9511367
21
-0.1491645
0
LINE
8
DEFAULT_255_1_388
10
11.9511367
20
-0.1491645
11
11.9511367
21
-0.0127263
0
LINE
8
DEFAULT_255_1_388
10
11.9511367
20
-0.0127263
11
12.3920762
21
-0.0127263
0
LINE
8
DEFAULT_255_1_388
10
13.5920098
20
0.6757898
11
13.5920098
21
-0.6398
0
LINE
8
DEFAULT_255_1_388
10
13.5920098
20
-0.6398
11
13.4176218
21
-0.6398
0
LINE
8
DEFAULT_255_1_388
10
13.4176218
20
-0.6398
11
12.7553091
21
0.3739993
0
LINE
8
DEFAULT_255_1_388
10
12.7553091
20
0.3739993
11
12.7553091
21
-0.6398
0
LINE
8
DEFAULT_255_1_388
10
12.7553091
20
-0.6398
11
12.5809211
21
-0.6398
0
LINE
8
DEFAULT_255_1_388
10
12.5809211
20
-0.6398
11
12.5809211
21
0.6757898
0
LINE
8
DEFAULT_255_1_388
10
12.5809211
20
0.6757898
11
12.7553091
21
0.6757898
0
LINE
8
DEFAULT_255_1_388
10
12.7553091
20
0.6757898
11
13.419429
21
-0.3425273
0
LINE
8
DEFAULT_255_1_388
10
13.419429
20
-0.3425273
11
13.419429
21
0.6757898
0
LINE
8
DEFAULT_255_1_388
10
13.419429
20
0.6757898
11
13.5920098
21
0.6757898
0
LINE
8
DEFAULT_255_1_388
10
14.099813
20
-0.0371225
11
14.099813
21
0.0993157
0
LINE
8
DEFAULT_255_1_388
10
14.099813
20
0.0993157
11
14.2254084
21
0.0993157
0
LINE
8
DEFAULT_255_1_388
10
14.0112637
20
0.3306282
11
13.8441042
21
0.3306282
0
LINE
8
DEFAULT_255_1_388
10
13.8323579
20
-0.2928313
11
14.0004209
21
-0.2928313
0
LINE
8
DEFAULT_255_1_388
10
14.2254084
20
-0.0371225
11
14.099813
21
-0.0371225
0
ARC
8
DEFAULT_255_1_388
10
14.2221311
20
0.4809922
40
0.3816905
50
270.491971
51
281.8953028
0
ARC
8
DEFAULT_255_1_388
10
14.2492738
20
0.3570199
40
0.2547877
50
281.6690378
51
301.2943765
0
ARC
8
DEFAULT_255_1_388
10
14.2684189
20
0.3219926
40
0.2149197
50
301.7834992
51
311.754567
0
ARC
8
DEFAULT_255_1_388
10
14.2787231
20
0.310565
40
0.1995326
50
311.7325027
51
354.2803031
0
ARC
8
DEFAULT_255_1_388
10
14.1969647
20
0.324628
40
0.2823461
50
353.0941646
51
0.1174696
0
ARC
8
DEFAULT_255_1_388
10
14.1451204
20
0.3299874
40
0.3342238
50
359.1804452
51
15.0452323
0
ARC
8
DEFAULT_255_1_388
10
14.2965263
20
0.3741546
40
0.1765747
50
13.957816
51
77.6713812
0
ARC
8
DEFAULT_255_1_388
10
14.2530499
20
0.2183464
40
0.3381982
50
76.111571
51
90.7028736
0
ARC
8
DEFAULT_255_1_388
10
14.2463911
20
0.249125
40
0.3074046
50
89.5321574
51
103.5319393
0
ARC
8
DEFAULT_255_1_388
10
14.2238294
20
0.3390443
40
0.2147041
50
103.2930114
51
133.5619756
0
ARC
8
DEFAULT_255_1_388
10
14.2188236
20
0.3457351
40
0.2064084
50
133.8349761
51
173.5343225
0
ARC
8
DEFAULT_255_1_388
10
14.3001893
20
0.3313144
40
0.2889266
50
172.5097183
51
180.1360699
0
ARC
8
DEFAULT_255_1_388
10
14.1931657
20
0.335188
40
0.3490913
50
155.3483706
51
180.7484035
0
ARC
8
DEFAULT_255_1_388
10
14.1876633
20
0.3319519
40
0.3454798
50
131.5745177
51
154.4799474
0
ARC
8
DEFAULT_255_1_388
10
14.2228915
20
0.2963422
40
0.3955058
50
96.9874487
51
131.9690874
0
ARC
8
DEFAULT_255_1_388
10
14.2475808
20
0.1562407
40
0.537622
50
89.8592909
51
97.7827481
0
ARC
8
DEFAULT_255_1_388
10
14.2529917
20
0.126736
40
0.5671399
50
78.3654493
51
90.4132586
0
ARC
8
DEFAULT_255_1_388
10
14.2932558
20
0.3133918
40
0.3762034
50
56.6229818
51
78.6387103
0
ARC
8
DEFAULT_255_1_388
10
14.3174388
20
0.3556846
40
0.3275964
50
47.0254604
51
56.085558
0
ARC
8
DEFAULT_255_1_388
10
14.3196639
20
0.3601189
40
0.3228382
50
10.9207523
51
46.777927
0
ARC
8
DEFAULT_255_1_388
10
14.1662232
20
0.3246401
40
0.4802559
50
359.6364235
51
11.6087615
0
ARC
8
DEFAULT_255_1_388
10
14.3726398
20
0.3229404
40
0.273833
50
332.3549969
51
359.7179765
0
ARC
8
DEFAULT_255_1_388
10
14.2994799
20
0.3576285
40
0.3547505
50
325.2332381
51
332.8746682
0
ARC
8
DEFAULT_255_1_388
10
14.3166382
20
0.3456763
40
0.3338396
50
292.9803892
51
325.2391113
0
ARC
8
DEFAULT_255_1_388
10
14.2855577
20
0.4061679
40
0.4016959
50
292.542178
51
293.6931461
0
ARC
8
DEFAULT_255_1_388
10
14.3299149
20
-0.3203964
40
0.372079
50
57.643292
51
72.8626085
0
ARC
8
DEFAULT_255_1_388
10
14.3697984
20
-0.2557727
40
0.2961455
50
36.7246661
51
57.4701329
0
ARC
8
DEFAULT_255_1_388
10
14.3685141
20
-0.254353
40
0.2963321
50
8.054535
51
36.3561529
0
ARC
8
DEFAULT_255_1_388
10
14.2714813
20
-0.2717927
40
0.3948682
50
359.8316595
51
8.5873361
0
ARC
8
DEFAULT_255_1_388
10
14.2292288
20
-0.277203
40
0.4371398
50
343.9831631
51
0.557075
0
ARC
8
DEFAULT_255_1_388
10
14.3289337
20
-0.3045037
40
0.3337749
50
311.6358204
51
343.7652116
0
ARC
8
DEFAULT_255_1_388
10
14.2863591
20
-0.2565045
40
0.3979351
50
279.7829743
51
311.625622
0
ARC
8
DEFAULT_255_1_388
10
14.2524726
20
-0.0948358
40
0.5630417
50
269.7285092
51
280.3857694
0
ARC
8
DEFAULT_255_1_388
10
14.2455039
20
-0.0994759
40
0.5584119
50
256.6827433
51
270.4412869
0
ARC
8
DEFAULT_255_1_388
10
14.2074026
20
-0.2552302
40
0.3980715
50
229.4223821
51
256.8554507
0
ARC
8
DEFAULT_255_1_388
10
14.1607579
20
-0.3077317
40
0.3278564
50
181.8183354
51
229.6455015
0
ARC
8
DEFAULT_255_1_388
10
14.2777188
20
-0.2930175
40
0.4453611
50
179.9760419
51
183.2330638
0
ARC
8
DEFAULT_255_1_388
10
14.2583741
20
-0.2953219
40
0.2579652
50
179.4467996
51
196.2871626
0
ARC
8
DEFAULT_255_1_388
10
14.2035194
20
-0.3103291
40
0.2011057
50
196.5661293
51
227.7059371
0
ARC
8
DEFAULT_255_1_388
10
14.2219802
20
-0.2896845
40
0.2287994
50
227.7653015
51
257.8763321
0
ARC
8
DEFAULT_255_1_388
10
14.2472885
20
-0.1836039
40
0.3378385
50
257.4583525
51
270.4267406
0
ARC
8
DEFAULT_255_1_388
10
14.2524134
20
-0.150977
40
0.3704652
50
269.5965319
51
280.8788143
0
ARC
8
DEFAULT_255_1_388
10
14.2782362
20
-0.2799471
40
0.2389415
50
280.6347277
51
299.8594068
0
ARC
8
DEFAULT_255_1_388
10
14.2997132
20
-0.3207264
40
0.19289
50
300.3575552
51
314.5515667
0
ARC
8
DEFAULT_255_1_388
10
14.2903808
20
-0.3138975
40
0.204312
50
315.0730962
51
345.0429362
0
ARC
8
DEFAULT_255_1_388
10
14.1865315
20
-0.2836461
40
0.31246
50
344.598526
51
357.9270698
0
ARC
8
DEFAULT_255_1_388
10
14.085562
20
-0.2767295
40
0.4136265
50
357.4755098
51
0.0224936
0
ARC
8
DEFAULT_255_1_388
10
14.2008498
20
-0.2739901
40
0.2983498
50
359.5051035
51
13.4236939
0
ARC
8
DEFAULT_255_1_388
10
14.2983587
20
-0.2490363
40
0.1977186
50
12.9497905
51
48.7550905
0
ARC
8
DEFAULT_255_1_388
10
14.2778509
20
-0.2770627
40
0.2323321
50
49.509109
51
72.1832965
0
ARC
8
DEFAULT_255_1_388
10
14.2375978
20
-0.3965368
40
0.358397
50
71.9008458
51
84.3555134
0
ARC
8
DEFAULT_255_1_388
10
14.2194372
20
-0.5497288
40
0.512641
50
84.019632
51
89.3326067
0
LINE
8
DEFAULT_255_1_388
10
15.7208076
20
0.138169
11
15.7208076
21
-0.0786865
0
LINE
8
DEFAULT_255_1_388
10
14.8904319
20
-0.1012756
11
14.8904319
21
0.1219048
0
LINE
8
DEFAULT_255_1_388
10
15.5536482
20
-0.1238647
11
15.5536482
21
0.1499153
0
LINE
8
DEFAULT_255_1_388
10
15.0575913
20
0.1625652
11
15.0575913
21
-0.1048898
0
ARC
8
DEFAULT_255_1_388
10
14.343041
20
-0.0841882
40
1.3777776
50
353.8440855
51
0.2287917
0
ARC
8
DEFAULT_255_1_388
10
14.8649428
20
-0.1424586
40
0.852639
50
344.4934746
51
353.9763743
0
ARC
8
DEFAULT_255_1_388
10
15.2016235
20
-0.2381809
40
0.5026273
50
329.2803599
51
344.7473406
0
ARC
8
DEFAULT_255_1_388
10
15.313173
20
-0.2993962
40
0.3754848
50
324.9361395
51
328.6153007
0
ARC
8
DEFAULT_255_1_388
10
15.355738
20
-0.3291414
40
0.3235566
50
280.5801797
51
324.9173226
0
ARC
8
DEFAULT_255_1_388
10
15.3106009
20
-0.1411764
40
0.5167077
50
269.5979457
51
281.6732777
0
ARC
8
DEFAULT_255_1_388
10
15.3024912
20
-0.1546887
40
0.5032026
50
256.6228565
51
270.5105488
0
ARC
8
DEFAULT_255_1_388
10
15.2572655
20
-0.3288655
40
0.3233092
50
215.8618351
51
257.2787793
0
ARC
8
DEFAULT_255_1_388
10
15.3721362
20
-0.2517894
40
0.4615831
50
197.9695203
51
215.2622745
0
ARC
8
DEFAULT_255_1_388
10
15.6517038
20
-0.1574359
40
0.7566307
50
187.8816486
51
198.2346584
0
ARC
8
DEFAULT_255_1_388
10
16.0970276
20
-0.0931547
40
1.2065653
50
180.8977266
51
188.0054894
0
ARC
8
DEFAULT_255_1_388
10
16.402049
20
-0.08166
40
1.5117443
50
180.7434591
51
181.152202
0
ARC
8
DEFAULT_255_1_388
10
16.2345486
20
0.1273371
40
1.3441277
50
173.7674302
51
180.2315596
0
ARC
8
DEFAULT_255_1_388
10
15.7263355
20
0.1847779
40
0.8326847
50
164.3058537
51
173.9000553
0
ARC
8
DEFAULT_255_1_388
10
15.3987355
20
0.2791652
40
0.4917711
50
148.7922028
51
164.5682288
0
ARC
8
DEFAULT_255_1_388
10
15.2918092
20
0.3388457
40
0.3694204
50
144.5883979
51
148.1161588
0
ARC
8
DEFAULT_255_1_388
10
15.2530837
20
0.3658667
40
0.322202
50
101.6440149
51
144.5142619
0
ARC
8
DEFAULT_255_1_388
10
15.300903
20
0.1758337
40
0.5180451
50
89.528284
51
102.5820197
0
ARC
8
DEFAULT_255_1_388
10
15.3098021
20
0.1714376
40
0.5224441
50
77.0437914
51
90.508231
0
ARC
8
DEFAULT_255_1_388
10
15.3550275
20
0.3562272
40
0.3322297
50
48.2777708
51
77.4996087
0
ARC
8
DEFAULT_255_1_388
10
15.3632015
20
0.3707557
40
0.315966
50
36.3141586
51
47.6307332
0
ARC
8
DEFAULT_255_1_388
10
15.2654737
20
0.3049159
40
0.4337313
50
18.2931065
51
35.6770203
0
ARC
8
DEFAULT_255_1_388
10
14.9793578
20
0.2067107
40
0.7362203
50
8.0246996
51
18.5605636
0
ARC
8
DEFAULT_255_1_388
10
14.5109934
20
0.1375432
40
1.2096583
50
1.127539
51
8.1718423
0
ARC
8
DEFAULT_255_1_388
10
14.1461067
20
0.1232374
40
1.5747719
50
0.5432713
51
1.38669
0
ARC
8
DEFAULT_255_1_388
10
14.3518446
20
0.1539163
40
1.2018103
50
359.8092569
51
4.9408001
0
ARC
8
DEFAULT_255_1_388
10
14.8255027
20
0.19619
40
0.7262727
50
4.8364937
51
12.2906017
0
ARC
8
DEFAULT_255_1_388
10
15.1354492
20
0.2652485
40
0.4087324
50
12.0806994
51
23.8171225
0
ARC
8
DEFAULT_255_1_388
10
15.2674888
20
0.3211508
40
0.2653719
50
24.2874621
51
31.3934353
0
ARC
8
DEFAULT_255_1_388
10
15.3265324
20
0.3597822
40
0.1948607
50
30.7407708
51
82.4658033
0
ARC
8
DEFAULT_255_1_388
10
15.3062985
20
0.2604017
40
0.2961198
50
81.1057101
51
90.2187368
0
ARC
8
DEFAULT_255_1_388
10
15.3022796
20
0.2894421
40
0.2670929
50
89.380395
51
105.6763916
0
ARC
8
DEFAULT_255_1_388
10
15.2816518
20
0.364432
40
0.1893189
50
105.7980655
51
149.7387869
0
ARC
8
DEFAULT_255_1_388
10
15.4013658
20
0.2924719
40
0.3289892
50
149.4208441
51
163.628295
0
ARC
8
DEFAULT_255_1_388
10
15.6365888
20
0.2207345
40
0.5749004
50
163.3764549
51
172.141138
0
ARC
8
DEFAULT_255_1_388
10
16.007861
20
0.1675582
40
0.9499585
50
172.0258462
51
178.0705453
0
ARC
8
DEFAULT_255_1_388
10
16.3500162
20
0.1513682
40
1.2924734
50
177.8639301
51
179.5036263
0
ARC
8
DEFAULT_255_1_388
10
16.2281181
20
-0.1089849
40
1.170534
50
179.7995545
51
185.246089
0
ARC
8
DEFAULT_255_1_388
10
15.7732774
20
-0.1520596
40
0.7136613
50
185.1411911
51
193.0082205
0
ARC
8
DEFAULT_255_1_388
10
15.4759035
20
-0.2223559
40
0.4080987
50
192.7897338
51
205.2507384
0
ARC
8
DEFAULT_255_1_388
10
15.3581245
20
-0.2749462
40
0.2791522
50
205.8001921
51
211.2545876
0
ARC
8
DEFAULT_255_1_388
10
15.2992784
20
-0.3143868
40
0.2084074
50
210.3789935
51
238.4007996
0
ARC
8
DEFAULT_255_1_388
10
15.297087
20
-0.3091214
40
0.2117943
50
239.6521916
51
265.9793852
0
ARC
8
DEFAULT_255_1_388
10
15.3066719
20
-0.2334642
40
0.2879689
50
265.1324455
51
270.0603288
0
ARC
8
DEFAULT_255_1_388
10
15.3099096
20
-0.2699582
40
0.2514919
50
269.3314378
51
287.2180039
0
ARC
8
DEFAULT_255_1_388
10
15.3254178
20
-0.3265709
40
0.1928357
50
287.7957942
51
329.0808983
0
ARC
8
DEFAULT_255_1_388
10
15.2176935
20
-0.2593349
40
0.319808
50
328.6635261
51
343.3325043
0
ARC
8
DEFAULT_255_1_388
10
14.9732394
20
-0.1831805
40
0.5758408
50
343.0498092
51
351.9392499
0
ARC
8
DEFAULT_255_1_388
10
14.5831715
20
-0.1256795
40
0.9701202
50
351.8071632
51
357.7957897
0
ARC
8
DEFAULT_255_1_388
10
14.2197192
20
-0.1068276
40
1.3340376
50
357.5870923
51
359.2682493
0
LINE
8
DEFAULT_255_1_388
10
16.34246
20
-0.6398
11
15.9783235
21
-0.6398
0
LINE
8
DEFAULT_255_1_388
10
15.9783235
20
-0.6398
11
15.9783235
21
0.6757898
0
LINE
8
DEFAULT_255_1_388
10
15.9783235
20
0.6757898
11
16.3496885
21
0.6757898
0
LINE
8
DEFAULT_255_1_388
10
16.9297769
20
0.0622696
11
16.9297769
21
-0.0217619
0
LINE
8
DEFAULT_255_1_388
10
16.3542063
20
0.5330267
11
16.1518079
21
0.5330267
0
LINE
8
DEFAULT_255_1_388
10
16.1518079
20
0.5330267
11
16.1518079
21
-0.4979404
0
LINE
8
DEFAULT_255_1_388
10
16.1518079
20
-0.4979404
11
16.3343279
21
-0.4979404
0
LINE
8
DEFAULT_255_1_388
10
16.7580996
20
-0.0181477
11
16.7580996
21
0.0586553
0
ARC
8
DEFAULT_255_1_388
10
16.354068
20
0.0159436
40
0.6598608
50
75.4100343
51
90.3802731
0
ARC
8
DEFAULT_255_1_388
10
16.3798925
20
0.1235691
40
0.5492049
50
60.1455157
51
75.1889627
0
ARC
8
DEFAULT_255_1_388
10
16.3977516
20
0.1546914
40
0.5133226
50
26.525419
51
60.1451222
0
ARC
8
DEFAULT_255_1_388
10
16.2717303
20
0.0878642
40
0.6559324
50
7.4029944
51
26.832209
0
ARC
8
DEFAULT_255_1_388
10
16.09237
20
0.0599229
40
0.8374103
50
0.1605597
51
7.7176135
0
ARC
8
DEFAULT_255_1_388
10
16.11081
20
-0.0260679
40
0.8189782
50
348.7289744
51
0.30125
0
ARC
8
DEFAULT_255_1_388
10
16.2971564
20
-0.0630844
40
0.628991
50
333.0706936
51
348.7181455
0
ARC
8
DEFAULT_255_1_388
10
16.4059192
20
-0.1221551
40
0.5052808
50
299.2531435
51
333.4571133
0
ARC
8
DEFAULT_255_1_388
10
16.3653223
20
-0.0450371
40
0.5924066
50
278.1072193
51
299.0340218
0
ARC
8
DEFAULT_255_1_388
10
16.3365272
20
0.1245979
40
0.7644209
50
270.4446841
51
278.4508355
0
ARC
8
DEFAULT_255_1_388
10
16.3388755
20
0.02003
40
0.5179903
50
269.4969684
51
284.0204874
0
ARC
8
DEFAULT_255_1_388
10
16.3788474
20
-0.1335585
40
0.3592968
50
283.7699076
51
318.1557121
0
ARC
8
DEFAULT_255_1_388
10
16.3409019
20
-0.1051601
40
0.4065308
50
318.7417595
51
343.687252
0
ARC
8
DEFAULT_255_1_388
10
16.1379598
20
-0.0417725
40
0.6191194
50
343.3324891
51
355.8548594
0
ARC
8
DEFAULT_255_1_388
10
15.9018635
20
-0.0193281
40
0.856237
50
355.4988754
51
0.0789913
0
ARC
8
DEFAULT_255_1_388
10
15.9899435
20
0.063408
40
0.7681709
50
359.6455047
51
9.8607559
0
ARC
8
DEFAULT_255_1_388
10
16.2555158
20
0.1113664
40
0.498312
50
9.6573037
51
26.1931522
0
ARC
8
DEFAULT_255_1_388
10
16.3599233
20
0.1598587
40
0.3832303
50
26.5777895
51
40.1533752
0
ARC
8
DEFAULT_255_1_388
10
16.3886898
20
0.182302
40
0.3467742
50
40.3839958
51
80.1430923
0
ARC
8
DEFAULT_255_1_388
10
16.3519153
20
0.0192486
40
0.5137832
50
79.2153636
51
89.7445174
0
LINE
8
DEFAULT_255_1_388
10
18.0764001
20
0.6757898
11
18.0764001
21
0.5330267
0
LINE
8
DEFAULT_255_1_388
10
18.0764001
20
0.5330267
11
17.653532
21
0.5330267
0
LINE
8
DEFAULT_255_1_388
10
17.653532
20
0.5330267
11
17.653532
21
-0.6398
0
LINE
8
DEFAULT_255_1_388
10
17.653532
20
-0.6398
11
17.4809512
21
-0.6398
0
LINE
8
DEFAULT_255_1_388
10
17.4809512
20
-0.6398
11
17.4809512
21
0.5330267
0
LINE
8
DEFAULT_255_1_388
10
17.4809512
20
0.5330267
11
17.0589866
21
0.5330267
0
LINE
8
DEFAULT_255_1_388
10
17.0589866
20
0.5330267
11
17.0589866
21
0.6757898
0
LINE
8
DEFAULT_255_1_388
10
17.0589866
20
0.6757898
11
18.0764001
21
0.6757898
0
LINE
8
DEFAULT_255_1_388
10
18.7775662
20
0.6821148
11
18.7775662
21
-0.6398
0
LINE
8
DEFAULT_255_1_388
10
18.7775662
20
-0.6398
11
18.6095032
21
-0.6398
0
LINE
8
DEFAULT_255_1_388
10
18.6095032
20
-0.6398
11
18.6095032
21
0.474295
0
LINE
8
DEFAULT_255_1_388
10
18.6095032
20
0.474295
11
18.2724736
21
0.3505066
0
LINE
8
DEFAULT_255_1_388
10
18.2724736
20
0.3505066
11
18.2724736
21
0.5023055
0
LINE
8
DEFAULT_255_1_388
10
18.2724736
20
0.5023055
11
18.7513628
21
0.6821148
0
LINE
8
DEFAULT_255_1_388
10
18.7513628
20
0.6821148
11
18.7775662
21
0.6821148
0
LINE
8
DEFAULT_255_1_388
10
19.6323381
20
-0.0127263
11
19.6323381
21
-0.1491645
0
LINE
8
DEFAULT_255_1_388
10
19.6323381
20
-0.1491645
11
19.1913987
21
-0.1491645
0
LINE
8
DEFAULT_255_1_388
10
19.1913987
20
-0.1491645
11
19.1913987
21
-0.0127263
0
LINE
8
DEFAULT_255_1_388
10
19.1913987
20
-0.0127263
11
19.6323381
21
-0.0127263
0
LINE
8
DEFAULT_255_1_388
10
20.6732444
20
-0.6398
11
20.5476489
21
-0.2964455
0
LINE
8
DEFAULT_255_1_388
10
20.5476489
20
-0.2964455
11
19.9964746
21
-0.2964455
0
LINE
8
DEFAULT_255_1_388
10
19.9964746
20
-0.2964455
11
19.8726863
21
-0.6398
0
LINE
8
DEFAULT_255_1_388
10
19.8726863
20
-0.6398
11
19.6937805
21
-0.6398
0
LINE
8
DEFAULT_255_1_388
10
19.6937805
20
-0.6398
11
20.1961624
21
0.6757898
0
LINE
8
DEFAULT_255_1_388
10
20.1961624
20
0.6757898
11
20.3479612
21
0.6757898
0
LINE
8
DEFAULT_255_1_388
10
20.3479612
20
0.6757898
11
20.8512466
21
-0.6398
0
LINE
8
DEFAULT_255_1_388
10
20.8512466
20
-0.6398
11
20.6732444
21
-0.6398
0
LINE
8
DEFAULT_255_1_388
10
20.2720618
20
0.4616451
11
20.0488813
21
-0.1536823
0
LINE
8
DEFAULT_255_1_388
10
20.0488813
20
-0.1536823
11
20.4961458
21
-0.1536823
0
LINE
8
DEFAULT_255_1_388
10
20.4961458
20
-0.1536823
11
20.2720618
21
0.4616451
0
ARC
8
DEFAULT_255_2_778
10
15.2718323
20
162.997089
40
0.3782009
50
0.4397807
51
91.3045231
0
ARC
8
DEFAULT_255_2_778
10
15.2696879
20
162.9948064
40
0.3803695
50
269.0259909
51
0.7811192
0
ARC
8
DEFAULT_255_2_778
10
15.4292635
20
162.9820149
40
0.7634811
50
290.7150207
51
357.6789493
0
ARC
8
DEFAULT_255_2_778
10
15.3436879
20
162.9999213
40
0.849834
50
356.7063002
51
0.0047554
0
ARC
8
DEFAULT_255_2_778
10
15.3422443
20
162.9999748
40
0.8512778
50
0.0011515
51
85.3589632
0
ARC
8
DEFAULT_255_2_778
10
15.3422371
20
162.9809092
40
0.8702827
50
85.4600549
51
90.0075769
0
ARC
8
DEFAULT_255_2_778
10
20.173385
20
162.9906426
40
0.3845507
50
1.3931151
51
90.158378
0
ARC
8
DEFAULT_255_2_778
10
20.2329096
20
162.9842635
40
0.8684198
50
359.7643557
51
42.1181505
0
ARC
8
DEFAULT_255_2_778
10
20.2353156
20
162.9846931
40
0.866348
50
42.2037872
51
87.9292218
0
ARC
8
DEFAULT_255_2_778
10
20.2305626
20
162.9434097
40
0.9077821
50
87.7235759
51
90.0025578
0
ARC
8
DEFAULT_255_2_778
10
12.9264947
20
162.9975344
40
0.3777354
50
0.3727528
51
91.1638813
0
ARC
8
DEFAULT_255_2_778
10
12.9805692
20
162.9842595
40
0.8684602
50
359.7646302
51
42.1161032
0
ARC
8
DEFAULT_255_2_778
10
12.9830774
20
162.9848127
40
0.8662296
50
42.2002176
51
87.9268901
0
ARC
8
DEFAULT_255_2_778
10
12.9783626
20
162.9437749
40
0.9074169
50
87.7231194
51
90.002558
0
ARC
8
DEFAULT_255_2_778
10
17.559042
20
162.5924858
40
1.2841942
50
233.3100129
51
270.0348017
0
ARC
8
DEFAULT_255_2_778
10
17.5711133
20
162.6128622
40
1.3077482
50
187.7860459
51
233.4193197
0
ARC
8
DEFAULT_255_2_778
10
17.5893588
20
162.6144185
40
1.3260368
50
179.9838663
51
187.7458681
0
ARC
8
DEFAULT_255_2_778
10
17.5478523
20
162.6150375
40
1.2845303
50
143.7084173
51
180.0109545
0
ARC
8
DEFAULT_255_2_778
10
17.5629238
20
162.6099899
40
1.2996747
50
94.9692901
51
143.9223324
0
ARC
8
DEFAULT_255_2_778
10
17.5597032
20
162.6106347
40
1.2987573
50
89.9947559
51
94.8302073
0
ARC
8
DEFAULT_255_2_778
10
17.5619339
20
162.6048304
40
1.3045632
50
58.1407344
51
90.0927508
0
ARC
8
DEFAULT_255_2_778
10
17.5700831
20
162.6104662
40
1.2954809
50
3.5056409
51
58.315291
0
ARC
8
DEFAULT_255_2_778
10
17.5711163
20
162.6145563
40
1.2942058
50
359.9971467
51
3.3277024
0
ARC
8
DEFAULT_255_2_778
10
17.3826088
20
162.6124483
40
1.4827147
50
0.006083
51
0.0789681
0
ARC
8
DEFAULT_255_2_778
10
17.5604187
20
162.6126022
40
1.3049047
50
315.0308293
51
0.0001529
0
ARC
8
DEFAULT_255_2_778
10
17.5609377
20
162.6123521
40
1.3043608
50
270.000667
51
315.0224921
0
LINE
8
DEFAULT_255_2_778
10
17.5609529
20
161.3079914
11
17.5598221
21
161.3079919
0
ARC
8
DEFAULT_255_2_778
10
17.5640812
20
162.6108112
40
0.7580313
50
269.6780691
51
315.5292436
0
ARC
8
DEFAULT_255_2_778
10
17.5610107
20
162.6100878
40
0.7597205
50
315.7303962
51
0.2857903
0
ARC
8
DEFAULT_255_2_778
10
17.8487376
20
162.6143382
40
0.4719845
50
359.944048
51
0.0186519
0
ARC
8
DEFAULT_255_2_778
10
17.5687772
20
162.6133605
40
0.7519457
50
0.086204
51
85.4319233
0
ARC
8
DEFAULT_255_2_778
10
17.5599609
20
162.5709338
40
0.7949581
50
85.0420495
51
90.0100075
0
ARC
8
DEFAULT_255_2_778
10
17.5579396
20
162.6276519
40
0.7382424
50
89.8538973
51
89.9999976
0
ARC
8
DEFAULT_255_2_778
10
17.558077
20
162.6147044
40
0.7511899
50
90.01048
51
134.9443097
0
ARC
8
DEFAULT_255_2_778
10
17.5582947
20
162.6145222
40
0.7514726
50
134.9462486
51
180.0023145
0
ARC
8
DEFAULT_255_2_778
10
17.5703854
20
162.6105405
40
0.7635736
50
179.7035048
51
222.5717333
0
ARC
8
DEFAULT_255_2_778
10
17.5578483
20
162.5999991
40
0.7472099
50
222.6268256
51
270.1513439
0
ARC
8
DEFAULT_255_2_778
10
9.564442
20
162.5924858
40
1.2841942
50
233.3100129
51
270.0348017
0
ARC
8
DEFAULT_255_2_778
10
9.5765133
20
162.6128622
40
1.3077482
50
187.7860459
51
233.4193197
0
ARC
8
DEFAULT_255_2_778
10
9.5947588
20
162.6144185
40
1.3260368
50
179.9838663
51
187.7458681
0
ARC
8
DEFAULT_255_2_778
10
9.5535129
20
162.6148961
40
1.2847909
50
143.1940819
51
180.0046489
0
ARC
8
DEFAULT_255_2_778
10
9.5683078
20
162.6102006
40
1.2994598
50
94.9233187
51
143.4191345
0
ARC
8
DEFAULT_255_2_778
10
9.5651008
20
162.610912
40
1.2984798
50
89.9946509
51
94.7850278
0
ARC
8
DEFAULT_255_2_778
10
9.5673999
20
162.6048513
40
1.3045424
50
58.1404634
51
90.0956514
0
ARC
8
DEFAULT_255_2_778
10
9.5754868
20
162.6106335
40
1.2953683
50
3.4985319
51
58.3092733
0
ARC
8
DEFAULT_255_2_778
10
9.5757037
20
162.6145528
40
1.2949184
50
359.9973027
51
3.3260236
0
ARC
8
DEFAULT_255_2_778
10
9.5936726
20
162.6123448
40
1.2769512
50
359.9949307
51
0.0963391
0
ARC
8
DEFAULT_255_2_778
10
9.5661345
20
162.6124309
40
1.3044895
50
315.0232454
51
359.9912531
0
ARC
8
DEFAULT_255_2_778
10
9.5663338
20
162.61212
40
1.3041287
50
270.0008363
51
315.026719
0
LINE
8
DEFAULT_255_2_778
10
9.5663529
20
161.3079914
11
9.5652221
21
161.3079919
0
ARC
8
DEFAULT_255_2_778
10
9.5694412
20
162.6108135
40
0.7580334
50
269.6810953
51
315.6152252
0
ARC
8
DEFAULT_255_2_778
10
9.5663839
20
162.6101381
40
0.7597504
50
315.8129036
51
0.3254485
0
ARC
8
DEFAULT_255_2_778
10
9.5738176
20
162.6130565
40
0.7523058
50
0.1093155
51
85.7820321
0
ARC
8
DEFAULT_255_2_778
10
9.5653381
20
162.5715263
40
0.7943655
50
85.3923987
51
90.0083732
0
ARC
8
DEFAULT_255_2_778
10
9.5633385
20
162.6267348
40
0.7391595
50
89.8539942
51
89.9999859
0
ARC
8
DEFAULT_255_2_778
10
9.563405
20
162.6148783
40
0.7510159
50
90.0050654
51
134.9497993
0
ARC
8
DEFAULT_255_2_778
10
9.5632746
20
162.6146963
40
0.7510526
50
134.9329452
51
180.0155944
0
ARC
8
DEFAULT_255_2_778
10
9.5758388
20
162.6105203
40
0.7636271
50
179.7020056
51
222.5023072
0
ARC
8
DEFAULT_255_2_778
10
9.5632004
20
162.5999735
40
0.7471843
50
222.5608304
51
270.1550274
0
LINE
8
DEFAULT_255_2_778
10
14.0768221
20
163.8305919
11
14.0768221
21
161.3677919
0
LINE
8
DEFAULT_255_2_778
10
14.0768221
20
161.3677919
11
14.6203221
21
161.3677919
0
LINE
8
DEFAULT_255_2_778
10
14.6203221
20
161.3677919
11
14.6203221
21
163.3751919
0
LINE
8
DEFAULT_255_2_778
10
14.6203221
20
163.3751919
11
15.2632221
21
163.3751919
0
LINE
8
DEFAULT_255_2_778
10
15.2632221
20
162.6144919
11
14.7986221
21
162.6144919
0
LINE
8
DEFAULT_255_2_778
10
14.7986221
20
162.6144919
11
15.6397221
21
161.3674919
0
LINE
8
DEFAULT_255_2_778
10
15.6397221
20
161.3674919
11
16.3126221
21
161.3674919
0
LINE
8
DEFAULT_255_2_778
10
16.3126221
20
161.3674919
11
15.6993221
21
162.2678919
0
LINE
8
DEFAULT_255_2_778
10
15.3421221
20
163.8511919
11
14.6200221
21
163.8511919
0
LINE
8
DEFAULT_255_2_778
10
14.6200221
20
163.8511919
11
14.0766221
21
163.8305919
0
LINE
8
DEFAULT_255_2_778
10
14.0766221
20
163.8305919
11
14.0768221
21
163.8305919
0
LINE
8
DEFAULT_255_2_778
10
19.0142221
20
163.8305919
11
19.0142221
21
161.3677919
0
LINE
8
DEFAULT_255_2_778
10
19.0142221
20
161.3677919
11
19.5577221
21
161.3677919
0
LINE
8
DEFAULT_255_2_778
10
19.5577221
20
161.3677919
11
19.5577221
21
163.3751919
0
LINE
8
DEFAULT_255_2_778
10
19.5577221
20
163.3751919
11
20.1723221
21
163.3751919
0
LINE
8
DEFAULT_255_2_778
10
20.5578221
20
162.9999919
11
20.5578221
21
161.3677919
0
LINE
8
DEFAULT_255_2_778
10
20.5578221
20
161.3677919
11
21.1013221
21
161.3677919
0
LINE
8
DEFAULT_255_2_778
10
21.1013221
20
161.3677919
11
21.1013221
21
162.9806919
0
LINE
8
DEFAULT_255_2_778
10
20.2305221
20
163.8511919
11
19.5577221
21
163.8511919
0
LINE
8
DEFAULT_255_2_778
10
19.5577221
20
163.8511919
11
19.0142221
21
163.8305919
0
LINE
8
DEFAULT_255_2_778
10
19.0142221
20
163.8305919
11
19.0142221
21
163.8305919
0
LINE
8
DEFAULT_255_2_778
10
11.0196221
20
163.8305919
11
11.0196221
21
161.3677919
0
LINE
8
DEFAULT_255_2_778
10
11.0196221
20
161.3677919
11
11.5628221
21
161.3677919
0
LINE
8
DEFAULT_255_2_778
10
11.5628221
20
161.3677919
11
11.5628221
21
163.3751919
0
LINE
8
DEFAULT_255_2_778
10
11.5628221
20
163.3751919
11
12.1671221
21
163.3751919
0
LINE
8
DEFAULT_255_2_778
10
12.1671221
20
163.3751919
11
12.1671221
21
161.3677919
0
LINE
8
DEFAULT_255_2_778
10
12.1671221
20
161.3677919
11
12.7105221
21
161.3677919
0
LINE
8
DEFAULT_255_2_778
10
12.7105221
20
161.3677919
11
12.7105221
21
163.3751919
0
LINE
8
DEFAULT_255_2_778
10
12.7105221
20
163.3751919
11
12.9188221
21
163.3751919
0
LINE
8
DEFAULT_255_2_778
10
13.3042221
20
162.9999919
11
13.3042221
21
161.3677919
0
LINE
8
DEFAULT_255_2_778
10
13.3042221
20
161.3677919
11
13.8490221
21
161.3677919
0
LINE
8
DEFAULT_255_2_778
10
13.8490221
20
161.3677919
11
13.8490221
21
162.9806919
0
LINE
8
DEFAULT_255_2_778
10
12.9783221
20
163.8511919
11
11.5731221
21
163.8511919
0
LINE
8
DEFAULT_255_2_778
10
11.5731221
20
163.8511919
11
11.0193221
21
163.8305919
0
LINE
8
DEFAULT_255_2_778
10
11.0193221
20
163.8305919
11
11.0196221
21
163.8305919
0
LINE
8
DEFAULT_255_2_778
10
17.5598221
20
161.3079919
11
17.5598221
21
161.3082919
0
LINE
8
DEFAULT_255_2_778
10
9.5652221
20
161.3079919
11
9.5652221
21
161.3082919
0
LINE
8
DEFAULT_255_1_388
10
11.122732
20
159.1891468
11
11.2971199
21
159.1891468
0
LINE
8
DEFAULT_255_1_388
10
10.2842242
20
159.3680525
11
10.2842242
21
159.4945516
0
LINE
8
DEFAULT_255_1_388
10
11.2971199
20
159.6644217
11
11.122732
21
159.6644217
0
LINE
8
DEFAULT_255_1_388
10
10.4586121
20
159.4900337
11
10.4586121
21
159.3626312
0
ARC
8
DEFAULT_255_1_388
10
10.6805433
20
159.2563329
40
0.6202263
50
340.1774904
51
353.7812217
0
ARC
8
DEFAULT_255_1_388
10
10.8573286
20
159.1904893
40
0.4315926
50
311.4560052
51
340.4420756
0
ARC
8
DEFAULT_255_1_388
10
10.8535826
20
159.2029665
40
0.4434573
50
282.4332229
51
310.7514507
0
ARC
8
DEFAULT_255_1_388
10
10.8041644
20
159.4071703
40
0.6535262
50
269.9358869
51
282.8096729
0
ARC
8
DEFAULT_255_1_388
10
10.7983583
20
159.5584329
40
0.8048043
50
269.9995752
51
270.3612856
0
ARC
8
DEFAULT_255_1_388
10
10.7924073
20
159.2785781
40
0.5249831
50
250.7885263
51
270.6488451
0
ARC
8
DEFAULT_255_1_388
10
10.7734898
20
159.2068853
40
0.4510942
50
219.3628377
51
250.0611024
0
ARC
8
DEFAULT_255_1_388
10
10.8667772
20
159.2861653
40
0.5735046
50
193.5480293
51
219.5755675
0
ARC
8
DEFAULT_255_1_388
10
11.1335981
20
159.355452
40
0.849146
50
181.1220183
51
193.8754971
0
ARC
8
DEFAULT_255_1_388
10
11.3659214
20
159.3678914
40
1.0816971
50
179.9914644
51
181.5398227
0
ARC
8
DEFAULT_255_1_388
10
11.1582525
20
159.4987586
40
0.8740384
50
169.5837606
51
180.275782
0
ARC
8
DEFAULT_255_1_388
10
10.9515873
20
159.5369439
40
0.6638751
50
155.0367033
51
169.6002779
0
ARC
8
DEFAULT_255_1_388
10
10.8238331
20
159.5985336
40
0.5220662
50
136.7831557
51
155.2472983
0
ARC
8
DEFAULT_255_1_388
10
10.7800122
20
159.6357577
40
0.4646502
50
121.7633063
51
136.4281161
0
ARC
8
DEFAULT_255_1_388
10
10.7951962
20
159.6077049
40
0.4964979
50
95.6460018
51
121.5489589
0
ARC
8
DEFAULT_255_1_388
10
10.8128936
20
159.4829704
40
0.6223912
50
89.9245727
51
96.1375919
0
ARC
8
DEFAULT_255_1_388
10
10.8185641
20
159.4963721
40
0.6090084
50
76.6779212
51
90.456405
0
ARC
8
DEFAULT_255_1_388
10
10.8628454
20
159.675306
40
0.42469
50
47.4858803
51
76.9287069
0
ARC
8
DEFAULT_255_1_388
10
10.8463068
20
159.6640623
40
0.4441778
50
16.5424081
51
46.8934505
0
ARC
8
DEFAULT_255_1_388
10
10.6654118
20
159.6046265
40
0.6345318
50
5.4072971
51
17.0363711
0
ARC
8
DEFAULT_255_1_388
10
10.5035843
20
159.5786304
40
0.6250632
50
7.8888693
51
15.9242022
0
ARC
8
DEFAULT_255_1_388
10
10.7270828
20
159.6435309
40
0.3923364
50
15.7650676
51
27.9410069
0
ARC
8
DEFAULT_255_1_388
10
10.8512997
20
159.7100317
40
0.2514401
50
27.8167196
51
46.4007942
0
ARC
8
DEFAULT_255_1_388
10
10.8568839
20
159.7093882
40
0.2480958
50
47.4372362
51
75.0695672
0
ARC
8
DEFAULT_255_1_388
10
10.8221675
20
159.5885277
40
0.3738281
50
74.7009379
51
87.8124314
0
ARC
8
DEFAULT_255_1_388
10
10.8139292
20
159.4701659
40
0.4924321
50
87.3802571
51
90.0251599
0
ARC
8
DEFAULT_255_1_388
10
10.8095939
20
159.6021997
40
0.3604218
50
89.3451886
51
108.5744412
0
ARC
8
DEFAULT_255_1_388
10
10.7941931
20
159.6599836
40
0.3007661
50
109.2998307
51
143.3037387
0
ARC
8
DEFAULT_255_1_388
10
10.8799221
20
159.5940584
40
0.4089031
50
143.075267
51
163.1918576
0
ARC
8
DEFAULT_255_1_388
10
11.0995055
20
159.5247652
40
0.6391492
50
162.9375929
51
174.6208776
0
ARC
8
DEFAULT_255_1_388
10
11.3949437
20
159.4923711
40
0.9363344
50
174.342123
51
180.1430283
0
ARC
8
DEFAULT_255_1_388
10
11.2901978
20
159.3580117
40
0.8315986
50
179.6817261
51
189.150555
0
ARC
8
DEFAULT_255_1_388
10
11.0088727
20
159.3111559
40
0.5464044
50
188.9911061
51
203.5772363
0
ARC
8
DEFAULT_255_1_388
10
10.8874019
20
159.2607539
40
0.4149206
50
203.9075402
51
215.1312435
0
ARC
8
DEFAULT_255_1_388
10
10.7835817
20
159.1802907
40
0.2837747
50
213.9071511
51
263.8848919
0
ARC
8
DEFAULT_255_1_388
10
10.797681
20
159.2685519
40
0.3730641
50
263.1757928
51
270.1031044
0
ARC
8
DEFAULT_255_1_388
10
10.801289
20
159.4088511
40
0.5133712
50
269.6722503
51
279.0606936
0
ARC
8
DEFAULT_255_1_388
10
10.8313045
20
159.227415
40
0.3294739
50
278.8749101
51
293.6349581
0
ARC
8
DEFAULT_255_1_388
10
10.8673249
20
159.1428251
40
0.2375405
50
293.8553806
51
310.0518171
0
ARC
8
DEFAULT_255_1_388
10
10.8678758
20
159.1358021
40
0.2318463
50
311.0644687
51
332.0111037
0
ARC
8
DEFAULT_255_1_388
10
10.7337431
20
159.2097702
40
0.3850112
50
331.6586806
51
343.2877423
0
ARC
8
DEFAULT_255_1_388
10
10.5016896
20
159.2810806
40
0.6277712
50
343.1446576
51
351.0103568
0
ARC
8
DEFAULT_255_1_388
10
10.338422
20
159.3110873
40
0.7937327
50
350.71248
51
351.1626997
0
LINE
8
DEFAULT_255_1_388
10
12.0172608
20
159.2867317
11
11.7073382
21
159.2867317
0
LINE
8
DEFAULT_255_1_388
10
11.7073382
20
159.2867317
11
11.7073382
21
158.7717
0
LINE
8
DEFAULT_255_1_388
10
11.7073382
20
158.7717
11
11.5338538
21
158.7717
0
LINE
8
DEFAULT_255_1_388
10
11.5338538
20
158.7717
11
11.5338538
21
160.0872898
0
LINE
8
DEFAULT_255_1_388
10
11.5338538
20
160.0872898
11
12.0190679
21
160.0872898
0
LINE
8
DEFAULT_255_1_388
10
11.7073382
20
159.9445267
11
11.7073382
21
159.4285914
0
LINE
8
DEFAULT_255_1_388
10
11.7073382
20
159.4285914
11
12.0190679
21
159.4285914
0
LINE
8
DEFAULT_255_1_388
10
12.0290071
20
159.9445267
11
11.7073382
21
159.9445267
0
ARC
8
DEFAULT_255_1_388
10
12.0238053
20
159.4056334
40
0.6816729
50
78.8380084
51
90.398184
0
ARC
8
DEFAULT_255_1_388
10
12.0706083
20
159.6329796
40
0.449571
50
58.9633273
51
79.0810717
0
ARC
8
DEFAULT_255_1_388
10
12.1045468
20
159.6959823
40
0.3781049
50
48.0194715
51
58.4475592
0
ARC
8
DEFAULT_255_1_388
10
12.1145287
20
159.7055818
40
0.3642936
50
3.3374546
51
48.1766642
0
ARC
8
DEFAULT_255_1_388
10
11.9760094
20
159.6856581
40
0.5038766
50
359.9483251
51
4.6822857
0
ARC
8
DEFAULT_255_1_388
10
11.9900017
20
159.6808779
40
0.4899031
50
346.1879032
51
0.5059221
0
ARC
8
DEFAULT_255_1_388
10
12.1428809
20
159.6411763
40
0.3319729
50
310.8832219
51
346.5426612
0
ARC
8
DEFAULT_255_1_388
10
12.1081657
20
159.6880853
40
0.3901853
50
286.6925305
51
310.228778
0
ARC
8
DEFAULT_255_1_388
10
12.0441387
20
159.8894585
40
0.6014737
50
274.6848219
51
287.0247342
0
ARC
8
DEFAULT_255_1_388
10
12.0187936
20
160.1379088
40
0.8511785
50
269.8968222
51
275.0192639
0
ARC
8
DEFAULT_255_1_388
10
12.0218929
20
159.9041144
40
0.4755314
50
269.6596206
51
279.4150542
0
ARC
8
DEFAULT_255_1_388
10
12.0508387
20
159.7363945
40
0.3053379
50
279.2050006
51
294.9901776
0
ARC
8
DEFAULT_255_1_388
10
12.0835022
20
159.6635353
40
0.2255036
50
295.2886769
51
311.2912669
0
ARC
8
DEFAULT_255_1_388
10
12.0914763
20
159.6516938
40
0.2113522
50
311.7853512
51
347.2860549
0
ARC
8
DEFAULT_255_1_388
10
11.9807925
20
159.680143
40
0.3256011
50
346.6891629
51
0.1057086
0
ARC
8
DEFAULT_255_1_388
10
11.8885384
20
159.6834247
40
0.417863
50
359.63239
51
359.9961329
0
ARC
8
DEFAULT_255_1_388
10
12.0049989
20
159.6861987
40
0.3014155
50
359.4673371
51
15.5931159
0
ARC
8
DEFAULT_255_1_388
10
12.0753052
20
159.7051937
40
0.2285918
50
15.7441779
51
46.620186
0
ARC
8
DEFAULT_255_1_388
10
12.0586812
20
159.6860361
40
0.2539359
50
46.8628482
51
75.6676625
0
ARC
8
DEFAULT_255_1_388
10
12.0255869
20
159.5669243
40
0.3775415
50
75.2763152
51
88.2916439
0
ARC
8
DEFAULT_255_1_388
10
12.0189868
20
159.4667097
40
0.4779221
50
87.8589087
51
88.7986197
0
LINE
8
DEFAULT_255_1_388
10
13.022928
20
159.3987737
11
13.022928
21
159.2623355
0
LINE
8
DEFAULT_255_1_388
10
13.022928
20
159.2623355
11
12.5819886
21
159.2623355
0
LINE
8
DEFAULT_255_1_388
10
12.5819886
20
159.2623355
11
12.5819886
21
159.3987737
0
LINE
8
DEFAULT_255_1_388
10
12.5819886
20
159.3987737
11
13.022928
21
159.3987737
0
LINE
8
DEFAULT_255_1_388
10
14.0846163
20
159.7068892
11
13.9102283
21
159.7068892
0
LINE
8
DEFAULT_255_1_388
10
13.1313558
20
159.1530042
11
13.3057437
21
159.1530042
0
ARC
8
DEFAULT_255_1_388
10
13.984301
20
160.7132821
40
1.4087688
50
248.9196578
51
254.1442424
0
ARC
8
DEFAULT_255_1_388
10
13.795289
20
160.2266805
40
0.8867498
50
241.6337352
51
249.0064643
0
ARC
8
DEFAULT_255_1_388
10
13.6233204
20
159.9115764
40
0.5277799
50
230.4982261
51
241.8087583
0
ARC
8
DEFAULT_255_1_388
10
13.5350975
20
159.7991686
40
0.3849419
50
227.4062979
51
229.9877433
0
ARC
8
DEFAULT_255_1_388
10
13.4802321
20
159.7456155
40
0.3084129
50
200.6782127
51
228.1765252
0
ARC
8
DEFAULT_255_1_388
10
13.488369
20
159.7439277
40
0.315461
50
179.506278
51
199.8695278
0
ARC
8
DEFAULT_255_1_388
10
13.4873279
20
159.7522671
40
0.3144584
50
132.4834401
51
181.0242352
0
ARC
8
DEFAULT_255_1_388
10
13.5542483
20
159.6890788
40
0.4063094
50
129.2526113
51
133.4249077
0
ARC
8
DEFAULT_255_1_388
10
13.5708076
20
159.6642619
40
0.436014
50
101.9878945
51
128.8741833
0
ARC
8
DEFAULT_255_1_388
10
13.6156491
20
159.470636
40
0.6347415
50
89.5906376
51
102.3170567
0
ARC
8
DEFAULT_255_1_388
10
13.6235803
20
159.5064586
40
0.5989122
50
77.2359491
51
90.3248968
0
ARC
8
DEFAULT_255_1_388
10
13.6468734
20
159.6152554
40
0.4876594
50
63.8379856
51
77.0808925
0
ARC
8
DEFAULT_255_1_388
10
13.6781267
20
159.6734882
40
0.4216191
50
45.9863127
51
64.1608798
0
ARC
8
DEFAULT_255_1_388
10
13.7074661
20
159.706999
40
0.3771394
50
32.2747934
51
45.6544796
0
ARC
8
DEFAULT_255_1_388
10
13.7149467
20
159.7091426
40
0.3696765
50
359.6507495
51
32.6129943
0
ARC
8
DEFAULT_255_1_388
10
13.608865
20
159.7096788
40
0.3013762
50
359.469654
51
14.983205
0
ARC
8
DEFAULT_255_1_388
10
13.6881902
20
159.7309288
40
0.2192542
50
14.9781954
51
48.2004799
0
ARC
8
DEFAULT_255_1_388
10
13.6697013
20
159.7076937
40
0.2489048
50
48.5926661
51
74.1242559
0
ARC
8
DEFAULT_255_1_388
10
13.6321815
20
159.5838607
40
0.3782845
50
73.7889321
51
86.6653996
0
ARC
8
DEFAULT_255_1_388
10
13.620663
20
159.4480955
40
0.5145025
50
86.2642725
51
90.0533288
0
ARC
8
DEFAULT_255_1_388
10
13.6174723
20
159.4925376
40
0.4700681
50
89.669455
51
99.2313411
0
ARC
8
DEFAULT_255_1_388
10
13.5901883
20
159.6550401
40
0.3052945
50
99.0695987
51
113.7659242
0
ARC
8
DEFAULT_255_1_388
10
13.5593877
20
159.7276772
40
0.226407
50
114.0402885
51
127.9848946
0
ARC
8
DEFAULT_255_1_388
10
13.5323353
20
159.7609884
40
0.1835045
50
127.7287217
51
176.7106493
0
ARC
8
DEFAULT_255_1_388
10
13.6087018
20
159.749621
40
0.2604907
50
175.1780759
51
180.0581213
0
ARC
8
DEFAULT_255_1_388
10
13.5138362
20
159.7482411
40
0.1656287
50
179.6140658
51
228.124674
0
ARC
8
DEFAULT_255_1_388
10
13.5635719
20
159.794294
40
0.2332038
50
226.5785315
51
230.8792476
0
ARC
8
DEFAULT_255_1_388
10
13.6165206
20
159.8645908
40
0.3211664
50
231.4636401
51
241.9261664
0
ARC
8
DEFAULT_255_1_388
10
13.7511989
20
160.1124349
40
0.6032345
50
241.7177136
51
248.3259138
0
ARC
8
DEFAULT_255_1_388
10
13.9070584
20
160.4985771
40
1.0196417
50
248.2007377
51
252.4527713
0
ARC
8
DEFAULT_255_1_388
10
14.0424111
20
160.9170092
40
1.4594143
50
252.3388938
51
254.347037
0
ARC
8
DEFAULT_255_1_388
10
13.1939411
20
157.8822095
40
1.6917621
50
71.0197462
51
74.4085467
0
ARC
8
DEFAULT_255_1_388
10
13.3846499
20
158.4327144
40
1.1091618
50
66.1845203
51
71.086519
0
ARC
8
DEFAULT_255_1_388
10
13.5597048
20
158.8268439
40
0.6779073
50
59.3537334
51
66.269255
0
ARC
8
DEFAULT_255_1_388
10
13.6596774
20
158.9959777
40
0.4814366
50
49.1021732
51
59.3294421
0
ARC
8
DEFAULT_255_1_388
10
13.7517762
20
159.1009575
40
0.3417875
50
32.7924183
51
49.2503526
0
ARC
8
DEFAULT_255_1_388
10
13.7867376
20
159.1259311
40
0.2988789
50
31.121225
51
32.3977355
0
ARC
8
DEFAULT_255_1_388
10
13.7779554
20
159.1226728
40
0.3080861
50
8.1116803
51
30.7958224
0
ARC
8
DEFAULT_255_1_388
10
13.68679
20
159.1071437
40
0.4005385
50
359.8390945
51
8.4707348
0
ARC
8
DEFAULT_255_1_388
10
13.7571948
20
159.1016751
40
0.3301608
50
337.4732479
51
0.7538283
0
ARC
8
DEFAULT_255_1_388
10
13.7772973
20
159.0994554
40
0.3107929
50
307.5917028
51
336.4313755
0
ARC
8
DEFAULT_255_1_388
10
13.7262031
20
159.1562509
40
0.3870096
50
307.6560665
51
308.4561779
0
ARC
8
DEFAULT_255_1_388
10
13.6996247
20
159.1970832
40
0.435591
50
284.3733666
51
307.1426212
0
ARC
8
DEFAULT_255_1_388
10
13.6439141
20
159.4020391
40
0.6479685
50
272.4384566
51
284.6464689
0
ARC
8
DEFAULT_255_1_388
10
13.6296526
20
159.6044434
40
0.8508149
50
269.9708517
51
272.8180721
0
ARC
8
DEFAULT_255_1_388
10
13.6248209
20
159.3752283
40
0.6216151
50
248.2707343
51
270.4054609
0
ARC
8
DEFAULT_255_1_388
10
13.618708
20
159.3537673
40
0.5994203
50
246.1380358
51
248.054058
0
ARC
8
DEFAULT_255_1_388
10
13.5716223
20
159.2548705
40
0.4899388
50
233.1671897
51
246.4951656
0
ARC
8
DEFAULT_255_1_388
10
13.5092858
20
159.1707137
40
0.3852115
50
215.3403381
51
233.084328
0
ARC
8
DEFAULT_255_1_388
10
13.4786222
20
159.1484093
40
0.3472969
50
179.2419235
51
215.2648426
0
ARC
8
DEFAULT_255_1_388
10
13.5649773
20
159.1499979
40
0.259251
50
179.3355796
51
199.1045873
0
ARC
8
DEFAULT_255_1_388
10
13.5275915
20
159.1402223
40
0.2207454
50
199.8830064
51
232.7061328
0
ARC
8
DEFAULT_255_1_388
10
13.5807189
20
159.2070456
40
0.306101
50
232.3736206
51
255.5136621
0
ARC
8
DEFAULT_255_1_388
10
13.6190695
20
159.3470177
40
0.4512213
50
255.2447928
51
267.5318292
0
ARC
8
DEFAULT_255_1_388
10
13.6289162
20
159.4856709
40
0.5901825
50
267.1564563
51
270.0294721
0
ARC
8
DEFAULT_255_1_388
10
13.6320487
20
159.4357623
40
0.5402814
50
269.6999944
51
278.1662446
0
ARC
8
DEFAULT_255_1_388
10
13.6608515
20
159.2410974
40
0.3435003
50
278.0229022
51
290.6255326
0
ARC
8
DEFAULT_255_1_388
10
13.6999681
20
159.1367547
40
0.2320666
50
290.6616368
51
307.0374127
0
ARC
8
DEFAULT_255_1_388
10
13.7337581
20
159.095304
40
0.1786372
50
306.3942078
51
355.303191
0
ARC
8
DEFAULT_255_1_388
10
13.6761874
20
159.1039186
40
0.2367516
50
354.3662092
51
0.0709489
0
ARC
8
DEFAULT_255_1_388
10
13.6921743
20
159.1064561
40
0.2207761
50
359.4175379
51
16.1975911
0
ARC
8
DEFAULT_255_1_388
10
13.7433861
20
159.1204954
40
0.1676828
50
16.4721294
51
52.6261798
0
ARC
8
DEFAULT_255_1_388
10
13.6510368
20
158.9985606
40
0.3206412
50
52.7381828
51
62.4979144
0
ARC
8
DEFAULT_255_1_388
10
13.4952121
20
158.7053236
40
0.6527035
50
62.2517425
51
68.1219454
0
ARC
8
DEFAULT_255_1_388
10
13.3017609
20
158.2298951
40
1.1659797
50
68.006043
51
71.8055127
0
ARC
8
DEFAULT_255_1_388
10
13.0997517
20
157.6240723
40
1.8045908
50
71.718361
51
73.9260743
0
LINE
8
DEFAULT_255_1_388
10
14.2409329
20
159.2334214
11
14.2409329
21
159.2641426
0
LINE
8
DEFAULT_255_1_388
10
15.0704051
20
159.2822139
11
15.0704051
21
159.2126395
0
LINE
8
DEFAULT_255_1_388
10
15.0704051
20
159.2126395
11
14.4080923
21
159.2126395
0
LINE
8
DEFAULT_255_1_388
10
14.9556524
20
159.0219874
11
15.0577552
21
158.9424737
0
LINE
8
DEFAULT_255_1_388
10
14.4135137
20
159.3499813
11
14.9032457
21
159.3499813
0
LINE
8
DEFAULT_255_1_388
10
14.9032457
20
159.3499813
11
14.9032457
21
159.3626312
0
ARC
8
DEFAULT_255_1_388
10
14.684109
20
159.245921
40
0.4923176
50
252.326534
51
270.5809615
0
ARC
8
DEFAULT_255_1_388
10
14.6610555
20
159.162594
40
0.4059384
50
223.3000488
51
251.8562489
0
ARC
8
DEFAULT_255_1_388
10
14.6848335
20
159.1856898
40
0.4390832
50
190.9374369
51
223.3654369
0
ARC
8
DEFAULT_255_1_388
10
14.8789012
20
159.2295598
40
0.63798
50
179.6531919
51
191.4988561
0
ARC
8
DEFAULT_255_1_388
10
14.8926039
20
159.2677571
40
0.6516811
50
167.4005523
51
180.3177836
0
ARC
8
DEFAULT_255_1_388
10
14.7742711
20
159.2927853
40
0.5307402
50
154.1835149
51
167.2508278
0
ARC
8
DEFAULT_255_1_388
10
14.7032302
20
159.3301925
40
0.4505076
50
134.3150225
51
154.5315008
0
ARC
8
DEFAULT_255_1_388
10
14.6787637
20
159.351655
40
0.4180662
50
122.8617482
51
133.9707159
0
ARC
8
DEFAULT_255_1_388
10
14.6671244
20
159.3766882
40
0.3907416
50
89.8248474
51
123.4199325
0
ARC
8
DEFAULT_255_1_388
10
14.6727542
20
159.3039352
40
0.4635141
50
74.7874349
51
90.5482648
0
ARC
8
DEFAULT_255_1_388
10
14.7058006
20
159.4259987
40
0.3370565
50
39.8178888
51
74.7634383
0
ARC
8
DEFAULT_255_1_388
10
14.6481248
20
159.3810356
40
0.4101553
50
16.8990848
51
39.4830125
0
ARC
8
DEFAULT_255_1_388
10
14.4349862
20
159.3127711
40
0.6339427
50
4.9634768
51
17.2027767
0
ARC
8
DEFAULT_255_1_388
10
14.1629267
20
159.28406
40
0.9074803
50
359.8834402
51
5.2832409
0
ARC
8
DEFAULT_255_1_388
10
14.8421625
20
159.2200981
40
0.4341343
50
180.9844233
51
194.9402766
0
ARC
8
DEFAULT_255_1_388
10
14.7240791
20
159.187817
40
0.3117211
50
194.8030557
51
222.0412897
0
ARC
8
DEFAULT_255_1_388
10
14.6898663
20
159.1538715
40
0.2635903
50
221.541578
51
268.8616004
0
ARC
8
DEFAULT_255_1_388
10
14.6980783
20
159.229928
40
0.3398611
50
267.7321071
51
270.009808
0
ARC
8
DEFAULT_255_1_388
10
14.7000847
20
159.2526178
40
0.3625561
50
269.6921218
51
280.4122297
0
ARC
8
DEFAULT_255_1_388
10
14.7199258
20
159.1492767
40
0.2573323
50
280.2257165
51
298.633539
0
ARC
8
DEFAULT_255_1_388
10
14.7324672
20
159.1228578
40
0.2281403
50
299.0485543
51
300.4624141
0
ARC
8
DEFAULT_255_1_388
10
14.6565652
20
159.2493796
40
0.3756797
50
300.6578578
51
322.037749
0
ARC
8
DEFAULT_255_1_388
10
14.6195174
20
159.2817266
40
0.4247956
50
321.671786
51
322.3059078
0
ARC
8
DEFAULT_255_1_388
10
14.7218737
20
159.1523267
40
0.3960488
50
276.9729088
51
328.0035579
0
ARC
8
DEFAULT_255_1_388
10
14.6907207
20
159.3188609
40
0.5652345
50
269.8358003
51
278.0581296
0
ARC
8
DEFAULT_255_1_388
10
14.6651506
20
159.402682
40
0.2274263
50
89.2017936
51
117.2852353
0
ARC
8
DEFAULT_255_1_388
10
14.6711257
20
159.3979637
40
0.2343798
50
118.0546404
51
137.4544511
0
ARC
8
DEFAULT_255_1_388
10
14.7132901
20
159.3596556
40
0.2913471
50
137.5109688
51
158.8516701
0
ARC
8
DEFAULT_255_1_388
10
14.8413001
20
159.3079902
40
0.4293804
50
158.5845496
51
170.1719753
0
ARC
8
DEFAULT_255_1_388
10
14.9729337
20
159.2818519
40
0.5635533
50
169.8378964
51
173.0563877
0
ARC
8
DEFAULT_255_1_388
10
14.4444621
20
159.3393187
40
0.4593755
50
2.9089079
51
12.88469
0
ARC
8
DEFAULT_255_1_388
10
14.598654
20
159.3756082
40
0.3009753
50
12.6957404
51
28.6405841
0
ARC
8
DEFAULT_255_1_388
10
14.6596037
20
159.4071577
40
0.232366
50
29.016559
51
41.1492981
0
ARC
8
DEFAULT_255_1_388
10
14.6824016
20
159.427008
40
0.2021373
50
41.1646967
51
85.001362
0
ARC
8
DEFAULT_255_1_388
10
14.668802
20
159.3443775
40
0.2857091
50
83.728216
51
90.0968824
0
LINE
8
DEFAULT_255_1_388
10
15.7363321
20
159.7547781
11
15.7363321
21
159.599365
0
LINE
8
DEFAULT_255_1_388
10
15.4309273
20
159.4656375
11
15.4309273
21
158.7717
0
LINE
8
DEFAULT_255_1_388
10
15.4309273
20
158.7717
11
15.2637679
21
158.7717
0
LINE
8
DEFAULT_255_1_388
10
15.2637679
20
158.7717
11
15.2637679
21
159.7493567
0
LINE
8
DEFAULT_255_1_388
10
15.2637679
20
159.7493567
11
15.4264095
21
159.7493567
0
LINE
8
DEFAULT_255_1_388
10
15.4264095
20
159.7493567
11
15.4291202
21
159.6364112
0
ARC
8
DEFAULT_255_1_388
10
15.6613481
20
159.1427068
40
0.4627735
50
80.6751522
51
86.893806
0
ARC
8
DEFAULT_255_1_388
10
15.654531
20
159.0335103
40
0.5721798
50
86.8046851
51
90.0423898
0
ARC
8
DEFAULT_255_1_388
10
15.650373
20
159.3102197
40
0.2954939
50
89.2758283
51
106.6212906
0
ARC
8
DEFAULT_255_1_388
10
15.6273755
20
159.3938009
40
0.2088351
50
107.1347109
51
157.6456887
0
ARC
8
DEFAULT_255_1_388
10
15.7041817
20
159.3510908
40
0.296292
50
155.6557383
51
157.256838
0
ARC
8
DEFAULT_255_1_388
10
15.6821431
20
159.4821472
40
0.296341
50
127.8167201
51
148.6300223
0
ARC
8
DEFAULT_255_1_388
10
15.6536178
20
159.5114066
40
0.2557782
50
91.3329934
51
126.7875218
0
ARC
8
DEFAULT_255_1_388
10
15.6621566
20
159.4310718
40
0.3363561
50
89.9858247
51
92.4688453
0
ARC
8
DEFAULT_255_1_388
10
15.6631059
20
159.4619114
40
0.3055179
50
85.3587643
51
90.1624243
0
ARC
8
DEFAULT_255_1_388
10
15.6726124
20
159.5748458
40
0.1921848
50
78.4019195
51
85.4592653
0
ARC
8
DEFAULT_255_1_388
10
15.6889185
20
159.6526142
40
0.1127267
50
67.7849217
51
78.573798
0
ARC
8
DEFAULT_255_1_388
10
15.7010819
20
159.6841374
40
0.0789473
50
63.4805074
51
67.3074739
0
LINE
8
DEFAULT_255_1_388
10
16.0715545
20
159.7493567
11
16.0715545
21
158.7717
0
LINE
8
DEFAULT_255_1_388
10
16.0715545
20
158.7717
11
15.9043951
21
158.7717
0
LINE
8
DEFAULT_255_1_388
10
15.9043951
20
158.7717
11
15.9043951
21
159.7493567
0
LINE
8
DEFAULT_255_1_388
10
15.9043951
20
159.7493567
11
16.0715545
21
159.7493567
0
ARC
8
DEFAULT_255_1_388
10
16.0009313
20
160.0097428
40
0.1100948
50
161.4148232
51
180.5532607
0
ARC
8
DEFAULT_255_1_388
10
15.9869623
20
160.0135875
40
0.0956324
50
138.1830164
51
160.9307633
0
ARC
8
DEFAULT_255_1_388
10
15.974581
20
160.0243313
40
0.0792417
50
104.6371663
51
138.0036136
0
ARC
8
DEFAULT_255_1_388
10
15.9866349
20
159.9830963
40
0.1221906
50
92.0601206
51
105.2198859
0
ARC
8
DEFAULT_255_1_388
10
15.9892713
20
159.9442583
40
0.161103
50
89.9790681
51
92.5006086
0
ARC
8
DEFAULT_255_1_388
10
15.9903889
20
159.9698998
40
0.1354654
50
78.0234649
51
90.4478111
0
ARC
8
DEFAULT_255_1_388
10
16.0007473
20
160.0164203
40
0.0878096
50
55.0521508
51
78.336297
0
ARC
8
DEFAULT_255_1_388
10
16.0064008
20
160.0259168
40
0.0767913
50
42.0506198
51
54.4508489
0
ARC
8
DEFAULT_255_1_388
10
15.991204
20
160.0119821
40
0.0974091
50
1.7493657
51
42.1498724
0
ARC
8
DEFAULT_255_1_388
10
15.9625946
20
160.0087166
40
0.1261276
50
359.9832635
51
2.8353994
0
ARC
8
DEFAULT_255_1_388
10
15.9812356
20
160.0076412
40
0.1074916
50
342.1062453
51
0.5535864
0
ARC
8
DEFAULT_255_1_388
10
15.997278
20
160.0032197
40
0.0908695
50
316.7110111
51
341.6513114
0
ARC
8
DEFAULT_255_1_388
10
16.0048212
20
159.9964607
40
0.0807447
50
285.4398289
51
316.5320129
0
ARC
8
DEFAULT_255_1_388
10
15.9924383
20
160.0376023
40
0.1237022
50
272.3543902
51
285.8951677
0
ARC
8
DEFAULT_255_1_388
10
15.9894093
20
160.0791742
40
0.1653687
50
269.9725761
51
272.8112722
0
ARC
8
DEFAULT_255_1_388
10
15.9883145
20
160.0540727
40
0.1402709
50
258.8433431
51
270.4148607
0
ARC
8
DEFAULT_255_1_388
10
15.9781925
20
160.0050739
40
0.0902407
50
238.54281
51
259.1289544
0
ARC
8
DEFAULT_255_1_388
10
15.9705246
20
159.9911694
40
0.0743817
50
222.5056676
51
237.9918132
0
ARC
8
DEFAULT_255_1_388
10
15.984884
20
160.0042295
40
0.0937918
50
184.1070774
51
222.4604165
0
ARC
8
DEFAULT_255_1_388
10
16.0151253
20
160.0085538
40
0.1242838
50
179.9419581
51
185.0970785
0
LINE
8
DEFAULT_255_1_388
10
16.296542
20
159.2334214
11
16.296542
21
159.2641426
0
LINE
8
DEFAULT_255_1_388
10
17.1260142
20
159.2822139
11
17.1260142
21
159.2126395
0
LINE
8
DEFAULT_255_1_388
10
17.1260142
20
159.2126395
11
16.4637015
21
159.2126395
0
LINE
8
DEFAULT_255_1_388
10
17.0112615
20
159.0219874
11
17.1133643
21
158.9424737
0
LINE
8
DEFAULT_255_1_388
10
16.4691229
20
159.3499813
11
16.9588548
21
159.3499813
0
LINE
8
DEFAULT_255_1_388
10
16.9588548
20
159.3499813
11
16.9588548
21
159.3626312
0
ARC
8
DEFAULT_255_1_388
10
16.7397181
20
159.245921
40
0.4923176
50
252.326534
51
270.5809615
0
ARC
8
DEFAULT_255_1_388
10
16.7166646
20
159.162594
40
0.4059384
50
223.3000488
51
251.8562489
0
ARC
8
DEFAULT_255_1_388
10
16.7404426
20
159.1856898
40
0.4390832
50
190.9374369
51
223.3654369
0
ARC
8
DEFAULT_255_1_388
10
16.9345104
20
159.2295598
40
0.63798
50
179.6531919
51
191.4988561
0
ARC
8
DEFAULT_255_1_388
10
16.9482131
20
159.2677571
40
0.6516811
50
167.4005523
51
180.3177836
0
ARC
8
DEFAULT_255_1_388
10
16.8298802
20
159.2927853
40
0.5307402
50
154.1835149
51
167.2508278
0
ARC
8
DEFAULT_255_1_388
10
16.7588393
20
159.3301925
40
0.4505076
50
134.3150225
51
154.5315008
0
ARC
8
DEFAULT_255_1_388
10
16.7343728
20
159.351655
40
0.4180662
50
122.8617482
51
133.9707159
0
ARC
8
DEFAULT_255_1_388
10
16.7227335
20
159.3766882
40
0.3907416
50
89.8248474
51
123.4199325
0
ARC
8
DEFAULT_255_1_388
10
16.7283633
20
159.3039352
40
0.4635141
50
74.7874349
51
90.5482648
0
ARC
8
DEFAULT_255_1_388
10
16.7614097
20
159.4259987
40
0.3370565
50
39.8178888
51
74.7634383
0
ARC
8
DEFAULT_255_1_388
10
16.7037339
20
159.3810356
40
0.4101553
50
16.8990848
51
39.4830125
0
ARC
8
DEFAULT_255_1_388
10
16.4905954
20
159.3127711
40
0.6339427
50
4.9634768
51
17.2027767
0
ARC
8
DEFAULT_255_1_388
10
16.2185359
20
159.28406
40
0.9074803
50
359.8834402
51
5.2832409
0
ARC
8
DEFAULT_255_1_388
10
16.8977716
20
159.2200981
40
0.4341343
50
180.9844233
51
194.9402766
0
ARC
8
DEFAULT_255_1_388
10
16.7796882
20
159.187817
40
0.3117211
50
194.8030557
51
222.0412897
0
ARC
8
DEFAULT_255_1_388
10
16.7454754
20
159.1538715
40
0.2635903
50
221.541578
51
268.8616004
0
ARC
8
DEFAULT_255_1_388
10
16.7536875
20
159.229928
40
0.3398611
50
267.7321071
51
270.009808
0
ARC
8
DEFAULT_255_1_388
10
16.7556938
20
159.2526178
40
0.3625561
50
269.6921218
51
280.4122297
0
ARC
8
DEFAULT_255_1_388
10
16.775535
20
159.1492767
40
0.2573323
50
280.2257165
51
298.633539
0
ARC
8
DEFAULT_255_1_388
10
16.7880764
20
159.1228578
40
0.2281403
50
299.0485543
51
300.4624141
0
ARC
8
DEFAULT_255_1_388
10
16.7121744
20
159.2493796
40
0.3756797
50
300.6578578
51
322.037749
0
ARC
8
DEFAULT_255_1_388
10
16.6751265
20
159.2817266
40
0.4247956
50
321.671786
51
322.3059078
0
ARC
8
DEFAULT_255_1_388
10
16.7774828
20
159.1523267
40
0.3960488
50
276.9729088
51
328.0035579
0
ARC
8
DEFAULT_255_1_388
10
16.7463299
20
159.3188609
40
0.5652345
50
269.8358003
51
278.0581296
0
ARC
8
DEFAULT_255_1_388
10
16.7207598
20
159.402682
40
0.2274263
50
89.2017936
51
117.2852353
0
ARC
8
DEFAULT_255_1_388
10
16.7267348
20
159.3979637
40
0.2343798
50
118.0546404
51
137.4544511
0
ARC
8
DEFAULT_255_1_388
10
16.7688992
20
159.3596556
40
0.2913471
50
137.5109688
51
158.8516701
0
ARC
8
DEFAULT_255_1_388
10
16.8969093
20
159.3079902
40
0.4293804
50
158.5845496
51
170.1719753
0
ARC
8
DEFAULT_255_1_388
10
17.0285428
20
159.2818519
40
0.5635533
50
169.8378964
51
173.0563877
0
ARC
8
DEFAULT_255_1_388
10
16.5000712
20
159.3393187
40
0.4593755
50
2.9089079
51
12.88469
0
ARC
8
DEFAULT_255_1_388
10
16.6542631
20
159.3756082
40
0.3009753
50
12.6957404
51
28.6405841
0
ARC
8
DEFAULT_255_1_388
10
16.7152128
20
159.4071577
40
0.232366
50
29.016559
51
41.1492981
0
ARC
8
DEFAULT_255_1_388
10
16.7380107
20
159.427008
40
0.2021373
50
41.1646967
51
85.001362
0
ARC
8
DEFAULT_255_1_388
10
16.7244111
20
159.3443775
40
0.2857091
50
83.728216
51
90.0968824
0
LINE
8
DEFAULT_255_1_388
10
18.0467464
20
159.4620232
11
17.8786834
21
159.4620232
0
LINE
8
DEFAULT_255_1_388
10
17.2787166
20
159.072587
11
17.445876
21
159.072587
0
ARC
8
DEFAULT_255_1_388
10
17.7450125
20
159.0326935
40
0.1436198
50
359.3335374
51
18.5869869
0
ARC
8
DEFAULT_255_1_388
10
17.7684864
20
159.0389015
40
0.1194022
50
19.3538149
51
54.6486387
0
ARC
8
DEFAULT_255_1_388
10
17.7117852
20
158.9607077
40
0.2159877
50
54.3821575
51
65.0627557
0
ARC
8
DEFAULT_255_1_388
10
17.6253199
20
158.7788032
40
0.4173927
50
64.8282172
51
71.4204388
0
ARC
8
DEFAULT_255_1_388
10
17.5238094
20
158.4809782
40
0.7320403
50
71.3166092
51
75.8005927
0
ARC
8
DEFAULT_255_1_388
10
17.429198
20
158.1164881
40
1.108605
50
75.6810806
51
78.0063886
0
ARC
8
DEFAULT_255_1_388
10
17.9296569
20
160.476653
40
1.3040363
50
254.69024
51
258.0465557
0
ARC
8
DEFAULT_255_1_388
10
17.8128438
20
160.0536742
40
0.8652254
50
249.9010634
51
254.7555005
0
ARC
8
DEFAULT_255_1_388
10
17.699949
20
159.747068
40
0.5384962
50
243.3097375
51
249.970939
0
ARC
8
DEFAULT_255_1_388
10
17.6291904
20
159.6059721
40
0.380652
50
234.4047808
51
243.2861752
0
ARC
8
DEFAULT_255_1_388
10
17.559154
20
159.5092645
40
0.2612502
50
220.8665526
51
234.5497192
0
ARC
8
DEFAULT_255_1_388
10
17.5206538
20
159.4742203
40
0.2092097
50
214.3063391
51
220.5075055
0
ARC
8
DEFAULT_255_1_388
10
17.5177652
20
159.4707577
40
0.2048755
50
186.9131438
51
213.9617385
0
ARC
8
DEFAULT_255_1_388
10
17.5776042
20
159.4804431
40
0.2654563
50
179.8802037
51
187.4338578
0
ARC
8
DEFAULT_255_1_388
10
17.5602007
20
159.4827049
40
0.2480581
50
132.0053393
51
180.3942351
0
ARC
8
DEFAULT_255_1_388
10
17.634092
20
159.4144997
40
0.3483116
50
129.2317021
51
133.5294826
0
ARC
8
DEFAULT_255_1_388
10
17.6400889
20
159.4039383
40
0.360291
50
100.440976
51
128.9081567
0
ARC
8
DEFAULT_255_1_388
10
17.6709006
20
159.2593357
40
0.5080996
50
89.6985063
51
100.9029043
0
ARC
8
DEFAULT_255_1_388
10
17.6773161
20
159.2412739
40
0.5261675
50
77.6967144
51
90.4074623
0
ARC
8
DEFAULT_255_1_388
10
17.7145513
20
159.4018503
40
0.3613511
50
50.7278431
51
78.0397473
0
ARC
8
DEFAULT_255_1_388
10
17.7645556
20
159.4601173
40
0.2845966
50
25.754382
51
51.0957456
0
ARC
8
DEFAULT_255_1_388
10
17.7646923
20
159.4657311
40
0.2820785
50
359.2468358
51
24.7393861
0
ARC
8
DEFAULT_255_1_388
10
17.7326811
20
159.4625204
40
0.1460032
50
359.8048924
51
45.1543866
0
ARC
8
DEFAULT_255_1_388
10
17.6868544
20
159.4233291
40
0.2061641
50
43.8053172
51
49.625485
0
ARC
8
DEFAULT_255_1_388
10
17.6877987
20
159.4234849
40
0.2054344
50
49.7979696
51
82.121802
0
ARC
8
DEFAULT_255_1_388
10
17.674407
20
159.3507473
40
0.2793404
50
81.4458692
51
90.1707936
0
ARC
8
DEFAULT_255_1_388
10
17.6716646
20
159.2915478
40
0.3385438
50
89.6768097
51
99.1267111
0
ARC
8
DEFAULT_255_1_388
10
17.6523628
20
159.4078405
40
0.2206627
50
98.9679878
51
113.4573418
0
ARC
8
DEFAULT_255_1_388
10
17.6303309
20
159.4605193
40
0.1635691
50
113.7230234
51
127.4758155
0
ARC
8
DEFAULT_255_1_388
10
17.6113891
20
159.4830433
40
0.1341757
50
126.9086647
51
150.3160891
0
ARC
8
DEFAULT_255_1_388
10
17.6060222
20
159.488768
40
0.1266992
50
151.363328
51
180.0701537
0
ARC
8
DEFAULT_255_1_388
10
17.6370443
20
159.486423
40
0.1577364
50
179.2045432
51
180.0012892
0
ARC
8
DEFAULT_255_1_388
10
17.6001554
20
159.4849515
40
0.1208564
50
179.3040542
51
198.4225767
0
ARC
8
DEFAULT_255_1_388
10
17.5785696
20
159.4793337
40
0.0986126
50
199.2893055
51
238.6036855
0
ARC
8
DEFAULT_255_1_388
10
17.6463789
20
159.5857752
40
0.2248082
50
237.9844191
51
246.8751643
0
ARC
8
DEFAULT_255_1_388
10
17.7428649
20
159.8064861
40
0.4656832
50
246.6226408
51
251.8174794
0
ARC
8
DEFAULT_255_1_388
10
17.8589116
20
160.1549909
40
0.8329993
50
251.7140983
51
255.0775146
0
ARC
8
DEFAULT_255_1_388
10
17.993864
20
160.6576708
40
1.3534786
50
255.0370864
51
257.4701577
0
ARC
8
DEFAULT_255_1_388
10
17.4191185
20
158.0682535
40
1.298957
50
73.6835762
51
77.5015749
0
ARC
8
DEFAULT_255_1_388
10
17.5416099
20
158.4844699
40
0.8650912
50
68.7042835
51
73.7249997
0
ARC
8
DEFAULT_255_1_388
10
17.6431663
20
158.7461853
40
0.584363
50
63.5907059
51
68.6622978
0
ARC
8
DEFAULT_255_1_388
10
17.7299405
20
158.9192157
40
0.3907955
50
54.7106507
51
63.7018033
0
ARC
8
DEFAULT_255_1_388
10
17.8001792
20
159.0173287
40
0.2701345
50
41.0624597
51
54.8488532
0
ARC
8
DEFAULT_255_1_388
10
17.8385571
20
159.0525439
40
0.2180695
50
34.4952722
51
40.7097584
0
ARC
8
DEFAULT_255_1_388
10
17.8438536
20
159.0580204
40
0.2106083
50
9.3761233
51
34.0834046
0
ARC
8
DEFAULT_255_1_388
10
17.7703664
20
159.0439174
40
0.2854177
50
359.7695264
51
9.7660556
0
ARC
8
DEFAULT_255_1_388
10
17.7925958
20
159.0390841
40
0.2632121
50
335.8653103
51
0.8022272
0
ARC
8
DEFAULT_255_1_388
10
17.8010363
20
159.0405951
40
0.2561728
50
307.7357819
51
334.7849324
0
ARC
8
DEFAULT_255_1_388
10
17.7565004
20
159.0905553
40
0.3229737
50
307.0217048
51
308.5596894
0
ARC
8
DEFAULT_255_1_388
10
17.7269588
20
159.1347063
40
0.3760237
50
282.9361285
51
306.5649033
0
ARC
8
DEFAULT_255_1_388
10
17.686265
20
159.2997871
40
0.5460314
50
271.1026197
51
283.2199962
0
ARC
8
DEFAULT_255_1_388
10
17.6790839
20
159.4398744
40
0.6862456
50
269.9926344
51
271.4770056
0
ARC
8
DEFAULT_255_1_388
10
17.6761409
20
159.3181633
40
0.5645418
50
259.0723633
51
270.2897324
0
ARC
8
DEFAULT_255_1_388
10
17.6522633
20
159.1924887
40
0.4366198
50
245.4965026
51
259.0225745
0
ARC
8
DEFAULT_255_1_388
10
17.620985
20
159.1270491
40
0.3641037
50
228.9686619
51
245.7042678
0
ARC
8
DEFAULT_255_1_388
10
17.5911125
20
159.0902573
40
0.3167435
50
214.4015391
51
228.6759028
0
ARC
8
DEFAULT_255_1_388
10
17.5585622
20
159.0724429
40
0.2798456
50
179.9704983
51
215.1574389
0
ARC
8
DEFAULT_255_1_388
10
17.6373834
20
159.0807148
40
0.1916798
50
182.430239
51
203.0329751
0
ARC
8
DEFAULT_255_1_388
10
17.616643
20
159.0743675
40
0.1701248
50
203.7987464
51
232.5483345
0
ARC
8
DEFAULT_255_1_388
10
17.6477515
20
159.1139049
40
0.2204299
50
232.3784541
51
256.3934343
0
ARC
8
DEFAULT_255_1_388
10
17.6736662
20
159.2140359
40
0.3238512
50
256.1048329
51
268.4627478
0
ARC
8
DEFAULT_255_1_388
10
17.6789081
20
159.3044297
40
0.4143627
50
268.0734924
51
270.0121004
0
ARC
8
DEFAULT_255_1_388
10
17.68098
20
159.2730191
40
0.3829573
50
269.7031202
51
278.8338867
0
ARC
8
DEFAULT_255_1_388
10
17.7014664
20
159.1458553
40
0.2541568
50
278.6727378
51
292.82331
0
ARC
8
DEFAULT_255_1_388
10
17.724021
20
159.0894546
40
0.1934264
50
293.1457581
51
303.6656964
0
ARC
8
DEFAULT_255_1_388
10
17.7538284
20
159.0471159
40
0.1416713
50
303.1245849
51
321.7434683
0
ARC
8
DEFAULT_255_1_388
10
17.7747365
20
159.028778
40
0.1139081
50
322.4747616
51
1.1293039
0
LINE
8
DEFAULT_255_2_778
10
9.3932417
20
141.4197481
11
10.7161417
21
141.4197481
0
LINE
8
DEFAULT_255_2_778
10
10.7161417
20
141.4197481
11
10.7161417
21
76.5968481
0
LINE
8
DEFAULT_255_2_778
10
10.7161417
20
71.3051481
11
10.7161417
21
6.4822481
0
LINE
8
DEFAULT_255_2_778
10
10.7161417
20
6.4822481
11
9.3932417
21
6.4822481
0
LINE
8
DEFAULT_255_2_778
10
9.3932834
20
76.5968333
11
12.0390834
21
76.5968333
0
LINE
8
DEFAULT_255_2_778
10
12.0390834
20
76.5968333
11
12.0390834
21
71.3051333
0
LINE
8
DEFAULT_255_2_778
10
12.0390834
20
71.3051333
11
9.3932834
21
71.3051333
0
LINE
8
DEFAULT_255_2_778
10
9.3932834
20
71.3051333
11
9.3932834
21
76.5968333
0
LINE
8
DEFAULT_255_2_778
10
10.187
20
71.8343666
11
10.187
21
76.0676666
0
LINE
8
DEFAULT_255_2_778
10
9.9224167
20
75.273975
11
10.1870167
21
76.067675
0
LINE
8
DEFAULT_255_2_778
10
10.1870167
20
76.067675
11
10.4516167
21
75.273975
0
LINE
8
DEFAULT_255_2_778
10
10.4516167
20
75.273975
11
9.9224167
21
75.273975
0
LINE
8
DEFAULT_255_2_778
10
11.2453
20
76.0676666
11
11.2453
21
71.8343666
0
LINE
8
DEFAULT_255_2_778
10
10.9807167
20
72.628175
11
11.2453167
21
71.834475
0
LINE
8
DEFAULT_255_2_778
10
11.2453167
20
71.834475
11
11.5099167
21
72.628175
0
LINE
8
DEFAULT_255_2_778
10
11.5099167
20
72.628175
11
10.9807167
21
72.628175
0
LINE
8
DEFAULT_255_2_778
10
19.9765417
20
149.3572488
11
18.6536417
21
149.3572488
0
LINE
8
DEFAULT_255_2_778
10
18.6536417
20
149.3572488
11
18.6536417
21
108.3468488
0
LINE
8
DEFAULT_255_2_778
10
18.6536417
20
103.0551488
11
18.6536417
21
62.0447488
0
LINE
8
DEFAULT_255_2_778
10
18.6536417
20
62.0447488
11
19.9765417
21
62.0447488
0
LINE
8
DEFAULT_255_2_778
10
17.3307834
20
108.3468333
11
19.9765834
21
108.3468333
0
LINE
8
DEFAULT_255_2_778
10
19.9765834
20
108.3468333
11
19.9765834
21
103.0551333
0
LINE
8
DEFAULT_255_2_778
10
19.9765834
20
103.0551333
11
17.3307834
21
103.0551333
0
LINE
8
DEFAULT_255_2_778
10
17.3307834
20
103.0551333
11
17.3307834
21
108.3468333
0
LINE
8
DEFAULT_255_2_778
10
18.1245
20
103.5843666
11
18.1245
21
107.8176666
0
LINE
8
DEFAULT_255_2_778
10
17.8599167
20
107.023975
11
18.1245167
21
107.817675
0
LINE
8
DEFAULT_255_2_778
10
18.1245167
20
107.817675
11
18.3891167
21
107.023975
0
LINE
8
DEFAULT_255_2_778
10
18.3891167
20
107.023975
11
17.8599167
21
107.023975
0
LINE
8
DEFAULT_255_2_778
10
19.1828
20
107.8176666
11
19.1828
21
103.5843666
0
LINE
8
DEFAULT_255_2_778
10
18.9182167
20
104.378175
11
19.1828167
21
103.584475
0
LINE
8
DEFAULT_255_2_778
10
19.1828167
20
103.584475
11
19.4474167
21
104.378175
0
LINE
8
DEFAULT_255_2_778
10
19.4474167
20
104.378175
11
18.9182167
21
104.378175
0
LINE
8
DEFAULT_255_1_388
10
4.1657903
20
156.7799898
11
4.1657903
21
155.6062596
0
LINE
8
DEFAULT_255_1_388
10
4.1657903
20
155.6062596
11
4.7892498
21
155.6062596
0
LINE
8
DEFAULT_255_1_388
10
4.7892498
20
155.6062596
11
4.7892498
21
155.4644
0
LINE
8
DEFAULT_255_1_388
10
4.7892498
20
155.4644
11
3.9914024
21
155.4644
0
LINE
8
DEFAULT_255_1_388
10
3.9914024
20
155.4644
11
3.9914024
21
156.7799898
0
LINE
8
DEFAULT_255_1_388
10
3.9914024
20
156.7799898
11
4.1657903
21
156.7799898
0
LINE
8
DEFAULT_255_1_388
10
5.4931265
20
156.7863148
11
5.4931265
21
155.4644
0
LINE
8
DEFAULT_255_1_388
10
5.4931265
20
155.4644
11
5.3250635
21
155.4644
0
LINE
8
DEFAULT_255_1_388
10
5.3250635
20
155.4644
11
5.3250635
21
156.578495
0
LINE
8
DEFAULT_255_1_388
10
5.3250635
20
156.578495
11
4.988034
21
156.4547066
0
LINE
8
DEFAULT_255_1_388
10
4.988034
20
156.4547066
11
4.988034
21
156.6065055
0
LINE
8
DEFAULT_255_1_388
10
4.988034
20
156.6065055
11
5.4669231
21
156.7863148
0
LINE
8
DEFAULT_255_1_388
10
5.4669231
20
156.7863148
11
5.4931265
21
156.7863148
0
LINE
8
DEFAULT_255_1_388
10
4.5033985
20
5.9738148
11
4.5033985
21
4.6519
0
LINE
8
DEFAULT_255_1_388
10
4.5033985
20
4.6519
11
4.3353355
21
4.6519
0
LINE
8
DEFAULT_255_1_388
10
4.3353355
20
4.6519
11
4.3353355
21
5.765995
0
LINE
8
DEFAULT_255_1_388
10
4.3353355
20
5.765995
11
3.998306
21
5.6422066
0
LINE
8
DEFAULT_255_1_388
10
3.998306
20
5.6422066
11
3.998306
21
5.7940055
0
LINE
8
DEFAULT_255_1_388
10
3.998306
20
5.7940055
11
4.4771951
21
5.9738148
0
LINE
8
DEFAULT_255_1_388
10
4.4771951
20
5.9738148
11
4.5033985
21
5.9738148
0
LINE
8
DEFAULT_255_1_388
10
5.842481
20
5.9674898
11
5.842481
21
5.8735191
0
LINE
8
DEFAULT_255_1_388
10
5.842481
20
5.8735191
11
5.2976316
21
4.6519
0
LINE
8
DEFAULT_255_1_388
10
5.2976316
20
4.6519
11
5.1223401
21
4.6519
0
LINE
8
DEFAULT_255_1_388
10
5.1223401
20
4.6519
11
5.6653824
21
5.830148
0
LINE
8
DEFAULT_255_1_388
10
5.6653824
20
5.830148
11
4.9533736
21
5.830148
0
LINE
8
DEFAULT_255_1_388
10
4.9533736
20
5.830148
11
4.9533736
21
5.9674898
0
LINE
8
DEFAULT_255_1_388
10
4.9533736
20
5.9674898
11
5.842481
21
5.9674898
0
LINE
8
DEFAULT_255_1_388
10
4.5033985
20
13.9113148
11
4.5033985
21
12.5894
0
LINE
8
DEFAULT_255_1_388
10
4.5033985
20
12.5894
11
4.3353355
21
12.5894
0
LINE
8
DEFAULT_255_1_388
10
4.3353355
20
12.5894
11
4.3353355
21
13.703495
0
LINE
8
DEFAULT_255_1_388
10
4.3353355
20
13.703495
11
3.998306
21
13.5797066
0
LINE
8
DEFAULT_255_1_388
10
3.998306
20
13.5797066
11
3.998306
21
13.7315055
0
LINE
8
DEFAULT_255_1_388
10
3.998306
20
13.7315055
11
4.4771951
21
13.9113148
0
LINE
8
DEFAULT_255_1_388
10
4.4771951
20
13.9113148
11
4.5033985
21
13.9113148
0
LINE
8
DEFAULT_255_1_388
10
5.6193006
20
13.9058934
11
5.6491182
21
13.9058934
0
LINE
8
DEFAULT_255_1_388
10
5.6491182
20
13.9058934
11
5.6491182
21
13.7640338
0
LINE
8
DEFAULT_255_1_388
10
5.6491182
20
13.7640338
11
5.618397
21
13.7640338
0
LINE
8
DEFAULT_255_1_388
10
5.0030696
20
13.0899747
11
5.0030696
21
13.1541278
0
LINE
8
DEFAULT_255_1_388
10
5.1711326
20
13.1324422
11
5.1711326
21
13.0709999
0
ARC
8
DEFAULT_255_1_388
10
5.6242862
20
13.2017826
40
0.562282
50
90.6001079
51
104.5146616
0
ARC
8
DEFAULT_255_1_388
10
5.5805821
20
13.36431
40
0.3939917
50
104.2855758
51
133.8630124
0
ARC
8
DEFAULT_255_1_388
10
5.5990074
20
13.3521243
40
0.4155734
50
134.5304124
51
161.6210222
0
ARC
8
DEFAULT_255_1_388
10
5.7850006
20
13.2865421
40
0.6127682
50
161.2850533
51
174.2074364
0
ARC
8
DEFAULT_255_1_388
10
5.9439573
20
13.2646437
40
0.7731446
50
173.7817938
51
174.9251711
0
ARC
8
DEFAULT_255_1_388
10
5.4313767
20
13.109127
40
0.3412588
50
95.8332067
51
138.995412
0
ARC
8
DEFAULT_255_1_388
10
5.4565047
20
12.9652695
40
0.4870358
50
89.8755506
51
97.0540979
0
ARC
8
DEFAULT_255_1_388
10
5.4618436
20
13.0592841
40
0.3930432
50
71.6407016
51
90.6240821
0
ARC
8
DEFAULT_255_1_388
10
5.4787829
20
13.1216433
40
0.3285421
50
39.6368051
51
71.0190743
0
ARC
8
DEFAULT_255_1_388
10
5.4071737
20
13.0597586
40
0.4231706
50
10.6588054
51
39.9044509
0
ARC
8
DEFAULT_255_1_388
10
5.2330283
20
13.0219223
40
0.60133
50
359.6827842
51
11.1326896
0
ARC
8
DEFAULT_255_1_388
10
5.2285618
20
13.0139715
40
0.6058047
50
347.2485908
51
0.4371098
0
ARC
8
DEFAULT_255_1_388
10
5.4161404
20
12.9688379
40
0.4128987
50
318.1408565
51
347.6118497
0
ARC
8
DEFAULT_255_1_388
10
5.4527001
20
12.9387903
40
0.3656244
50
275.6342406
51
317.824739
0
ARC
8
DEFAULT_255_1_388
10
5.4278521
20
13.0849827
40
0.513655
50
269.8872513
51
276.7916069
0
ARC
8
DEFAULT_255_1_388
10
5.4216714
20
12.9696181
40
0.398323
50
246.9139443
51
270.7436787
0
ARC
8
DEFAULT_255_1_388
10
5.422391
20
12.9536044
40
0.3839368
50
218.1665534
51
245.8780431
0
ARC
8
DEFAULT_255_1_388
10
5.5213282
20
13.0363903
40
0.5128958
50
191.4115343
51
218.6077624
0
ARC
8
DEFAULT_255_1_388
10
5.7393598
20
13.0852777
40
0.7363054
50
179.6344971
51
191.7836758
0
ARC
8
DEFAULT_255_1_388
10
6.3673473
20
13.1616495
40
1.3642984
50
171.4523743
51
180.3158856
0
ARC
8
DEFAULT_255_1_388
10
5.87292
20
13.2385895
40
0.8639311
50
157.9802296
51
171.6246761
0
ARC
8
DEFAULT_255_1_388
10
5.623855
20
13.3379038
40
0.5958004
50
141.4299236
51
157.8541251
0
ARC
8
DEFAULT_255_1_388
10
5.5516634
20
13.3889746
40
0.5075416
50
102.871586
51
140.8564533
0
ARC
8
DEFAULT_255_1_388
10
5.6245187
20
13.1144943
40
0.7914163
50
90.377773
51
103.5868422
0
ARC
8
DEFAULT_255_1_388
10
5.4289708
20
13.0464543
40
0.2667015
50
89.8751238
51
126.2072139
0
ARC
8
DEFAULT_255_1_388
10
5.4341179
20
13.0290847
40
0.2838229
50
124.9742447
51
144.8960197
0
ARC
8
DEFAULT_255_1_388
10
5.4143424
20
13.0451981
40
0.2583845
50
145.2974778
51
160.2660922
0
ARC
8
DEFAULT_255_1_388
10
5.7599912
20
13.0674151
40
0.5888695
50
179.6512124
51
190.285571
0
ARC
8
DEFAULT_255_1_388
10
5.5694392
20
13.0314968
40
0.3949683
50
190.0944895
51
207.5099647
0
ARC
8
DEFAULT_255_1_388
10
5.5057973
20
13.0012177
40
0.3245464
50
207.9585471
51
216.325377
0
ARC
8
DEFAULT_255_1_388
10
5.4675611
20
12.9697712
40
0.2751259
50
215.7661336
51
232.5457193
0
ARC
8
DEFAULT_255_1_388
10
5.4244726
20
12.9150273
40
0.2054668
50
232.8005815
51
270.6605497
0
ARC
8
DEFAULT_255_1_388
10
5.4296151
20
12.9559853
40
0.2464268
50
269.3550767
51
288.474612
0
ARC
8
DEFAULT_255_1_388
10
5.4400658
20
12.9166721
40
0.2058436
50
289.1831976
51
322.9685307
0
ARC
8
DEFAULT_255_1_388
10
5.3712759
20
12.9709279
40
0.2934408
50
322.6007085
51
346.5183319
0
ARC
8
DEFAULT_255_1_388
10
5.2410516
20
13.0041434
40
0.4278249
50
346.2584622
51
358.7739592
0
ARC
8
DEFAULT_255_1_388
10
5.1259091
20
13.0103829
40
0.5430876
50
358.3757628
51
0.0082477
0
ARC
8
DEFAULT_255_1_388
10
5.2115909
20
13.0134856
40
0.4574157
50
359.6211417
51
11.28403
0
ARC
8
DEFAULT_255_1_388
10
5.3552516
20
13.0434535
40
0.3106708
50
11.0483152
51
31.8145585
0
ARC
8
DEFAULT_255_1_388
10
5.3900221
20
13.0623045
40
0.2711963
50
32.3028554
51
38.0820598
0
ARC
8
DEFAULT_255_1_388
10
5.4373454
20
13.1051717
40
0.2075566
50
36.8249851
51
85.741667
0
ARC
8
DEFAULT_255_1_388
10
5.4297866
20
13.0488065
40
0.2643487
50
85.0150021
51
90.050843
0
LINE
8
DEFAULT_255_1_388
10
4.5033985
20
21.8488148
11
4.5033985
21
20.5269
0
LINE
8
DEFAULT_255_1_388
10
4.5033985
20
20.5269
11
4.3353355
21
20.5269
0
LINE
8
DEFAULT_255_1_388
10
4.3353355
20
20.5269
11
4.3353355
21
21.640995
0
LINE
8
DEFAULT_255_1_388
10
4.3353355
20
21.640995
11
3.998306
21
21.5172066
0
LINE
8
DEFAULT_255_1_388
10
3.998306
20
21.5172066
11
3.998306
21
21.6690055
0
LINE
8
DEFAULT_255_1_388
10
3.998306
20
21.6690055
11
4.4771951
21
21.8488148
0
LINE
8
DEFAULT_255_1_388
10
4.4771951
20
21.8488148
11
4.5033985
21
21.8488148
0
LINE
8
DEFAULT_255_1_388
10
5.2036609
20
21.1521666
11
5.0699334
21
21.1865021
0
LINE
8
DEFAULT_255_1_388
10
5.0699334
20
21.1865021
11
5.1367972
21
21.8424898
0
LINE
8
DEFAULT_255_1_388
10
5.1367972
20
21.8424898
11
5.8108563
21
21.8424898
0
LINE
8
DEFAULT_255_1_388
10
5.8108563
20
21.8424898
11
5.8108563
21
21.6879803
0
LINE
8
DEFAULT_255_1_388
10
5.8108563
20
21.6879803
11
5.2786568
21
21.6879803
0
LINE
8
DEFAULT_255_1_388
10
5.2786568
20
21.6879803
11
5.2389
21
21.3292652
0
LINE
8
DEFAULT_255_1_388
10
5.022948
20
20.8729652
11
5.1810718
21
20.8729652
0
LINE
8
DEFAULT_255_1_388
10
5.2479356
20
21.1883092
11
5.2036609
21
21.1521666
0
ARC
8
DEFAULT_255_1_388
10
5.4475613
20
20.9715241
40
0.4141476
50
93.7181681
51
120.253934
0
ARC
8
DEFAULT_255_1_388
10
5.4581665
20
20.8806284
40
0.5055616
50
89.9660471
51
94.2495185
0
ARC
8
DEFAULT_255_1_388
10
5.4627487
20
20.9469154
40
0.4392953
50
73.8045384
51
90.5585736
0
ARC
8
DEFAULT_255_1_388
10
5.4891745
20
21.043452
40
0.3392225
50
41.3071072
51
73.543002
0
ARC
8
DEFAULT_255_1_388
10
5.4423565
20
21.0031461
40
0.4009977
50
13.5075837
51
41.2174839
0
ARC
8
DEFAULT_255_1_388
10
5.2576662
20
20.9547907
40
0.5918864
50
1.1330171
51
13.8830737
0
ARC
8
DEFAULT_255_1_388
10
5.0980308
20
20.9462522
40
0.7516787
50
359.9925091
51
1.5431298
0
ARC
8
DEFAULT_255_1_388
10
5.2424923
20
20.9416027
40
0.6072343
50
347.8572712
51
0.4294349
0
ARC
8
DEFAULT_255_1_388
10
5.4394058
20
20.8969898
40
0.4053482
50
323.6727442
51
348.1674594
0
ARC
8
DEFAULT_255_1_388
10
5.4725022
20
20.8768175
40
0.3667495
50
316.8171818
51
323.1486802
0
ARC
8
DEFAULT_255_1_388
10
5.4794146
20
20.8726612
40
0.358869
50
281.839603
51
316.5458142
0
ARC
8
DEFAULT_255_1_388
10
5.4371434
20
21.0476363
40
0.5388223
50
269.5770964
51
282.4214641
0
ARC
8
DEFAULT_255_1_388
10
5.4291354
20
21.023593
40
0.5147801
50
256.2425863
51
270.4486481
0
ARC
8
DEFAULT_255_1_388
10
5.3954882
20
20.8886124
40
0.3756708
50
228.9024379
51
256.33135
0
ARC
8
DEFAULT_255_1_388
10
5.3871862
20
20.8755054
40
0.360344
50
193.7536029
51
228.5272638
0
ARC
8
DEFAULT_255_1_388
10
5.5264427
20
20.9163463
40
0.5053599
50
184.9244437
51
194.4976052
0
ARC
8
DEFAULT_255_1_388
10
5.5481068
20
20.9203722
40
0.3700839
50
187.3596909
51
198.6733728
0
ARC
8
DEFAULT_255_1_388
10
5.4300312
20
20.8794373
40
0.2451195
50
198.4453795
51
217.7945479
0
ARC
8
DEFAULT_255_1_388
10
5.3967484
20
20.8558563
40
0.2043754
50
218.2887146
51
228.5613203
0
ARC
8
DEFAULT_255_1_388
10
5.4077491
20
20.8706902
40
0.2227819
50
228.9652423
51
258.1237049
0
ARC
8
DEFAULT_255_1_388
10
5.4308929
20
20.9697964
40
0.3245374
50
257.7260585
51
270.4013717
0
ARC
8
DEFAULT_255_1_388
10
5.4359427
20
20.9197255
40
0.2744726
50
269.4204315
51
286.420998
0
ARC
8
DEFAULT_255_1_388
10
5.4526482
20
20.8590705
40
0.2115721
50
286.7250065
51
320.6004665
0
ARC
8
DEFAULT_255_1_388
10
5.4095398
20
20.8940527
40
0.2670878
50
320.6712228
51
344.5440474
0
ARC
8
DEFAULT_255_1_388
10
5.2794112
20
20.9322394
40
0.4026927
50
344.241448
51
356.735803
0
ARC
8
DEFAULT_255_1_388
10
5.1390419
20
20.9438656
40
0.5435085
50
356.3547471
51
0.0507222
0
ARC
8
DEFAULT_255_1_388
10
5.2892684
20
20.9473812
40
0.3932934
50
359.5579289
51
12.9534322
0
ARC
8
DEFAULT_255_1_388
10
5.4079524
20
20.9761586
40
0.2711827
50
12.6489751
51
41.608121
0
ARC
8
DEFAULT_255_1_388
10
5.4338684
20
20.9981946
40
0.2371737
50
41.7851122
51
85.9892156
0
ARC
8
DEFAULT_255_1_388
10
5.4199994
20
20.9066738
40
0.3295244
50
84.6965848
51
90.0672125
0
ARC
8
DEFAULT_255_1_388
10
5.4173561
20
20.8315118
40
0.4046926
50
89.6804991
51
99.161352
0
ARC
8
DEFAULT_255_1_388
10
5.3942571
20
20.9695848
40
0.2647044
50
98.9836248
51
113.8905702
0
ARC
8
DEFAULT_255_1_388
10
5.3684246
20
21.0305118
40
0.1985386
50
114.195234
51
127.3641866
0
LINE
8
DEFAULT_255_1_388
10
4.6356985
20
29.7863148
11
4.6356985
21
28.4644
0
LINE
8
DEFAULT_255_1_388
10
4.6356985
20
28.4644
11
4.4676355
21
28.4644
0
LINE
8
DEFAULT_255_1_388
10
4.4676355
20
28.4644
11
4.4676355
21
29.578495
0
LINE
8
DEFAULT_255_1_388
10
4.4676355
20
29.578495
11
4.130606
21
29.4547066
0
LINE
8
DEFAULT_255_1_388
10
4.130606
20
29.4547066
11
4.130606
21
29.6065055
0
LINE
8
DEFAULT_255_1_388
10
4.130606
20
29.6065055
11
4.6094951
21
29.7863148
0
LINE
8
DEFAULT_255_1_388
10
4.6094951
20
29.7863148
11
4.6356985
21
29.7863148
0
LINE
8
DEFAULT_255_1_388
10
5.8311143
20
29.7799898
11
5.8311143
21
28.906243
0
LINE
8
DEFAULT_255_1_388
10
5.8311143
20
28.906243
11
6.0136343
21
28.906243
0
LINE
8
DEFAULT_255_1_388
10
6.0136343
20
28.906243
11
6.0136343
21
28.7698048
0
LINE
8
DEFAULT_255_1_388
10
6.0136343
20
28.7698048
11
5.8311143
21
28.7698048
0
LINE
8
DEFAULT_255_1_388
10
5.8311143
20
28.7698048
11
5.8311143
21
28.4644
0
LINE
8
DEFAULT_255_1_388
10
5.8311143
20
28.4644
11
5.6630513
21
28.4644
0
LINE
8
DEFAULT_255_1_388
10
5.6630513
20
28.4644
11
5.6630513
21
28.7698048
0
LINE
8
DEFAULT_255_1_388
10
5.6630513
20
28.7698048
11
5.063988
21
28.7698048
0
LINE
8
DEFAULT_255_1_388
10
5.063988
20
28.7698048
11
5.063988
21
28.8682933
0
LINE
8
DEFAULT_255_1_388
10
5.063988
20
28.8682933
11
5.6531121
21
29.7799898
0
LINE
8
DEFAULT_255_1_388
10
5.6531121
20
29.7799898
11
5.8311143
21
29.7799898
0
LINE
8
DEFAULT_255_1_388
10
5.6431729
20
29.5152455
11
5.2537366
21
28.906243
0
LINE
8
DEFAULT_255_1_388
10
5.2537366
20
28.906243
11
5.6630513
21
28.906243
0
LINE
8
DEFAULT_255_1_388
10
5.6630513
20
28.906243
11
5.6630513
21
29.551388
0
LINE
8
DEFAULT_255_1_388
10
5.6630513
20
29.551388
11
5.6431729
21
29.5152455
0
LINE
8
DEFAULT_255_1_388
10
4.5033985
20
37.7238148
11
4.5033985
21
36.4019
0
LINE
8
DEFAULT_255_1_388
10
4.5033985
20
36.4019
11
4.3353355
21
36.4019
0
LINE
8
DEFAULT_255_1_388
10
4.3353355
20
36.4019
11
4.3353355
21
37.515995
0
LINE
8
DEFAULT_255_1_388
10
4.3353355
20
37.515995
11
3.998306
21
37.3922066
0
LINE
8
DEFAULT_255_1_388
10
3.998306
20
37.3922066
11
3.998306
21
37.5440055
0
LINE
8
DEFAULT_255_1_388
10
3.998306
20
37.5440055
11
4.4771951
21
37.7238148
0
LINE
8
DEFAULT_255_1_388
10
4.4771951
20
37.7238148
11
4.5033985
21
37.7238148
0
LINE
8
DEFAULT_255_1_388
10
5.2361893
20
37.0045775
11
5.2361893
21
37.1410157
0
LINE
8
DEFAULT_255_1_388
10
5.2361893
20
37.1410157
11
5.3617847
21
37.1410157
0
LINE
8
DEFAULT_255_1_388
10
5.1476399
20
37.3723282
11
4.9804805
21
37.3723282
0
LINE
8
DEFAULT_255_1_388
10
4.9687342
20
36.7488688
11
5.1367972
21
36.7488688
0
LINE
8
DEFAULT_255_1_388
10
5.3617847
20
37.0045775
11
5.2361893
21
37.0045775
0
ARC
8
DEFAULT_255_1_388
10
5.3585074
20
37.5226922
40
0.3816905
50
270.491971
51
281.8953028
0
ARC
8
DEFAULT_255_1_388
10
5.3856501
20
37.3987199
40
0.2547877
50
281.6690378
51
301.2943765
0
ARC
8
DEFAULT_255_1_388
10
5.4047952
20
37.3636926
40
0.2149197
50
301.7834992
51
311.754567
0
ARC
8
DEFAULT_255_1_388
10
5.4150993
20
37.352265
40
0.1995326
50
311.7325027
51
354.2803031
0
ARC
8
DEFAULT_255_1_388
10
5.3333409
20
37.366328
40
0.2823461
50
353.0941646
51
0.1174696
0
ARC
8
DEFAULT_255_1_388
10
5.2814967
20
37.3716874
40
0.3342238
50
359.1804452
51
15.0452323
0
ARC
8
DEFAULT_255_1_388
10
5.4329026
20
37.4158546
40
0.1765747
50
13.957816
51
77.6713812
0
ARC
8
DEFAULT_255_1_388
10
5.3894261
20
37.2600464
40
0.3381982
50
76.111571
51
90.7028736
0
ARC
8
DEFAULT_255_1_388
10
5.3827673
20
37.290825
40
0.3074046
50
89.5321574
51
103.5319393
0
ARC
8
DEFAULT_255_1_388
10
5.3602057
20
37.3807443
40
0.2147041
50
103.2930114
51
133.5619756
0
ARC
8
DEFAULT_255_1_388
10
5.3551999
20
37.3874351
40
0.2064084
50
133.8349761
51
173.5343225
0
ARC
8
DEFAULT_255_1_388
10
5.4365656
20
37.3730144
40
0.2889266
50
172.5097183
51
180.1360699
0
ARC
8
DEFAULT_255_1_388
10
5.329542
20
37.376888
40
0.3490913
50
155.3483706
51
180.7484035
0
ARC
8
DEFAULT_255_1_388
10
5.3240396
20
37.3736519
40
0.3454798
50
131.5745177
51
154.4799474
0
ARC
8
DEFAULT_255_1_388
10
5.3592678
20
37.3380422
40
0.3955058
50
96.9874487
51
131.9690874
0
ARC
8
DEFAULT_255_1_388
10
5.3839571
20
37.1979407
40
0.537622
50
89.8592909
51
97.7827481
0
ARC
8
DEFAULT_255_1_388
10
5.389368
20
37.168436
40
0.5671399
50
78.3654493
51
90.4132586
0
ARC
8
DEFAULT_255_1_388
10
5.4296321
20
37.3550918
40
0.3762034
50
56.6229818
51
78.6387103
0
ARC
8
DEFAULT_255_1_388
10
5.453815
20
37.3973846
40
0.3275964
50
47.0254604
51
56.085558
0
ARC
8
DEFAULT_255_1_388
10
5.4560401
20
37.4018189
40
0.3228382
50
10.9207523
51
46.777927
0
ARC
8
DEFAULT_255_1_388
10
5.3025995
20
37.3663401
40
0.4802559
50
359.6364235
51
11.6087615
0
ARC
8
DEFAULT_255_1_388
10
5.5090161
20
37.3646404
40
0.273833
50
332.3549969
51
359.7179765
0
ARC
8
DEFAULT_255_1_388
10
5.4358562
20
37.3993285
40
0.3547505
50
325.2332381
51
332.8746682
0
ARC
8
DEFAULT_255_1_388
10
5.4530144
20
37.3873763
40
0.3338396
50
292.9803892
51
325.2391113
0
ARC
8
DEFAULT_255_1_388
10
5.421934
20
37.4478679
40
0.4016959
50
292.542178
51
293.6931461
0
ARC
8
DEFAULT_255_1_388
10
5.4662912
20
36.7213036
40
0.372079
50
57.643292
51
72.8626085
0
ARC
8
DEFAULT_255_1_388
10
5.5061747
20
36.7859273
40
0.2961455
50
36.7246661
51
57.4701329
0
ARC
8
DEFAULT_255_1_388
10
5.5048903
20
36.787347
40
0.2963321
50
8.054535
51
36.3561529
0
ARC
8
DEFAULT_255_1_388
10
5.4078576
20
36.7699073
40
0.3948682
50
359.8316595
51
8.5873361
0
ARC
8
DEFAULT_255_1_388
10
5.365605
20
36.764497
40
0.4371398
50
343.9831631
51
0.557075
0
ARC
8
DEFAULT_255_1_388
10
5.46531
20
36.7371963
40
0.3337749
50
311.6358204
51
343.7652116
0
ARC
8
DEFAULT_255_1_388
10
5.4227353
20
36.7851955
40
0.3979351
50
279.7829743
51
311.625622
0
ARC
8
DEFAULT_255_1_388
10
5.3888489
20
36.9468642
40
0.5630417
50
269.7285092
51
280.3857694
0
ARC
8
DEFAULT_255_1_388
10
5.3818802
20
36.9422241
40
0.5584119
50
256.6827433
51
270.4412869
0
ARC
8
DEFAULT_255_1_388
10
5.3437788
20
36.7864698
40
0.3980715
50
229.4223821
51
256.8554507
0
ARC
8
DEFAULT_255_1_388
10
5.2971342
20
36.7339683
40
0.3278564
50
181.8183354
51
229.6455015
0
ARC
8
DEFAULT_255_1_388
10
5.4140951
20
36.7486825
40
0.4453611
50
179.9760419
51
183.2330638
0
ARC
8
DEFAULT_255_1_388
10
5.3947503
20
36.7463781
40
0.2579652
50
179.4467996
51
196.2871626
0
ARC
8
DEFAULT_255_1_388
10
5.3398957
20
36.7313709
40
0.2011057
50
196.5661293
51
227.7059371
0
ARC
8
DEFAULT_255_1_388
10
5.3583564
20
36.7520155
40
0.2287994
50
227.7653015
51
257.8763321
0
ARC
8
DEFAULT_255_1_388
10
5.3836647
20
36.8580961
40
0.3378385
50
257.4583525
51
270.4267406
0
ARC
8
DEFAULT_255_1_388
10
5.3887897
20
36.890723
40
0.3704652
50
269.5965319
51
280.8788143
0
ARC
8
DEFAULT_255_1_388
10
5.4146125
20
36.7617529
40
0.2389415
50
280.6347277
51
299.8594068
0
ARC
8
DEFAULT_255_1_388
10
5.4360895
20
36.7209736
40
0.19289
50
300.3575552
51
314.5515667
0
ARC
8
DEFAULT_255_1_388
10
5.426757
20
36.7278025
40
0.204312
50
315.0730962
51
345.0429362
0
ARC
8
DEFAULT_255_1_388
10
5.3229078
20
36.7580539
40
0.31246
50
344.598526
51
357.9270698
0
ARC
8
DEFAULT_255_1_388
10
5.2219383
20
36.7649705
40
0.4136265
50
357.4755098
51
0.0224936
0
ARC
8
DEFAULT_255_1_388
10
5.337226
20
36.7677099
40
0.2983498
50
359.5051035
51
13.4236939
0
ARC
8
DEFAULT_255_1_388
10
5.434735
20
36.7926637
40
0.1977186
50
12.9497905
51
48.7550905
0
ARC
8
DEFAULT_255_1_388
10
5.4142272
20
36.7646373
40
0.2323321
50
49.509109
51
72.1832965
0
ARC
8
DEFAULT_255_1_388
10
5.373974
20
36.6451632
40
0.358397
50
71.9008458
51
84.3555134
0
ARC
8
DEFAULT_255_1_388
10
5.3558135
20
36.4919712
40
0.512641
50
84.019632
51
89.3326067
0
LINE
8
DEFAULT_255_1_388
10
4.5033985
20
45.6613148
11
4.5033985
21
44.3394
0
LINE
8
DEFAULT_255_1_388
10
4.5033985
20
44.3394
11
4.3353355
21
44.3394
0
LINE
8
DEFAULT_255_1_388
10
4.3353355
20
44.3394
11
4.3353355
21
45.453495
0
LINE
8
DEFAULT_255_1_388
10
4.3353355
20
45.453495
11
3.998306
21
45.3297066
0
LINE
8
DEFAULT_255_1_388
10
3.998306
20
45.3297066
11
3.998306
21
45.4815055
0
LINE
8
DEFAULT_255_1_388
10
3.998306
20
45.4815055
11
4.4771951
21
45.6613148
0
LINE
8
DEFAULT_255_1_388
10
4.4771951
20
45.6613148
11
4.5033985
21
45.6613148
0
LINE
8
DEFAULT_255_1_388
10
5.8551309
20
44.4758382
11
5.8551309
21
44.3394
0
LINE
8
DEFAULT_255_1_388
10
5.8551309
20
44.3394
11
4.9931304
21
44.3394
0
LINE
8
DEFAULT_255_1_388
10
4.9931304
20
44.3394
11
4.9931304
21
44.4595741
0
LINE
8
DEFAULT_255_1_388
10
4.9931304
20
44.4595741
11
5.4485269
21
44.9655702
0
LINE
8
DEFAULT_255_1_388
10
5.13499
20
45.2673607
11
4.9678306
21
45.2673607
0
LINE
8
DEFAULT_255_1_388
10
5.5470154
20
44.858046
11
5.1946253
21
44.4758382
0
LINE
8
DEFAULT_255_1_388
10
5.1946253
20
44.4758382
11
5.8551309
21
44.4758382
0
ARC
8
DEFAULT_255_1_388
10
3.9309329
20
46.3075983
40
2.0258655
50
318.5132526
51
320.7829045
0
ARC
8
DEFAULT_255_1_388
10
4.5257286
20
45.8234929
40
1.2589638
50
320.7372878
51
323.9739031
0
ARC
8
DEFAULT_255_1_388
10
4.9666217
20
45.5040554
40
0.7145141
50
323.8962701
51
328.64194
0
ARC
8
DEFAULT_255_1_388
10
5.1968475
20
45.3620545
40
0.4440242
50
328.8294576
51
331.7891185
0
ARC
8
DEFAULT_255_1_388
10
5.3090795
20
45.3041374
40
0.3177517
50
331.4254512
51
352.9365785
0
ARC
8
DEFAULT_255_1_388
10
5.3243795
20
45.300705
40
0.3021496
50
353.2257659
51
0.0166158
0
ARC
8
DEFAULT_255_1_388
10
5.3480555
20
45.3032894
40
0.2784847
50
359.486299
51
15.9343185
0
ARC
8
DEFAULT_255_1_388
10
5.4050822
20
45.3186269
40
0.2194403
50
16.1712913
51
43.5286088
0
ARC
8
DEFAULT_255_1_388
10
5.4137767
20
45.3273191
40
0.2071504
50
43.4417391
51
83.1661095
0
ARC
8
DEFAULT_255_1_388
10
5.3986928
20
45.2444316
40
0.2912888
50
82.160179
51
90.1505708
0
ARC
8
DEFAULT_255_1_388
10
5.395141
20
45.1840279
40
0.3517025
50
89.5460741
51
102.5418361
0
ARC
8
DEFAULT_255_1_388
10
5.367813
20
45.2999933
40
0.2325748
50
102.1738499
51
129.206123
0
ARC
8
DEFAULT_255_1_388
10
5.3589583
20
45.3139664
40
0.2161591
50
129.72865
51
135.753947
0
ARC
8
DEFAULT_255_1_388
10
5.3726065
20
45.3030728
40
0.2335433
50
136.1757367
51
166.3673339
0
ARC
8
DEFAULT_255_1_388
10
5.4858754
20
45.2727148
40
0.3507873
50
165.9090694
51
178.8684636
0
ARC
8
DEFAULT_255_1_388
10
5.5834525
20
45.2674263
40
0.4484624
50
178.4391136
51
180.0083808
0
ARC
8
DEFAULT_255_1_388
10
5.4255227
20
45.2718197
40
0.4577138
50
163.2878482
51
180.5581842
0
ARC
8
DEFAULT_255_1_388
10
5.3353268
20
45.2966393
40
0.3641968
50
133.4540601
51
162.947111
0
ARC
8
DEFAULT_255_1_388
10
5.3554149
20
45.2752789
40
0.3935189
50
100.7869829
51
133.4382499
0
ARC
8
DEFAULT_255_1_388
10
5.3945394
20
45.1010399
40
0.5720313
50
89.660664
51
101.3702276
0
ARC
8
DEFAULT_255_1_388
10
5.4020003
20
45.1079263
40
0.5651495
50
78.2172678
51
90.412935
0
ARC
8
DEFAULT_255_1_388
10
5.4419469
20
45.2906511
40
0.378122
50
55.9269121
51
78.4888449
0
ARC
8
DEFAULT_255_1_388
10
5.4640184
20
45.3287187
40
0.3342379
50
47.929771
51
55.4049217
0
ARC
8
DEFAULT_255_1_388
10
5.4754715
20
45.3403618
40
0.3179217
50
4.334829
51
48.0560205
0
ARC
8
DEFAULT_255_1_388
10
5.3522516
20
45.3212487
40
0.442341
50
359.9251713
51
5.5971671
0
ARC
8
DEFAULT_255_1_388
10
5.4004671
20
45.3275728
40
0.3941854
50
337.8914027
51
358.9967534
0
ARC
8
DEFAULT_255_1_388
10
5.0952241
20
45.4453295
40
0.7213271
50
326.9132501
51
338.3508308
0
ARC
8
DEFAULT_255_1_388
10
4.6468353
20
45.7327105
40
1.2538973
50
319.6471833
51
327.0959558
0
ARC
8
DEFAULT_255_1_388
10
4.2155011
20
46.088505
40
1.8129975
50
317.2588228
51
319.9045804
0
LINE
8
DEFAULT_255_1_388
10
4.4959985
20
53.5988148
11
4.4959985
21
52.2769
0
LINE
8
DEFAULT_255_1_388
10
4.4959985
20
52.2769
11
4.3279355
21
52.2769
0
LINE
8
DEFAULT_255_1_388
10
4.3279355
20
52.2769
11
4.3279355
21
53.390995
0
LINE
8
DEFAULT_255_1_388
10
4.3279355
20
53.390995
11
3.990906
21
53.2672066
0
LINE
8
DEFAULT_255_1_388
10
3.990906
20
53.2672066
11
3.990906
21
53.4190055
0
LINE
8
DEFAULT_255_1_388
10
3.990906
20
53.4190055
11
4.4697951
21
53.5988148
0
LINE
8
DEFAULT_255_1_388
10
4.4697951
20
53.5988148
11
4.4959985
21
53.5988148
0
LINE
8
DEFAULT_255_1_388
10
5.5350976
20
53.5988148
11
5.5350976
21
52.2769
0
LINE
8
DEFAULT_255_1_388
10
5.5350976
20
52.2769
11
5.3670346
21
52.2769
0
LINE
8
DEFAULT_255_1_388
10
5.3670346
20
52.2769
11
5.3670346
21
53.390995
0
LINE
8
DEFAULT_255_1_388
10
5.3670346
20
53.390995
11
5.0300051
21
53.2672066
0
LINE
8
DEFAULT_255_1_388
10
5.0300051
20
53.2672066
11
5.0300051
21
53.4190055
0
LINE
8
DEFAULT_255_1_388
10
5.0300051
20
53.4190055
11
5.5088942
21
53.5988148
0
LINE
8
DEFAULT_255_1_388
10
5.5088942
20
53.5988148
11
5.5350976
21
53.5988148
0
LINE
8
DEFAULT_255_1_388
10
4.5033985
20
61.5363148
11
4.5033985
21
60.2144
0
LINE
8
DEFAULT_255_1_388
10
4.5033985
20
60.2144
11
4.3353355
21
60.2144
0
LINE
8
DEFAULT_255_1_388
10
4.3353355
20
60.2144
11
4.3353355
21
61.328495
0
LINE
8
DEFAULT_255_1_388
10
4.3353355
20
61.328495
11
3.998306
21
61.2047066
0
LINE
8
DEFAULT_255_1_388
10
3.998306
20
61.2047066
11
3.998306
21
61.3565055
0
LINE
8
DEFAULT_255_1_388
10
3.998306
20
61.3565055
11
4.4771951
21
61.5363148
0
LINE
8
DEFAULT_255_1_388
10
4.4771951
20
61.5363148
11
4.5033985
21
61.5363148
0
LINE
8
DEFAULT_255_1_388
10
5.8180848
20
60.992369
11
5.8180848
21
60.7755135
0
LINE
8
DEFAULT_255_1_388
10
4.987709
20
60.7529244
11
4.987709
21
60.9761048
0
LINE
8
DEFAULT_255_1_388
10
5.6509253
20
60.7303353
11
5.6509253
21
61.0041153
0
LINE
8
DEFAULT_255_1_388
10
5.1548685
20
61.0167652
11
5.1548685
21
60.7493102
0
ARC
8
DEFAULT_255_1_388
10
4.4403182
20
60.7700118
40
1.3777776
50
353.8440855
51
0.2287917
0
ARC
8
DEFAULT_255_1_388
10
4.9622199
20
60.7117414
40
0.852639
50
344.4934746
51
353.9763743
0
ARC
8
DEFAULT_255_1_388
10
5.2989006
20
60.6160191
40
0.5026273
50
329.2803599
51
344.7473406
0
ARC
8
DEFAULT_255_1_388
10
5.4104502
20
60.5548038
40
0.3754848
50
324.9361395
51
328.6153007
0
ARC
8
DEFAULT_255_1_388
10
5.4530152
20
60.5250586
40
0.3235566
50
280.5801797
51
324.9173226
0
ARC
8
DEFAULT_255_1_388
10
5.407878
20
60.7130236
40
0.5167077
50
269.5979457
51
281.6732777
0
ARC
8
DEFAULT_255_1_388
10
5.3997684
20
60.6995113
40
0.5032026
50
256.6228565
51
270.5105488
0
ARC
8
DEFAULT_255_1_388
10
5.3545427
20
60.5253345
40
0.3233092
50
215.8618351
51
257.2787793
0
ARC
8
DEFAULT_255_1_388
10
5.4694134
20
60.6024106
40
0.4615831
50
197.9695203
51
215.2622745
0
ARC
8
DEFAULT_255_1_388
10
5.7489809
20
60.6967641
40
0.7566307
50
187.8816486
51
198.2346584
0
ARC
8
DEFAULT_255_1_388
10
6.1943048
20
60.7610453
40
1.2065653
50
180.8977266
51
188.0054894
0
ARC
8
DEFAULT_255_1_388
10
6.4993261
20
60.77254
40
1.5117443
50
180.7434591
51
181.152202
0
ARC
8
DEFAULT_255_1_388
10
6.3318257
20
60.9815371
40
1.3441277
50
173.7674302
51
180.2315596
0
ARC
8
DEFAULT_255_1_388
10
5.8236126
20
61.0389779
40
0.8326847
50
164.3058537
51
173.9000553
0
ARC
8
DEFAULT_255_1_388
10
5.4960126
20
61.1333652
40
0.4917711
50
148.7922028
51
164.5682288
0
ARC
8
DEFAULT_255_1_388
10
5.3890864
20
61.1930457
40
0.3694204
50
144.5883979
51
148.1161588
0
ARC
8
DEFAULT_255_1_388
10
5.3503609
20
61.2200667
40
0.322202
50
101.6440149
51
144.5142619
0
ARC
8
DEFAULT_255_1_388
10
5.3981801
20
61.0300337
40
0.5180451
50
89.528284
51
102.5820197
0
ARC
8
DEFAULT_255_1_388
10
5.4070793
20
61.0256376
40
0.5224441
50
77.0437914
51
90.508231
0
ARC
8
DEFAULT_255_1_388
10
5.4523047
20
61.2104272
40
0.3322297
50
48.2777708
51
77.4996087
0
ARC
8
DEFAULT_255_1_388
10
5.4604787
20
61.2249557
40
0.315966
50
36.3141586
51
47.6307332
0
ARC
8
DEFAULT_255_1_388
10
5.3627509
20
61.1591159
40
0.4337313
50
18.2931065
51
35.6770203
0
ARC
8
DEFAULT_255_1_388
10
5.076635
20
61.0609107
40
0.7362203
50
8.0246996
51
18.5605636
0
ARC
8
DEFAULT_255_1_388
10
4.6082705
20
60.9917432
40
1.2096583
50
1.127539
51
8.1718423
0
ARC
8
DEFAULT_255_1_388
10
4.2433839
20
60.9774374
40
1.5747719
50
0.5432713
51
1.38669
0
ARC
8
DEFAULT_255_1_388
10
4.4491217
20
61.0081163
40
1.2018103
50
359.8092569
51
4.9408001
0
ARC
8
DEFAULT_255_1_388
10
4.9227799
20
61.05039
40
0.7262727
50
4.8364937
51
12.2906017
0
ARC
8
DEFAULT_255_1_388
10
5.2327263
20
61.1194485
40
0.4087324
50
12.0806994
51
23.8171225
0
ARC
8
DEFAULT_255_1_388
10
5.3647659
20
61.1753508
40
0.2653719
50
24.2874621
51
31.3934353
0
ARC
8
DEFAULT_255_1_388
10
5.4238095
20
61.2139822
40
0.1948607
50
30.7407708
51
82.4658033
0
ARC
8
DEFAULT_255_1_388
10
5.4035756
20
61.1146017
40
0.2961198
50
81.1057101
51
90.2187368
0
ARC
8
DEFAULT_255_1_388
10
5.3995568
20
61.1436421
40
0.2670929
50
89.380395
51
105.6763916
0
ARC
8
DEFAULT_255_1_388
10
5.378929
20
61.218632
40
0.1893189
50
105.7980655
51
149.7387869
0
ARC
8
DEFAULT_255_1_388
10
5.498643
20
61.1466719
40
0.3289892
50
149.4208441
51
163.628295
0
ARC
8
DEFAULT_255_1_388
10
5.733866
20
61.0749345
40
0.5749004
50
163.3764549
51
172.141138
0
ARC
8
DEFAULT_255_1_388
10
6.1051381
20
61.0217582
40
0.9499585
50
172.0258462
51
178.0705453
0
ARC
8
DEFAULT_255_1_388
10
6.4472934
20
61.0055682
40
1.2924734
50
177.8639301
51
179.5036263
0
ARC
8
DEFAULT_255_1_388
10
6.3253953
20
60.7452151
40
1.170534
50
179.7995545
51
185.246089
0
ARC
8
DEFAULT_255_1_388
10
5.8705546
20
60.7021404
40
0.7136613
50
185.1411911
51
193.0082205
0
ARC
8
DEFAULT_255_1_388
10
5.5731806
20
60.6318441
40
0.4080987
50
192.7897338
51
205.2507384
0
ARC
8
DEFAULT_255_1_388
10
5.4554016
20
60.5792538
40
0.2791522
50
205.8001921
51
211.2545876
0
ARC
8
DEFAULT_255_1_388
10
5.3965555
20
60.5398132
40
0.2084074
50
210.3789935
51
238.4007996
0
ARC
8
DEFAULT_255_1_388
10
5.3943641
20
60.5450786
40
0.2117943
50
239.6521916
51
265.9793852
0
ARC
8
DEFAULT_255_1_388
10
5.403949
20
60.6207358
40
0.2879689
50
265.1324455
51
270.0603288
0
ARC
8
DEFAULT_255_1_388
10
5.4071867
20
60.5842418
40
0.2514919
50
269.3314378
51
287.2180039
0
ARC
8
DEFAULT_255_1_388
10
5.422695
20
60.5276291
40
0.1928357
50
287.7957942
51
329.0808983
0
ARC
8
DEFAULT_255_1_388
10
5.3149707
20
60.5948651
40
0.319808
50
328.6635261
51
343.3325043
0
ARC
8
DEFAULT_255_1_388
10
5.0705165
20
60.6710195
40
0.5758408
50
343.0498092
51
351.9392499
0
ARC
8
DEFAULT_255_1_388
10
4.6804487
20
60.7285205
40
0.9701202
50
351.8071632
51
357.7957897
0
ARC
8
DEFAULT_255_1_388
10
4.3169964
20
60.7473724
40
1.3340376
50
357.5870923
51
359.2682493
0
LINE
8
DEFAULT_255_1_388
10
4.7629215
20
68.9416153
11
4.7629215
21
68.8928229
0
LINE
8
DEFAULT_255_1_388
10
4.1530155
20
68.1509964
11
4.1204872
21
68.1509964
0
LINE
8
DEFAULT_255_1_388
10
4.1204872
20
68.1509964
11
4.1204872
21
68.2919525
0
LINE
8
DEFAULT_255_1_388
10
4.1204872
20
68.2919525
11
4.1557262
21
68.2919525
0
LINE
8
DEFAULT_255_1_388
10
4.5957621
20
68.909087
11
4.5957621
21
68.9759508
0
ARC
8
DEFAULT_255_1_388
10
4.2814713
20
68.9929877
40
0.4089973
50
297.4036461
51
320.0168133
0
ARC
8
DEFAULT_255_1_388
10
4.3140893
20
68.9303072
40
0.3383378
50
270.2631886
51
297.3852322
0
ARC
8
DEFAULT_255_1_388
10
4.3102569
20
68.9840343
40
0.3920983
50
269.9969069
51
270.7871389
0
ARC
8
DEFAULT_255_1_388
10
4.3073892
20
68.9822737
40
0.3903482
50
254.5997295
51
270.4178147
0
ARC
8
DEFAULT_255_1_388
10
4.2913424
20
68.9187693
40
0.3248657
50
236.4717231
51
254.3539376
0
ARC
8
DEFAULT_255_1_388
10
4.3089155
20
68.9423999
40
0.3542746
50
208.4727261
51
236.2134628
0
ARC
8
DEFAULT_255_1_388
10
4.3807919
20
68.9863676
40
0.4384402
50
204.3450776
51
209.0455365
0
ARC
8
DEFAULT_255_1_388
10
4.4572295
20
69.01878
40
0.5214459
50
183.9375459
51
204.1275509
0
ARC
8
DEFAULT_255_1_388
10
4.5594601
20
69.0297863
40
0.6242037
50
179.9652726
51
184.3010611
0
ARC
8
DEFAULT_255_1_388
10
4.5324146
20
69.0335004
40
0.5971675
50
166.7585952
51
180.3200491
0
ARC
8
DEFAULT_255_1_388
10
4.4371954
20
69.0541979
40
0.4997418
50
154.6954866
51
166.5679151
0
ARC
8
DEFAULT_255_1_388
10
4.3412194
20
69.1025411
40
0.3923208
50
136.3325251
51
155.0871367
0
ARC
8
DEFAULT_255_1_388
10
4.3096114
20
69.1296271
40
0.3507618
50
121.2365985
51
135.9680081
0
ARC
8
DEFAULT_255_1_388
10
4.3254178
20
69.1003541
40
0.3839917
50
96.8454764
51
120.9881329
0
ARC
8
DEFAULT_255_1_388
10
4.3417984
20
68.9950942
40
0.4904679
50
89.887204
51
97.2797758
0
ARC
8
DEFAULT_255_1_388
10
4.3476957
20
69.0668652
40
0.418725
50
70.6505767
51
90.6748382
0
ARC
8
DEFAULT_255_1_388
10
4.3624654
20
69.1246091
40
0.3593866
50
36.7493297
51
69.8220487
0
ARC
8
DEFAULT_255_1_388
10
4.2501001
20
69.0370446
40
0.5018201
50
15.3958155
51
37.0841102
0
ARC
8
DEFAULT_255_1_388
10
4.0105286
20
68.9672111
40
0.7513436
50
3.9487796
51
15.6798517
0
ARC
8
DEFAULT_255_1_388
10
3.7403928
20
68.942881
40
1.0225293
50
359.9290791
51
4.266464
0
ARC
8
DEFAULT_255_1_388
10
3.2222845
20
68.8853372
40
1.5406551
50
352.8365702
51
0.2783851
0
ARC
8
DEFAULT_255_1_388
10
3.8171076
20
68.8080664
40
0.9408425
50
341.8359339
51
352.9884057
0
ARC
8
DEFAULT_255_1_388
10
4.1792063
20
68.6860144
40
0.5587481
50
322.8579243
51
342.1527461
0
ARC
8
DEFAULT_255_1_388
10
4.2763755
20
68.619735
40
0.4413099
50
319.3348471
51
322.100194
0
ARC
8
DEFAULT_255_1_388
10
4.2415687
20
68.6546814
40
0.4904992
50
285.954114
51
318.8878716
0
ARC
8
DEFAULT_255_1_388
10
4.1598124
20
68.9145865
40
0.7628991
50
272.9280841
51
286.4924389
0
ARC
8
DEFAULT_255_1_388
10
4.1384428
20
69.168024
40
1.017132
50
270.8209173
51
273.4010121
0
ARC
8
DEFAULT_255_1_388
10
4.1484451
20
68.9632073
40
0.6712943
50
270.6214576
51
281.4062333
0
ARC
8
DEFAULT_255_1_388
10
4.1968176
20
68.731925
40
0.4350167
50
281.1852583
51
299.0622058
0
ARC
8
DEFAULT_255_1_388
10
4.2388421
20
68.6508138
40
0.3437146
50
299.5068171
51
313.1200142
0
ARC
8
DEFAULT_255_1_388
10
4.2413158
20
68.6418959
40
0.3355418
50
313.8525725
51
338.5989631
0
ARC
8
DEFAULT_255_1_388
10
4.0586286
20
68.7169576
40
0.5330317
50
338.2523315
51
351.2431701
0
ARC
8
DEFAULT_255_1_388
10
3.7874037
20
68.7630494
40
0.8081235
50
350.940933
51
357.6690137
0
ARC
8
DEFAULT_255_1_388
10
4.3375917
20
68.9883048
40
0.2581236
50
269.9447107
51
306.8249644
0
ARC
8
DEFAULT_255_1_388
10
4.3109219
20
69.035906
40
0.3122948
50
305.5071046
51
327.0773808
0
ARC
8
DEFAULT_255_1_388
10
4.3242271
20
69.0252445
40
0.2953369
50
327.4106457
51
336.8396801
0
ARC
8
DEFAULT_255_1_388
10
3.9761984
20
68.9795932
40
0.6195743
50
359.663158
51
10.1176387
0
ARC
8
DEFAULT_255_1_388
10
4.1734747
20
69.0160922
40
0.4189561
50
9.9431549
51
26.7699242
0
ARC
8
DEFAULT_255_1_388
10
4.2406733
20
69.0470796
40
0.3450125
50
27.2018067
51
34.6833639
0
ARC
8
DEFAULT_255_1_388
10
4.2957346
20
69.088456
40
0.2762035
50
34.124913
51
50.30709
0
ARC
8
DEFAULT_255_1_388
10
4.3459829
20
69.1485741
40
0.1978518
50
50.3850304
51
90.6705051
0
ARC
8
DEFAULT_255_1_388
10
4.3407223
20
69.1143074
40
0.2321235
50
89.2729817
51
111.9140267
0
ARC
8
DEFAULT_255_1_388
10
4.338531
20
69.1301308
40
0.2166604
50
112.9381864
51
142.5320936
0
ARC
8
DEFAULT_255_1_388
10
4.3999799
20
69.0802392
40
0.2957902
50
142.1024021
51
166.3835244
0
ARC
8
DEFAULT_255_1_388
10
4.5328769
20
69.0459213
40
0.4330361
50
166.1100968
51
178.6653563
0
ARC
8
DEFAULT_255_1_388
10
4.6510695
20
69.0393061
40
0.5513642
50
178.2641888
51
180.010994
0
ARC
8
DEFAULT_255_1_388
10
4.5605196
20
69.0361136
40
0.4608248
50
179.6162225
51
191.8786013
0
ARC
8
DEFAULT_255_1_388
10
4.4232506
20
69.005759
40
0.3202502
50
191.6192934
51
215.2970746
0
ARC
8
DEFAULT_255_1_388
10
4.3993161
20
68.9914963
40
0.2924827
50
215.7258926
51
216.5355437
0
ARC
8
DEFAULT_255_1_388
10
4.3404782
20
68.9441919
40
0.2170661
50
215.7486606
51
239.9728403
0
ARC
8
DEFAULT_255_1_388
10
4.3325947
20
68.9384838
40
0.208217
50
241.065081
51
269.280972
0
ARC
8
DEFAULT_255_1_388
10
4.3373106
20
68.9940327
40
0.2638514
50
268.4083352
51
270.0069622
0
ARC
8
DEFAULT_255_1_388
10
4.4345818
20
77.058772
40
0.3175098
50
338.8762533
51
0.5167111
0
ARC
8
DEFAULT_255_1_388
10
4.4535412
20
77.05366
40
0.2979894
50
325.8415285
51
338.4793574
0
ARC
8
DEFAULT_255_1_388
10
4.4096046
20
77.0841242
40
0.351452
50
296.7587686
51
325.7536481
0
ARC
8
DEFAULT_255_1_388
10
4.3767673
20
77.1395363
40
0.4157374
50
296.0927901
51
297.3613472
0
ARC
8
DEFAULT_255_1_388
10
4.4061869
20
76.4012593
40
0.395855
50
47.9007294
51
67.1948823
0
ARC
8
DEFAULT_255_1_388
10
4.4282511
20
76.4289599
40
0.360516
50
35.2363914
51
47.551141
0
ARC
8
DEFAULT_255_1_388
10
4.4576915
20
76.4486093
40
0.3251343
50
359.2759765
51
35.4014143
0
ARC
8
DEFAULT_255_1_388
10
4.3738841
20
76.4403787
40
0.4089365
50
343.1293083
51
0.5775513
0
ARC
8
DEFAULT_255_1_388
10
4.4553955
20
76.4179336
40
0.3244269
50
310.8496669
51
342.7449331
0
ARC
8
DEFAULT_255_1_388
10
4.4083829
20
76.4715913
40
0.3957651
50
281.5472888
51
310.9170406
0
ARC
8
DEFAULT_255_1_388
10
4.3682704
20
76.6462814
40
0.5749654
50
269.619248
51
281.9789564
0
ARC
8
DEFAULT_255_1_388
10
4.3601482
20
76.6463776
40
0.5750649
50
257.4585678
51
270.4285689
0
ARC
8
DEFAULT_255_1_388
10
4.3173002
20
76.4659741
40
0.389671
50
228.7554326
51
257.8484789
0
ARC
8
DEFAULT_255_1_388
10
4.2824487
20
76.4240228
40
0.335154
50
184.0104975
51
228.5071184
0
ARC
8
DEFAULT_255_1_388
10
4.413288
20
76.443943
40
0.4671891
50
179.9315832
51
185.3253753
0
ARC
8
DEFAULT_255_1_388
10
4.2809392
20
76.4481592
40
0.33486
50
145.6796023
51
180.6259786
0
ARC
8
DEFAULT_255_1_388
10
4.2993158
20
76.4353271
40
0.3572723
50
115.5537685
51
145.6415986
0
ARC
8
DEFAULT_255_1_388
10
4.3376202
20
76.3667087
40
0.4357296
50
113.243307
51
116.2057839
0
ARC
8
DEFAULT_255_1_388
10
4.3204854
20
77.0864379
40
0.3549126
50
222.9549744
51
244.1370481
0
ARC
8
DEFAULT_255_1_388
10
4.3067497
20
77.0710378
40
0.3343711
50
213.3436887
51
222.6274467
0
ARC
8
DEFAULT_255_1_388
10
4.2851566
20
77.0563653
40
0.3082678
50
180.431584
51
213.271499
0
ARC
8
DEFAULT_255_1_388
10
4.3486565
20
77.0616296
40
0.3718363
50
179.9991191
51
181.1690594
0
ARC
8
DEFAULT_255_1_388
10
4.3959021
20
77.0655072
40
0.4190996
50
164.6186169
51
180.529336
0
ARC
8
DEFAULT_255_1_388
10
4.294867
20
77.092678
40
0.3144772
50
132.2455553
51
164.5090724
0
ARC
8
DEFAULT_255_1_388
10
4.3271649
20
77.056107
40
0.3632644
50
100.7053914
51
132.1386381
0
ARC
8
DEFAULT_255_1_388
10
4.361471
20
76.9011118
40
0.5219578
50
89.6730358
51
101.2451698
0
ARC
8
DEFAULT_255_1_388
10
4.3684701
20
76.9207648
40
0.5023124
50
76.287748
51
90.4586006
0
ARC
8
DEFAULT_255_1_388
10
4.4029203
20
77.0582671
40
0.3605639
50
47.8240511
51
76.4266241
0
ARC
8
DEFAULT_255_1_388
10
4.4279587
20
77.0875599
40
0.3220463
50
6.9168387
51
47.6262497
0
ARC
8
DEFAULT_255_1_388
10
4.294504
20
77.0629004
40
0.4575765
50
359.8415968
51
7.9697453
0
ARC
8
DEFAULT_255_1_388
10
4.332931
20
76.4508519
40
0.2827228
50
359.445363
51
16.9256873
0
ARC
8
DEFAULT_255_1_388
10
4.3856744
20
76.4653781
40
0.2280396
50
17.2920767
51
45.4630727
0
ARC
8
DEFAULT_255_1_388
10
4.3795879
20
76.4601324
40
0.2360485
50
45.30305
51
83.1920945
0
ARC
8
DEFAULT_255_1_388
10
4.3634624
20
76.3699473
40
0.3275527
50
82.2612665
51
90.1434275
0
ARC
8
DEFAULT_255_1_388
10
4.35999
20
76.3961869
40
0.3013237
50
89.4956434
51
104.8580688
0
ARC
8
DEFAULT_255_1_388
10
4.340109
20
76.4715455
40
0.2233867
50
104.8856641
51
135.244616
0
ARC
8
DEFAULT_255_1_388
10
4.3457079
20
76.4665352
40
0.2308906
50
135.3399546
51
172.1044062
0
ARC
8
DEFAULT_255_1_388
10
4.4364603
20
76.4491667
40
0.3232034
50
171.2645637
51
180.186429
0
ARC
8
DEFAULT_255_1_388
10
4.4174608
20
76.4455426
40
0.304213
50
179.5154935
51
193.6464289
0
ARC
8
DEFAULT_255_1_388
10
4.3256284
20
76.4221473
40
0.209456
50
193.3540274
51
225.8258581
0
ARC
8
DEFAULT_255_1_388
10
4.3302156
20
76.4301076
40
0.2183738
50
226.4180634
51
255.8552336
0
ARC
8
DEFAULT_255_1_388
10
4.3590623
20
76.5354521
40
0.3275812
50
255.4654104
51
268.7987425
0
ARC
8
DEFAULT_255_1_388
10
4.3643799
20
76.6296545
40
0.4218877
50
268.3449238
51
270.0094605
0
ARC
8
DEFAULT_255_1_388
10
4.3670032
20
76.5528094
40
0.3450519
50
269.5759586
51
282.0820163
0
ARC
8
DEFAULT_255_1_388
10
4.3923069
20
76.4409363
40
0.2303642
50
281.752014
51
306.6056188
0
ARC
8
DEFAULT_255_1_388
10
4.4033877
20
76.4227802
40
0.2091906
50
307.1346085
51
314.027845
0
ARC
8
DEFAULT_255_1_388
10
4.3993389
20
76.4257459
40
0.2141385
50
314.2552483
51
350.1694025
0
ARC
8
DEFAULT_255_1_388
10
4.3035626
20
76.4465175
40
0.312082
50
349.4140529
51
0.2933014
0
ARC
8
DEFAULT_255_1_388
10
4.3620903
20
77.0268924
40
0.2588377
50
89.477747
51
105.729729
0
ARC
8
DEFAULT_255_1_388
10
4.3467823
20
77.0837367
40
0.1999733
50
105.9233417
51
135.1660906
0
ARC
8
DEFAULT_255_1_388
10
4.3490854
20
77.0821412
40
0.2027322
50
135.3052302
51
168.9883645
0
ARC
8
DEFAULT_255_1_388
10
4.442187
20
77.0607996
40
0.2982129
50
168.3801673
51
180.3602268
0
ARC
8
DEFAULT_255_1_388
10
4.4164987
20
77.0565622
40
0.2725291
50
179.5033122
51
194.9125571
0
ARC
8
DEFAULT_255_1_388
10
4.3506394
20
77.0392427
40
0.204431
50
194.9720816
51
224.194444
0
ARC
8
DEFAULT_255_1_388
10
4.3474759
20
77.0366635
40
0.2003651
50
224.2962453
51
262.015664
0
ARC
8
DEFAULT_255_1_388
10
4.3634763
20
77.1189315
40
0.2840925
50
261.1245923
51
270.1962896
0
ARC
8
DEFAULT_255_1_388
10
4.3668244
20
77.0978859
40
0.2630559
50
269.4827276
51
285.0987215
0
ARC
8
DEFAULT_255_1_388
10
4.384168
20
77.0328175
40
0.1957162
50
285.1585357
51
315.9484501
0
ARC
8
DEFAULT_255_1_388
10
4.3741554
20
77.0420315
40
0.2093195
50
316.0413965
51
351.916092
0
ARC
8
DEFAULT_255_1_388
10
4.2916928
20
77.0579323
40
0.2932279
50
351.105835
51
0.1939062
0
ARC
8
DEFAULT_255_1_388
10
4.3212562
20
77.0613224
40
0.2636739
50
359.4789618
51
16.0678224
0
ARC
8
DEFAULT_255_1_388
10
4.3748034
20
77.0757721
40
0.2082215
50
16.3252067
51
44.7913869
0
ARC
8
DEFAULT_255_1_388
10
4.3728096
20
77.075832
40
0.2095992
50
44.3957814
51
88.2499162
0
ARC
8
DEFAULT_255_1_388
10
4.3645431
20
77.0070006
40
0.2787189
50
86.9833854
51
90.0192215
0
LINE
8
DEFAULT_255_1_388
10
4.8035819
20
85.3424898
11
4.8035819
21
85.2485191
0
LINE
8
DEFAULT_255_1_388
10
4.8035819
20
85.2485191
11
4.2587325
21
84.0269
0
LINE
8
DEFAULT_255_1_388
10
4.2587325
20
84.0269
11
4.083441
21
84.0269
0
LINE
8
DEFAULT_255_1_388
10
4.083441
20
84.0269
11
4.6264833
21
85.205148
0
LINE
8
DEFAULT_255_1_388
10
4.6264833
20
85.205148
11
3.9144745
21
85.205148
0
LINE
8
DEFAULT_255_1_388
10
3.9144745
20
85.205148
11
3.9144745
21
85.3424898
0
LINE
8
DEFAULT_255_1_388
10
3.9144745
20
85.3424898
11
4.8035819
21
85.3424898
0
LINE
8
DEFAULT_255_1_388
10
4.5804015
20
93.2808934
11
4.6102191
21
93.2808934
0
LINE
8
DEFAULT_255_1_388
10
4.6102191
20
93.2808934
11
4.6102191
21
93.1390338
0
LINE
8
DEFAULT_255_1_388
10
4.6102191
20
93.1390338
11
4.5794979
21
93.1390338
0
LINE
8
DEFAULT_255_1_388
10
3.9641705
20
92.4649747
11
3.9641705
21
92.5291278
0
LINE
8
DEFAULT_255_1_388
10
4.1322335
20
92.5074422
11
4.1322335
21
92.4459999
0
ARC
8
DEFAULT_255_1_388
10
4.5853871
20
92.5767826
40
0.562282
50
90.6001079
51
104.5146616
0
ARC
8
DEFAULT_255_1_388
10
4.541683
20
92.73931
40
0.3939917
50
104.2855758
51
133.8630124
0
ARC
8
DEFAULT_255_1_388
10
4.5601083
20
92.7271243
40
0.4155734
50
134.5304124
51
161.6210222
0
ARC
8
DEFAULT_255_1_388
10
4.7461015
20
92.6615421
40
0.6127682
50
161.2850533
51
174.2074364
0
ARC
8
DEFAULT_255_1_388
10
4.9050582
20
92.6396437
40
0.7731446
50
173.7817938
51
174.9251711
0
ARC
8
DEFAULT_255_1_388
10
4.3924775
20
92.484127
40
0.3412588
50
95.8332067
51
138.995412
0
ARC
8
DEFAULT_255_1_388
10
4.4176056
20
92.3402695
40
0.4870358
50
89.8755506
51
97.0540979
0
ARC
8
DEFAULT_255_1_388
10
4.4229445
20
92.4342841
40
0.3930432
50
71.6407016
51
90.6240821
0
ARC
8
DEFAULT_255_1_388
10
4.4398838
20
92.4966433
40
0.3285421
50
39.6368051
51
71.0190743
0
ARC
8
DEFAULT_255_1_388
10
4.3682746
20
92.4347586
40
0.4231706
50
10.6588054
51
39.9044509
0
ARC
8
DEFAULT_255_1_388
10
4.1941291
20
92.3969223
40
0.60133
50
359.6827842
51
11.1326896
0
ARC
8
DEFAULT_255_1_388
10
4.1896627
20
92.3889715
40
0.6058047
50
347.2485908
51
0.4371098
0
ARC
8
DEFAULT_255_1_388
10
4.3772413
20
92.3438379
40
0.4128987
50
318.1408565
51
347.6118497
0
ARC
8
DEFAULT_255_1_388
10
4.4138009
20
92.3137903
40
0.3656244
50
275.6342406
51
317.824739
0
ARC
8
DEFAULT_255_1_388
10
4.388953
20
92.4599827
40
0.513655
50
269.8872513
51
276.7916069
0
ARC
8
DEFAULT_255_1_388
10
4.3827723
20
92.3446181
40
0.398323
50
246.9139443
51
270.7436787
0
ARC
8
DEFAULT_255_1_388
10
4.3834919
20
92.3286044
40
0.3839368
50
218.1665534
51
245.8780431
0
ARC
8
DEFAULT_255_1_388
10
4.4824291
20
92.4113903
40
0.5128958
50
191.4115343
51
218.6077624
0
ARC
8
DEFAULT_255_1_388
10
4.7004607
20
92.4602777
40
0.7363054
50
179.6344971
51
191.7836758
0
ARC
8
DEFAULT_255_1_388
10
5.3284482
20
92.5366495
40
1.3642984
50
171.4523743
51
180.3158856
0
ARC
8
DEFAULT_255_1_388
10
4.8340209
20
92.6135895
40
0.8639311
50
157.9802296
51
171.6246761
0
ARC
8
DEFAULT_255_1_388
10
4.5849559
20
92.7129038
40
0.5958004
50
141.4299236
51
157.8541251
0
ARC
8
DEFAULT_255_1_388
10
4.5127643
20
92.7639746
40
0.5075416
50
102.871586
51
140.8564533
0
ARC
8
DEFAULT_255_1_388
10
4.5856195
20
92.4894943
40
0.7914163
50
90.377773
51
103.5868422
0
ARC
8
DEFAULT_255_1_388
10
4.3900717
20
92.4214543
40
0.2667015
50
89.8751238
51
126.2072139
0
ARC
8
DEFAULT_255_1_388
10
4.3952188
20
92.4040847
40
0.2838229
50
124.9742447
51
144.8960197
0
ARC
8
DEFAULT_255_1_388
10
4.3754433
20
92.4201981
40
0.2583845
50
145.2974778
51
160.2660922
0
ARC
8
DEFAULT_255_1_388
10
4.7210921
20
92.4424151
40
0.5888695
50
179.6512124
51
190.285571
0
ARC
8
DEFAULT_255_1_388
10
4.5305401
20
92.4064968
40
0.3949683
50
190.0944895
51
207.5099647
0
ARC
8
DEFAULT_255_1_388
10
4.4668982
20
92.3762177
40
0.3245464
50
207.9585471
51
216.325377
0
ARC
8
DEFAULT_255_1_388
10
4.4286619
20
92.3447712
40
0.2751259
50
215.7661336
51
232.5457193
0
ARC
8
DEFAULT_255_1_388
10
4.3855735
20
92.2900273
40
0.2054668
50
232.8005815
51
270.6605497
0
ARC
8
DEFAULT_255_1_388
10
4.390716
20
92.3309853
40
0.2464268
50
269.3550767
51
288.474612
0
ARC
8
DEFAULT_255_1_388
10
4.4011667
20
92.2916721
40
0.2058436
50
289.1831976
51
322.9685307
0
ARC
8
DEFAULT_255_1_388
10
4.3323768
20
92.3459279
40
0.2934408
50
322.6007085
51
346.5183319
0
ARC
8
DEFAULT_255_1_388
10
4.2021524
20
92.3791434
40
0.4278249
50
346.2584622
51
358.7739592
0
ARC
8
DEFAULT_255_1_388
10
4.08701
20
92.3853829
40
0.5430876
50
358.3757628
51
0.0082477
0
ARC
8
DEFAULT_255_1_388
10
4.1726918
20
92.3884856
40
0.4574157
50
359.6211417
51
11.28403
0
ARC
8
DEFAULT_255_1_388
10
4.3163524
20
92.4184535
40
0.3106708
50
11.0483152
51
31.8145585
0
ARC
8
DEFAULT_255_1_388
10
4.3511229
20
92.4373045
40
0.2711963
50
32.3028554
51
38.0820598
0
ARC
8
DEFAULT_255_1_388
10
4.3984462
20
92.4801717
40
0.2075566
50
36.8249851
51
85.741667
0
ARC
8
DEFAULT_255_1_388
10
4.3908875
20
92.4238065
40
0.2643487
50
85.0150021
51
90.050843
0
LINE
8
DEFAULT_255_1_388
10
4.1647618
20
100.5271666
11
4.0310343
21
100.5615021
0
LINE
8
DEFAULT_255_1_388
10
4.0310343
20
100.5615021
11
4.097898
21
101.2174898
0
LINE
8
DEFAULT_255_1_388
10
4.097898
20
101.2174898
11
4.7719571
21
101.2174898
0
LINE
8
DEFAULT_255_1_388
10
4.7719571
20
101.2174898
11
4.7719571
21
101.0629803
0
LINE
8
DEFAULT_255_1_388
10
4.7719571
20
101.0629803
11
4.2397577
21
101.0629803
0
LINE
8
DEFAULT_255_1_388
10
4.2397577
20
101.0629803
11
4.2000008
21
100.7042652
0
LINE
8
DEFAULT_255_1_388
10
3.9840489
20
100.2479652
11
4.1421727
21
100.2479652
0
LINE
8
DEFAULT_255_1_388
10
4.2090365
20
100.5633092
11
4.1647618
21
100.5271666
0
ARC
8
DEFAULT_255_1_388
10
4.4086622
20
100.3465241
40
0.4141476
50
93.7181681
51
120.253934
0
ARC
8
DEFAULT_255_1_388
10
4.4192674
20
100.2556284
40
0.5055616
50
89.9660471
51
94.2495185
0
ARC
8
DEFAULT_255_1_388
10
4.4238496
20
100.3219154
40
0.4392953
50
73.8045384
51
90.5585736
0
ARC
8
DEFAULT_255_1_388
10
4.4502754
20
100.418452
40
0.3392225
50
41.3071072
51
73.543002
0
ARC
8
DEFAULT_255_1_388
10
4.4034574
20
100.3781461
40
0.4009977
50
13.5075837
51
41.2174839
0
ARC
8
DEFAULT_255_1_388
10
4.2187671
20
100.3297907
40
0.5918864
50
1.1330171
51
13.8830737
0
ARC
8
DEFAULT_255_1_388
10
4.0591317
20
100.3212522
40
0.7516787
50
359.9925091
51
1.5431298
0
ARC
8
DEFAULT_255_1_388
10
4.2035932
20
100.3166027
40
0.6072343
50
347.8572712
51
0.4294349
0
ARC
8
DEFAULT_255_1_388
10
4.4005066
20
100.2719898
40
0.4053482
50
323.6727442
51
348.1674594
0
ARC
8
DEFAULT_255_1_388
10
4.4336031
20
100.2518175
40
0.3667495
50
316.8171818
51
323.1486802
0
ARC
8
DEFAULT_255_1_388
10
4.4405155
20
100.2476612
40
0.358869
50
281.839603
51
316.5458142
0
ARC
8
DEFAULT_255_1_388
10
4.3982442
20
100.4226363
40
0.5388223
50
269.5770964
51
282.4214641
0
ARC
8
DEFAULT_255_1_388
10
4.3902363
20
100.398593
40
0.5147801
50
256.2425863
51
270.4486481
0
ARC
8
DEFAULT_255_1_388
10
4.3565891
20
100.2636124
40
0.3756708
50
228.9024379
51
256.33135
0
ARC
8
DEFAULT_255_1_388
10
4.3482871
20
100.2505054
40
0.360344
50
193.7536029
51
228.5272638
0
ARC
8
DEFAULT_255_1_388
10
4.4875436
20
100.2913463
40
0.5053599
50
184.9244437
51
194.4976052
0
ARC
8
DEFAULT_255_1_388
10
4.5092077
20
100.2953722
40
0.3700839
50
187.3596909
51
198.6733728
0
ARC
8
DEFAULT_255_1_388
10
4.3911321
20
100.2544373
40
0.2451195
50
198.4453795
51
217.7945479
0
ARC
8
DEFAULT_255_1_388
10
4.3578493
20
100.2308563
40
0.2043754
50
218.2887146
51
228.5613203
0
ARC
8
DEFAULT_255_1_388
10
4.36885
20
100.2456902
40
0.2227819
50
228.9652423
51
258.1237049
0
ARC
8
DEFAULT_255_1_388
10
4.3919937
20
100.3447964
40
0.3245374
50
257.7260585
51
270.4013717
0
ARC
8
DEFAULT_255_1_388
10
4.3970435
20
100.2947255
40
0.2744726
50
269.4204315
51
286.420998
0
ARC
8
DEFAULT_255_1_388
10
4.4137491
20
100.2340705
40
0.2115721
50
286.7250065
51
320.6004665
0
ARC
8
DEFAULT_255_1_388
10
4.3706407
20
100.2690527
40
0.2670878
50
320.6712228
51
344.5440474
0
ARC
8
DEFAULT_255_1_388
10
4.240512
20
100.3072394
40
0.4026927
50
344.241448
51
356.735803
0
ARC
8
DEFAULT_255_1_388
10
4.1001428
20
100.3188656
40
0.5435085
50
356.3547471
51
0.0507222
0
ARC
8
DEFAULT_255_1_388
10
4.2503693
20
100.3223812
40
0.3932934
50
359.5579289
51
12.9534322
0
ARC
8
DEFAULT_255_1_388
10
4.3690533
20
100.3511586
40
0.2711827
50
12.6489751
51
41.608121
0
ARC
8
DEFAULT_255_1_388
10
4.3949693
20
100.3731946
40
0.2371737
50
41.7851122
51
85.9892156
0
ARC
8
DEFAULT_255_1_388
10
4.3811003
20
100.2816738
40
0.3295244
50
84.6965848
51
90.0672125
0
ARC
8
DEFAULT_255_1_388
10
4.378457
20
100.2065118
40
0.4046926
50
89.6804991
51
99.161352
0
ARC
8
DEFAULT_255_1_388
10
4.3553579
20
100.3445848
40
0.2647044
50
98.9836248
51
113.8905702
0
ARC
8
DEFAULT_255_1_388
10
4.3295254
20
100.4055118
40
0.1985386
50
114.195234
51
127.3641866
0
LINE
8
DEFAULT_255_1_388
10
4.9245151
20
109.1549898
11
4.9245151
21
108.281243
0
LINE
8
DEFAULT_255_1_388
10
4.9245151
20
108.281243
11
5.1070352
21
108.281243
0
LINE
8
DEFAULT_255_1_388
10
5.1070352
20
108.281243
11
5.1070352
21
108.1448048
0
LINE
8
DEFAULT_255_1_388
10
5.1070352
20
108.1448048
11
4.9245151
21
108.1448048
0
LINE
8
DEFAULT_255_1_388
10
4.9245151
20
108.1448048
11
4.9245151
21
107.8394
0
LINE
8
DEFAULT_255_1_388
10
4.9245151
20
107.8394
11
4.7564521
21
107.8394
0
LINE
8
DEFAULT_255_1_388
10
4.7564521
20
107.8394
11
4.7564521
21
108.1448048
0
LINE
8
DEFAULT_255_1_388
10
4.7564521
20
108.1448048
11
4.1573889
21
108.1448048
0
LINE
8
DEFAULT_255_1_388
10
4.1573889
20
108.1448048
11
4.1573889
21
108.2432933
0
LINE
8
DEFAULT_255_1_388
10
4.1573889
20
108.2432933
11
4.7465129
21
109.1549898
0
LINE
8
DEFAULT_255_1_388
10
4.7465129
20
109.1549898
11
4.9245151
21
109.1549898
0
LINE
8
DEFAULT_255_1_388
10
4.7365737
20
108.8902455
11
4.3471375
21
108.281243
0
LINE
8
DEFAULT_255_1_388
10
4.3471375
20
108.281243
11
4.7564521
21
108.281243
0
LINE
8
DEFAULT_255_1_388
10
4.7564521
20
108.281243
11
4.7564521
21
108.926388
0
LINE
8
DEFAULT_255_1_388
10
4.7564521
20
108.926388
11
4.7365737
21
108.8902455
0
LINE
8
DEFAULT_255_1_388
10
4.1972901
20
116.3795775
11
4.1972901
21
116.5160157
0
LINE
8
DEFAULT_255_1_388
10
4.1972901
20
116.5160157
11
4.3228856
21
116.5160157
0
LINE
8
DEFAULT_255_1_388
10
4.1087408
20
116.7473282
11
3.9415814
21
116.7473282
0
LINE
8
DEFAULT_255_1_388
10
3.9298351
20
116.1238688
11
4.097898
21
116.1238688
0
LINE
8
DEFAULT_255_1_388
10
4.3228856
20
116.3795775
11
4.1972901
21
116.3795775
0
ARC
8
DEFAULT_255_1_388
10
4.3196082
20
116.8976922
40
0.3816905
50
270.491971
51
281.8953028
0
ARC
8
DEFAULT_255_1_388
10
4.3467509
20
116.7737199
40
0.2547877
50
281.6690378
51
301.2943765
0
ARC
8
DEFAULT_255_1_388
10
4.3658961
20
116.7386926
40
0.2149197
50
301.7834992
51
311.754567
0
ARC
8
DEFAULT_255_1_388
10
4.3762002
20
116.727265
40
0.1995326
50
311.7325027
51
354.2803031
0
ARC
8
DEFAULT_255_1_388
10
4.2944418
20
116.741328
40
0.2823461
50
353.0941646
51
0.1174696
0
ARC
8
DEFAULT_255_1_388
10
4.2425976
20
116.7466874
40
0.3342238
50
359.1804452
51
15.0452323
0
ARC
8
DEFAULT_255_1_388
10
4.3940034
20
116.7908546
40
0.1765747
50
13.957816
51
77.6713812
0
ARC
8
DEFAULT_255_1_388
10
4.350527
20
116.6350464
40
0.3381982
50
76.111571
51
90.7028736
0
ARC
8
DEFAULT_255_1_388
10
4.3438682
20
116.665825
40
0.3074046
50
89.5321574
51
103.5319393
0
ARC
8
DEFAULT_255_1_388
10
4.3213066
20
116.7557443
40
0.2147041
50
103.2930114
51
133.5619756
0
ARC
8
DEFAULT_255_1_388
10
4.3163007
20
116.7624351
40
0.2064084
50
133.8349761
51
173.5343225
0
ARC
8
DEFAULT_255_1_388
10
4.3976665
20
116.7480144
40
0.2889266
50
172.5097183
51
180.1360699
0
ARC
8
DEFAULT_255_1_388
10
4.2906429
20
116.751888
40
0.3490913
50
155.3483706
51
180.7484035
0
ARC
8
DEFAULT_255_1_388
10
4.2851404
20
116.7486519
40
0.3454798
50
131.5745177
51
154.4799474
0
ARC
8
DEFAULT_255_1_388
10
4.3203687
20
116.7130422
40
0.3955058
50
96.9874487
51
131.9690874
0
ARC
8
DEFAULT_255_1_388
10
4.345058
20
116.5729407
40
0.537622
50
89.8592909
51
97.7827481
0
ARC
8
DEFAULT_255_1_388
10
4.3504689
20
116.543436
40
0.5671399
50
78.3654493
51
90.4132586
0
ARC
8
DEFAULT_255_1_388
10
4.390733
20
116.7300918
40
0.3762034
50
56.6229818
51
78.6387103
0
ARC
8
DEFAULT_255_1_388
10
4.4149159
20
116.7723846
40
0.3275964
50
47.0254604
51
56.085558
0
ARC
8
DEFAULT_255_1_388
10
4.417141
20
116.7768189
40
0.3228382
50
10.9207523
51
46.777927
0
ARC
8
DEFAULT_255_1_388
10
4.2637004
20
116.7413401
40
0.4802559
50
359.6364235
51
11.6087615
0
ARC
8
DEFAULT_255_1_388
10
4.470117
20
116.7396404
40
0.273833
50
332.3549969
51
359.7179765
0
ARC
8
DEFAULT_255_1_388
10
4.396957
20
116.7743285
40
0.3547505
50
325.2332381
51
332.8746682
0
ARC
8
DEFAULT_255_1_388
10
4.4141153
20
116.7623763
40
0.3338396
50
292.9803892
51
325.2391113
0
ARC
8
DEFAULT_255_1_388
10
4.3830349
20
116.8228679
40
0.4016959
50
292.542178
51
293.6931461
0
ARC
8
DEFAULT_255_1_388
10
4.4273921
20
116.0963036
40
0.372079
50
57.643292
51
72.8626085
0
ARC
8
DEFAULT_255_1_388
10
4.4672755
20
116.1609273
40
0.2961455
50
36.7246661
51
57.4701329
0
ARC
8
DEFAULT_255_1_388
10
4.4659912
20
116.162347
40
0.2963321
50
8.054535
51
36.3561529
0
ARC
8
DEFAULT_255_1_388
10
4.3689585
20
116.1449073
40
0.3948682
50
359.8316595
51
8.5873361
0
ARC
8
DEFAULT_255_1_388
10
4.3267059
20
116.139497
40
0.4371398
50
343.9831631
51
0.557075
0
ARC
8
DEFAULT_255_1_388
10
4.4264108
20
116.1121963
40
0.3337749
50
311.6358204
51
343.7652116
0
ARC
8
DEFAULT_255_1_388
10
4.3838362
20
116.1601955
40
0.3979351
50
279.7829743
51
311.625622
0
ARC
8
DEFAULT_255_1_388
10
4.3499497
20
116.3218642
40
0.5630417
50
269.7285092
51
280.3857694
0
ARC
8
DEFAULT_255_1_388
10
4.342981
20
116.3172241
40
0.5584119
50
256.6827433
51
270.4412869
0
ARC
8
DEFAULT_255_1_388
10
4.3048797
20
116.1614698
40
0.3980715
50
229.4223821
51
256.8554507
0
ARC
8
DEFAULT_255_1_388
10
4.258235
20
116.1089683
40
0.3278564
50
181.8183354
51
229.6455015
0
ARC
8
DEFAULT_255_1_388
10
4.375196
20
116.1236825
40
0.4453611
50
179.9760419
51
183.2330638
0
ARC
8
DEFAULT_255_1_388
10
4.3558512
20
116.1213781
40
0.2579652
50
179.4467996
51
196.2871626
0
ARC
8
DEFAULT_255_1_388
10
4.3009966
20
116.1063709
40
0.2011057
50
196.5661293
51
227.7059371
0
ARC
8
DEFAULT_255_1_388
10
4.3194573
20
116.1270155
40
0.2287994
50
227.7653015
51
257.8763321
0
ARC
8
DEFAULT_255_1_388
10
4.3447656
20
116.2330961
40
0.3378385
50
257.4583525
51
270.4267406
0
ARC
8
DEFAULT_255_1_388
10
4.3498906
20
116.265723
40
0.3704652
50
269.5965319
51
280.8788143
0
ARC
8
DEFAULT_255_1_388
10
4.3757134
20
116.1367529
40
0.2389415
50
280.6347277
51
299.8594068
0
ARC
8
DEFAULT_255_1_388
10
4.3971903
20
116.0959736
40
0.19289
50
300.3575552
51
314.5515667
0
ARC
8
DEFAULT_255_1_388
10
4.3878579
20
116.1028025
40
0.204312
50
315.0730962
51
345.0429362
0
ARC
8
DEFAULT_255_1_388
10
4.2840087
20
116.1330539
40
0.31246
50
344.598526
51
357.9270698
0
ARC
8
DEFAULT_255_1_388
10
4.1830391
20
116.1399705
40
0.4136265
50
357.4755098
51
0.0224936
0
ARC
8
DEFAULT_255_1_388
10
4.2983269
20
116.1427099
40
0.2983498
50
359.5051035
51
13.4236939
0
ARC
8
DEFAULT_255_1_388
10
4.3958359
20
116.1676637
40
0.1977186
50
12.9497905
51
48.7550905
0
ARC
8
DEFAULT_255_1_388
10
4.3753281
20
116.1396373
40
0.2323321
50
49.509109
51
72.1832965
0
ARC
8
DEFAULT_255_1_388
10
4.3350749
20
116.0201632
40
0.358397
50
71.9008458
51
84.3555134
0
ARC
8
DEFAULT_255_1_388
10
4.3169144
20
115.8669712
40
0.512641
50
84.019632
51
89.3326067
0
LINE
8
DEFAULT_255_1_388
10
4.8162318
20
123.8508382
11
4.8162318
21
123.7144
0
LINE
8
DEFAULT_255_1_388
10
4.8162318
20
123.7144
11
3.9542313
21
123.7144
0
LINE
8
DEFAULT_255_1_388
10
3.9542313
20
123.7144
11
3.9542313
21
123.8345741
0
LINE
8
DEFAULT_255_1_388
10
3.9542313
20
123.8345741
11
4.4096278
21
124.3405702
0
LINE
8
DEFAULT_255_1_388
10
4.0960909
20
124.6423607
11
3.9289315
21
124.6423607
0
LINE
8
DEFAULT_255_1_388
10
4.5081163
20
124.233046
11
4.1557262
21
123.8508382
0
LINE
8
DEFAULT_255_1_388
10
4.1557262
20
123.8508382
11
4.8162318
21
123.8508382
0
ARC
8
DEFAULT_255_1_388
10
2.8920337
20
125.6825983
40
2.0258655
50
318.5132526
51
320.7829045
0
ARC
8
DEFAULT_255_1_388
10
3.4868294
20
125.1984929
40
1.2589638
50
320.7372878
51
323.9739031
0
ARC
8
DEFAULT_255_1_388
10
3.9277226
20
124.8790554
40
0.7145141
50
323.8962701
51
328.64194
0
ARC
8
DEFAULT_255_1_388
10
4.1579484
20
124.7370545
40
0.4440242
50
328.8294576
51
331.7891185
0
ARC
8
DEFAULT_255_1_388
10
4.2701804
20
124.6791374
40
0.3177517
50
331.4254512
51
352.9365785
0
ARC
8
DEFAULT_255_1_388
10
4.2854804
20
124.675705
40
0.3021496
50
353.2257659
51
0.0166158
0
ARC
8
DEFAULT_255_1_388
10
4.3091564
20
124.6782894
40
0.2784847
50
359.486299
51
15.9343185
0
ARC
8
DEFAULT_255_1_388
10
4.3661831
20
124.6936269
40
0.2194403
50
16.1712913
51
43.5286088
0
ARC
8
DEFAULT_255_1_388
10
4.3748776
20
124.7023191
40
0.2071504
50
43.4417391
51
83.1661095
0
ARC
8
DEFAULT_255_1_388
10
4.3597937
20
124.6194316
40
0.2912888
50
82.160179
51
90.1505708
0
ARC
8
DEFAULT_255_1_388
10
4.3562418
20
124.5590279
40
0.3517025
50
89.5460741
51
102.5418361
0
ARC
8
DEFAULT_255_1_388
10
4.3289138
20
124.6749933
40
0.2325748
50
102.1738499
51
129.206123
0
ARC
8
DEFAULT_255_1_388
10
4.3200592
20
124.6889664
40
0.2161591
50
129.72865
51
135.753947
0
ARC
8
DEFAULT_255_1_388
10
4.3337074
20
124.6780728
40
0.2335433
50
136.1757367
51
166.3673339
0
ARC
8
DEFAULT_255_1_388
10
4.4469762
20
124.6477148
40
0.3507873
50
165.9090694
51
178.8684636
0
ARC
8
DEFAULT_255_1_388
10
4.5445534
20
124.6424263
40
0.4484624
50
178.4391136
51
180.0083808
0
ARC
8
DEFAULT_255_1_388
10
4.3866235
20
124.6468197
40
0.4577138
50
163.2878482
51
180.5581842
0
ARC
8
DEFAULT_255_1_388
10
4.2964276
20
124.6716393
40
0.3641968
50
133.4540601
51
162.947111
0
ARC
8
DEFAULT_255_1_388
10
4.3165158
20
124.6502789
40
0.3935189
50
100.7869829
51
133.4382499
0
ARC
8
DEFAULT_255_1_388
10
4.3556403
20
124.4760399
40
0.5720313
50
89.660664
51
101.3702276
0
ARC
8
DEFAULT_255_1_388
10
4.3631012
20
124.4829263
40
0.5651495
50
78.2172678
51
90.412935
0
ARC
8
DEFAULT_255_1_388
10
4.4030478
20
124.6656511
40
0.378122
50
55.9269121
51
78.4888449
0
ARC
8
DEFAULT_255_1_388
10
4.4251193
20
124.7037187
40
0.3342379
50
47.929771
51
55.4049217
0
ARC
8
DEFAULT_255_1_388
10
4.4365723
20
124.7153618
40
0.3179217
50
4.334829
51
48.0560205
0
ARC
8
DEFAULT_255_1_388
10
4.3133525
20
124.6962487
40
0.442341
50
359.9251713
51
5.5971671
0
ARC
8
DEFAULT_255_1_388
10
4.361568
20
124.7025728
40
0.3941854
50
337.8914027
51
358.9967534
0
ARC
8
DEFAULT_255_1_388
10
4.056325
20
124.8203295
40
0.7213271
50
326.9132501
51
338.3508308
0
ARC
8
DEFAULT_255_1_388
10
3.6079362
20
125.1077105
40
1.2538973
50
319.6471833
51
327.0959558
0
ARC
8
DEFAULT_255_1_388
10
3.176602
20
125.463505
40
1.8129975
50
317.2588228
51
319.9045804
0
LINE
8
DEFAULT_255_1_388
10
4.4952985
20
132.9738148
11
4.4952985
21
131.6519
0
LINE
8
DEFAULT_255_1_388
10
4.4952985
20
131.6519
11
4.3272355
21
131.6519
0
LINE
8
DEFAULT_255_1_388
10
4.3272355
20
131.6519
11
4.3272355
21
132.765995
0
LINE
8
DEFAULT_255_1_388
10
4.3272355
20
132.765995
11
3.990206
21
132.6422066
0
LINE
8
DEFAULT_255_1_388
10
3.990206
20
132.6422066
11
3.990206
21
132.7940055
0
LINE
8
DEFAULT_255_1_388
10
3.990206
20
132.7940055
11
4.4690951
21
132.9738148
0
LINE
8
DEFAULT_255_1_388
10
4.4690951
20
132.9738148
11
4.4952985
21
132.9738148
0
LINE
8
DEFAULT_255_1_388
10
4.7791856
20
140.367369
11
4.7791856
21
140.1505135
0
LINE
8
DEFAULT_255_1_388
10
3.9488099
20
140.1279244
11
3.9488099
21
140.3511048
0
LINE
8
DEFAULT_255_1_388
10
4.6120262
20
140.1053353
11
4.6120262
21
140.3791153
0
LINE
8
DEFAULT_255_1_388
10
4.1159693
20
140.3917652
11
4.1159693
21
140.1243102
0
ARC
8
DEFAULT_255_1_388
10
3.401419
20
140.1450118
40
1.3777776
50
353.8440855
51
0.2287917
0
ARC
8
DEFAULT_255_1_388
10
3.9233208
20
140.0867414
40
0.852639
50
344.4934746
51
353.9763743
0
ARC
8
DEFAULT_255_1_388
10
4.2600015
20
139.9910191
40
0.5026273
50
329.2803599
51
344.7473406
0
ARC
8
DEFAULT_255_1_388
10
4.3715511
20
139.9298038
40
0.3754848
50
324.9361395
51
328.6153007
0
ARC
8
DEFAULT_255_1_388
10
4.4141161
20
139.9000586
40
0.3235566
50
280.5801797
51
324.9173226
0
ARC
8
DEFAULT_255_1_388
10
4.3689789
20
140.0880236
40
0.5167077
50
269.5979457
51
281.6732777
0
ARC
8
DEFAULT_255_1_388
10
4.3608693
20
140.0745113
40
0.5032026
50
256.6228565
51
270.5105488
0
ARC
8
DEFAULT_255_1_388
10
4.3156435
20
139.9003345
40
0.3233092
50
215.8618351
51
257.2787793
0
ARC
8
DEFAULT_255_1_388
10
4.4305142
20
139.9774106
40
0.4615831
50
197.9695203
51
215.2622745
0
ARC
8
DEFAULT_255_1_388
10
4.7100818
20
140.0717641
40
0.7566307
50
187.8816486
51
198.2346584
0
ARC
8
DEFAULT_255_1_388
10
5.1554056
20
140.1360453
40
1.2065653
50
180.8977266
51
188.0054894
0
ARC
8
DEFAULT_255_1_388
10
5.460427
20
140.14754
40
1.5117443
50
180.7434591
51
181.152202
0
ARC
8
DEFAULT_255_1_388
10
5.2929266
20
140.3565371
40
1.3441277
50
173.7674302
51
180.2315596
0
ARC
8
DEFAULT_255_1_388
10
4.7847135
20
140.4139779
40
0.8326847
50
164.3058537
51
173.9000553
0
ARC
8
DEFAULT_255_1_388
10
4.4571135
20
140.5083652
40
0.4917711
50
148.7922028
51
164.5682288
0
ARC
8
DEFAULT_255_1_388
10
4.3501872
20
140.5680457
40
0.3694204
50
144.5883979
51
148.1161588
0
ARC
8
DEFAULT_255_1_388
10
4.3114618
20
140.5950667
40
0.322202
50
101.6440149
51
144.5142619
0
ARC
8
DEFAULT_255_1_388
10
4.359281
20
140.4050337
40
0.5180451
50
89.528284
51
102.5820197
0
ARC
8
DEFAULT_255_1_388
10
4.3681802
20
140.4006376
40
0.5224441
50
77.0437914
51
90.508231
0
ARC
8
DEFAULT_255_1_388
10
4.4134055
20
140.5854272
40
0.3322297
50
48.2777708
51
77.4996087
0
ARC
8
DEFAULT_255_1_388
10
4.4215795
20
140.5999557
40
0.315966
50
36.3141586
51
47.6307332
0
ARC
8
DEFAULT_255_1_388
10
4.3238518
20
140.5341159
40
0.4337313
50
18.2931065
51
35.6770203
0
ARC
8
DEFAULT_255_1_388
10
4.0377358
20
140.4359107
40
0.7362203
50
8.0246996
51
18.5605636
0
ARC
8
DEFAULT_255_1_388
10
3.5693714
20
140.3667432
40
1.2096583
50
1.127539
51
8.1718423
0
ARC
8
DEFAULT_255_1_388
10
3.2044847
20
140.3524374
40
1.5747719
50
0.5432713
51
1.38669
0
ARC
8
DEFAULT_255_1_388
10
3.4102226
20
140.3831163
40
1.2018103
50
359.8092569
51
4.9408001
0
ARC
8
DEFAULT_255_1_388
10
3.8838807
20
140.42539
40
0.7262727
50
4.8364937
51
12.2906017
0
ARC
8
DEFAULT_255_1_388
10
4.1938272
20
140.4944485
40
0.4087324
50
12.0806994
51
23.8171225
0
ARC
8
DEFAULT_255_1_388
10
4.3258668
20
140.5503508
40
0.2653719
50
24.2874621
51
31.3934353
0
ARC
8
DEFAULT_255_1_388
10
4.3849104
20
140.5889822
40
0.1948607
50
30.7407708
51
82.4658033
0
ARC
8
DEFAULT_255_1_388
10
4.3646765
20
140.4896017
40
0.2961198
50
81.1057101
51
90.2187368
0
ARC
8
DEFAULT_255_1_388
10
4.3606577
20
140.5186421
40
0.2670929
50
89.380395
51
105.6763916
0
ARC
8
DEFAULT_255_1_388
10
4.3400299
20
140.593632
40
0.1893189
50
105.7980655
51
149.7387869
0
ARC
8
DEFAULT_255_1_388
10
4.4597439
20
140.5216719
40
0.3289892
50
149.4208441
51
163.628295
0
ARC
8
DEFAULT_255_1_388
10
4.6949668
20
140.4499345
40
0.5749004
50
163.3764549
51
172.141138
0
ARC
8
DEFAULT_255_1_388
10
5.066239
20
140.3967582
40
0.9499585
50
172.0258462
51
178.0705453
0
ARC
8
DEFAULT_255_1_388
10
5.4083943
20
140.3805682
40
1.2924734
50
177.8639301
51
179.5036263
0
ARC
8
DEFAULT_255_1_388
10
5.2864961
20
140.1202151
40
1.170534
50
179.7995545
51
185.246089
0
ARC
8
DEFAULT_255_1_388
10
4.8316554
20
140.0771404
40
0.7136613
50
185.1411911
51
193.0082205
0
ARC
8
DEFAULT_255_1_388
10
4.5342815
20
140.0068441
40
0.4080987
50
192.7897338
51
205.2507384
0
ARC
8
DEFAULT_255_1_388
10
4.4165025
20
139.9542538
40
0.2791522
50
205.8001921
51
211.2545876
0
ARC
8
DEFAULT_255_1_388
10
4.3576564
20
139.9148132
40
0.2084074
50
210.3789935
51
238.4007996
0
ARC
8
DEFAULT_255_1_388
10
4.355465
20
139.9200786
40
0.2117943
50
239.6521916
51
265.9793852
0
ARC
8
DEFAULT_255_1_388
10
4.3650499
20
139.9957358
40
0.2879689
50
265.1324455
51
270.0603288
0
ARC
8
DEFAULT_255_1_388
10
4.3682876
20
139.9592418
40
0.2514919
50
269.3314378
51
287.2180039
0
ARC
8
DEFAULT_255_1_388
10
4.3837958
20
139.9026291
40
0.1928357
50
287.7957942
51
329.0808983
0
ARC
8
DEFAULT_255_1_388
10
4.2760715
20
139.9698651
40
0.319808
50
328.6635261
51
343.3325043
0
ARC
8
DEFAULT_255_1_388
10
4.0316174
20
140.0460195
40
0.5758408
50
343.0498092
51
351.9392499
0
ARC
8
DEFAULT_255_1_388
10
3.6415496
20
140.1035205
40
0.9701202
50
351.8071632
51
357.7957897
0
ARC
8
DEFAULT_255_1_388
10
3.2780973
20
140.1223724
40
1.3340376
50
357.5870923
51
359.2682493
0
LINE
8
DEFAULT_255_1_388
10
4.1676903
20
148.8424898
11
4.1676903
21
147.6687596
0
LINE
8
DEFAULT_255_1_388
10
4.1676903
20
147.6687596
11
4.7911498
21
147.6687596
0
LINE
8
DEFAULT_255_1_388
10
4.7911498
20
147.6687596
11
4.7911498
21
147.5269
0
LINE
8
DEFAULT_255_1_388
10
4.7911498
20
147.5269
11
3.9933024
21
147.5269
0
LINE
8
DEFAULT_255_1_388
10
3.9933024
20
147.5269
11
3.9933024
21
148.8424898
0
LINE
8
DEFAULT_255_1_388
10
3.9933024
20
148.8424898
11
4.1676903
21
148.8424898
0
LINE
8
DEFAULT_255_1_388
10
5.8076598
20
147.6633382
11
5.8076598
21
147.5269
0
LINE
8
DEFAULT_255_1_388
10
5.8076598
20
147.5269
11
4.9456593
21
147.5269
0
LINE
8
DEFAULT_255_1_388
10
4.9456593
20
147.5269
11
4.9456593
21
147.6470741
0
LINE
8
DEFAULT_255_1_388
10
4.9456593
20
147.6470741
11
5.4010558
21
148.1530702
0
LINE
8
DEFAULT_255_1_388
10
5.0875189
20
148.4548607
11
4.9203595
21
148.4548607
0
LINE
8
DEFAULT_255_1_388
10
5.4995443
20
148.045546
11
5.1471542
21
147.6633382
0
LINE
8
DEFAULT_255_1_388
10
5.1471542
20
147.6633382
11
5.8076598
21
147.6633382
0
ARC
8
DEFAULT_255_1_388
10
3.8834618
20
149.4950983
40
2.0258655
50
318.5132526
51
320.7829045
0
ARC
8
DEFAULT_255_1_388
10
4.4782575
20
149.0109929
40
1.2589638
50
320.7372878
51
323.9739031
0
ARC
8
DEFAULT_255_1_388
10
4.9191506
20
148.6915554
40
0.7145141
50
323.8962701
51
328.64194
0
ARC
8
DEFAULT_255_1_388
10
5.1493764
20
148.5495545
40
0.4440242
50
328.8294576
51
331.7891185
0
ARC
8
DEFAULT_255_1_388
10
5.2616084
20
148.4916374
40
0.3177517
50
331.4254512
51
352.9365785
0
ARC
8
DEFAULT_255_1_388
10
5.2769084
20
148.488205
40
0.3021496
50
353.2257659
51
0.0166158
0
ARC
8
DEFAULT_255_1_388
10
5.3005845
20
148.4907894
40
0.2784847
50
359.486299
51
15.9343185
0
ARC
8
DEFAULT_255_1_388
10
5.3576111
20
148.5061269
40
0.2194403
50
16.1712913
51
43.5286088
0
ARC
8
DEFAULT_255_1_388
10
5.3663056
20
148.5148191
40
0.2071504
50
43.4417391
51
83.1661095
0
ARC
8
DEFAULT_255_1_388
10
5.3512217
20
148.4319316
40
0.2912888
50
82.160179
51
90.1505708
0
ARC
8
DEFAULT_255_1_388
10
5.3476699
20
148.3715279
40
0.3517025
50
89.5460741
51
102.5418361
0
ARC
8
DEFAULT_255_1_388
10
5.3203419
20
148.4874933
40
0.2325748
50
102.1738499
51
129.206123
0
ARC
8
DEFAULT_255_1_388
10
5.3114872
20
148.5014664
40
0.2161591
50
129.72865
51
135.753947
0
ARC
8
DEFAULT_255_1_388
10
5.3251354
20
148.4905728
40
0.2335433
50
136.1757367
51
166.3673339
0
ARC
8
DEFAULT_255_1_388
10
5.4384043
20
148.4602148
40
0.3507873
50
165.9090694
51
178.8684636
0
ARC
8
DEFAULT_255_1_388
10
5.5359814
20
148.4549263
40
0.4484624
50
178.4391136
51
180.0083808
0
ARC
8
DEFAULT_255_1_388
10
5.3780516
20
148.4593197
40
0.4577138
50
163.2878482
51
180.5581842
0
ARC
8
DEFAULT_255_1_388
10
5.2878557
20
148.4841393
40
0.3641968
50
133.4540601
51
162.947111
0
ARC
8
DEFAULT_255_1_388
10
5.3079438
20
148.4627789
40
0.3935189
50
100.7869829
51
133.4382499
0
ARC
8
DEFAULT_255_1_388
10
5.3470683
20
148.2885399
40
0.5720313
50
89.660664
51
101.3702276
0
ARC
8
DEFAULT_255_1_388
10
5.3545292
20
148.2954263
40
0.5651495
50
78.2172678
51
90.412935
0
ARC
8
DEFAULT_255_1_388
10
5.3944758
20
148.4781511
40
0.378122
50
55.9269121
51
78.4888449
0
ARC
8
DEFAULT_255_1_388
10
5.4165473
20
148.5162187
40
0.3342379
50
47.929771
51
55.4049217
0
ARC
8
DEFAULT_255_1_388
10
5.4280004
20
148.5278618
40
0.3179217
50
4.334829
51
48.0560205
0
ARC
8
DEFAULT_255_1_388
10
5.3047805
20
148.5087487
40
0.442341
50
359.9251713
51
5.5971671
0
ARC
8
DEFAULT_255_1_388
10
5.352996
20
148.5150728
40
0.3941854
50
337.8914027
51
358.9967534
0
ARC
8
DEFAULT_255_1_388
10
5.047753
20
148.6328295
40
0.7213271
50
326.9132501
51
338.3508308
0
ARC
8
DEFAULT_255_1_388
10
4.5993642
20
148.9202105
40
1.2538973
50
319.6471833
51
327.0959558
0
ARC
8
DEFAULT_255_1_388
10
4.16803
20
149.276005
40
1.8129975
50
317.2588228
51
319.9045804
0
LINE
8
DEFAULT_255_1_388
10
6.5838217
20
148.8424898
11
6.0353581
21
147.4139544
0
LINE
8
DEFAULT_255_1_388
10
6.0353581
20
147.4139544
11
5.8916913
21
147.4139544
0
LINE
8
DEFAULT_255_1_388
10
5.8916913
20
147.4139544
11
6.4410585
21
148.8424898
0
LINE
8
DEFAULT_255_1_388
10
6.4410585
20
148.8424898
11
6.5838217
21
148.8424898
0
LINE
8
DEFAULT_255_1_388
10
7.8018266
20
148.8424898
11
7.8018266
21
147.5269
0
LINE
8
DEFAULT_255_1_388
10
7.8018266
20
147.5269
11
7.6274386
21
147.5269
0
LINE
8
DEFAULT_255_1_388
10
7.6274386
20
147.5269
11
6.9651259
21
148.5406993
0
LINE
8
DEFAULT_255_1_388
10
6.9651259
20
148.5406993
11
6.9651259
21
147.5269
0
LINE
8
DEFAULT_255_1_388
10
6.9651259
20
147.5269
11
6.7907379
21
147.5269
0
LINE
8
DEFAULT_255_1_388
10
6.7907379
20
147.5269
11
6.7907379
21
148.8424898
0
LINE
8
DEFAULT_255_1_388
10
6.7907379
20
148.8424898
11
6.9651259
21
148.8424898
0
LINE
8
DEFAULT_255_1_388
10
6.9651259
20
148.8424898
11
7.6292458
21
147.8241727
0
LINE
8
DEFAULT_255_1_388
10
7.6292458
20
147.8241727
11
7.6292458
21
148.8424898
0
LINE
8
DEFAULT_255_1_388
10
7.6292458
20
148.8424898
11
7.8018266
21
148.8424898
0
LINE
8
DEFAULT_255_1_388
10
21.7524342
20
156.1194842
11
21.7524342
21
155.6369808
0
LINE
8
DEFAULT_255_1_388
10
20.7386349
20
156.0589454
11
20.7386349
21
156.1736981
0
LINE
8
DEFAULT_255_1_388
10
21.7524342
20
156.3941678
11
21.5789498
21
156.3941678
0
LINE
8
DEFAULT_255_1_388
10
20.9130228
20
156.1782159
11
20.9130228
21
156.0706917
0
LINE
8
DEFAULT_255_1_388
10
21.5798534
20
155.6830626
11
21.5798534
21
155.9785282
0
LINE
8
DEFAULT_255_1_388
10
21.5798534
20
155.9785282
11
21.2753521
21
155.9785282
0
LINE
8
DEFAULT_255_1_388
10
21.2753521
20
155.9785282
11
21.2753521
21
156.1194842
0
LINE
8
DEFAULT_255_1_388
10
21.2753521
20
156.1194842
11
21.7524342
21
156.1194842
0
ARC
8
DEFAULT_255_1_388
10
21.4338942
20
155.8612284
40
0.3895571
50
295.8437277
51
324.8549962
0
ARC
8
DEFAULT_255_1_388
10
21.3871325
20
155.9458619
40
0.4861381
50
291.5691164
51
296.4556269
0
ARC
8
DEFAULT_255_1_388
10
21.3296327
20
156.0994801
40
0.6501442
50
278.6622213
51
291.3047061
0
ARC
8
DEFAULT_255_1_388
10
21.2914359
20
156.3411557
40
0.8948168
50
270.0200506
51
278.7494673
0
ARC
8
DEFAULT_255_1_388
10
21.2870563
20
156.5257453
40
1.0794166
50
270.0022372
51
270.2490917
0
ARC
8
DEFAULT_255_1_388
10
21.2828456
20
156.0298827
40
0.5835695
50
253.5785313
51
270.4175629
0
ARC
8
DEFAULT_255_1_388
10
21.2633452
20
155.9543625
40
0.5056241
50
238.8203954
51
253.2788387
0
ARC
8
DEFAULT_255_1_388
10
21.2611367
20
155.9486224
40
0.4995712
50
206.7883476
51
238.696262
0
ARC
8
DEFAULT_255_1_388
10
21.3486763
20
156.0010847
40
0.6014056
50
206.1137778
51
207.4912776
0
ARC
8
DEFAULT_255_1_388
10
21.4153599
20
156.0294284
40
0.6737692
50
188.6922336
51
205.782076
0
ARC
8
DEFAULT_255_1_388
10
21.6241958
20
156.0649455
40
0.8855812
50
180.3881972
51
188.9218085
0
ARC
8
DEFAULT_255_1_388
10
21.7623116
20
156.1800622
40
1.0236965
50
170.2024645
51
180.3561986
0
ARC
8
DEFAULT_255_1_388
10
21.4064266
20
156.2437101
40
0.6621746
50
154.2856519
51
170.3893388
0
ARC
8
DEFAULT_255_1_388
10
21.262223
20
156.3097192
40
0.5036209
50
139.8400879
51
153.9334639
0
ARC
8
DEFAULT_255_1_388
10
21.2218133
20
156.3420716
40
0.4518751
50
98.4190017
51
139.6707015
0
ARC
8
DEFAULT_255_1_388
10
21.2645101
20
156.1344755
40
0.6635912
50
89.7660128
51
99.4415389
0
ARC
8
DEFAULT_255_1_388
10
21.2718497
20
156.1418517
40
0.6562258
50
78.0552044
51
90.4042252
0
ARC
8
DEFAULT_255_1_388
10
21.3173561
20
156.3464661
40
0.4466287
50
54.6380186
51
78.3338577
0
ARC
8
DEFAULT_255_1_388
10
21.3387859
20
156.3825444
40
0.4048184
50
50.0313964
51
54.1562739
0
ARC
8
DEFAULT_255_1_388
10
21.3266753
20
156.3716798
40
0.4209308
50
18.1092229
51
49.7179911
0
ARC
8
DEFAULT_255_1_388
10
21.1627833
20
156.3116399
40
0.5953982
50
7.967396
51
18.698492
0
ARC
8
DEFAULT_255_1_388
10
21.1797094
20
156.3255236
40
0.4050986
50
9.7558763
51
27.3214087
0
ARC
8
DEFAULT_255_1_388
10
21.3065559
20
156.3889087
40
0.2633168
50
27.736147
51
84.5257861
0
ARC
8
DEFAULT_255_1_388
10
21.2696968
20
156.2039988
40
0.4513019
50
82.1064239
51
90.1997295
0
ARC
8
DEFAULT_255_1_388
10
21.2640985
20
156.2611501
40
0.3941684
50
89.4148952
51
105.5824837
0
ARC
8
DEFAULT_255_1_388
10
21.2351865
20
156.3664043
40
0.2850167
50
105.6678541
51
144.2649156
0
ARC
8
DEFAULT_255_1_388
10
21.3356758
20
156.2949024
40
0.4083468
50
144.3560675
51
162.8564185
0
ARC
8
DEFAULT_255_1_388
10
21.57012
20
156.2196083
40
0.6545749
50
162.6076338
51
173.6779811
0
ARC
8
DEFAULT_255_1_388
10
21.9145315
20
156.1777422
40
1.0015089
50
173.4670996
51
179.9729015
0
ARC
8
DEFAULT_255_1_388
10
21.6998186
20
156.0659636
40
0.78681
50
179.6556955
51
190.007958
0
ARC
8
DEFAULT_255_1_388
10
21.4392468
20
156.018166
40
0.5218997
50
189.8117884
51
206.6795375
0
ARC
8
DEFAULT_255_1_388
10
21.3441914
20
155.9738514
40
0.4170788
50
207.1031171
51
217.7074698
0
ARC
8
DEFAULT_255_1_388
10
21.2728344
20
155.9117596
40
0.3226945
50
216.7345117
51
265.6812141
0
ARC
8
DEFAULT_255_1_388
10
21.2875486
20
156.013503
40
0.4253149
50
264.7367524
51
270.0610826
0
ARC
8
DEFAULT_255_1_388
10
21.2901672
20
156.3330173
40
0.7448321
50
269.8334494
51
276.0538364
0
ARC
8
DEFAULT_255_1_388
10
21.3134534
20
156.1190924
40
0.5296446
50
275.9894423
51
284.4615914
0
ARC
8
DEFAULT_255_1_388
10
21.3356047
20
156.025857
40
0.4338353
50
284.7038488
51
286.4938196
0
ARC
8
DEFAULT_255_1_388
10
21.3815196
20
155.8779371
40
0.2789738
50
286.0770429
51
304.2629628
0
ARC
8
DEFAULT_255_1_388
10
21.3965354
20
155.853368
40
0.2502188
50
304.5886247
51
317.1074126
0
LINE
8
DEFAULT_255_1_388
10
23.0526634
20
156.7799898
11
23.0526634
21
155.4644
0
LINE
8
DEFAULT_255_1_388
10
23.0526634
20
155.4644
11
22.8782755
21
155.4644
0
LINE
8
DEFAULT_255_1_388
10
22.8782755
20
155.4644
11
22.2159627
21
156.4781993
0
LINE
8
DEFAULT_255_1_388
10
22.2159627
20
156.4781993
11
22.2159627
21
155.4644
0
LINE
8
DEFAULT_255_1_388
10
22.2159627
20
155.4644
11
22.0415748
21
155.4644
0
LINE
8
DEFAULT_255_1_388
10
22.0415748
20
155.4644
11
22.0415748
21
156.7799898
0
LINE
8
DEFAULT_255_1_388
10
22.0415748
20
156.7799898
11
22.2159627
21
156.7799898
0
LINE
8
DEFAULT_255_1_388
10
22.2159627
20
156.7799898
11
22.8800826
21
155.7616727
0
LINE
8
DEFAULT_255_1_388
10
22.8800826
20
155.7616727
11
22.8800826
21
156.7799898
0
LINE
8
DEFAULT_255_1_388
10
22.8800826
20
156.7799898
11
23.0526634
21
156.7799898
0
LINE
8
DEFAULT_255_1_388
10
23.7249154
20
155.4644
11
23.3607789
21
155.4644
0
LINE
8
DEFAULT_255_1_388
10
23.3607789
20
155.4644
11
23.3607789
21
156.7799898
0
LINE
8
DEFAULT_255_1_388
10
23.3607789
20
156.7799898
11
23.7321439
21
156.7799898
0
LINE
8
DEFAULT_255_1_388
10
24.3122323
20
156.1664696
11
24.3122323
21
156.0824381
0
LINE
8
DEFAULT_255_1_388
10
23.7366617
20
156.6372267
11
23.5342633
21
156.6372267
0
LINE
8
DEFAULT_255_1_388
10
23.5342633
20
156.6372267
11
23.5342633
21
155.6062596
0
LINE
8
DEFAULT_255_1_388
10
23.5342633
20
155.6062596
11
23.7167833
21
155.6062596
0
LINE
8
DEFAULT_255_1_388
10
24.140555
20
156.0860523
11
24.140555
21
156.1628553
0
ARC
8
DEFAULT_255_1_388
10
23.7365234
20
156.1201436
40
0.6598608
50
75.4100343
51
90.3802731
0
ARC
8
DEFAULT_255_1_388
10
23.7623479
20
156.2277691
40
0.5492049
50
60.1455157
51
75.1889627
0
ARC
8
DEFAULT_255_1_388
10
23.7802071
20
156.2588914
40
0.5133226
50
26.525419
51
60.1451222
0
ARC
8
DEFAULT_255_1_388
10
23.6541857
20
156.1920642
40
0.6559324
50
7.4029944
51
26.832209
0
ARC
8
DEFAULT_255_1_388
10
23.4748254
20
156.1641229
40
0.8374103
50
0.1605597
51
7.7176135
0
ARC
8
DEFAULT_255_1_388
10
23.4932654
20
156.0781321
40
0.8189782
50
348.7289744
51
0.30125
0
ARC
8
DEFAULT_255_1_388
10
23.6796118
20
156.0411156
40
0.628991
50
333.0706936
51
348.7181455
0
ARC
8
DEFAULT_255_1_388
10
23.7883747
20
155.9820449
40
0.5052808
50
299.2531435
51
333.4571133
0
ARC
8
DEFAULT_255_1_388
10
23.7477777
20
156.0591629
40
0.5924066
50
278.1072193
51
299.0340218
0
ARC
8
DEFAULT_255_1_388
10
23.7189826
20
156.2287979
40
0.7644209
50
270.4446841
51
278.4508355
0
ARC
8
DEFAULT_255_1_388
10
23.721331
20
156.12423
40
0.5179903
50
269.4969684
51
284.0204874
0
ARC
8
DEFAULT_255_1_388
10
23.7613028
20
155.9706415
40
0.3592968
50
283.7699076
51
318.1557121
0
ARC
8
DEFAULT_255_1_388
10
23.7233573
20
155.9990399
40
0.4065308
50
318.7417595
51
343.687252
0
ARC
8
DEFAULT_255_1_388
10
23.5204152
20
156.0624275
40
0.6191194
50
343.3324891
51
355.8548594
0
ARC
8
DEFAULT_255_1_388
10
23.284319
20
156.0848719
40
0.856237
50
355.4988754
51
0.0789913
0
ARC
8
DEFAULT_255_1_388
10
23.3723989
20
156.167608
40
0.7681709
50
359.6455047
51
9.8607559
0
ARC
8
DEFAULT_255_1_388
10
23.6379712
20
156.2155664
40
0.498312
50
9.6573037
51
26.1931522
0
ARC
8
DEFAULT_255_1_388
10
23.7423787
20
156.2640587
40
0.3832303
50
26.5777895
51
40.1533752
0
ARC
8
DEFAULT_255_1_388
10
23.7711452
20
156.286502
40
0.3467742
50
40.3839958
51
80.1430923
0
ARC
8
DEFAULT_255_1_388
10
23.7343708
20
156.1234486
40
0.5137832
50
79.2153636
51
89.7445174
0
LINE
8
DEFAULT_255_1_388
10
23.0519985
20
61.5363148
11
23.0519985
21
60.2144
0
LINE
8
DEFAULT_255_1_388
10
23.0519985
20
60.2144
11
22.8839355
21
60.2144
0
LINE
8
DEFAULT_255_1_388
10
22.8839355
20
60.2144
11
22.8839355
21
61.328495
0
LINE
8
DEFAULT_255_1_388
10
22.8839355
20
61.328495
11
22.546906
21
61.2047066
0
LINE
8
DEFAULT_255_1_388
10
22.546906
20
61.2047066
11
22.546906
21
61.3565055
0
LINE
8
DEFAULT_255_1_388
10
22.546906
20
61.3565055
11
23.0257951
21
61.5363148
0
LINE
8
DEFAULT_255_1_388
10
23.0257951
20
61.5363148
11
23.0519985
21
61.5363148
0
LINE
8
DEFAULT_255_1_388
10
24.0910976
20
61.5363148
11
24.0910976
21
60.2144
0
LINE
8
DEFAULT_255_1_388
10
24.0910976
20
60.2144
11
23.9230346
21
60.2144
0
LINE
8
DEFAULT_255_1_388
10
23.9230346
20
60.2144
11
23.9230346
21
61.328495
0
LINE
8
DEFAULT_255_1_388
10
23.9230346
20
61.328495
11
23.5860051
21
61.2047066
0
LINE
8
DEFAULT_255_1_388
10
23.5860051
20
61.2047066
11
23.5860051
21
61.3565055
0
LINE
8
DEFAULT_255_1_388
10
23.5860051
20
61.3565055
11
24.0648942
21
61.5363148
0
LINE
8
DEFAULT_255_1_388
10
24.0648942
20
61.5363148
11
24.0910976
21
61.5363148
0
LINE
8
DEFAULT_255_1_388
10
23.0445985
20
69.4738148
11
23.0445985
21
68.1519
0
LINE
8
DEFAULT_255_1_388
10
23.0445985
20
68.1519
11
22.8765355
21
68.1519
0
LINE
8
DEFAULT_255_1_388
10
22.8765355
20
68.1519
11
22.8765355
21
69.265995
0
LINE
8
DEFAULT_255_1_388
10
22.8765355
20
69.265995
11
22.539506
21
69.1422066
0
LINE
8
DEFAULT_255_1_388
10
22.539506
20
69.1422066
11
22.539506
21
69.2940055
0
LINE
8
DEFAULT_255_1_388
10
22.539506
20
69.2940055
11
23.0183951
21
69.4738148
0
LINE
8
DEFAULT_255_1_388
10
23.0183951
20
69.4738148
11
23.0445985
21
69.4738148
0
LINE
8
DEFAULT_255_1_388
10
24.3592848
20
68.929869
11
24.3592848
21
68.7130135
0
LINE
8
DEFAULT_255_1_388
10
23.528909
20
68.6904244
11
23.528909
21
68.9136048
0
LINE
8
DEFAULT_255_1_388
10
24.1921253
20
68.6678353
11
24.1921253
21
68.9416153
0
LINE
8
DEFAULT_255_1_388
10
23.6960685
20
68.9542652
11
23.6960685
21
68.6868102
0
ARC
8
DEFAULT_255_1_388
10
22.9815182
20
68.7075118
40
1.3777776
50
353.8440855
51
0.2287917
0
ARC
8
DEFAULT_255_1_388
10
23.5034199
20
68.6492414
40
0.852639
50
344.4934746
51
353.9763743
0
ARC
8
DEFAULT_255_1_388
10
23.8401006
20
68.5535191
40
0.5026273
50
329.2803599
51
344.7473406
0
ARC
8
DEFAULT_255_1_388
10
23.9516502
20
68.4923038
40
0.3754848
50
324.9361395
51
328.6153007
0
ARC
8
DEFAULT_255_1_388
10
23.9942152
20
68.4625586
40
0.3235566
50
280.5801797
51
324.9173226
0
ARC
8
DEFAULT_255_1_388
10
23.949078
20
68.6505236
40
0.5167077
50
269.5979457
51
281.6732777
0
ARC
8
DEFAULT_255_1_388
10
23.9409684
20
68.6370113
40
0.5032026
50
256.6228565
51
270.5105488
0
ARC
8
DEFAULT_255_1_388
10
23.8957427
20
68.4628345
40
0.3233092
50
215.8618351
51
257.2787793
0
ARC
8
DEFAULT_255_1_388
10
24.0106134
20
68.5399106
40
0.4615831
50
197.9695203
51
215.2622745
0
ARC
8
DEFAULT_255_1_388
10
24.2901809
20
68.6342641
40
0.7566307
50
187.8816486
51
198.2346584
0
ARC
8
DEFAULT_255_1_388
10
24.7355048
20
68.6985453
40
1.2065653
50
180.8977266
51
188.0054894
0
ARC
8
DEFAULT_255_1_388
10
25.0405261
20
68.71004
40
1.5117443
50
180.7434591
51
181.152202
0
ARC
8
DEFAULT_255_1_388
10
24.8730257
20
68.9190371
40
1.3441277
50
173.7674302
51
180.2315596
0
ARC
8
DEFAULT_255_1_388
10
24.3648126
20
68.9764779
40
0.8326847
50
164.3058537
51
173.9000553
0
ARC
8
DEFAULT_255_1_388
10
24.0372126
20
69.0708652
40
0.4917711
50
148.7922028
51
164.5682288
0
ARC
8
DEFAULT_255_1_388
10
23.9302864
20
69.1305457
40
0.3694204
50
144.5883979
51
148.1161588
0
ARC
8
DEFAULT_255_1_388
10
23.8915609
20
69.1575667
40
0.322202
50
101.6440149
51
144.5142619
0
ARC
8
DEFAULT_255_1_388
10
23.9393801
20
68.9675337
40
0.5180451
50
89.528284
51
102.5820197
0
ARC
8
DEFAULT_255_1_388
10
23.9482793
20
68.9631376
40
0.5224441
50
77.0437914
51
90.508231
0
ARC
8
DEFAULT_255_1_388
10
23.9935047
20
69.1479272
40
0.3322297
50
48.2777708
51
77.4996087
0
ARC
8
DEFAULT_255_1_388
10
24.0016787
20
69.1624557
40
0.315966
50
36.3141586
51
47.6307332
0
ARC
8
DEFAULT_255_1_388
10
23.9039509
20
69.0966159
40
0.4337313
50
18.2931065
51
35.6770203
0
ARC
8
DEFAULT_255_1_388
10
23.617835
20
68.9984107
40
0.7362203
50
8.0246996
51
18.5605636
0
ARC
8
DEFAULT_255_1_388
10
23.1494705
20
68.9292432
40
1.2096583
50
1.127539
51
8.1718423
0
ARC
8
DEFAULT_255_1_388
10
22.7845839
20
68.9149374
40
1.5747719
50
0.5432713
51
1.38669
0
ARC
8
DEFAULT_255_1_388
10
22.9903217
20
68.9456163
40
1.2018103
50
359.8092569
51
4.9408001
0
ARC
8
DEFAULT_255_1_388
10
23.4639799
20
68.98789
40
0.7262727
50
4.8364937
51
12.2906017
0
ARC
8
DEFAULT_255_1_388
10
23.7739263
20
69.0569485
40
0.4087324
50
12.0806994
51
23.8171225
0
ARC
8
DEFAULT_255_1_388
10
23.9059659
20
69.1128508
40
0.2653719
50
24.2874621
51
31.3934353
0
ARC
8
DEFAULT_255_1_388
10
23.9650095
20
69.1514822
40
0.1948607
50
30.7407708
51
82.4658033
0
ARC
8
DEFAULT_255_1_388
10
23.9447756
20
69.0521017
40
0.2961198
50
81.1057101
51
90.2187368
0
ARC
8
DEFAULT_255_1_388
10
23.9407568
20
69.0811421
40
0.2670929
50
89.380395
51
105.6763916
0
ARC
8
DEFAULT_255_1_388
10
23.920129
20
69.156132
40
0.1893189
50
105.7980655
51
149.7387869
0
ARC
8
DEFAULT_255_1_388
10
24.039843
20
69.0841719
40
0.3289892
50
149.4208441
51
163.628295
0
ARC
8
DEFAULT_255_1_388
10
24.275066
20
69.0124345
40
0.5749004
50
163.3764549
51
172.141138
0
ARC
8
DEFAULT_255_1_388
10
24.6463381
20
68.9592582
40
0.9499585
50
172.0258462
51
178.0705453
0
ARC
8
DEFAULT_255_1_388
10
24.9884934
20
68.9430682
40
1.2924734
50
177.8639301
51
179.5036263
0
ARC
8
DEFAULT_255_1_388
10
24.8665953
20
68.6827151
40
1.170534
50
179.7995545
51
185.246089
0
ARC
8
DEFAULT_255_1_388
10
24.4117546
20
68.6396404
40
0.7136613
50
185.1411911
51
193.0082205
0
ARC
8
DEFAULT_255_1_388
10
24.1143806
20
68.5693441
40
0.4080987
50
192.7897338
51
205.2507384
0
ARC
8
DEFAULT_255_1_388
10
23.9966016
20
68.5167538
40
0.2791522
50
205.8001921
51
211.2545876
0
ARC
8
DEFAULT_255_1_388
10
23.9377555
20
68.4773132
40
0.2084074
50
210.3789935
51
238.4007996
0
ARC
8
DEFAULT_255_1_388
10
23.9355641
20
68.4825786
40
0.2117943
50
239.6521916
51
265.9793852
0
ARC
8
DEFAULT_255_1_388
10
23.945149
20
68.5582358
40
0.2879689
50
265.1324455
51
270.0603288
0
ARC
8
DEFAULT_255_1_388
10
23.9483867
20
68.5217418
40
0.2514919
50
269.3314378
51
287.2180039
0
ARC
8
DEFAULT_255_1_388
10
23.963895
20
68.4651291
40
0.1928357
50
287.7957942
51
329.0808983
0
ARC
8
DEFAULT_255_1_388
10
23.8561707
20
68.5323651
40
0.319808
50
328.6635261
51
343.3325043
0
ARC
8
DEFAULT_255_1_388
10
23.6117165
20
68.6085195
40
0.5758408
50
343.0498092
51
351.9392499
0
ARC
8
DEFAULT_255_1_388
10
23.2216487
20
68.6660205
40
0.9701202
50
351.8071632
51
357.7957897
0
ARC
8
DEFAULT_255_1_388
10
22.8581964
20
68.6848724
40
1.3340376
50
357.5870923
51
359.2682493
0
LINE
8
DEFAULT_255_1_388
10
24.3442215
20
76.8791153
11
24.3442215
21
76.8303229
0
LINE
8
DEFAULT_255_1_388
10
23.7343155
20
76.0884964
11
23.7017872
21
76.0884964
0
LINE
8
DEFAULT_255_1_388
10
23.7017872
20
76.0884964
11
23.7017872
21
76.2294525
0
LINE
8
DEFAULT_255_1_388
10
23.7017872
20
76.2294525
11
23.7370262
21
76.2294525
0
LINE
8
DEFAULT_255_1_388
10
24.1770621
20
76.846587
11
24.1770621
21
76.9134508
0
ARC
8
DEFAULT_255_1_388
10
23.8627713
20
76.9304877
40
0.4089973
50
297.4036461
51
320.0168133
0
ARC
8
DEFAULT_255_1_388
10
23.8953893
20
76.8678072
40
0.3383378
50
270.2631886
51
297.3852322
0
ARC
8
DEFAULT_255_1_388
10
23.8915569
20
76.9215343
40
0.3920983
50
269.9969069
51
270.7871389
0
ARC
8
DEFAULT_255_1_388
10
23.8886892
20
76.9197737
40
0.3903482
50
254.5997295
51
270.4178147
0
ARC
8
DEFAULT_255_1_388
10
23.8726424
20
76.8562693
40
0.3248657
50
236.4717231
51
254.3539376
0
ARC
8
DEFAULT_255_1_388
10
23.8902155
20
76.8798999
40
0.3542746
50
208.4727261
51
236.2134628
0
ARC
8
DEFAULT_255_1_388
10
23.9620919
20
76.9238676
40
0.4384402
50
204.3450776
51
209.0455365
0
ARC
8
DEFAULT_255_1_388
10
24.0385295
20
76.95628
40
0.5214459
50
183.9375459
51
204.1275509
0
ARC
8
DEFAULT_255_1_388
10
24.1407601
20
76.9672863
40
0.6242037
50
179.9652726
51
184.3010611
0
ARC
8
DEFAULT_255_1_388
10
24.1137146
20
76.9710004
40
0.5971675
50
166.7585952
51
180.3200491
0
ARC
8
DEFAULT_255_1_388
10
24.0184954
20
76.9916979
40
0.4997418
50
154.6954866
51
166.5679151
0
ARC
8
DEFAULT_255_1_388
10
23.9225194
20
77.0400411
40
0.3923208
50
136.3325251
51
155.0871367
0
ARC
8
DEFAULT_255_1_388
10
23.8909114
20
77.0671271
40
0.3507618
50
121.2365985
51
135.9680081
0
ARC
8
DEFAULT_255_1_388
10
23.9067178
20
77.0378541
40
0.3839917
50
96.8454764
51
120.9881329
0
ARC
8
DEFAULT_255_1_388
10
23.9230984
20
76.9325942
40
0.4904679
50
89.887204
51
97.2797758
0
ARC
8
DEFAULT_255_1_388
10
23.9289957
20
77.0043652
40
0.418725
50
70.6505767
51
90.6748382
0
ARC
8
DEFAULT_255_1_388
10
23.9437654
20
77.0621091
40
0.3593866
50
36.7493297
51
69.8220487
0
ARC
8
DEFAULT_255_1_388
10
23.8314001
20
76.9745446
40
0.5018201
50
15.3958155
51
37.0841102
0
ARC
8
DEFAULT_255_1_388
10
23.5918286
20
76.9047111
40
0.7513436
50
3.9487796
51
15.6798517
0
ARC
8
DEFAULT_255_1_388
10
23.3216928
20
76.880381
40
1.0225293
50
359.9290791
51
4.266464
0
ARC
8
DEFAULT_255_1_388
10
22.8035845
20
76.8228372
40
1.5406551
50
352.8365702
51
0.2783851
0
ARC
8
DEFAULT_255_1_388
10
23.3984076
20
76.7455664
40
0.9408425
50
341.8359339
51
352.9884057
0
ARC
8
DEFAULT_255_1_388
10
23.7605063
20
76.6235144
40
0.5587481
50
322.8579243
51
342.1527461
0
ARC
8
DEFAULT_255_1_388
10
23.8576755
20
76.557235
40
0.4413099
50
319.3348471
51
322.100194
0
ARC
8
DEFAULT_255_1_388
10
23.8228687
20
76.5921814
40
0.4904992
50
285.954114
51
318.8878716
0
ARC
8
DEFAULT_255_1_388
10
23.7411124
20
76.8520865
40
0.7628991
50
272.9280841
51
286.4924389
0
ARC
8
DEFAULT_255_1_388
10
23.7197428
20
77.105524
40
1.017132
50
270.8209173
51
273.4010121
0
ARC
8
DEFAULT_255_1_388
10
23.7297451
20
76.9007073
40
0.6712943
50
270.6214576
51
281.4062333
0
ARC
8
DEFAULT_255_1_388
10
23.7781176
20
76.669425
40
0.4350167
50
281.1852583
51
299.0622058
0
ARC
8
DEFAULT_255_1_388
10
23.8201421
20
76.5883138
40
0.3437146
50
299.5068171
51
313.1200142
0
ARC
8
DEFAULT_255_1_388
10
23.8226158
20
76.5793959
40
0.3355418
50
313.8525725
51
338.5989631
0
ARC
8
DEFAULT_255_1_388
10
23.6399286
20
76.6544576
40
0.5330317
50
338.2523315
51
351.2431701
0
ARC
8
DEFAULT_255_1_388
10
23.3687037
20
76.7005494
40
0.8081235
50
350.940933
51
357.6690137
0
ARC
8
DEFAULT_255_1_388
10
23.9188917
20
76.9258048
40
0.2581236
50
269.9447107
51
306.8249644
0
ARC
8
DEFAULT_255_1_388
10
23.8922219
20
76.973406
40
0.3122948
50
305.5071046
51
327.0773808
0
ARC
8
DEFAULT_255_1_388
10
23.9055271
20
76.9627445
40
0.2953369
50
327.4106457
51
336.8396801
0
ARC
8
DEFAULT_255_1_388
10
23.5574984
20
76.9170932
40
0.6195743
50
359.663158
51
10.1176387
0
ARC
8
DEFAULT_255_1_388
10
23.7547747
20
76.9535922
40
0.4189561
50
9.9431549
51
26.7699242
0
ARC
8
DEFAULT_255_1_388
10
23.8219733
20
76.9845796
40
0.3450125
50
27.2018067
51
34.6833639
0
ARC
8
DEFAULT_255_1_388
10
23.8770346
20
77.025956
40
0.2762035
50
34.124913
51
50.30709
0
ARC
8
DEFAULT_255_1_388
10
23.9272829
20
77.0860741
40
0.1978518
50
50.3850304
51
90.6705051
0
ARC
8
DEFAULT_255_1_388
10
23.9220223
20
77.0518074
40
0.2321235
50
89.2729817
51
111.9140267
0
ARC
8
DEFAULT_255_1_388
10
23.919831
20
77.0676308
40
0.2166604
50
112.9381864
51
142.5320936
0
ARC
8
DEFAULT_255_1_388
10
23.9812799
20
77.0177392
40
0.2957902
50
142.1024021
51
166.3835244
0
ARC
8
DEFAULT_255_1_388
10
24.1141769
20
76.9834213
40
0.4330361
50
166.1100968
51
178.6653563
0
ARC
8
DEFAULT_255_1_388
10
24.2323695
20
76.9768061
40
0.5513642
50
178.2641888
51
180.010994
0
ARC
8
DEFAULT_255_1_388
10
24.1418196
20
76.9736136
40
0.4608248
50
179.6162225
51
191.8786013
0
ARC
8
DEFAULT_255_1_388
10
24.0045506
20
76.943259
40
0.3202502
50
191.6192934
51
215.2970746
0
ARC
8
DEFAULT_255_1_388
10
23.9806161
20
76.9289963
40
0.2924827
50
215.7258926
51
216.5355437
0
ARC
8
DEFAULT_255_1_388
10
23.9217782
20
76.8816919
40
0.2170661
50
215.7486606
51
239.9728403
0
ARC
8
DEFAULT_255_1_388
10
23.9138947
20
76.8759838
40
0.208217
50
241.065081
51
269.280972
0
ARC
8
DEFAULT_255_1_388
10
23.9186106
20
76.9315327
40
0.2638514
50
268.4083352
51
270.0069622
0
ARC
8
DEFAULT_255_1_388
10
24.0158818
20
84.996272
40
0.3175098
50
338.8762533
51
0.5167111
0
ARC
8
DEFAULT_255_1_388
10
24.0348412
20
84.99116
40
0.2979894
50
325.8415285
51
338.4793574
0
ARC
8
DEFAULT_255_1_388
10
23.9909046
20
85.0216242
40
0.351452
50
296.7587686
51
325.7536481
0
ARC
8
DEFAULT_255_1_388
10
23.9580673
20
85.0770363
40
0.4157374
50
296.0927901
51
297.3613472
0
ARC
8
DEFAULT_255_1_388
10
23.9874869
20
84.3387593
40
0.395855
50
47.9007294
51
67.1948823
0
ARC
8
DEFAULT_255_1_388
10
24.0095511
20
84.3664599
40
0.360516
50
35.2363914
51
47.551141
0
ARC
8
DEFAULT_255_1_388
10
24.0389915
20
84.3861093
40
0.3251343
50
359.2759765
51
35.4014143
0
ARC
8
DEFAULT_255_1_388
10
23.9551841
20
84.3778787
40
0.4089365
50
343.1293083
51
0.5775513
0
ARC
8
DEFAULT_255_1_388
10
24.0366955
20
84.3554336
40
0.3244269
50
310.8496669
51
342.7449331
0
ARC
8
DEFAULT_255_1_388
10
23.9896829
20
84.4090913
40
0.3957651
50
281.5472888
51
310.9170406
0
ARC
8
DEFAULT_255_1_388
10
23.9495704
20
84.5837814
40
0.5749654
50
269.619248
51
281.9789564
0
ARC
8
DEFAULT_255_1_388
10
23.9414482
20
84.5838776
40
0.5750649
50
257.4585678
51
270.4285689
0
ARC
8
DEFAULT_255_1_388
10
23.8986002
20
84.4034741
40
0.389671
50
228.7554326
51
257.8484789
0
ARC
8
DEFAULT_255_1_388
10
23.8637487
20
84.3615228
40
0.335154
50
184.0104975
51
228.5071184
0
ARC
8
DEFAULT_255_1_388
10
23.994588
20
84.381443
40
0.4671891
50
179.9315832
51
185.3253753
0
ARC
8
DEFAULT_255_1_388
10
23.8622392
20
84.3856592
40
0.33486
50
145.6796023
51
180.6259786
0
ARC
8
DEFAULT_255_1_388
10
23.8806158
20
84.3728271
40
0.3572723
50
115.5537685
51
145.6415986
0
ARC
8
DEFAULT_255_1_388
10
23.9189202
20
84.3042087
40
0.4357296
50
113.243307
51
116.2057839
0
ARC
8
DEFAULT_255_1_388
10
23.9017854
20
85.0239379
40
0.3549126
50
222.9549744
51
244.1370481
0
ARC
8
DEFAULT_255_1_388
10
23.8880497
20
85.0085378
40
0.3343711
50
213.3436887
51
222.6274467
0
ARC
8
DEFAULT_255_1_388
10
23.8664566
20
84.9938653
40
0.3082678
50
180.431584
51
213.271499
0
ARC
8
DEFAULT_255_1_388
10
23.9299565
20
84.9991296
40
0.3718363
50
179.9991191
51
181.1690594
0
ARC
8
DEFAULT_255_1_388
10
23.9772021
20
85.0030072
40
0.4190996
50
164.6186169
51
180.529336
0
ARC
8
DEFAULT_255_1_388
10
23.876167
20
85.030178
40
0.3144772
50
132.2455553
51
164.5090724
0
ARC
8
DEFAULT_255_1_388
10
23.9084649
20
84.993607
40
0.3632644
50
100.7053914
51
132.1386381
0
ARC
8
DEFAULT_255_1_388
10
23.942771
20
84.8386118
40
0.5219578
50
89.6730358
51
101.2451698
0
ARC
8
DEFAULT_255_1_388
10
23.9497701
20
84.8582648
40
0.5023124
50
76.287748
51
90.4586006
0
ARC
8
DEFAULT_255_1_388
10
23.9842203
20
84.9957671
40
0.3605639
50
47.8240511
51
76.4266241
0
ARC
8
DEFAULT_255_1_388
10
24.0092587
20
85.0250599
40
0.3220463
50
6.9168387
51
47.6262497
0
ARC
8
DEFAULT_255_1_388
10
23.875804
20
85.0004004
40
0.4575765
50
359.8415968
51
7.9697453
0
ARC
8
DEFAULT_255_1_388
10
23.914231
20
84.3883519
40
0.2827228
50
359.445363
51
16.9256873
0
ARC
8
DEFAULT_255_1_388
10
23.9669744
20
84.4028781
40
0.2280396
50
17.2920767
51
45.4630727
0
ARC
8
DEFAULT_255_1_388
10
23.9608879
20
84.3976324
40
0.2360485
50
45.30305
51
83.1920945
0
ARC
8
DEFAULT_255_1_388
10
23.9447624
20
84.3074473
40
0.3275527
50
82.2612665
51
90.1434275
0
ARC
8
DEFAULT_255_1_388
10
23.94129
20
84.3336869
40
0.3013237
50
89.4956434
51
104.8580688
0
ARC
8
DEFAULT_255_1_388
10
23.921409
20
84.4090455
40
0.2233867
50
104.8856641
51
135.244616
0
ARC
8
DEFAULT_255_1_388
10
23.9270079
20
84.4040352
40
0.2308906
50
135.3399546
51
172.1044062
0
ARC
8
DEFAULT_255_1_388
10
24.0177603
20
84.3866667
40
0.3232034
50
171.2645637
51
180.186429
0
ARC
8
DEFAULT_255_1_388
10
23.9987608
20
84.3830426
40
0.304213
50
179.5154935
51
193.6464289
0
ARC
8
DEFAULT_255_1_388
10
23.9069284
20
84.3596473
40
0.209456
50
193.3540274
51
225.8258581
0
ARC
8
DEFAULT_255_1_388
10
23.9115156
20
84.3676076
40
0.2183738
50
226.4180634
51
255.8552336
0
ARC
8
DEFAULT_255_1_388
10
23.9403623
20
84.4729521
40
0.3275812
50
255.4654104
51
268.7987425
0
ARC
8
DEFAULT_255_1_388
10
23.9456799
20
84.5671545
40
0.4218877
50
268.3449238
51
270.0094605
0
ARC
8
DEFAULT_255_1_388
10
23.9483032
20
84.4903094
40
0.3450519
50
269.5759586
51
282.0820163
0
ARC
8
DEFAULT_255_1_388
10
23.9736069
20
84.3784363
40
0.2303642
50
281.752014
51
306.6056188
0
ARC
8
DEFAULT_255_1_388
10
23.9846877
20
84.3602802
40
0.2091906
50
307.1346085
51
314.027845
0
ARC
8
DEFAULT_255_1_388
10
23.9806389
20
84.3632459
40
0.2141385
50
314.2552483
51
350.1694025
0
ARC
8
DEFAULT_255_1_388
10
23.8848626
20
84.3840175
40
0.312082
50
349.4140529
51
0.2933014
0
ARC
8
DEFAULT_255_1_388
10
23.9433903
20
84.9643924
40
0.2588377
50
89.477747
51
105.729729
0
ARC
8
DEFAULT_255_1_388
10
23.9280823
20
85.0212367
40
0.1999733
50
105.9233417
51
135.1660906
0
ARC
8
DEFAULT_255_1_388
10
23.9303854
20
85.0196412
40
0.2027322
50
135.3052302
51
168.9883645
0
ARC
8
DEFAULT_255_1_388
10
24.023487
20
84.9982996
40
0.2982129
50
168.3801673
51
180.3602268
0
ARC
8
DEFAULT_255_1_388
10
23.9977987
20
84.9940622
40
0.2725291
50
179.5033122
51
194.9125571
0
ARC
8
DEFAULT_255_1_388
10
23.9319394
20
84.9767427
40
0.204431
50
194.9720816
51
224.194444
0
ARC
8
DEFAULT_255_1_388
10
23.9287759
20
84.9741635
40
0.2003651
50
224.2962453
51
262.015664
0
ARC
8
DEFAULT_255_1_388
10
23.9447763
20
85.0564315
40
0.2840925
50
261.1245923
51
270.1962896
0
ARC
8
DEFAULT_255_1_388
10
23.9481244
20
85.0353859
40
0.2630559
50
269.4827276
51
285.0987215
0
ARC
8
DEFAULT_255_1_388
10
23.965468
20
84.9703175
40
0.1957162
50
285.1585357
51
315.9484501
0
ARC
8
DEFAULT_255_1_388
10
23.9554554
20
84.9795315
40
0.2093195
50
316.0413965
51
351.916092
0
ARC
8
DEFAULT_255_1_388
10
23.8729928
20
84.9954323
40
0.2932279
50
351.105835
51
0.1939062
0
ARC
8
DEFAULT_255_1_388
10
23.9025562
20
84.9988224
40
0.2636739
50
359.4789618
51
16.0678224
0
ARC
8
DEFAULT_255_1_388
10
23.9561034
20
85.0132721
40
0.2082215
50
16.3252067
51
44.7913869
0
ARC
8
DEFAULT_255_1_388
10
23.9541096
20
85.013332
40
0.2095992
50
44.3957814
51
88.2499162
0
ARC
8
DEFAULT_255_1_388
10
23.9458431
20
84.9445006
40
0.2787189
50
86.9833854
51
90.0192215
0
LINE
8
DEFAULT_255_1_388
10
24.3848819
20
93.2799898
11
24.3848819
21
93.1860191
0
LINE
8
DEFAULT_255_1_388
10
24.3848819
20
93.1860191
11
23.8400325
21
91.9644
0
LINE
8
DEFAULT_255_1_388
10
23.8400325
20
91.9644
11
23.664741
21
91.9644
0
LINE
8
DEFAULT_255_1_388
10
23.664741
20
91.9644
11
24.2077833
21
93.142648
0
LINE
8
DEFAULT_255_1_388
10
24.2077833
20
93.142648
11
23.4957745
21
93.142648
0
LINE
8
DEFAULT_255_1_388
10
23.4957745
20
93.142648
11
23.4957745
21
93.2799898
0
LINE
8
DEFAULT_255_1_388
10
23.4957745
20
93.2799898
11
24.3848819
21
93.2799898
0
LINE
8
DEFAULT_255_1_388
10
24.1617015
20
101.2183934
11
24.1915191
21
101.2183934
0
LINE
8
DEFAULT_255_1_388
10
24.1915191
20
101.2183934
11
24.1915191
21
101.0765338
0
LINE
8
DEFAULT_255_1_388
10
24.1915191
20
101.0765338
11
24.1607979
21
101.0765338
0
LINE
8
DEFAULT_255_1_388
10
23.5454705
20
100.4024747
11
23.5454705
21
100.4666278
0
LINE
8
DEFAULT_255_1_388
10
23.7135335
20
100.4449422
11
23.7135335
21
100.3834999
0
ARC
8
DEFAULT_255_1_388
10
24.1666871
20
100.5142826
40
0.562282
50
90.6001079
51
104.5146616
0
ARC
8
DEFAULT_255_1_388
10
24.122983
20
100.67681
40
0.3939917
50
104.2855758
51
133.8630124
0
ARC
8
DEFAULT_255_1_388
10
24.1414083
20
100.6646243
40
0.4155734
50
134.5304124
51
161.6210222
0
ARC
8
DEFAULT_255_1_388
10
24.3274015
20
100.5990421
40
0.6127682
50
161.2850533
51
174.2074364
0
ARC
8
DEFAULT_255_1_388
10
24.4863582
20
100.5771437
40
0.7731446
50
173.7817938
51
174.9251711
0
ARC
8
DEFAULT_255_1_388
10
23.9737775
20
100.421627
40
0.3412588
50
95.8332067
51
138.995412
0
ARC
8
DEFAULT_255_1_388
10
23.9989056
20
100.2777695
40
0.4870358
50
89.8755506
51
97.0540979
0
ARC
8
DEFAULT_255_1_388
10
24.0042445
20
100.3717841
40
0.3930432
50
71.6407016
51
90.6240821
0
ARC
8
DEFAULT_255_1_388
10
24.0211838
20
100.4341433
40
0.3285421
50
39.6368051
51
71.0190743
0
ARC
8
DEFAULT_255_1_388
10
23.9495746
20
100.3722586
40
0.4231706
50
10.6588054
51
39.9044509
0
ARC
8
DEFAULT_255_1_388
10
23.7754291
20
100.3344223
40
0.60133
50
359.6827842
51
11.1326896
0
ARC
8
DEFAULT_255_1_388
10
23.7709627
20
100.3264715
40
0.6058047
50
347.2485908
51
0.4371098
0
ARC
8
DEFAULT_255_1_388
10
23.9585413
20
100.2813379
40
0.4128987
50
318.1408565
51
347.6118497
0
ARC
8
DEFAULT_255_1_388
10
23.9951009
20
100.2512903
40
0.3656244
50
275.6342406
51
317.824739
0
ARC
8
DEFAULT_255_1_388
10
23.970253
20
100.3974827
40
0.513655
50
269.8872513
51
276.7916069
0
ARC
8
DEFAULT_255_1_388
10
23.9640723
20
100.2821181
40
0.398323
50
246.9139443
51
270.7436787
0
ARC
8
DEFAULT_255_1_388
10
23.9647919
20
100.2661044
40
0.3839368
50
218.1665534
51
245.8780431
0
ARC
8
DEFAULT_255_1_388
10
24.0637291
20
100.3488903
40
0.5128958
50
191.4115343
51
218.6077624
0
ARC
8
DEFAULT_255_1_388
10
24.2817607
20
100.3977777
40
0.7363054
50
179.6344971
51
191.7836758
0
ARC
8
DEFAULT_255_1_388
10
24.9097482
20
100.4741495
40
1.3642984
50
171.4523743
51
180.3158856
0
ARC
8
DEFAULT_255_1_388
10
24.4153209
20
100.5510895
40
0.8639311
50
157.9802296
51
171.6246761
0
ARC
8
DEFAULT_255_1_388
10
24.1662559
20
100.6504038
40
0.5958004
50
141.4299236
51
157.8541251
0
ARC
8
DEFAULT_255_1_388
10
24.0940643
20
100.7014746
40
0.5075416
50
102.871586
51
140.8564533
0
ARC
8
DEFAULT_255_1_388
10
24.1669195
20
100.4269943
40
0.7914163
50
90.377773
51
103.5868422
0
ARC
8
DEFAULT_255_1_388
10
23.9713717
20
100.3589543
40
0.2667015
50
89.8751238
51
126.2072139
0
ARC
8
DEFAULT_255_1_388
10
23.9765188
20
100.3415847
40
0.2838229
50
124.9742447
51
144.8960197
0
ARC
8
DEFAULT_255_1_388
10
23.9567433
20
100.3576981
40
0.2583845
50
145.2974778
51
160.2660922
0
ARC
8
DEFAULT_255_1_388
10
24.3023921
20
100.3799151
40
0.5888695
50
179.6512124
51
190.285571
0
ARC
8
DEFAULT_255_1_388
10
24.1118401
20
100.3439968
40
0.3949683
50
190.0944895
51
207.5099647
0
ARC
8
DEFAULT_255_1_388
10
24.0481982
20
100.3137177
40
0.3245464
50
207.9585471
51
216.325377
0
ARC
8
DEFAULT_255_1_388
10
24.0099619
20
100.2822712
40
0.2751259
50
215.7661336
51
232.5457193
0
ARC
8
DEFAULT_255_1_388
10
23.9668735
20
100.2275273
40
0.2054668
50
232.8005815
51
270.6605497
0
ARC
8
DEFAULT_255_1_388
10
23.972016
20
100.2684853
40
0.2464268
50
269.3550767
51
288.474612
0
ARC
8
DEFAULT_255_1_388
10
23.9824667
20
100.2291721
40
0.2058436
50
289.1831976
51
322.9685307
0
ARC
8
DEFAULT_255_1_388
10
23.9136768
20
100.2834279
40
0.2934408
50
322.6007085
51
346.5183319
0
ARC
8
DEFAULT_255_1_388
10
23.7834524
20
100.3166434
40
0.4278249
50
346.2584622
51
358.7739592
0
ARC
8
DEFAULT_255_1_388
10
23.66831
20
100.3228829
40
0.5430876
50
358.3757628
51
0.0082477
0
ARC
8
DEFAULT_255_1_388
10
23.7539918
20
100.3259856
40
0.4574157
50
359.6211417
51
11.28403
0
ARC
8
DEFAULT_255_1_388
10
23.8976524
20
100.3559535
40
0.3106708
50
11.0483152
51
31.8145585
0
ARC
8
DEFAULT_255_1_388
10
23.9324229
20
100.3748045
40
0.2711963
50
32.3028554
51
38.0820598
0
ARC
8
DEFAULT_255_1_388
10
23.9797462
20
100.4176717
40
0.2075566
50
36.8249851
51
85.741667
0
ARC
8
DEFAULT_255_1_388
10
23.9721875
20
100.3613065
40
0.2643487
50
85.0150021
51
90.050843
0
LINE
8
DEFAULT_255_1_388
10
23.7460618
20
108.4646666
11
23.6123343
21
108.4990021
0
LINE
8
DEFAULT_255_1_388
10
23.6123343
20
108.4990021
11
23.679198
21
109.1549898
0
LINE
8
DEFAULT_255_1_388
10
23.679198
20
109.1549898
11
24.3532571
21
109.1549898
0
LINE
8
DEFAULT_255_1_388
10
24.3532571
20
109.1549898
11
24.3532571
21
109.0004803
0
LINE
8
DEFAULT_255_1_388
10
24.3532571
20
109.0004803
11
23.8210577
21
109.0004803
0
LINE
8
DEFAULT_255_1_388
10
23.8210577
20
109.0004803
11
23.7813008
21
108.6417652
0
LINE
8
DEFAULT_255_1_388
10
23.5653489
20
108.1854652
11
23.7234727
21
108.1854652
0
LINE
8
DEFAULT_255_1_388
10
23.7903365
20
108.5008092
11
23.7460618
21
108.4646666
0
ARC
8
DEFAULT_255_1_388
10
23.9899622
20
108.2840241
40
0.4141476
50
93.7181681
51
120.253934
0
ARC
8
DEFAULT_255_1_388
10
24.0005674
20
108.1931284
40
0.5055616
50
89.9660471
51
94.2495185
0
ARC
8
DEFAULT_255_1_388
10
24.0051496
20
108.2594154
40
0.4392953
50
73.8045384
51
90.5585736
0
ARC
8
DEFAULT_255_1_388
10
24.0315754
20
108.355952
40
0.3392225
50
41.3071072
51
73.543002
0
ARC
8
DEFAULT_255_1_388
10
23.9847574
20
108.3156461
40
0.4009977
50
13.5075837
51
41.2174839
0
ARC
8
DEFAULT_255_1_388
10
23.8000671
20
108.2672907
40
0.5918864
50
1.1330171
51
13.8830737
0
ARC
8
DEFAULT_255_1_388
10
23.6404317
20
108.2587522
40
0.7516787
50
359.9925091
51
1.5431298
0
ARC
8
DEFAULT_255_1_388
10
23.7848932
20
108.2541027
40
0.6072343
50
347.8572712
51
0.4294349
0
ARC
8
DEFAULT_255_1_388
10
23.9818066
20
108.2094898
40
0.4053482
50
323.6727442
51
348.1674594
0
ARC
8
DEFAULT_255_1_388
10
24.0149031
20
108.1893175
40
0.3667495
50
316.8171818
51
323.1486802
0
ARC
8
DEFAULT_255_1_388
10
24.0218155
20
108.1851612
40
0.358869
50
281.839603
51
316.5458142
0
ARC
8
DEFAULT_255_1_388
10
23.9795442
20
108.3601363
40
0.5388223
50
269.5770964
51
282.4214641
0
ARC
8
DEFAULT_255_1_388
10
23.9715363
20
108.336093
40
0.5147801
50
256.2425863
51
270.4486481
0
ARC
8
DEFAULT_255_1_388
10
23.9378891
20
108.2011124
40
0.3756708
50
228.9024379
51
256.33135
0
ARC
8
DEFAULT_255_1_388
10
23.9295871
20
108.1880054
40
0.360344
50
193.7536029
51
228.5272638
0
ARC
8
DEFAULT_255_1_388
10
24.0688436
20
108.2288463
40
0.5053599
50
184.9244437
51
194.4976052
0
ARC
8
DEFAULT_255_1_388
10
24.0905077
20
108.2328722
40
0.3700839
50
187.3596909
51
198.6733728
0
ARC
8
DEFAULT_255_1_388
10
23.9724321
20
108.1919373
40
0.2451195
50
198.4453795
51
217.7945479
0
ARC
8
DEFAULT_255_1_388
10
23.9391493
20
108.1683563
40
0.2043754
50
218.2887146
51
228.5613203
0
ARC
8
DEFAULT_255_1_388
10
23.95015
20
108.1831902
40
0.2227819
50
228.9652423
51
258.1237049
0
ARC
8
DEFAULT_255_1_388
10
23.9732937
20
108.2822964
40
0.3245374
50
257.7260585
51
270.4013717
0
ARC
8
DEFAULT_255_1_388
10
23.9783435
20
108.2322255
40
0.2744726
50
269.4204315
51
286.420998
0
ARC
8
DEFAULT_255_1_388
10
23.9950491
20
108.1715705
40
0.2115721
50
286.7250065
51
320.6004665
0
ARC
8
DEFAULT_255_1_388
10
23.9519407
20
108.2065527
40
0.2670878
50
320.6712228
51
344.5440474
0
ARC
8
DEFAULT_255_1_388
10
23.821812
20
108.2447394
40
0.4026927
50
344.241448
51
356.735803
0
ARC
8
DEFAULT_255_1_388
10
23.6814428
20
108.2563656
40
0.5435085
50
356.3547471
51
0.0507222
0
ARC
8
DEFAULT_255_1_388
10
23.8316693
20
108.2598812
40
0.3932934
50
359.5579289
51
12.9534322
0
ARC
8
DEFAULT_255_1_388
10
23.9503533
20
108.2886586
40
0.2711827
50
12.6489751
51
41.608121
0
ARC
8
DEFAULT_255_1_388
10
23.9762693
20
108.3106946
40
0.2371737
50
41.7851122
51
85.9892156
0
ARC
8
DEFAULT_255_1_388
10
23.9624003
20
108.2191738
40
0.3295244
50
84.6965848
51
90.0672125
0
ARC
8
DEFAULT_255_1_388
10
23.959757
20
108.1440118
40
0.4046926
50
89.6804991
51
99.161352
0
ARC
8
DEFAULT_255_1_388
10
23.9366579
20
108.2820848
40
0.2647044
50
98.9836248
51
113.8905702
0
ARC
8
DEFAULT_255_1_388
10
23.9108254
20
108.3430118
40
0.1985386
50
114.195234
51
127.3641866
0
LINE
8
DEFAULT_255_1_388
10
23.9766151
20
117.0924898
11
23.9766151
21
116.218743
0
LINE
8
DEFAULT_255_1_388
10
23.9766151
20
116.218743
11
24.1591352
21
116.218743
0
LINE
8
DEFAULT_255_1_388
10
24.1591352
20
116.218743
11
24.1591352
21
116.0823048
0
LINE
8
DEFAULT_255_1_388
10
24.1591352
20
116.0823048
11
23.9766151
21
116.0823048
0
LINE
8
DEFAULT_255_1_388
10
23.9766151
20
116.0823048
11
23.9766151
21
115.7769
0
LINE
8
DEFAULT_255_1_388
10
23.9766151
20
115.7769
11
23.8085521
21
115.7769
0
LINE
8
DEFAULT_255_1_388
10
23.8085521
20
115.7769
11
23.8085521
21
116.0823048
0
LINE
8
DEFAULT_255_1_388
10
23.8085521
20
116.0823048
11
23.2094889
21
116.0823048
0
LINE
8
DEFAULT_255_1_388
10
23.2094889
20
116.0823048
11
23.2094889
21
116.1807933
0
LINE
8
DEFAULT_255_1_388
10
23.2094889
20
116.1807933
11
23.7986129
21
117.0924898
0
LINE
8
DEFAULT_255_1_388
10
23.7986129
20
117.0924898
11
23.9766151
21
117.0924898
0
LINE
8
DEFAULT_255_1_388
10
23.7886737
20
116.8277455
11
23.3992375
21
116.218743
0
LINE
8
DEFAULT_255_1_388
10
23.3992375
20
116.218743
11
23.8085521
21
116.218743
0
LINE
8
DEFAULT_255_1_388
10
23.8085521
20
116.218743
11
23.8085521
21
116.863888
0
LINE
8
DEFAULT_255_1_388
10
23.8085521
20
116.863888
11
23.7886737
21
116.8277455
0
LINE
8
DEFAULT_255_1_388
10
23.7785901
20
124.3170775
11
23.7785901
21
124.4535157
0
LINE
8
DEFAULT_255_1_388
10
23.7785901
20
124.4535157
11
23.9041856
21
124.4535157
0
LINE
8
DEFAULT_255_1_388
10
23.6900408
20
124.6848282
11
23.5228814
21
124.6848282
0
LINE
8
DEFAULT_255_1_388
10
23.5111351
20
124.0613688
11
23.679198
21
124.0613688
0
LINE
8
DEFAULT_255_1_388
10
23.9041856
20
124.3170775
11
23.7785901
21
124.3170775
0
ARC
8
DEFAULT_255_1_388
10
23.9009082
20
124.8351922
40
0.3816905
50
270.491971
51
281.8953028
0
ARC
8
DEFAULT_255_1_388
10
23.9280509
20
124.7112199
40
0.2547877
50
281.6690378
51
301.2943765
0
ARC
8
DEFAULT_255_1_388
10
23.9471961
20
124.6761926
40
0.2149197
50
301.7834992
51
311.754567
0
ARC
8
DEFAULT_255_1_388
10
23.9575002
20
124.664765
40
0.1995326
50
311.7325027
51
354.2803031
0
ARC
8
DEFAULT_255_1_388
10
23.8757418
20
124.678828
40
0.2823461
50
353.0941646
51
0.1174696
0
ARC
8
DEFAULT_255_1_388
10
23.8238976
20
124.6841874
40
0.3342238
50
359.1804452
51
15.0452323
0
ARC
8
DEFAULT_255_1_388
10
23.9753034
20
124.7283546
40
0.1765747
50
13.957816
51
77.6713812
0
ARC
8
DEFAULT_255_1_388
10
23.931827
20
124.5725464
40
0.3381982
50
76.111571
51
90.7028736
0
ARC
8
DEFAULT_255_1_388
10
23.9251682
20
124.603325
40
0.3074046
50
89.5321574
51
103.5319393
0
ARC
8
DEFAULT_255_1_388
10
23.9026066
20
124.6932443
40
0.2147041
50
103.2930114
51
133.5619756
0
ARC
8
DEFAULT_255_1_388
10
23.8976007
20
124.6999351
40
0.2064084
50
133.8349761
51
173.5343225
0
ARC
8
DEFAULT_255_1_388
10
23.9789665
20
124.6855144
40
0.2889266
50
172.5097183
51
180.1360699
0
ARC
8
DEFAULT_255_1_388
10
23.8719429
20
124.689388
40
0.3490913
50
155.3483706
51
180.7484035
0
ARC
8
DEFAULT_255_1_388
10
23.8664404
20
124.6861519
40
0.3454798
50
131.5745177
51
154.4799474
0
ARC
8
DEFAULT_255_1_388
10
23.9016687
20
124.6505422
40
0.3955058
50
96.9874487
51
131.9690874
0
ARC
8
DEFAULT_255_1_388
10
23.926358
20
124.5104407
40
0.537622
50
89.8592909
51
97.7827481
0
ARC
8
DEFAULT_255_1_388
10
23.9317689
20
124.480936
40
0.5671399
50
78.3654493
51
90.4132586
0
ARC
8
DEFAULT_255_1_388
10
23.972033
20
124.6675918
40
0.3762034
50
56.6229818
51
78.6387103
0
ARC
8
DEFAULT_255_1_388
10
23.9962159
20
124.7098846
40
0.3275964
50
47.0254604
51
56.085558
0
ARC
8
DEFAULT_255_1_388
10
23.998441
20
124.7143189
40
0.3228382
50
10.9207523
51
46.777927
0
ARC
8
DEFAULT_255_1_388
10
23.8450004
20
124.6788401
40
0.4802559
50
359.6364235
51
11.6087615
0
ARC
8
DEFAULT_255_1_388
10
24.051417
20
124.6771404
40
0.273833
50
332.3549969
51
359.7179765
0
ARC
8
DEFAULT_255_1_388
10
23.978257
20
124.7118285
40
0.3547505
50
325.2332381
51
332.8746682
0
ARC
8
DEFAULT_255_1_388
10
23.9954153
20
124.6998763
40
0.3338396
50
292.9803892
51
325.2391113
0
ARC
8
DEFAULT_255_1_388
10
23.9643349
20
124.7603679
40
0.4016959
50
292.542178
51
293.6931461
0
ARC
8
DEFAULT_255_1_388
10
24.0086921
20
124.0338036
40
0.372079
50
57.643292
51
72.8626085
0
ARC
8
DEFAULT_255_1_388
10
24.0485755
20
124.0984273
40
0.2961455
50
36.7246661
51
57.4701329
0
ARC
8
DEFAULT_255_1_388
10
24.0472912
20
124.099847
40
0.2963321
50
8.054535
51
36.3561529
0
ARC
8
DEFAULT_255_1_388
10
23.9502585
20
124.0824073
40
0.3948682
50
359.8316595
51
8.5873361
0
ARC
8
DEFAULT_255_1_388
10
23.9080059
20
124.076997
40
0.4371398
50
343.9831631
51
0.557075
0
ARC
8
DEFAULT_255_1_388
10
24.0077108
20
124.0496963
40
0.3337749
50
311.6358204
51
343.7652116
0
ARC
8
DEFAULT_255_1_388
10
23.9651362
20
124.0976955
40
0.3979351
50
279.7829743
51
311.625622
0
ARC
8
DEFAULT_255_1_388
10
23.9312497
20
124.2593642
40
0.5630417
50
269.7285092
51
280.3857694
0
ARC
8
DEFAULT_255_1_388
10
23.924281
20
124.2547241
40
0.5584119
50
256.6827433
51
270.4412869
0
ARC
8
DEFAULT_255_1_388
10
23.8861797
20
124.0989698
40
0.3980715
50
229.4223821
51
256.8554507
0
ARC
8
DEFAULT_255_1_388
10
23.839535
20
124.0464683
40
0.3278564
50
181.8183354
51
229.6455015
0
ARC
8
DEFAULT_255_1_388
10
23.956496
20
124.0611825
40
0.4453611
50
179.9760419
51
183.2330638
0
ARC
8
DEFAULT_255_1_388
10
23.9371512
20
124.0588781
40
0.2579652
50
179.4467996
51
196.2871626
0
ARC
8
DEFAULT_255_1_388
10
23.8822966
20
124.0438709
40
0.2011057
50
196.5661293
51
227.7059371
0
ARC
8
DEFAULT_255_1_388
10
23.9007573
20
124.0645155
40
0.2287994
50
227.7653015
51
257.8763321
0
ARC
8
DEFAULT_255_1_388
10
23.9260656
20
124.1705961
40
0.3378385
50
257.4583525
51
270.4267406
0
ARC
8
DEFAULT_255_1_388
10
23.9311906
20
124.203223
40
0.3704652
50
269.5965319
51
280.8788143
0
ARC
8
DEFAULT_255_1_388
10
23.9570134
20
124.0742529
40
0.2389415
50
280.6347277
51
299.8594068
0
ARC
8
DEFAULT_255_1_388
10
23.9784903
20
124.0334736
40
0.19289
50
300.3575552
51
314.5515667
0
ARC
8
DEFAULT_255_1_388
10
23.9691579
20
124.0403025
40
0.204312
50
315.0730962
51
345.0429362
0
ARC
8
DEFAULT_255_1_388
10
23.8653087
20
124.0705539
40
0.31246
50
344.598526
51
357.9270698
0
ARC
8
DEFAULT_255_1_388
10
23.7643391
20
124.0774705
40
0.4136265
50
357.4755098
51
0.0224936
0
ARC
8
DEFAULT_255_1_388
10
23.8796269
20
124.0802099
40
0.2983498
50
359.5051035
51
13.4236939
0
ARC
8
DEFAULT_255_1_388
10
23.9771359
20
124.1051637
40
0.1977186
50
12.9497905
51
48.7550905
0
ARC
8
DEFAULT_255_1_388
10
23.9566281
20
124.0771373
40
0.2323321
50
49.509109
51
72.1832965
0
ARC
8
DEFAULT_255_1_388
10
23.9163749
20
123.9576632
40
0.358397
50
71.9008458
51
84.3555134
0
ARC
8
DEFAULT_255_1_388
10
23.8982144
20
123.8044712
40
0.512641
50
84.019632
51
89.3326067
0
LINE
8
DEFAULT_255_1_388
10
24.3975318
20
131.7883382
11
24.3975318
21
131.6519
0
LINE
8
DEFAULT_255_1_388
10
24.3975318
20
131.6519
11
23.5355313
21
131.6519
0
LINE
8
DEFAULT_255_1_388
10
23.5355313
20
131.6519
11
23.5355313
21
131.7720741
0
LINE
8
DEFAULT_255_1_388
10
23.5355313
20
131.7720741
11
23.9909278
21
132.2780702
0
LINE
8
DEFAULT_255_1_388
10
23.6773909
20
132.5798607
11
23.5102315
21
132.5798607
0
LINE
8
DEFAULT_255_1_388
10
24.0894163
20
132.170546
11
23.7370262
21
131.7883382
0
LINE
8
DEFAULT_255_1_388
10
23.7370262
20
131.7883382
11
24.3975318
21
131.7883382
0
ARC
8
DEFAULT_255_1_388
10
22.4733337
20
133.6200983
40
2.0258655
50
318.5132526
51
320.7829045
0
ARC
8
DEFAULT_255_1_388
10
23.0681294
20
133.1359929
40
1.2589638
50
320.7372878
51
323.9739031
0
ARC
8
DEFAULT_255_1_388
10
23.5090226
20
132.8165554
40
0.7145141
50
323.8962701
51
328.64194
0
ARC
8
DEFAULT_255_1_388
10
23.7392484
20
132.6745545
40
0.4440242
50
328.8294576
51
331.7891185
0
ARC
8
DEFAULT_255_1_388
10
23.8514804
20
132.6166374
40
0.3177517
50
331.4254512
51
352.9365785
0
ARC
8
DEFAULT_255_1_388
10
23.8667804
20
132.613205
40
0.3021496
50
353.2257659
51
0.0166158
0
ARC
8
DEFAULT_255_1_388
10
23.8904564
20
132.6157894
40
0.2784847
50
359.486299
51
15.9343185
0
ARC
8
DEFAULT_255_1_388
10
23.9474831
20
132.6311269
40
0.2194403
50
16.1712913
51
43.5286088
0
ARC
8
DEFAULT_255_1_388
10
23.9561776
20
132.6398191
40
0.2071504
50
43.4417391
51
83.1661095
0
ARC
8
DEFAULT_255_1_388
10
23.9410937
20
132.5569316
40
0.2912888
50
82.160179
51
90.1505708
0
ARC
8
DEFAULT_255_1_388
10
23.9375418
20
132.4965279
40
0.3517025
50
89.5460741
51
102.5418361
0
ARC
8
DEFAULT_255_1_388
10
23.9102138
20
132.6124933
40
0.2325748
50
102.1738499
51
129.206123
0
ARC
8
DEFAULT_255_1_388
10
23.9013592
20
132.6264664
40
0.2161591
50
129.72865
51
135.753947
0
ARC
8
DEFAULT_255_1_388
10
23.9150074
20
132.6155728
40
0.2335433
50
136.1757367
51
166.3673339
0
ARC
8
DEFAULT_255_1_388
10
24.0282762
20
132.5852148
40
0.3507873
50
165.9090694
51
178.8684636
0
ARC
8
DEFAULT_255_1_388
10
24.1258534
20
132.5799263
40
0.4484624
50
178.4391136
51
180.0083808
0
ARC
8
DEFAULT_255_1_388
10
23.9679235
20
132.5843197
40
0.4577138
50
163.2878482
51
180.5581842
0
ARC
8
DEFAULT_255_1_388
10
23.8777276
20
132.6091393
40
0.3641968
50
133.4540601
51
162.947111
0
ARC
8
DEFAULT_255_1_388
10
23.8978158
20
132.5877789
40
0.3935189
50
100.7869829
51
133.4382499
0
ARC
8
DEFAULT_255_1_388
10
23.9369403
20
132.4135399
40
0.5720313
50
89.660664
51
101.3702276
0
ARC
8
DEFAULT_255_1_388
10
23.9444012
20
132.4204263
40
0.5651495
50
78.2172678
51
90.412935
0
ARC
8
DEFAULT_255_1_388
10
23.9843478
20
132.6031511
40
0.378122
50
55.9269121
51
78.4888449
0
ARC
8
DEFAULT_255_1_388
10
24.0064193
20
132.6412187
40
0.3342379
50
47.929771
51
55.4049217
0
ARC
8
DEFAULT_255_1_388
10
24.0178723
20
132.6528618
40
0.3179217
50
4.334829
51
48.0560205
0
ARC
8
DEFAULT_255_1_388
10
23.8946525
20
132.6337487
40
0.442341
50
359.9251713
51
5.5971671
0
ARC
8
DEFAULT_255_1_388
10
23.942868
20
132.6400728
40
0.3941854
50
337.8914027
51
358.9967534
0
ARC
8
DEFAULT_255_1_388
10
23.637625
20
132.7578295
40
0.7213271
50
326.9132501
51
338.3508308
0
ARC
8
DEFAULT_255_1_388
10
23.1892362
20
133.0452105
40
1.2538973
50
319.6471833
51
327.0959558
0
ARC
8
DEFAULT_255_1_388
10
22.757902
20
133.401005
40
1.8129975
50
317.2588228
51
319.9045804
0
LINE
8
DEFAULT_255_1_388
10
24.0931985
20
140.9113148
11
24.0931985
21
139.5894
0
LINE
8
DEFAULT_255_1_388
10
24.0931985
20
139.5894
11
23.9251355
21
139.5894
0
LINE
8
DEFAULT_255_1_388
10
23.9251355
20
139.5894
11
23.9251355
21
140.703495
0
LINE
8
DEFAULT_255_1_388
10
23.9251355
20
140.703495
11
23.588106
21
140.5797066
0
LINE
8
DEFAULT_255_1_388
10
23.588106
20
140.5797066
11
23.588106
21
140.7315055
0
LINE
8
DEFAULT_255_1_388
10
23.588106
20
140.7315055
11
24.0669951
21
140.9113148
0
LINE
8
DEFAULT_255_1_388
10
24.0669951
20
140.9113148
11
24.0931985
21
140.9113148
0
LINE
8
DEFAULT_255_1_388
10
24.3604856
20
148.304869
11
24.3604856
21
148.0880135
0
LINE
8
DEFAULT_255_1_388
10
23.5301099
20
148.0654244
11
23.5301099
21
148.2886048
0
LINE
8
DEFAULT_255_1_388
10
24.1933262
20
148.0428353
11
24.1933262
21
148.3166153
0
LINE
8
DEFAULT_255_1_388
10
23.6972693
20
148.3292652
11
23.6972693
21
148.0618102
0
ARC
8
DEFAULT_255_1_388
10
22.982719
20
148.0825118
40
1.3777776
50
353.8440855
51
0.2287917
0
ARC
8
DEFAULT_255_1_388
10
23.5046208
20
148.0242414
40
0.852639
50
344.4934746
51
353.9763743
0
ARC
8
DEFAULT_255_1_388
10
23.8413015
20
147.9285191
40
0.5026273
50
329.2803599
51
344.7473406
0
ARC
8
DEFAULT_255_1_388
10
23.9528511
20
147.8673038
40
0.3754848
50
324.9361395
51
328.6153007
0
ARC
8
DEFAULT_255_1_388
10
23.9954161
20
147.8375586
40
0.3235566
50
280.5801797
51
324.9173226
0
ARC
8
DEFAULT_255_1_388
10
23.9502789
20
148.0255236
40
0.5167077
50
269.5979457
51
281.6732777
0
ARC
8
DEFAULT_255_1_388
10
23.9421693
20
148.0120113
40
0.5032026
50
256.6228565
51
270.5105488
0
ARC
8
DEFAULT_255_1_388
10
23.8969435
20
147.8378345
40
0.3233092
50
215.8618351
51
257.2787793
0
ARC
8
DEFAULT_255_1_388
10
24.0118142
20
147.9149106
40
0.4615831
50
197.9695203
51
215.2622745
0
ARC
8
DEFAULT_255_1_388
10
24.2913818
20
148.0092641
40
0.7566307
50
187.8816486
51
198.2346584
0
ARC
8
DEFAULT_255_1_388
10
24.7367056
20
148.0735453
40
1.2065653
50
180.8977266
51
188.0054894
0
ARC
8
DEFAULT_255_1_388
10
25.041727
20
148.08504
40
1.5117443
50
180.7434591
51
181.152202
0
ARC
8
DEFAULT_255_1_388
10
24.8742266
20
148.2940371
40
1.3441277
50
173.7674302
51
180.2315596
0
ARC
8
DEFAULT_255_1_388
10
24.3660135
20
148.3514779
40
0.8326847
50
164.3058537
51
173.9000553
0
ARC
8
DEFAULT_255_1_388
10
24.0384135
20
148.4458652
40
0.4917711
50
148.7922028
51
164.5682288
0
ARC
8
DEFAULT_255_1_388
10
23.9314872
20
148.5055457
40
0.3694204
50
144.5883979
51
148.1161588
0
ARC
8
DEFAULT_255_1_388
10
23.8927618
20
148.5325667
40
0.322202
50
101.6440149
51
144.5142619
0
ARC
8
DEFAULT_255_1_388
10
23.940581
20
148.3425337
40
0.5180451
50
89.528284
51
102.5820197
0
ARC
8
DEFAULT_255_1_388
10
23.9494802
20
148.3381376
40
0.5224441
50
77.0437914
51
90.508231
0
ARC
8
DEFAULT_255_1_388
10
23.9947055
20
148.5229272
40
0.3322297
50
48.2777708
51
77.4996087
0
ARC
8
DEFAULT_255_1_388
10
24.0028795
20
148.5374557
40
0.315966
50
36.3141586
51
47.6307332
0
ARC
8
DEFAULT_255_1_388
10
23.9051518
20
148.4716159
40
0.4337313
50
18.2931065
51
35.6770203
0
ARC
8
DEFAULT_255_1_388
10
23.6190358
20
148.3734107
40
0.7362203
50
8.0246996
51
18.5605636
0
ARC
8
DEFAULT_255_1_388
10
23.1506714
20
148.3042432
40
1.2096583
50
1.127539
51
8.1718423
0
ARC
8
DEFAULT_255_1_388
10
22.7857847
20
148.2899374
40
1.5747719
50
0.5432713
51
1.38669
0
ARC
8
DEFAULT_255_1_388
10
22.9915226
20
148.3206163
40
1.2018103
50
359.8092569
51
4.9408001
0
ARC
8
DEFAULT_255_1_388
10
23.4651807
20
148.36289
40
0.7262727
50
4.8364937
51
12.2906017
0
ARC
8
DEFAULT_255_1_388
10
23.7751272
20
148.4319485
40
0.4087324
50
12.0806994
51
23.8171225
0
ARC
8
DEFAULT_255_1_388
10
23.9071668
20
148.4878508
40
0.2653719
50
24.2874621
51
31.3934353
0
ARC
8
DEFAULT_255_1_388
10
23.9662104
20
148.5264822
40
0.1948607
50
30.7407708
51
82.4658033
0
ARC
8
DEFAULT_255_1_388
10
23.9459765
20
148.4271017
40
0.2961198
50
81.1057101
51
90.2187368
0
ARC
8
DEFAULT_255_1_388
10
23.9419577
20
148.4561421
40
0.2670929
50
89.380395
51
105.6763916
0
ARC
8
DEFAULT_255_1_388
10
23.9213299
20
148.531132
40
0.1893189
50
105.7980655
51
149.7387869
0
ARC
8
DEFAULT_255_1_388
10
24.0410439
20
148.4591719
40
0.3289892
50
149.4208441
51
163.628295
0
ARC
8
DEFAULT_255_1_388
10
24.2762668
20
148.3874345
40
0.5749004
50
163.3764549
51
172.141138
0
ARC
8
DEFAULT_255_1_388
10
24.647539
20
148.3342582
40
0.9499585
50
172.0258462
51
178.0705453
0
ARC
8
DEFAULT_255_1_388
10
24.9896943
20
148.3180682
40
1.2924734
50
177.8639301
51
179.5036263
0
ARC
8
DEFAULT_255_1_388
10
24.8677961
20
148.0577151
40
1.170534
50
179.7995545
51
185.246089
0
ARC
8
DEFAULT_255_1_388
10
24.4129554
20
148.0146404
40
0.7136613
50
185.1411911
51
193.0082205
0
ARC
8
DEFAULT_255_1_388
10
24.1155815
20
147.9443441
40
0.4080987
50
192.7897338
51
205.2507384
0
ARC
8
DEFAULT_255_1_388
10
23.9978025
20
147.8917538
40
0.2791522
50
205.8001921
51
211.2545876
0
ARC
8
DEFAULT_255_1_388
10
23.9389564
20
147.8523132
40
0.2084074
50
210.3789935
51
238.4007996
0
ARC
8
DEFAULT_255_1_388
10
23.936765
20
147.8575786
40
0.2117943
50
239.6521916
51
265.9793852
0
ARC
8
DEFAULT_255_1_388
10
23.9463499
20
147.9332358
40
0.2879689
50
265.1324455
51
270.0603288
0
ARC
8
DEFAULT_255_1_388
10
23.9495876
20
147.8967418
40
0.2514919
50
269.3314378
51
287.2180039
0
ARC
8
DEFAULT_255_1_388
10
23.9650958
20
147.8401291
40
0.1928357
50
287.7957942
51
329.0808983
0
ARC
8
DEFAULT_255_1_388
10
23.8573715
20
147.9073651
40
0.319808
50
328.6635261
51
343.3325043
0
ARC
8
DEFAULT_255_1_388
10
23.6129174
20
147.9835195
40
0.5758408
50
343.0498092
51
351.9392499
0
ARC
8
DEFAULT_255_1_388
10
23.2228496
20
148.0410205
40
0.9701202
50
351.8071632
51
357.7957897
0
ARC
8
DEFAULT_255_1_388
10
22.8593973
20
148.0598724
40
1.3340376
50
357.5870923
51
359.2682493
0
ENDSEC
0
EOF