0
SECTION
2
HEADER
9
$MEASUREMENT
70
1
0
ENDSEC
0
SECTION
2
TABLES
0
TABLE
2
LTYPE
0
LTYPE
72
65
70
64
2
CONTINUOUS
3
______
73
0
40
0
0
ENDTAB
0
TABLE
2
LAYER
0
LAYER
2
DEFAULT_255_2_778
70
0
62
255
6
CONTINUOUS
0
LAYER
2
DEFAULT_255_1_388
70
0
62
255
6
CONTINUOUS
0
ENDTAB
0
ENDSEC
0
SECTION
2
ENTITIES
0
ARC
8
DEFAULT_255_2_778
10
3.5700693
20
75.805203
40
0.7914215
50
129.1312896
51
180.1450914
0
ARC
8
DEFAULT_255_2_778
10
3.5703345
20
75.8056901
40
0.7912112
50
89.854026
51
129.1684493
0
ARC
8
DEFAULT_255_2_778
10
25.7993937
20
75.8053767
40
0.7915249
50
39.4792447
51
90.147911
0
ARC
8
DEFAULT_255_2_778
10
25.7999935
20
75.8052233
40
0.7911595
50
359.8533901
51
39.5154338
0
ARC
8
DEFAULT_255_2_778
10
25.7996693
20
-1.9863492
40
0.7914836
50
309.4761667
51
0.1482649
0
ARC
8
DEFAULT_255_2_778
10
25.799398
20
-1.9867803
40
0.7913235
50
269.8517415
51
309.511178
0
ARC
8
DEFAULT_255_2_778
10
3.570342
20
-1.9867221
40
0.7913815
50
219.1282118
51
270.1454017
0
ARC
8
DEFAULT_255_2_778
10
3.5700247
20
-1.9863397
40
0.7913769
50
179.8524075
51
219.1641908
0
LINE
8
DEFAULT_255_2_778
10
3.5723503
20
76.5968989
11
25.7973503
21
76.5968989
0
LINE
8
DEFAULT_255_2_778
10
26.5911503
20
75.8031989
11
26.5911503
21
-1.9843011
0
LINE
8
DEFAULT_255_2_778
10
25.7973503
20
-2.7781011
11
3.5723503
21
-2.7781011
0
LINE
8
DEFAULT_255_2_778
10
2.7786503
20
-1.9843011
11
2.7786503
21
75.8031989
0
LINE
8
DEFAULT_255_1_388
10
8.879932
20
-0.2223532
11
9.0543199
21
-0.2223532
0
LINE
8
DEFAULT_255_1_388
10
8.0414242
20
-0.0434475
11
8.0414242
21
0.0830516
0
LINE
8
DEFAULT_255_1_388
10
9.0543199
20
0.2529217
11
8.879932
21
0.2529217
0
LINE
8
DEFAULT_255_1_388
10
8.2158121
20
0.0785337
11
8.2158121
21
-0.0488688
0
ARC
8
DEFAULT_255_1_388
10
8.4377433
20
-0.1551671
40
0.6202263
50
340.1774904
51
353.7812217
0
ARC
8
DEFAULT_255_1_388
10
8.6145286
20
-0.2210107
40
0.4315926
50
311.4560052
51
340.4420756
0
ARC
8
DEFAULT_255_1_388
10
8.6107826
20
-0.2085335
40
0.4434573
50
282.4332229
51
310.7514507
0
ARC
8
DEFAULT_255_1_388
10
8.5613644
20
-0.0043297
40
0.6535262
50
269.9358869
51
282.8096729
0
ARC
8
DEFAULT_255_1_388
10
8.5555583
20
0.1469329
40
0.8048043
50
269.9995752
51
270.3612856
0
ARC
8
DEFAULT_255_1_388
10
8.5496073
20
-0.1329219
40
0.5249831
50
250.7885263
51
270.6488451
0
ARC
8
DEFAULT_255_1_388
10
8.5306898
20
-0.2046147
40
0.4510942
50
219.3628377
51
250.0611024
0
ARC
8
DEFAULT_255_1_388
10
8.6239772
20
-0.1253347
40
0.5735046
50
193.5480293
51
219.5755675
0
ARC
8
DEFAULT_255_1_388
10
8.8907981
20
-0.056048
40
0.849146
50
181.1220183
51
193.8754971
0
ARC
8
DEFAULT_255_1_388
10
9.1231214
20
-0.0436086
40
1.0816971
50
179.9914644
51
181.5398227
0
ARC
8
DEFAULT_255_1_388
10
8.9154525
20
0.0872586
40
0.8740384
50
169.5837606
51
180.275782
0
ARC
8
DEFAULT_255_1_388
10
8.7087873
20
0.1254439
40
0.6638751
50
155.0367033
51
169.6002779
0
ARC
8
DEFAULT_255_1_388
10
8.5810331
20
0.1870336
40
0.5220662
50
136.7831557
51
155.2472983
0
ARC
8
DEFAULT_255_1_388
10
8.5372122
20
0.2242577
40
0.4646502
50
121.7633063
51
136.4281161
0
ARC
8
DEFAULT_255_1_388
10
8.5523962
20
0.1962049
40
0.4964979
50
95.6460018
51
121.5489589
0
ARC
8
DEFAULT_255_1_388
10
8.5700936
20
0.0714704
40
0.6223912
50
89.9245727
51
96.1375919
0
ARC
8
DEFAULT_255_1_388
10
8.5757641
20
0.0848721
40
0.6090084
50
76.6779212
51
90.456405
0
ARC
8
DEFAULT_255_1_388
10
8.6200454
20
0.263806
40
0.42469
50
47.4858803
51
76.9287069
0
ARC
8
DEFAULT_255_1_388
10
8.6035068
20
0.2525623
40
0.4441778
50
16.5424081
51
46.8934505
0
ARC
8
DEFAULT_255_1_388
10
8.4226118
20
0.1931265
40
0.6345318
50
5.4072971
51
17.0363711
0
ARC
8
DEFAULT_255_1_388
10
8.2607843
20
0.1671304
40
0.6250632
50
7.8888693
51
15.9242022
0
ARC
8
DEFAULT_255_1_388
10
8.4842828
20
0.2320309
40
0.3923364
50
15.7650676
51
27.9410069
0
ARC
8
DEFAULT_255_1_388
10
8.6084997
20
0.2985317
40
0.2514401
50
27.8167196
51
46.4007942
0
ARC
8
DEFAULT_255_1_388
10
8.6140839
20
0.2978882
40
0.2480958
50
47.4372362
51
75.0695672
0
ARC
8
DEFAULT_255_1_388
10
8.5793675
20
0.1770277
40
0.3738281
50
74.7009379
51
87.8124314
0
ARC
8
DEFAULT_255_1_388
10
8.5711292
20
0.0586659
40
0.4924321
50
87.3802571
51
90.0251599
0
ARC
8
DEFAULT_255_1_388
10
8.5667939
20
0.1906997
40
0.3604218
50
89.3451886
51
108.5744412
0
ARC
8
DEFAULT_255_1_388
10
8.5513931
20
0.2484836
40
0.3007661
50
109.2998307
51
143.3037387
0
ARC
8
DEFAULT_255_1_388
10
8.6371221
20
0.1825584
40
0.4089031
50
143.075267
51
163.1918576
0
ARC
8
DEFAULT_255_1_388
10
8.8567055
20
0.1132652
40
0.6391492
50
162.9375929
51
174.6208776
0
ARC
8
DEFAULT_255_1_388
10
9.1521437
20
0.0808711
40
0.9363344
50
174.342123
51
180.1430283
0
ARC
8
DEFAULT_255_1_388
10
9.0473978
20
-0.0534883
40
0.8315986
50
179.6817261
51
189.150555
0
ARC
8
DEFAULT_255_1_388
10
8.7660727
20
-0.1003441
40
0.5464044
50
188.9911061
51
203.5772363
0
ARC
8
DEFAULT_255_1_388
10
8.6446019
20
-0.1507461
40
0.4149206
50
203.9075402
51
215.1312435
0
ARC
8
DEFAULT_255_1_388
10
8.5407817
20
-0.2312093
40
0.2837747
50
213.9071511
51
263.8848919
0
ARC
8
DEFAULT_255_1_388
10
8.554881
20
-0.1429481
40
0.3730641
50
263.1757928
51
270.1031044
0
ARC
8
DEFAULT_255_1_388
10
8.558489
20
-0.0026489
40
0.5133712
50
269.6722503
51
279.0606936
0
ARC
8
DEFAULT_255_1_388
10
8.5885045
20
-0.184085
40
0.3294739
50
278.8749101
51
293.6349581
0
ARC
8
DEFAULT_255_1_388
10
8.6245249
20
-0.2686749
40
0.2375405
50
293.8553806
51
310.0518171
0
ARC
8
DEFAULT_255_1_388
10
8.6250758
20
-0.2756979
40
0.2318463
50
311.0644687
51
332.0111037
0
ARC
8
DEFAULT_255_1_388
10
8.4909431
20
-0.2017298
40
0.3850112
50
331.6586806
51
343.2877423
0
ARC
8
DEFAULT_255_1_388
10
8.2588896
20
-0.1304194
40
0.6277712
50
343.1446576
51
351.0103568
0
ARC
8
DEFAULT_255_1_388
10
8.095622
20
-0.1004127
40
0.7937327
50
350.71248
51
351.1626997
0
LINE
8
DEFAULT_255_1_388
10
9.7744608
20
-0.1247683
11
9.4645382
21
-0.1247683
0
LINE
8
DEFAULT_255_1_388
10
9.4645382
20
-0.1247683
11
9.4645382
21
-0.6398
0
LINE
8
DEFAULT_255_1_388
10
9.4645382
20
-0.6398
11
9.2910538
21
-0.6398
0
LINE
8
DEFAULT_255_1_388
10
9.2910538
20
-0.6398
11
9.2910538
21
0.6757898
0
LINE
8
DEFAULT_255_1_388
10
9.2910538
20
0.6757898
11
9.7762679
21
0.6757898
0
LINE
8
DEFAULT_255_1_388
10
9.4645382
20
0.5330267
11
9.4645382
21
0.0170914
0
LINE
8
DEFAULT_255_1_388
10
9.4645382
20
0.0170914
11
9.7762679
21
0.0170914
0
LINE
8
DEFAULT_255_1_388
10
9.7862071
20
0.5330267
11
9.4645382
21
0.5330267
0
ARC
8
DEFAULT_255_1_388
10
9.7810053
20
-0.0058666
40
0.6816729
50
78.8380084
51
90.398184
0
ARC
8
DEFAULT_255_1_388
10
9.8278083
20
0.2214796
40
0.449571
50
58.9633273
51
79.0810717
0
ARC
8
DEFAULT_255_1_388
10
9.8617468
20
0.2844823
40
0.3781049
50
48.0194715
51
58.4475592
0
ARC
8
DEFAULT_255_1_388
10
9.8717287
20
0.2940818
40
0.3642936
50
3.3374546
51
48.1766642
0
ARC
8
DEFAULT_255_1_388
10
9.7332094
20
0.2741581
40
0.5038766
50
359.9483251
51
4.6822857
0
ARC
8
DEFAULT_255_1_388
10
9.7472017
20
0.2693779
40
0.4899031
50
346.1879032
51
0.5059221
0
ARC
8
DEFAULT_255_1_388
10
9.9000809
20
0.2296763
40
0.3319729
50
310.8832219
51
346.5426612
0
ARC
8
DEFAULT_255_1_388
10
9.8653657
20
0.2765853
40
0.3901853
50
286.6925305
51
310.228778
0
ARC
8
DEFAULT_255_1_388
10
9.8013387
20
0.4779585
40
0.6014737
50
274.6848219
51
287.0247342
0
ARC
8
DEFAULT_255_1_388
10
9.7759936
20
0.7264088
40
0.8511785
50
269.8968222
51
275.0192639
0
ARC
8
DEFAULT_255_1_388
10
9.7790929
20
0.4926144
40
0.4755314
50
269.6596206
51
279.4150542
0
ARC
8
DEFAULT_255_1_388
10
9.8080387
20
0.3248945
40
0.3053379
50
279.2050006
51
294.9901776
0
ARC
8
DEFAULT_255_1_388
10
9.8407022
20
0.2520353
40
0.2255036
50
295.2886769
51
311.2912669
0
ARC
8
DEFAULT_255_1_388
10
9.8486763
20
0.2401938
40
0.2113522
50
311.7853512
51
347.2860549
0
ARC
8
DEFAULT_255_1_388
10
9.7379925
20
0.268643
40
0.3256011
50
346.6891629
51
0.1057086
0
ARC
8
DEFAULT_255_1_388
10
9.6457384
20
0.2719247
40
0.417863
50
359.63239
51
359.9961329
0
ARC
8
DEFAULT_255_1_388
10
9.7621989
20
0.2746987
40
0.3014155
50
359.4673371
51
15.5931159
0
ARC
8
DEFAULT_255_1_388
10
9.8325052
20
0.2936937
40
0.2285918
50
15.7441779
51
46.620186
0
ARC
8
DEFAULT_255_1_388
10
9.8158812
20
0.2745361
40
0.2539359
50
46.8628482
51
75.6676625
0
ARC
8
DEFAULT_255_1_388
10
9.7827869
20
0.1554243
40
0.3775415
50
75.2763152
51
88.2916439
0
ARC
8
DEFAULT_255_1_388
10
9.7761868
20
0.0552097
40
0.4779221
50
87.8589087
51
88.7986197
0
LINE
8
DEFAULT_255_1_388
10
10.9644552
20
0.6821148
11
10.9644552
21
-0.6398
0
LINE
8
DEFAULT_255_1_388
10
10.9644552
20
-0.6398
11
10.7963922
21
-0.6398
0
LINE
8
DEFAULT_255_1_388
10
10.7963922
20
-0.6398
11
10.7963922
21
0.474295
0
LINE
8
DEFAULT_255_1_388
10
10.7963922
20
0.474295
11
10.4593626
21
0.3505066
0
LINE
8
DEFAULT_255_1_388
10
10.4593626
20
0.3505066
11
10.4593626
21
0.5023055
0
LINE
8
DEFAULT_255_1_388
10
10.4593626
20
0.5023055
11
10.9382518
21
0.6821148
0
LINE
8
DEFAULT_255_1_388
10
10.9382518
20
0.6821148
11
10.9644552
21
0.6821148
0
LINE
8
DEFAULT_255_1_388
10
12.2411917
20
0.1101585
11
12.2411917
21
-0.0317011
0
LINE
8
DEFAULT_255_1_388
10
12.2411917
20
-0.0317011
11
11.6710426
21
-0.0317011
0
LINE
8
DEFAULT_255_1_388
10
11.6710426
20
-0.0317011
11
11.6710426
21
-0.4979404
0
LINE
8
DEFAULT_255_1_388
10
11.6710426
20
-0.4979404
11
12.3333553
21
-0.4979404
0
LINE
8
DEFAULT_255_1_388
10
12.3333553
20
-0.4979404
11
12.3333553
21
-0.6398
0
LINE
8
DEFAULT_255_1_388
10
12.3333553
20
-0.6398
11
11.4975582
21
-0.6398
0
LINE
8
DEFAULT_255_1_388
10
11.4975582
20
-0.6398
11
11.4975582
21
0.6757898
0
LINE
8
DEFAULT_255_1_388
10
11.4975582
20
0.6757898
11
12.3243197
21
0.6757898
0
LINE
8
DEFAULT_255_1_388
10
12.3243197
20
0.6757898
11
12.3243197
21
0.5330267
0
LINE
8
DEFAULT_255_1_388
10
12.3243197
20
0.5330267
11
11.6710426
21
0.5330267
0
LINE
8
DEFAULT_255_1_388
10
11.6710426
20
0.5330267
11
11.6710426
21
0.1101585
0
LINE
8
DEFAULT_255_1_388
10
11.6710426
20
0.1101585
11
12.2411917
21
0.1101585
0
LINE
8
DEFAULT_255_1_388
10
12.8709762
20
-0.0127263
11
12.8709762
21
-0.1491645
0
LINE
8
DEFAULT_255_1_388
10
12.8709762
20
-0.1491645
11
12.4300367
21
-0.1491645
0
LINE
8
DEFAULT_255_1_388
10
12.4300367
20
-0.1491645
11
12.4300367
21
-0.0127263
0
LINE
8
DEFAULT_255_1_388
10
12.4300367
20
-0.0127263
11
12.8709762
21
-0.0127263
0
LINE
8
DEFAULT_255_1_388
10
14.0709098
20
0.6757898
11
14.0709098
21
-0.6398
0
LINE
8
DEFAULT_255_1_388
10
14.0709098
20
-0.6398
11
13.8965218
21
-0.6398
0
LINE
8
DEFAULT_255_1_388
10
13.8965218
20
-0.6398
11
13.2342091
21
0.3739993
0
LINE
8
DEFAULT_255_1_388
10
13.2342091
20
0.3739993
11
13.2342091
21
-0.6398
0
LINE
8
DEFAULT_255_1_388
10
13.2342091
20
-0.6398
11
13.0598211
21
-0.6398
0
LINE
8
DEFAULT_255_1_388
10
13.0598211
20
-0.6398
11
13.0598211
21
0.6757898
0
LINE
8
DEFAULT_255_1_388
10
13.0598211
20
0.6757898
11
13.2342091
21
0.6757898
0
LINE
8
DEFAULT_255_1_388
10
13.2342091
20
0.6757898
11
13.898329
21
-0.3425273
0
LINE
8
DEFAULT_255_1_388
10
13.898329
20
-0.3425273
11
13.898329
21
0.6757898
0
LINE
8
DEFAULT_255_1_388
10
13.898329
20
0.6757898
11
14.0709098
21
0.6757898
0
LINE
8
DEFAULT_255_1_388
10
14.8850213
20
0.6821148
11
14.8850213
21
-0.6398
0
LINE
8
DEFAULT_255_1_388
10
14.8850213
20
-0.6398
11
14.7169583
21
-0.6398
0
LINE
8
DEFAULT_255_1_388
10
14.7169583
20
-0.6398
11
14.7169583
21
0.474295
0
LINE
8
DEFAULT_255_1_388
10
14.7169583
20
0.474295
11
14.3799288
21
0.3505066
0
LINE
8
DEFAULT_255_1_388
10
14.3799288
20
0.3505066
11
14.3799288
21
0.5023055
0
LINE
8
DEFAULT_255_1_388
10
14.3799288
20
0.5023055
11
14.858818
21
0.6821148
0
LINE
8
DEFAULT_255_1_388
10
14.858818
20
0.6821148
11
14.8850213
21
0.6821148
0
LINE
8
DEFAULT_255_1_388
10
16.0804371
20
0.6757898
11
16.0804371
21
-0.197957
0
LINE
8
DEFAULT_255_1_388
10
16.0804371
20
-0.197957
11
16.2629571
21
-0.197957
0
LINE
8
DEFAULT_255_1_388
10
16.2629571
20
-0.197957
11
16.2629571
21
-0.3343952
0
LINE
8
DEFAULT_255_1_388
10
16.2629571
20
-0.3343952
11
16.0804371
21
-0.3343952
0
LINE
8
DEFAULT_255_1_388
10
16.0804371
20
-0.3343952
11
16.0804371
21
-0.6398
0
LINE
8
DEFAULT_255_1_388
10
16.0804371
20
-0.6398
11
15.9123741
21
-0.6398
0
LINE
8
DEFAULT_255_1_388
10
15.9123741
20
-0.6398
11
15.9123741
21
-0.3343952
0
LINE
8
DEFAULT_255_1_388
10
15.9123741
20
-0.3343952
11
15.3133109
21
-0.3343952
0
LINE
8
DEFAULT_255_1_388
10
15.3133109
20
-0.3343952
11
15.3133109
21
-0.2359067
0
LINE
8
DEFAULT_255_1_388
10
15.3133109
20
-0.2359067
11
15.9024349
21
0.6757898
0
LINE
8
DEFAULT_255_1_388
10
15.9024349
20
0.6757898
11
16.0804371
21
0.6757898
0
LINE
8
DEFAULT_255_1_388
10
15.8924957
20
0.4110455
11
15.5030594
21
-0.197957
0
LINE
8
DEFAULT_255_1_388
10
15.5030594
20
-0.197957
11
15.9123741
21
-0.197957
0
LINE
8
DEFAULT_255_1_388
10
15.9123741
20
-0.197957
11
15.9123741
21
0.447188
0
LINE
8
DEFAULT_255_1_388
10
15.9123741
20
0.447188
11
15.8924957
21
0.4110455
0
LINE
8
DEFAULT_255_1_388
10
16.82136
20
-0.6398
11
16.4572235
21
-0.6398
0
LINE
8
DEFAULT_255_1_388
10
16.4572235
20
-0.6398
11
16.4572235
21
0.6757898
0
LINE
8
DEFAULT_255_1_388
10
16.4572235
20
0.6757898
11
16.8285885
21
0.6757898
0
LINE
8
DEFAULT_255_1_388
10
17.4086769
20
0.0622696
11
17.4086769
21
-0.0217619
0
LINE
8
DEFAULT_255_1_388
10
16.8331063
20
0.5330267
11
16.6307079
21
0.5330267
0
LINE
8
DEFAULT_255_1_388
10
16.6307079
20
0.5330267
11
16.6307079
21
-0.4979404
0
LINE
8
DEFAULT_255_1_388
10
16.6307079
20
-0.4979404
11
16.8132279
21
-0.4979404
0
LINE
8
DEFAULT_255_1_388
10
17.2369996
20
-0.0181477
11
17.2369996
21
0.0586553
0
ARC
8
DEFAULT_255_1_388
10
16.832968
20
0.0159436
40
0.6598608
50
75.4100343
51
90.3802731
0
ARC
8
DEFAULT_255_1_388
10
16.8587925
20
0.1235691
40
0.5492049
50
60.1455157
51
75.1889627
0
ARC
8
DEFAULT_255_1_388
10
16.8766516
20
0.1546914
40
0.5133226
50
26.525419
51
60.1451222
0
ARC
8
DEFAULT_255_1_388
10
16.7506303
20
0.0878642
40
0.6559324
50
7.4029944
51
26.832209
0
ARC
8
DEFAULT_255_1_388
10
16.57127
20
0.0599229
40
0.8374103
50
0.1605597
51
7.7176135
0
ARC
8
DEFAULT_255_1_388
10
16.58971
20
-0.0260679
40
0.8189782
50
348.7289744
51
0.30125
0
ARC
8
DEFAULT_255_1_388
10
16.7760564
20
-0.0630844
40
0.628991
50
333.0706936
51
348.7181455
0
ARC
8
DEFAULT_255_1_388
10
16.8848192
20
-0.1221551
40
0.5052808
50
299.2531435
51
333.4571133
0
ARC
8
DEFAULT_255_1_388
10
16.8442223
20
-0.0450371
40
0.5924066
50
278.1072193
51
299.0340218
0
ARC
8
DEFAULT_255_1_388
10
16.8154272
20
0.1245979
40
0.7644209
50
270.4446841
51
278.4508355
0
ARC
8
DEFAULT_255_1_388
10
16.8177755
20
0.02003
40
0.5179903
50
269.4969684
51
284.0204874
0
ARC
8
DEFAULT_255_1_388
10
16.8577474
20
-0.1335585
40
0.3592968
50
283.7699076
51
318.1557121
0
ARC
8
DEFAULT_255_1_388
10
16.8198019
20
-0.1051601
40
0.4065308
50
318.7417595
51
343.687252
0
ARC
8
DEFAULT_255_1_388
10
16.6168598
20
-0.0417725
40
0.6191194
50
343.3324891
51
355.8548594
0
ARC
8
DEFAULT_255_1_388
10
16.3807635
20
-0.0193281
40
0.856237
50
355.4988754
51
0.0789913
0
ARC
8
DEFAULT_255_1_388
10
16.4688435
20
0.063408
40
0.7681709
50
359.6455047
51
9.8607559
0
ARC
8
DEFAULT_255_1_388
10
16.7344158
20
0.1113664
40
0.498312
50
9.6573037
51
26.1931522
0
ARC
8
DEFAULT_255_1_388
10
16.8388233
20
0.1598587
40
0.3832303
50
26.5777895
51
40.1533752
0
ARC
8
DEFAULT_255_1_388
10
16.8675898
20
0.182302
40
0.3467742
50
40.3839958
51
80.1430923
0
ARC
8
DEFAULT_255_1_388
10
16.8308153
20
0.0192486
40
0.5137832
50
79.2153636
51
89.7445174
0
LINE
8
DEFAULT_255_1_388
10
18.4387403
20
-0.6398
11
18.153214
21
-0.1076005
0
LINE
8
DEFAULT_255_1_388
10
18.153214
20
-0.1076005
11
17.8441949
21
-0.1076005
0
LINE
8
DEFAULT_255_1_388
10
17.8441949
20
-0.1076005
11
17.8441949
21
-0.6398
0
LINE
8
DEFAULT_255_1_388
10
17.8441949
20
-0.6398
11
17.669807
21
-0.6398
0
LINE
8
DEFAULT_255_1_388
10
17.669807
20
-0.6398
11
17.669807
21
0.6757898
0
LINE
8
DEFAULT_255_1_388
10
17.669807
20
0.6757898
11
18.105325
21
0.6757898
0
LINE
8
DEFAULT_255_1_388
10
18.3158556
20
-0.0705544
11
18.6248746
21
-0.6289572
0
LINE
8
DEFAULT_255_1_388
10
18.6248746
20
-0.6289572
11
18.6248746
21
-0.6398
0
LINE
8
DEFAULT_255_1_388
10
18.6248746
20
-0.6398
11
18.4387403
21
-0.6398
0
LINE
8
DEFAULT_255_1_388
10
17.8441949
20
0.5330267
11
17.8441949
21
0.0342591
0
LINE
8
DEFAULT_255_1_388
10
17.8441949
20
0.0342591
11
18.1107464
21
0.0342591
0
LINE
8
DEFAULT_255_1_388
10
18.1098429
20
0.5330267
11
17.8441949
21
0.5330267
0
ARC
8
DEFAULT_255_1_388
10
18.1100096
20
-0.1073654
40
0.7831693
50
80.6535681
51
90.3427203
0
ARC
8
DEFAULT_255_1_388
10
18.1572007
20
0.1696722
40
0.5021479
50
65.6987674
51
80.8330164
0
ARC
8
DEFAULT_255_1_388
10
18.21093
20
0.2928479
40
0.3677787
50
50.0019152
51
65.4304412
0
ARC
8
DEFAULT_255_1_388
10
18.2355117
20
0.3260603
40
0.3265454
50
11.6284215
51
49.5603681
0
ARC
8
DEFAULT_255_1_388
10
18.0627603
20
0.2838524
40
0.5043009
50
359.5655533
51
12.3693319
0
ARC
8
DEFAULT_255_1_388
10
18.1838939
20
0.2768038
40
0.3831661
50
341.998418
51
0.4822212
0
ARC
8
DEFAULT_255_1_388
10
18.2283126
20
0.2647479
40
0.3372036
50
323.8610842
51
341.6141514
0
ARC
8
DEFAULT_255_1_388
10
18.1943672
20
0.2909615
40
0.3800784
50
296.7019299
51
323.6876213
0
ARC
8
DEFAULT_255_1_388
10
18.144763
20
0.3796532
40
0.4816219
50
290.808313
51
297.2325929
0
ARC
8
DEFAULT_255_1_388
10
18.1136423
20
0.4385377
40
0.404289
50
269.5895908
51
281.8058892
0
ARC
8
DEFAULT_255_1_388
10
18.141869
20
0.309436
40
0.2721459
50
281.5499321
51
303.9358954
0
ARC
8
DEFAULT_255_1_388
10
18.1573224
20
0.2826588
40
0.2413121
50
304.4410786
51
311.211123
0
ARC
8
DEFAULT_255_1_388
10
18.1721629
20
0.2670152
40
0.2197678
50
310.9874923
51
356.2715203
0
ARC
8
DEFAULT_255_1_388
10
18.0871376
20
0.2796992
40
0.3055212
50
354.9346315
51
0.0617816
0
ARC
8
DEFAULT_255_1_388
10
18.0660217
20
0.2827427
40
0.3266482
50
359.5239293
51
12.8808621
0
ARC
8
DEFAULT_255_1_388
10
18.1759979
20
0.3096638
40
0.2134449
50
12.417206
51
43.1023141
0
ARC
8
DEFAULT_255_1_388
10
18.1829309
20
0.3138253
40
0.2055463
50
43.575886
51
48.2047245
0
ARC
8
DEFAULT_255_1_388
10
18.163857
20
0.2889151
40
0.2368418
50
48.7809155
51
72.6968768
0
ARC
8
DEFAULT_255_1_388
10
18.1239934
20
0.1679385
40
0.364206
50
72.3699892
51
84.8793749
0
ARC
8
DEFAULT_255_1_388
10
18.107394
20
0.0169651
40
0.5160674
50
84.5398226
51
89.7281165
0
LINE
8
DEFAULT_255_1_388
10
19.1317743
20
-0.0127263
11
19.1317743
21
-0.1491645
0
LINE
8
DEFAULT_255_1_388
10
19.1317743
20
-0.1491645
11
18.6908348
21
-0.1491645
0
LINE
8
DEFAULT_255_1_388
10
18.6908348
20
-0.1491645
11
18.6908348
21
-0.0127263
0
LINE
8
DEFAULT_255_1_388
10
18.6908348
20
-0.0127263
11
19.1317743
21
-0.0127263
0
LINE
8
DEFAULT_255_1_388
10
19.6847557
20
-0.6398
11
19.3206192
21
-0.6398
0
LINE
8
DEFAULT_255_1_388
10
19.3206192
20
-0.6398
11
19.3206192
21
0.6757898
0
LINE
8
DEFAULT_255_1_388
10
19.3206192
20
0.6757898
11
19.6919842
21
0.6757898
0
LINE
8
DEFAULT_255_1_388
10
20.2720726
20
0.0622696
11
20.2720726
21
-0.0217619
0
LINE
8
DEFAULT_255_1_388
10
19.6965021
20
0.5330267
11
19.4941036
21
0.5330267
0
LINE
8
DEFAULT_255_1_388
10
19.4941036
20
0.5330267
11
19.4941036
21
-0.4979404
0
LINE
8
DEFAULT_255_1_388
10
19.4941036
20
-0.4979404
11
19.6766236
21
-0.4979404
0
LINE
8
DEFAULT_255_1_388
10
20.1003954
20
-0.0181477
11
20.1003954
21
0.0586553
0
ARC
8
DEFAULT_255_1_388
10
19.6963637
20
0.0159436
40
0.6598608
50
75.4100343
51
90.3802731
0
ARC
8
DEFAULT_255_1_388
10
19.7221883
20
0.1235691
40
0.5492049
50
60.1455157
51
75.1889627
0
ARC
8
DEFAULT_255_1_388
10
19.7400474
20
0.1546914
40
0.5133226
50
26.525419
51
60.1451222
0
ARC
8
DEFAULT_255_1_388
10
19.614026
20
0.0878642
40
0.6559324
50
7.4029944
51
26.832209
0
ARC
8
DEFAULT_255_1_388
10
19.4346658
20
0.0599229
40
0.8374103
50
0.1605597
51
7.7176135
0
ARC
8
DEFAULT_255_1_388
10
19.4531058
20
-0.0260679
40
0.8189782
50
348.7289744
51
0.30125
0
ARC
8
DEFAULT_255_1_388
10
19.6394522
20
-0.0630844
40
0.628991
50
333.0706936
51
348.7181455
0
ARC
8
DEFAULT_255_1_388
10
19.748215
20
-0.1221551
40
0.5052808
50
299.2531435
51
333.4571133
0
ARC
8
DEFAULT_255_1_388
10
19.7076181
20
-0.0450371
40
0.5924066
50
278.1072193
51
299.0340218
0
ARC
8
DEFAULT_255_1_388
10
19.6788229
20
0.1245979
40
0.7644209
50
270.4446841
51
278.4508355
0
ARC
8
DEFAULT_255_1_388
10
19.6811713
20
0.02003
40
0.5179903
50
269.4969684
51
284.0204874
0
ARC
8
DEFAULT_255_1_388
10
19.7211432
20
-0.1335585
40
0.3592968
50
283.7699076
51
318.1557121
0
ARC
8
DEFAULT_255_1_388
10
19.6831977
20
-0.1051601
40
0.4065308
50
318.7417595
51
343.687252
0
ARC
8
DEFAULT_255_1_388
10
19.4802556
20
-0.0417725
40
0.6191194
50
343.3324891
51
355.8548594
0
ARC
8
DEFAULT_255_1_388
10
19.2441593
20
-0.0193281
40
0.856237
50
355.4988754
51
0.0789913
0
ARC
8
DEFAULT_255_1_388
10
19.3322392
20
0.063408
40
0.7681709
50
359.6455047
51
9.8607559
0
ARC
8
DEFAULT_255_1_388
10
19.5978115
20
0.1113664
40
0.498312
50
9.6573037
51
26.1931522
0
ARC
8
DEFAULT_255_1_388
10
19.702219
20
0.1598587
40
0.3832303
50
26.5777895
51
40.1533752
0
ARC
8
DEFAULT_255_1_388
10
19.7309855
20
0.182302
40
0.3467742
50
40.3839958
51
80.1430923
0
ARC
8
DEFAULT_255_1_388
10
19.6942111
20
0.0192486
40
0.5137832
50
79.2153636
51
89.7445174
0
ARC
8
DEFAULT_255_2_778
10
15.2718323
20
75.684589
40
0.3782009
50
0.4397807
51
91.3045231
0
ARC
8
DEFAULT_255_2_778
10
15.2696879
20
75.6823064
40
0.3803695
50
269.0259909
51
0.7811192
0
ARC
8
DEFAULT_255_2_778
10
15.4292635
20
75.6695149
40
0.7634811
50
290.7150207
51
357.6789493
0
ARC
8
DEFAULT_255_2_778
10
15.3436879
20
75.6874213
40
0.849834
50
356.7063002
51
0.0047554
0
ARC
8
DEFAULT_255_2_778
10
15.3422443
20
75.6874748
40
0.8512778
50
0.0011515
51
85.3589632
0
ARC
8
DEFAULT_255_2_778
10
15.3422371
20
75.6684092
40
0.8702827
50
85.4600549
51
90.0075769
0
ARC
8
DEFAULT_255_2_778
10
20.173385
20
75.6781426
40
0.3845507
50
1.3931151
51
90.158378
0
ARC
8
DEFAULT_255_2_778
10
20.2329096
20
75.6717635
40
0.8684198
50
359.7643557
51
42.1181505
0
ARC
8
DEFAULT_255_2_778
10
20.2353156
20
75.6721931
40
0.866348
50
42.2037872
51
87.9292218
0
ARC
8
DEFAULT_255_2_778
10
20.2305626
20
75.6309097
40
0.9077821
50
87.7235759
51
90.0025578
0
ARC
8
DEFAULT_255_2_778
10
12.9264947
20
75.6850344
40
0.3777354
50
0.3727528
51
91.1638813
0
ARC
8
DEFAULT_255_2_778
10
12.9805692
20
75.6717595
40
0.8684602
50
359.7646302
51
42.1161032
0
ARC
8
DEFAULT_255_2_778
10
12.9830774
20
75.6723127
40
0.8662296
50
42.2002176
51
87.9268901
0
ARC
8
DEFAULT_255_2_778
10
12.9783626
20
75.6312749
40
0.9074169
50
87.7231194
51
90.002558
0
ARC
8
DEFAULT_255_2_778
10
17.559042
20
75.2799858
40
1.2841942
50
233.3100129
51
270.0348017
0
ARC
8
DEFAULT_255_2_778
10
17.5711133
20
75.3003622
40
1.3077482
50
187.7860459
51
233.4193197
0
ARC
8
DEFAULT_255_2_778
10
17.5893588
20
75.3019185
40
1.3260368
50
179.9838663
51
187.7458681
0
ARC
8
DEFAULT_255_2_778
10
17.5478523
20
75.3025375
40
1.2845303
50
143.7084173
51
180.0109545
0
ARC
8
DEFAULT_255_2_778
10
17.5629238
20
75.2974899
40
1.2996747
50
94.9692901
51
143.9223324
0
ARC
8
DEFAULT_255_2_778
10
17.5597032
20
75.2981347
40
1.2987573
50
89.9947559
51
94.8302073
0
ARC
8
DEFAULT_255_2_778
10
17.5619339
20
75.2923304
40
1.3045632
50
58.1407344
51
90.0927508
0
ARC
8
DEFAULT_255_2_778
10
17.5700831
20
75.2979662
40
1.2954809
50
3.5056409
51
58.315291
0
ARC
8
DEFAULT_255_2_778
10
17.5711163
20
75.3020563
40
1.2942058
50
359.9971467
51
3.3277024
0
ARC
8
DEFAULT_255_2_778
10
17.3826088
20
75.2999483
40
1.4827147
50
0.006083
51
0.0789681
0
ARC
8
DEFAULT_255_2_778
10
17.5604187
20
75.3001022
40
1.3049047
50
315.0308293
51
0.0001529
0
ARC
8
DEFAULT_255_2_778
10
17.5609377
20
75.2998521
40
1.3043608
50
270.000667
51
315.0224921
0
LINE
8
DEFAULT_255_2_778
10
17.5609529
20
73.9954914
11
17.5598221
21
73.9954919
0
ARC
8
DEFAULT_255_2_778
10
17.5640812
20
75.2983112
40
0.7580313
50
269.6780691
51
315.5292436
0
ARC
8
DEFAULT_255_2_778
10
17.5610107
20
75.2975878
40
0.7597205
50
315.7303962
51
0.2857903
0
ARC
8
DEFAULT_255_2_778
10
17.8487376
20
75.3018382
40
0.4719845
50
359.944048
51
0.0186519
0
ARC
8
DEFAULT_255_2_778
10
17.5687772
20
75.3008605
40
0.7519457
50
0.086204
51
85.4319233
0
ARC
8
DEFAULT_255_2_778
10
17.5599609
20
75.2584338
40
0.7949581
50
85.0420495
51
90.0100075
0
ARC
8
DEFAULT_255_2_778
10
17.5579396
20
75.3151519
40
0.7382424
50
89.8538973
51
89.9999976
0
ARC
8
DEFAULT_255_2_778
10
17.558077
20
75.3022044
40
0.7511899
50
90.01048
51
134.9443097
0
ARC
8
DEFAULT_255_2_778
10
17.5582947
20
75.3020222
40
0.7514726
50
134.9462486
51
180.0023145
0
ARC
8
DEFAULT_255_2_778
10
17.5703854
20
75.2980405
40
0.7635736
50
179.7035048
51
222.5717333
0
ARC
8
DEFAULT_255_2_778
10
17.5578483
20
75.2874991
40
0.7472099
50
222.6268256
51
270.1513439
0
ARC
8
DEFAULT_255_2_778
10
9.564442
20
75.2799858
40
1.2841942
50
233.3100129
51
270.0348017
0
ARC
8
DEFAULT_255_2_778
10
9.5765133
20
75.3003622
40
1.3077482
50
187.7860459
51
233.4193197
0
ARC
8
DEFAULT_255_2_778
10
9.5947588
20
75.3019185
40
1.3260368
50
179.9838663
51
187.7458681
0
ARC
8
DEFAULT_255_2_778
10
9.5535129
20
75.3023961
40
1.2847909
50
143.1940819
51
180.0046489
0
ARC
8
DEFAULT_255_2_778
10
9.5683078
20
75.2977006
40
1.2994598
50
94.9233187
51
143.4191345
0
ARC
8
DEFAULT_255_2_778
10
9.5651008
20
75.298412
40
1.2984798
50
89.9946509
51
94.7850278
0
ARC
8
DEFAULT_255_2_778
10
9.5673999
20
75.2923513
40
1.3045424
50
58.1404634
51
90.0956514
0
ARC
8
DEFAULT_255_2_778
10
9.5754868
20
75.2981335
40
1.2953683
50
3.4985319
51
58.3092733
0
ARC
8
DEFAULT_255_2_778
10
9.5757037
20
75.3020528
40
1.2949184
50
359.9973027
51
3.3260236
0
ARC
8
DEFAULT_255_2_778
10
9.5936726
20
75.2998448
40
1.2769512
50
359.9949307
51
0.0963391
0
ARC
8
DEFAULT_255_2_778
10
9.5661345
20
75.2999309
40
1.3044895
50
315.0232454
51
359.9912531
0
ARC
8
DEFAULT_255_2_778
10
9.5663338
20
75.29962
40
1.3041287
50
270.0008363
51
315.026719
0
LINE
8
DEFAULT_255_2_778
10
9.5663529
20
73.9954914
11
9.5652221
21
73.9954919
0
ARC
8
DEFAULT_255_2_778
10
9.5694412
20
75.2983135
40
0.7580334
50
269.6810953
51
315.6152252
0
ARC
8
DEFAULT_255_2_778
10
9.5663839
20
75.2976381
40
0.7597504
50
315.8129036
51
0.3254485
0
ARC
8
DEFAULT_255_2_778
10
9.5738176
20
75.3005565
40
0.7523058
50
0.1093155
51
85.7820321
0
ARC
8
DEFAULT_255_2_778
10
9.5653381
20
75.2590263
40
0.7943655
50
85.3923987
51
90.0083732
0
ARC
8
DEFAULT_255_2_778
10
9.5633385
20
75.3142348
40
0.7391595
50
89.8539942
51
89.9999859
0
ARC
8
DEFAULT_255_2_778
10
9.563405
20
75.3023783
40
0.7510159
50
90.0050654
51
134.9497993
0
ARC
8
DEFAULT_255_2_778
10
9.5632746
20
75.3021963
40
0.7510526
50
134.9329452
51
180.0155944
0
ARC
8
DEFAULT_255_2_778
10
9.5758388
20
75.2980203
40
0.7636271
50
179.7020056
51
222.5023072
0
ARC
8
DEFAULT_255_2_778
10
9.5632004
20
75.2874735
40
0.7471843
50
222.5608304
51
270.1550274
0
LINE
8
DEFAULT_255_2_778
10
14.0768221
20
76.5180919
11
14.0768221
21
74.0552919
0
LINE
8
DEFAULT_255_2_778
10
14.0768221
20
74.0552919
11
14.6203221
21
74.0552919
0
LINE
8
DEFAULT_255_2_778
10
14.6203221
20
74.0552919
11
14.6203221
21
76.0626919
0
LINE
8
DEFAULT_255_2_778
10
14.6203221
20
76.0626919
11
15.2632221
21
76.0626919
0
LINE
8
DEFAULT_255_2_778
10
15.2632221
20
75.3019919
11
14.7986221
21
75.3019919
0
LINE
8
DEFAULT_255_2_778
10
14.7986221
20
75.3019919
11
15.6397221
21
74.0549919
0
LINE
8
DEFAULT_255_2_778
10
15.6397221
20
74.0549919
11
16.3126221
21
74.0549919
0
LINE
8
DEFAULT_255_2_778
10
16.3126221
20
74.0549919
11
15.6993221
21
74.9553919
0
LINE
8
DEFAULT_255_2_778
10
15.3421221
20
76.5386919
11
14.6200221
21
76.5386919
0
LINE
8
DEFAULT_255_2_778
10
14.6200221
20
76.5386919
11
14.0766221
21
76.5180919
0
LINE
8
DEFAULT_255_2_778
10
14.0766221
20
76.5180919
11
14.0768221
21
76.5180919
0
LINE
8
DEFAULT_255_2_778
10
19.0142221
20
76.5180919
11
19.0142221
21
74.0552919
0
LINE
8
DEFAULT_255_2_778
10
19.0142221
20
74.0552919
11
19.5577221
21
74.0552919
0
LINE
8
DEFAULT_255_2_778
10
19.5577221
20
74.0552919
11
19.5577221
21
76.0626919
0
LINE
8
DEFAULT_255_2_778
10
19.5577221
20
76.0626919
11
20.1723221
21
76.0626919
0
LINE
8
DEFAULT_255_2_778
10
20.5578221
20
75.6874919
11
20.5578221
21
74.0552919
0
LINE
8
DEFAULT_255_2_778
10
20.5578221
20
74.0552919
11
21.1013221
21
74.0552919
0
LINE
8
DEFAULT_255_2_778
10
21.1013221
20
74.0552919
11
21.1013221
21
75.6681919
0
LINE
8
DEFAULT_255_2_778
10
20.2305221
20
76.5386919
11
19.5577221
21
76.5386919
0
LINE
8
DEFAULT_255_2_778
10
19.5577221
20
76.5386919
11
19.0142221
21
76.5180919
0
LINE
8
DEFAULT_255_2_778
10
19.0142221
20
76.5180919
11
19.0142221
21
76.5180919
0
LINE
8
DEFAULT_255_2_778
10
11.0196221
20
76.5180919
11
11.0196221
21
74.0552919
0
LINE
8
DEFAULT_255_2_778
10
11.0196221
20
74.0552919
11
11.5628221
21
74.0552919
0
LINE
8
DEFAULT_255_2_778
10
11.5628221
20
74.0552919
11
11.5628221
21
76.0626919
0
LINE
8
DEFAULT_255_2_778
10
11.5628221
20
76.0626919
11
12.1671221
21
76.0626919
0
LINE
8
DEFAULT_255_2_778
10
12.1671221
20
76.0626919
11
12.1671221
21
74.0552919
0
LINE
8
DEFAULT_255_2_778
10
12.1671221
20
74.0552919
11
12.7105221
21
74.0552919
0
LINE
8
DEFAULT_255_2_778
10
12.7105221
20
74.0552919
11
12.7105221
21
76.0626919
0
LINE
8
DEFAULT_255_2_778
10
12.7105221
20
76.0626919
11
12.9188221
21
76.0626919
0
LINE
8
DEFAULT_255_2_778
10
13.3042221
20
75.6874919
11
13.3042221
21
74.0552919
0
LINE
8
DEFAULT_255_2_778
10
13.3042221
20
74.0552919
11
13.8490221
21
74.0552919
0
LINE
8
DEFAULT_255_2_778
10
13.8490221
20
74.0552919
11
13.8490221
21
75.6681919
0
LINE
8
DEFAULT_255_2_778
10
12.9783221
20
76.5386919
11
11.5731221
21
76.5386919
0
LINE
8
DEFAULT_255_2_778
10
11.5731221
20
76.5386919
11
11.0193221
21
76.5180919
0
LINE
8
DEFAULT_255_2_778
10
11.0193221
20
76.5180919
11
11.0196221
21
76.5180919
0
LINE
8
DEFAULT_255_2_778
10
17.5598221
20
73.9954919
11
17.5598221
21
73.9957919
0
LINE
8
DEFAULT_255_2_778
10
9.5652221
20
73.9954919
11
9.5652221
21
73.9957919
0
LINE
8
DEFAULT_255_1_388
10
11.117532
20
71.8766468
11
11.2919199
21
71.8766468
0
LINE
8
DEFAULT_255_1_388
10
10.2790242
20
72.0555525
11
10.2790242
21
72.1820516
0
LINE
8
DEFAULT_255_1_388
10
11.2919199
20
72.3519217
11
11.117532
21
72.3519217
0
LINE
8
DEFAULT_255_1_388
10
10.4534121
20
72.1775337
11
10.4534121
21
72.0501312
0
ARC
8
DEFAULT_255_1_388
10
10.6753433
20
71.9438329
40
0.6202263
50
340.1774904
51
353.7812217
0
ARC
8
DEFAULT_255_1_388
10
10.8521286
20
71.8779893
40
0.4315926
50
311.4560052
51
340.4420756
0
ARC
8
DEFAULT_255_1_388
10
10.8483826
20
71.8904665
40
0.4434573
50
282.4332229
51
310.7514507
0
ARC
8
DEFAULT_255_1_388
10
10.7989644
20
72.0946703
40
0.6535262
50
269.9358869
51
282.8096729
0
ARC
8
DEFAULT_255_1_388
10
10.7931583
20
72.2459329
40
0.8048043
50
269.9995752
51
270.3612856
0
ARC
8
DEFAULT_255_1_388
10
10.7872073
20
71.9660781
40
0.5249831
50
250.7885263
51
270.6488451
0
ARC
8
DEFAULT_255_1_388
10
10.7682898
20
71.8943853
40
0.4510942
50
219.3628377
51
250.0611024
0
ARC
8
DEFAULT_255_1_388
10
10.8615772
20
71.9736653
40
0.5735046
50
193.5480293
51
219.5755675
0
ARC
8
DEFAULT_255_1_388
10
11.1283981
20
72.042952
40
0.849146
50
181.1220183
51
193.8754971
0
ARC
8
DEFAULT_255_1_388
10
11.3607214
20
72.0553914
40
1.0816971
50
179.9914644
51
181.5398227
0
ARC
8
DEFAULT_255_1_388
10
11.1530525
20
72.1862586
40
0.8740384
50
169.5837606
51
180.275782
0
ARC
8
DEFAULT_255_1_388
10
10.9463873
20
72.2244439
40
0.6638751
50
155.0367033
51
169.6002779
0
ARC
8
DEFAULT_255_1_388
10
10.8186331
20
72.2860336
40
0.5220662
50
136.7831557
51
155.2472983
0
ARC
8
DEFAULT_255_1_388
10
10.7748122
20
72.3232577
40
0.4646502
50
121.7633063
51
136.4281161
0
ARC
8
DEFAULT_255_1_388
10
10.7899962
20
72.2952049
40
0.4964979
50
95.6460018
51
121.5489589
0
ARC
8
DEFAULT_255_1_388
10
10.8076936
20
72.1704704
40
0.6223912
50
89.9245727
51
96.1375919
0
ARC
8
DEFAULT_255_1_388
10
10.8133641
20
72.1838721
40
0.6090084
50
76.6779212
51
90.456405
0
ARC
8
DEFAULT_255_1_388
10
10.8576454
20
72.362806
40
0.42469
50
47.4858803
51
76.9287069
0
ARC
8
DEFAULT_255_1_388
10
10.8411068
20
72.3515623
40
0.4441778
50
16.5424081
51
46.8934505
0
ARC
8
DEFAULT_255_1_388
10
10.6602118
20
72.2921265
40
0.6345318
50
5.4072971
51
17.0363711
0
ARC
8
DEFAULT_255_1_388
10
10.4983843
20
72.2661304
40
0.6250632
50
7.8888693
51
15.9242022
0
ARC
8
DEFAULT_255_1_388
10
10.7218828
20
72.3310309
40
0.3923364
50
15.7650676
51
27.9410069
0
ARC
8
DEFAULT_255_1_388
10
10.8460997
20
72.3975317
40
0.2514401
50
27.8167196
51
46.4007942
0
ARC
8
DEFAULT_255_1_388
10
10.8516839
20
72.3968882
40
0.2480958
50
47.4372362
51
75.0695672
0
ARC
8
DEFAULT_255_1_388
10
10.8169675
20
72.2760277
40
0.3738281
50
74.7009379
51
87.8124314
0
ARC
8
DEFAULT_255_1_388
10
10.8087292
20
72.1576659
40
0.4924321
50
87.3802571
51
90.0251599
0
ARC
8
DEFAULT_255_1_388
10
10.8043939
20
72.2896997
40
0.3604218
50
89.3451886
51
108.5744412
0
ARC
8
DEFAULT_255_1_388
10
10.7889931
20
72.3474836
40
0.3007661
50
109.2998307
51
143.3037387
0
ARC
8
DEFAULT_255_1_388
10
10.8747221
20
72.2815584
40
0.4089031
50
143.075267
51
163.1918576
0
ARC
8
DEFAULT_255_1_388
10
11.0943055
20
72.2122652
40
0.6391492
50
162.9375929
51
174.6208776
0
ARC
8
DEFAULT_255_1_388
10
11.3897437
20
72.1798711
40
0.9363344
50
174.342123
51
180.1430283
0
ARC
8
DEFAULT_255_1_388
10
11.2849978
20
72.0455117
40
0.8315986
50
179.6817261
51
189.150555
0
ARC
8
DEFAULT_255_1_388
10
11.0036727
20
71.9986559
40
0.5464044
50
188.9911061
51
203.5772363
0
ARC
8
DEFAULT_255_1_388
10
10.8822019
20
71.9482539
40
0.4149206
50
203.9075402
51
215.1312435
0
ARC
8
DEFAULT_255_1_388
10
10.7783817
20
71.8677907
40
0.2837747
50
213.9071511
51
263.8848919
0
ARC
8
DEFAULT_255_1_388
10
10.792481
20
71.9560519
40
0.3730641
50
263.1757928
51
270.1031044
0
ARC
8
DEFAULT_255_1_388
10
10.796089
20
72.0963511
40
0.5133712
50
269.6722503
51
279.0606936
0
ARC
8
DEFAULT_255_1_388
10
10.8261045
20
71.914915
40
0.3294739
50
278.8749101
51
293.6349581
0
ARC
8
DEFAULT_255_1_388
10
10.8621249
20
71.8303251
40
0.2375405
50
293.8553806
51
310.0518171
0
ARC
8
DEFAULT_255_1_388
10
10.8626758
20
71.8233021
40
0.2318463
50
311.0644687
51
332.0111037
0
ARC
8
DEFAULT_255_1_388
10
10.7285431
20
71.8972702
40
0.3850112
50
331.6586806
51
343.2877423
0
ARC
8
DEFAULT_255_1_388
10
10.4964896
20
71.9685806
40
0.6277712
50
343.1446576
51
351.0103568
0
ARC
8
DEFAULT_255_1_388
10
10.333222
20
71.9985873
40
0.7937327
50
350.71248
51
351.1626997
0
LINE
8
DEFAULT_255_1_388
10
12.0120608
20
71.9742317
11
11.7021382
21
71.9742317
0
LINE
8
DEFAULT_255_1_388
10
11.7021382
20
71.9742317
11
11.7021382
21
71.4592
0
LINE
8
DEFAULT_255_1_388
10
11.7021382
20
71.4592
11
11.5286538
21
71.4592
0
LINE
8
DEFAULT_255_1_388
10
11.5286538
20
71.4592
11
11.5286538
21
72.7747898
0
LINE
8
DEFAULT_255_1_388
10
11.5286538
20
72.7747898
11
12.0138679
21
72.7747898
0
LINE
8
DEFAULT_255_1_388
10
11.7021382
20
72.6320267
11
11.7021382
21
72.1160914
0
LINE
8
DEFAULT_255_1_388
10
11.7021382
20
72.1160914
11
12.0138679
21
72.1160914
0
LINE
8
DEFAULT_255_1_388
10
12.0238071
20
72.6320267
11
11.7021382
21
72.6320267
0
ARC
8
DEFAULT_255_1_388
10
12.0186053
20
72.0931334
40
0.6816729
50
78.8380084
51
90.398184
0
ARC
8
DEFAULT_255_1_388
10
12.0654083
20
72.3204796
40
0.449571
50
58.9633273
51
79.0810717
0
ARC
8
DEFAULT_255_1_388
10
12.0993468
20
72.3834823
40
0.3781049
50
48.0194715
51
58.4475592
0
ARC
8
DEFAULT_255_1_388
10
12.1093287
20
72.3930818
40
0.3642936
50
3.3374546
51
48.1766642
0
ARC
8
DEFAULT_255_1_388
10
11.9708094
20
72.3731581
40
0.5038766
50
359.9483251
51
4.6822857
0
ARC
8
DEFAULT_255_1_388
10
11.9848017
20
72.3683779
40
0.4899031
50
346.1879032
51
0.5059221
0
ARC
8
DEFAULT_255_1_388
10
12.1376809
20
72.3286763
40
0.3319729
50
310.8832219
51
346.5426612
0
ARC
8
DEFAULT_255_1_388
10
12.1029657
20
72.3755853
40
0.3901853
50
286.6925305
51
310.228778
0
ARC
8
DEFAULT_255_1_388
10
12.0389387
20
72.5769585
40
0.6014737
50
274.6848219
51
287.0247342
0
ARC
8
DEFAULT_255_1_388
10
12.0135936
20
72.8254088
40
0.8511785
50
269.8968222
51
275.0192639
0
ARC
8
DEFAULT_255_1_388
10
12.0166929
20
72.5916144
40
0.4755314
50
269.6596206
51
279.4150542
0
ARC
8
DEFAULT_255_1_388
10
12.0456387
20
72.4238945
40
0.3053379
50
279.2050006
51
294.9901776
0
ARC
8
DEFAULT_255_1_388
10
12.0783022
20
72.3510353
40
0.2255036
50
295.2886769
51
311.2912669
0
ARC
8
DEFAULT_255_1_388
10
12.0862763
20
72.3391938
40
0.2113522
50
311.7853512
51
347.2860549
0
ARC
8
DEFAULT_255_1_388
10
11.9755925
20
72.367643
40
0.3256011
50
346.6891629
51
0.1057086
0
ARC
8
DEFAULT_255_1_388
10
11.8833384
20
72.3709247
40
0.417863
50
359.63239
51
359.9961329
0
ARC
8
DEFAULT_255_1_388
10
11.9997989
20
72.3736987
40
0.3014155
50
359.4673371
51
15.5931159
0
ARC
8
DEFAULT_255_1_388
10
12.0701052
20
72.3926937
40
0.2285918
50
15.7441779
51
46.620186
0
ARC
8
DEFAULT_255_1_388
10
12.0534812
20
72.3735361
40
0.2539359
50
46.8628482
51
75.6676625
0
ARC
8
DEFAULT_255_1_388
10
12.0203869
20
72.2544243
40
0.3775415
50
75.2763152
51
88.2916439
0
ARC
8
DEFAULT_255_1_388
10
12.0137868
20
72.1542097
40
0.4779221
50
87.8589087
51
88.7986197
0
LINE
8
DEFAULT_255_1_388
10
13.017728
20
72.0862737
11
13.017728
21
71.9498355
0
LINE
8
DEFAULT_255_1_388
10
13.017728
20
71.9498355
11
12.5767886
21
71.9498355
0
LINE
8
DEFAULT_255_1_388
10
12.5767886
20
71.9498355
11
12.5767886
21
72.0862737
0
LINE
8
DEFAULT_255_1_388
10
12.5767886
20
72.0862737
11
13.017728
21
72.0862737
0
LINE
8
DEFAULT_255_1_388
10
14.0794163
20
72.3943892
11
13.9050283
21
72.3943892
0
LINE
8
DEFAULT_255_1_388
10
13.1261558
20
71.8405042
11
13.3005437
21
71.8405042
0
ARC
8
DEFAULT_255_1_388
10
13.979101
20
73.4007821
40
1.4087688
50
248.9196578
51
254.1442424
0
ARC
8
DEFAULT_255_1_388
10
13.790089
20
72.9141805
40
0.8867498
50
241.6337352
51
249.0064643
0
ARC
8
DEFAULT_255_1_388
10
13.6181204
20
72.5990764
40
0.5277799
50
230.4982261
51
241.8087583
0
ARC
8
DEFAULT_255_1_388
10
13.5298975
20
72.4866686
40
0.3849419
50
227.4062979
51
229.9877433
0
ARC
8
DEFAULT_255_1_388
10
13.4750321
20
72.4331155
40
0.3084129
50
200.6782127
51
228.1765252
0
ARC
8
DEFAULT_255_1_388
10
13.483169
20
72.4314277
40
0.315461
50
179.506278
51
199.8695278
0
ARC
8
DEFAULT_255_1_388
10
13.4821279
20
72.4397671
40
0.3144584
50
132.4834401
51
181.0242352
0
ARC
8
DEFAULT_255_1_388
10
13.5490483
20
72.3765788
40
0.4063094
50
129.2526113
51
133.4249077
0
ARC
8
DEFAULT_255_1_388
10
13.5656076
20
72.3517619
40
0.436014
50
101.9878945
51
128.8741833
0
ARC
8
DEFAULT_255_1_388
10
13.6104491
20
72.158136
40
0.6347415
50
89.5906376
51
102.3170567
0
ARC
8
DEFAULT_255_1_388
10
13.6183803
20
72.1939586
40
0.5989122
50
77.2359491
51
90.3248968
0
ARC
8
DEFAULT_255_1_388
10
13.6416734
20
72.3027554
40
0.4876594
50
63.8379856
51
77.0808925
0
ARC
8
DEFAULT_255_1_388
10
13.6729267
20
72.3609882
40
0.4216191
50
45.9863127
51
64.1608798
0
ARC
8
DEFAULT_255_1_388
10
13.7022661
20
72.394499
40
0.3771394
50
32.2747934
51
45.6544796
0
ARC
8
DEFAULT_255_1_388
10
13.7097467
20
72.3966426
40
0.3696765
50
359.6507495
51
32.6129943
0
ARC
8
DEFAULT_255_1_388
10
13.603665
20
72.3971788
40
0.3013762
50
359.469654
51
14.983205
0
ARC
8
DEFAULT_255_1_388
10
13.6829902
20
72.4184288
40
0.2192542
50
14.9781954
51
48.2004799
0
ARC
8
DEFAULT_255_1_388
10
13.6645013
20
72.3951937
40
0.2489048
50
48.5926661
51
74.1242559
0
ARC
8
DEFAULT_255_1_388
10
13.6269815
20
72.2713607
40
0.3782845
50
73.7889321
51
86.6653996
0
ARC
8
DEFAULT_255_1_388
10
13.615463
20
72.1355955
40
0.5145025
50
86.2642725
51
90.0533288
0
ARC
8
DEFAULT_255_1_388
10
13.6122723
20
72.1800376
40
0.4700681
50
89.669455
51
99.2313411
0
ARC
8
DEFAULT_255_1_388
10
13.5849883
20
72.3425401
40
0.3052945
50
99.0695987
51
113.7659242
0
ARC
8
DEFAULT_255_1_388
10
13.5541877
20
72.4151772
40
0.226407
50
114.0402885
51
127.9848946
0
ARC
8
DEFAULT_255_1_388
10
13.5271353
20
72.4484884
40
0.1835045
50
127.7287217
51
176.7106493
0
ARC
8
DEFAULT_255_1_388
10
13.6035018
20
72.437121
40
0.2604907
50
175.1780759
51
180.0581213
0
ARC
8
DEFAULT_255_1_388
10
13.5086362
20
72.4357411
40
0.1656287
50
179.6140658
51
228.124674
0
ARC
8
DEFAULT_255_1_388
10
13.5583719
20
72.481794
40
0.2332038
50
226.5785315
51
230.8792476
0
ARC
8
DEFAULT_255_1_388
10
13.6113206
20
72.5520908
40
0.3211664
50
231.4636401
51
241.9261664
0
ARC
8
DEFAULT_255_1_388
10
13.7459989
20
72.7999349
40
0.6032345
50
241.7177136
51
248.3259138
0
ARC
8
DEFAULT_255_1_388
10
13.9018584
20
73.1860771
40
1.0196417
50
248.2007377
51
252.4527713
0
ARC
8
DEFAULT_255_1_388
10
14.0372111
20
73.6045092
40
1.4594143
50
252.3388938
51
254.347037
0
ARC
8
DEFAULT_255_1_388
10
13.1887411
20
70.5697095
40
1.6917621
50
71.0197462
51
74.4085467
0
ARC
8
DEFAULT_255_1_388
10
13.3794499
20
71.1202144
40
1.1091618
50
66.1845203
51
71.086519
0
ARC
8
DEFAULT_255_1_388
10
13.5545048
20
71.5143439
40
0.6779073
50
59.3537334
51
66.269255
0
ARC
8
DEFAULT_255_1_388
10
13.6544774
20
71.6834777
40
0.4814366
50
49.1021732
51
59.3294421
0
ARC
8
DEFAULT_255_1_388
10
13.7465762
20
71.7884575
40
0.3417875
50
32.7924183
51
49.2503526
0
ARC
8
DEFAULT_255_1_388
10
13.7815376
20
71.8134311
40
0.2988789
50
31.121225
51
32.3977355
0
ARC
8
DEFAULT_255_1_388
10
13.7727554
20
71.8101728
40
0.3080861
50
8.1116803
51
30.7958224
0
ARC
8
DEFAULT_255_1_388
10
13.68159
20
71.7946437
40
0.4005385
50
359.8390945
51
8.4707348
0
ARC
8
DEFAULT_255_1_388
10
13.7519948
20
71.7891751
40
0.3301608
50
337.4732479
51
0.7538283
0
ARC
8
DEFAULT_255_1_388
10
13.7720973
20
71.7869554
40
0.3107929
50
307.5917028
51
336.4313755
0
ARC
8
DEFAULT_255_1_388
10
13.7210031
20
71.8437509
40
0.3870096
50
307.6560665
51
308.4561779
0
ARC
8
DEFAULT_255_1_388
10
13.6944247
20
71.8845832
40
0.435591
50
284.3733666
51
307.1426212
0
ARC
8
DEFAULT_255_1_388
10
13.6387141
20
72.0895391
40
0.6479685
50
272.4384566
51
284.6464689
0
ARC
8
DEFAULT_255_1_388
10
13.6244526
20
72.2919434
40
0.8508149
50
269.9708517
51
272.8180721
0
ARC
8
DEFAULT_255_1_388
10
13.6196209
20
72.0627283
40
0.6216151
50
248.2707343
51
270.4054609
0
ARC
8
DEFAULT_255_1_388
10
13.613508
20
72.0412673
40
0.5994203
50
246.1380358
51
248.054058
0
ARC
8
DEFAULT_255_1_388
10
13.5664223
20
71.9423705
40
0.4899388
50
233.1671897
51
246.4951656
0
ARC
8
DEFAULT_255_1_388
10
13.5040858
20
71.8582137
40
0.3852115
50
215.3403381
51
233.084328
0
ARC
8
DEFAULT_255_1_388
10
13.4734222
20
71.8359093
40
0.3472969
50
179.2419235
51
215.2648426
0
ARC
8
DEFAULT_255_1_388
10
13.5597773
20
71.8374979
40
0.259251
50
179.3355796
51
199.1045873
0
ARC
8
DEFAULT_255_1_388
10
13.5223915
20
71.8277223
40
0.2207454
50
199.8830064
51
232.7061328
0
ARC
8
DEFAULT_255_1_388
10
13.5755189
20
71.8945456
40
0.306101
50
232.3736206
51
255.5136621
0
ARC
8
DEFAULT_255_1_388
10
13.6138695
20
72.0345177
40
0.4512213
50
255.2447928
51
267.5318292
0
ARC
8
DEFAULT_255_1_388
10
13.6237162
20
72.1731709
40
0.5901825
50
267.1564563
51
270.0294721
0
ARC
8
DEFAULT_255_1_388
10
13.6268487
20
72.1232623
40
0.5402814
50
269.6999944
51
278.1662446
0
ARC
8
DEFAULT_255_1_388
10
13.6556515
20
71.9285974
40
0.3435003
50
278.0229022
51
290.6255326
0
ARC
8
DEFAULT_255_1_388
10
13.6947681
20
71.8242547
40
0.2320666
50
290.6616368
51
307.0374127
0
ARC
8
DEFAULT_255_1_388
10
13.7285581
20
71.782804
40
0.1786372
50
306.3942078
51
355.303191
0
ARC
8
DEFAULT_255_1_388
10
13.6709874
20
71.7914186
40
0.2367516
50
354.3662092
51
0.0709489
0
ARC
8
DEFAULT_255_1_388
10
13.6869743
20
71.7939561
40
0.2207761
50
359.4175379
51
16.1975911
0
ARC
8
DEFAULT_255_1_388
10
13.7381861
20
71.8079954
40
0.1676828
50
16.4721294
51
52.6261798
0
ARC
8
DEFAULT_255_1_388
10
13.6458368
20
71.6860606
40
0.3206412
50
52.7381828
51
62.4979144
0
ARC
8
DEFAULT_255_1_388
10
13.4900121
20
71.3928236
40
0.6527035
50
62.2517425
51
68.1219454
0
ARC
8
DEFAULT_255_1_388
10
13.2965609
20
70.9173951
40
1.1659797
50
68.006043
51
71.8055127
0
ARC
8
DEFAULT_255_1_388
10
13.0945517
20
70.3115723
40
1.8045908
50
71.718361
51
73.9260743
0
LINE
8
DEFAULT_255_1_388
10
14.2357329
20
71.9209214
11
14.2357329
21
71.9516426
0
LINE
8
DEFAULT_255_1_388
10
15.0652051
20
71.9697139
11
15.0652051
21
71.9001395
0
LINE
8
DEFAULT_255_1_388
10
15.0652051
20
71.9001395
11
14.4028923
21
71.9001395
0
LINE
8
DEFAULT_255_1_388
10
14.9504524
20
71.7094874
11
15.0525552
21
71.6299737
0
LINE
8
DEFAULT_255_1_388
10
14.4083137
20
72.0374813
11
14.8980457
21
72.0374813
0
LINE
8
DEFAULT_255_1_388
10
14.8980457
20
72.0374813
11
14.8980457
21
72.0501312
0
ARC
8
DEFAULT_255_1_388
10
14.678909
20
71.933421
40
0.4923176
50
252.326534
51
270.5809615
0
ARC
8
DEFAULT_255_1_388
10
14.6558555
20
71.850094
40
0.4059384
50
223.3000488
51
251.8562489
0
ARC
8
DEFAULT_255_1_388
10
14.6796335
20
71.8731898
40
0.4390832
50
190.9374369
51
223.3654369
0
ARC
8
DEFAULT_255_1_388
10
14.8737012
20
71.9170598
40
0.63798
50
179.6531919
51
191.4988561
0
ARC
8
DEFAULT_255_1_388
10
14.8874039
20
71.9552571
40
0.6516811
50
167.4005523
51
180.3177836
0
ARC
8
DEFAULT_255_1_388
10
14.7690711
20
71.9802853
40
0.5307402
50
154.1835149
51
167.2508278
0
ARC
8
DEFAULT_255_1_388
10
14.6980302
20
72.0176925
40
0.4505076
50
134.3150225
51
154.5315008
0
ARC
8
DEFAULT_255_1_388
10
14.6735637
20
72.039155
40
0.4180662
50
122.8617482
51
133.9707159
0
ARC
8
DEFAULT_255_1_388
10
14.6619244
20
72.0641882
40
0.3907416
50
89.8248474
51
123.4199325
0
ARC
8
DEFAULT_255_1_388
10
14.6675542
20
71.9914352
40
0.4635141
50
74.7874349
51
90.5482648
0
ARC
8
DEFAULT_255_1_388
10
14.7006006
20
72.1134987
40
0.3370565
50
39.8178888
51
74.7634383
0
ARC
8
DEFAULT_255_1_388
10
14.6429248
20
72.0685356
40
0.4101553
50
16.8990848
51
39.4830125
0
ARC
8
DEFAULT_255_1_388
10
14.4297862
20
72.0002711
40
0.6339427
50
4.9634768
51
17.2027767
0
ARC
8
DEFAULT_255_1_388
10
14.1577267
20
71.97156
40
0.9074803
50
359.8834402
51
5.2832409
0
ARC
8
DEFAULT_255_1_388
10
14.8369625
20
71.9075981
40
0.4341343
50
180.9844233
51
194.9402766
0
ARC
8
DEFAULT_255_1_388
10
14.7188791
20
71.875317
40
0.3117211
50
194.8030557
51
222.0412897
0
ARC
8
DEFAULT_255_1_388
10
14.6846663
20
71.8413715
40
0.2635903
50
221.541578
51
268.8616004
0
ARC
8
DEFAULT_255_1_388
10
14.6928783
20
71.917428
40
0.3398611
50
267.7321071
51
270.009808
0
ARC
8
DEFAULT_255_1_388
10
14.6948847
20
71.9401178
40
0.3625561
50
269.6921218
51
280.4122297
0
ARC
8
DEFAULT_255_1_388
10
14.7147258
20
71.8367767
40
0.2573323
50
280.2257165
51
298.633539
0
ARC
8
DEFAULT_255_1_388
10
14.7272672
20
71.8103578
40
0.2281403
50
299.0485543
51
300.4624141
0
ARC
8
DEFAULT_255_1_388
10
14.6513652
20
71.9368796
40
0.3756797
50
300.6578578
51
322.037749
0
ARC
8
DEFAULT_255_1_388
10
14.6143174
20
71.9692266
40
0.4247956
50
321.671786
51
322.3059078
0
ARC
8
DEFAULT_255_1_388
10
14.7166737
20
71.8398267
40
0.3960488
50
276.9729088
51
328.0035579
0
ARC
8
DEFAULT_255_1_388
10
14.6855207
20
72.0063609
40
0.5652345
50
269.8358003
51
278.0581296
0
ARC
8
DEFAULT_255_1_388
10
14.6599506
20
72.090182
40
0.2274263
50
89.2017936
51
117.2852353
0
ARC
8
DEFAULT_255_1_388
10
14.6659257
20
72.0854637
40
0.2343798
50
118.0546404
51
137.4544511
0
ARC
8
DEFAULT_255_1_388
10
14.7080901
20
72.0471556
40
0.2913471
50
137.5109688
51
158.8516701
0
ARC
8
DEFAULT_255_1_388
10
14.8361001
20
71.9954902
40
0.4293804
50
158.5845496
51
170.1719753
0
ARC
8
DEFAULT_255_1_388
10
14.9677337
20
71.9693519
40
0.5635533
50
169.8378964
51
173.0563877
0
ARC
8
DEFAULT_255_1_388
10
14.4392621
20
72.0268187
40
0.4593755
50
2.9089079
51
12.88469
0
ARC
8
DEFAULT_255_1_388
10
14.593454
20
72.0631082
40
0.3009753
50
12.6957404
51
28.6405841
0
ARC
8
DEFAULT_255_1_388
10
14.6544037
20
72.0946577
40
0.232366
50
29.016559
51
41.1492981
0
ARC
8
DEFAULT_255_1_388
10
14.6772016
20
72.114508
40
0.2021373
50
41.1646967
51
85.001362
0
ARC
8
DEFAULT_255_1_388
10
14.663602
20
72.0318775
40
0.2857091
50
83.728216
51
90.0968824
0
LINE
8
DEFAULT_255_1_388
10
15.7311321
20
72.4422781
11
15.7311321
21
72.286865
0
LINE
8
DEFAULT_255_1_388
10
15.4257273
20
72.1531375
11
15.4257273
21
71.4592
0
LINE
8
DEFAULT_255_1_388
10
15.4257273
20
71.4592
11
15.2585679
21
71.4592
0
LINE
8
DEFAULT_255_1_388
10
15.2585679
20
71.4592
11
15.2585679
21
72.4368567
0
LINE
8
DEFAULT_255_1_388
10
15.2585679
20
72.4368567
11
15.4212095
21
72.4368567
0
LINE
8
DEFAULT_255_1_388
10
15.4212095
20
72.4368567
11
15.4239202
21
72.3239112
0
ARC
8
DEFAULT_255_1_388
10
15.6561481
20
71.8302068
40
0.4627735
50
80.6751522
51
86.893806
0
ARC
8
DEFAULT_255_1_388
10
15.649331
20
71.7210103
40
0.5721798
50
86.8046851
51
90.0423898
0
ARC
8
DEFAULT_255_1_388
10
15.645173
20
71.9977197
40
0.2954939
50
89.2758283
51
106.6212906
0
ARC
8
DEFAULT_255_1_388
10
15.6221755
20
72.0813009
40
0.2088351
50
107.1347109
51
157.6456887
0
ARC
8
DEFAULT_255_1_388
10
15.6989817
20
72.0385908
40
0.296292
50
155.6557383
51
157.256838
0
ARC
8
DEFAULT_255_1_388
10
15.6769431
20
72.1696472
40
0.296341
50
127.8167201
51
148.6300223
0
ARC
8
DEFAULT_255_1_388
10
15.6484178
20
72.1989066
40
0.2557782
50
91.3329934
51
126.7875218
0
ARC
8
DEFAULT_255_1_388
10
15.6569566
20
72.1185718
40
0.3363561
50
89.9858247
51
92.4688453
0
ARC
8
DEFAULT_255_1_388
10
15.6579059
20
72.1494114
40
0.3055179
50
85.3587643
51
90.1624243
0
ARC
8
DEFAULT_255_1_388
10
15.6674124
20
72.2623458
40
0.1921848
50
78.4019195
51
85.4592653
0
ARC
8
DEFAULT_255_1_388
10
15.6837185
20
72.3401142
40
0.1127267
50
67.7849217
51
78.573798
0
ARC
8
DEFAULT_255_1_388
10
15.6958819
20
72.3716374
40
0.0789473
50
63.4805074
51
67.3074739
0
LINE
8
DEFAULT_255_1_388
10
16.0663545
20
72.4368567
11
16.0663545
21
71.4592
0
LINE
8
DEFAULT_255_1_388
10
16.0663545
20
71.4592
11
15.8991951
21
71.4592
0
LINE
8
DEFAULT_255_1_388
10
15.8991951
20
71.4592
11
15.8991951
21
72.4368567
0
LINE
8
DEFAULT_255_1_388
10
15.8991951
20
72.4368567
11
16.0663545
21
72.4368567
0
ARC
8
DEFAULT_255_1_388
10
15.9957313
20
72.6972428
40
0.1100948
50
161.4148232
51
180.5532607
0
ARC
8
DEFAULT_255_1_388
10
15.9817623
20
72.7010875
40
0.0956324
50
138.1830164
51
160.9307633
0
ARC
8
DEFAULT_255_1_388
10
15.969381
20
72.7118313
40
0.0792417
50
104.6371663
51
138.0036136
0
ARC
8
DEFAULT_255_1_388
10
15.9814349
20
72.6705963
40
0.1221906
50
92.0601206
51
105.2198859
0
ARC
8
DEFAULT_255_1_388
10
15.9840713
20
72.6317583
40
0.161103
50
89.9790681
51
92.5006086
0
ARC
8
DEFAULT_255_1_388
10
15.9851889
20
72.6573998
40
0.1354654
50
78.0234649
51
90.4478111
0
ARC
8
DEFAULT_255_1_388
10
15.9955473
20
72.7039203
40
0.0878096
50
55.0521508
51
78.336297
0
ARC
8
DEFAULT_255_1_388
10
16.0012008
20
72.7134168
40
0.0767913
50
42.0506198
51
54.4508489
0
ARC
8
DEFAULT_255_1_388
10
15.986004
20
72.6994821
40
0.0974091
50
1.7493657
51
42.1498724
0
ARC
8
DEFAULT_255_1_388
10
15.9573946
20
72.6962166
40
0.1261276
50
359.9832635
51
2.8353994
0
ARC
8
DEFAULT_255_1_388
10
15.9760356
20
72.6951412
40
0.1074916
50
342.1062453
51
0.5535864
0
ARC
8
DEFAULT_255_1_388
10
15.992078
20
72.6907197
40
0.0908695
50
316.7110111
51
341.6513114
0
ARC
8
DEFAULT_255_1_388
10
15.9996212
20
72.6839607
40
0.0807447
50
285.4398289
51
316.5320129
0
ARC
8
DEFAULT_255_1_388
10
15.9872383
20
72.7251023
40
0.1237022
50
272.3543902
51
285.8951677
0
ARC
8
DEFAULT_255_1_388
10
15.9842093
20
72.7666742
40
0.1653687
50
269.9725761
51
272.8112722
0
ARC
8
DEFAULT_255_1_388
10
15.9831145
20
72.7415727
40
0.1402709
50
258.8433431
51
270.4148607
0
ARC
8
DEFAULT_255_1_388
10
15.9729925
20
72.6925739
40
0.0902407
50
238.54281
51
259.1289544
0
ARC
8
DEFAULT_255_1_388
10
15.9653246
20
72.6786694
40
0.0743817
50
222.5056676
51
237.9918132
0
ARC
8
DEFAULT_255_1_388
10
15.979684
20
72.6917295
40
0.0937918
50
184.1070774
51
222.4604165
0
ARC
8
DEFAULT_255_1_388
10
16.0099253
20
72.6960538
40
0.1242838
50
179.9419581
51
185.0970785
0
LINE
8
DEFAULT_255_1_388
10
16.291342
20
71.9209214
11
16.291342
21
71.9516426
0
LINE
8
DEFAULT_255_1_388
10
17.1208142
20
71.9697139
11
17.1208142
21
71.9001395
0
LINE
8
DEFAULT_255_1_388
10
17.1208142
20
71.9001395
11
16.4585015
21
71.9001395
0
LINE
8
DEFAULT_255_1_388
10
17.0060615
20
71.7094874
11
17.1081643
21
71.6299737
0
LINE
8
DEFAULT_255_1_388
10
16.4639229
20
72.0374813
11
16.9536548
21
72.0374813
0
LINE
8
DEFAULT_255_1_388
10
16.9536548
20
72.0374813
11
16.9536548
21
72.0501312
0
ARC
8
DEFAULT_255_1_388
10
16.7345181
20
71.933421
40
0.4923176
50
252.326534
51
270.5809615
0
ARC
8
DEFAULT_255_1_388
10
16.7114646
20
71.850094
40
0.4059384
50
223.3000488
51
251.8562489
0
ARC
8
DEFAULT_255_1_388
10
16.7352426
20
71.8731898
40
0.4390832
50
190.9374369
51
223.3654369
0
ARC
8
DEFAULT_255_1_388
10
16.9293104
20
71.9170598
40
0.63798
50
179.6531919
51
191.4988561
0
ARC
8
DEFAULT_255_1_388
10
16.9430131
20
71.9552571
40
0.6516811
50
167.4005523
51
180.3177836
0
ARC
8
DEFAULT_255_1_388
10
16.8246802
20
71.9802853
40
0.5307402
50
154.1835149
51
167.2508278
0
ARC
8
DEFAULT_255_1_388
10
16.7536393
20
72.0176925
40
0.4505076
50
134.3150225
51
154.5315008
0
ARC
8
DEFAULT_255_1_388
10
16.7291728
20
72.039155
40
0.4180662
50
122.8617482
51
133.9707159
0
ARC
8
DEFAULT_255_1_388
10
16.7175335
20
72.0641882
40
0.3907416
50
89.8248474
51
123.4199325
0
ARC
8
DEFAULT_255_1_388
10
16.7231633
20
71.9914352
40
0.4635141
50
74.7874349
51
90.5482648
0
ARC
8
DEFAULT_255_1_388
10
16.7562097
20
72.1134987
40
0.3370565
50
39.8178888
51
74.7634383
0
ARC
8
DEFAULT_255_1_388
10
16.6985339
20
72.0685356
40
0.4101553
50
16.8990848
51
39.4830125
0
ARC
8
DEFAULT_255_1_388
10
16.4853954
20
72.0002711
40
0.6339427
50
4.9634768
51
17.2027767
0
ARC
8
DEFAULT_255_1_388
10
16.2133359
20
71.97156
40
0.9074803
50
359.8834402
51
5.2832409
0
ARC
8
DEFAULT_255_1_388
10
16.8925716
20
71.9075981
40
0.4341343
50
180.9844233
51
194.9402766
0
ARC
8
DEFAULT_255_1_388
10
16.7744882
20
71.875317
40
0.3117211
50
194.8030557
51
222.0412897
0
ARC
8
DEFAULT_255_1_388
10
16.7402754
20
71.8413715
40
0.2635903
50
221.541578
51
268.8616004
0
ARC
8
DEFAULT_255_1_388
10
16.7484875
20
71.917428
40
0.3398611
50
267.7321071
51
270.009808
0
ARC
8
DEFAULT_255_1_388
10
16.7504938
20
71.9401178
40
0.3625561
50
269.6921218
51
280.4122297
0
ARC
8
DEFAULT_255_1_388
10
16.770335
20
71.8367767
40
0.2573323
50
280.2257165
51
298.633539
0
ARC
8
DEFAULT_255_1_388
10
16.7828764
20
71.8103578
40
0.2281403
50
299.0485543
51
300.4624141
0
ARC
8
DEFAULT_255_1_388
10
16.7069744
20
71.9368796
40
0.3756797
50
300.6578578
51
322.037749
0
ARC
8
DEFAULT_255_1_388
10
16.6699265
20
71.9692266
40
0.4247956
50
321.671786
51
322.3059078
0
ARC
8
DEFAULT_255_1_388
10
16.7722828
20
71.8398267
40
0.3960488
50
276.9729088
51
328.0035579
0
ARC
8
DEFAULT_255_1_388
10
16.7411299
20
72.0063609
40
0.5652345
50
269.8358003
51
278.0581296
0
ARC
8
DEFAULT_255_1_388
10
16.7155598
20
72.090182
40
0.2274263
50
89.2017936
51
117.2852353
0
ARC
8
DEFAULT_255_1_388
10
16.7215348
20
72.0854637
40
0.2343798
50
118.0546404
51
137.4544511
0
ARC
8
DEFAULT_255_1_388
10
16.7636992
20
72.0471556
40
0.2913471
50
137.5109688
51
158.8516701
0
ARC
8
DEFAULT_255_1_388
10
16.8917093
20
71.9954902
40
0.4293804
50
158.5845496
51
170.1719753
0
ARC
8
DEFAULT_255_1_388
10
17.0233428
20
71.9693519
40
0.5635533
50
169.8378964
51
173.0563877
0
ARC
8
DEFAULT_255_1_388
10
16.4948712
20
72.0268187
40
0.4593755
50
2.9089079
51
12.88469
0
ARC
8
DEFAULT_255_1_388
10
16.6490631
20
72.0631082
40
0.3009753
50
12.6957404
51
28.6405841
0
ARC
8
DEFAULT_255_1_388
10
16.7100128
20
72.0946577
40
0.232366
50
29.016559
51
41.1492981
0
ARC
8
DEFAULT_255_1_388
10
16.7328107
20
72.114508
40
0.2021373
50
41.1646967
51
85.001362
0
ARC
8
DEFAULT_255_1_388
10
16.7192111
20
72.0318775
40
0.2857091
50
83.728216
51
90.0968824
0
LINE
8
DEFAULT_255_1_388
10
18.0415464
20
72.1495232
11
17.8734834
21
72.1495232
0
LINE
8
DEFAULT_255_1_388
10
17.2735166
20
71.760087
11
17.440676
21
71.760087
0
ARC
8
DEFAULT_255_1_388
10
17.7398125
20
71.7201935
40
0.1436198
50
359.3335374
51
18.5869869
0
ARC
8
DEFAULT_255_1_388
10
17.7632864
20
71.7264015
40
0.1194022
50
19.3538149
51
54.6486387
0
ARC
8
DEFAULT_255_1_388
10
17.7065852
20
71.6482077
40
0.2159877
50
54.3821575
51
65.0627557
0
ARC
8
DEFAULT_255_1_388
10
17.6201199
20
71.4663032
40
0.4173927
50
64.8282172
51
71.4204388
0
ARC
8
DEFAULT_255_1_388
10
17.5186094
20
71.1684782
40
0.7320403
50
71.3166092
51
75.8005927
0
ARC
8
DEFAULT_255_1_388
10
17.423998
20
70.8039881
40
1.108605
50
75.6810806
51
78.0063886
0
ARC
8
DEFAULT_255_1_388
10
17.9244569
20
73.164153
40
1.3040363
50
254.69024
51
258.0465557
0
ARC
8
DEFAULT_255_1_388
10
17.8076438
20
72.7411742
40
0.8652254
50
249.9010634
51
254.7555005
0
ARC
8
DEFAULT_255_1_388
10
17.694749
20
72.434568
40
0.5384962
50
243.3097375
51
249.970939
0
ARC
8
DEFAULT_255_1_388
10
17.6239904
20
72.2934721
40
0.380652
50
234.4047808
51
243.2861752
0
ARC
8
DEFAULT_255_1_388
10
17.553954
20
72.1967645
40
0.2612502
50
220.8665526
51
234.5497192
0
ARC
8
DEFAULT_255_1_388
10
17.5154538
20
72.1617203
40
0.2092097
50
214.3063391
51
220.5075055
0
ARC
8
DEFAULT_255_1_388
10
17.5125652
20
72.1582577
40
0.2048755
50
186.9131438
51
213.9617385
0
ARC
8
DEFAULT_255_1_388
10
17.5724042
20
72.1679431
40
0.2654563
50
179.8802037
51
187.4338578
0
ARC
8
DEFAULT_255_1_388
10
17.5550007
20
72.1702049
40
0.2480581
50
132.0053393
51
180.3942351
0
ARC
8
DEFAULT_255_1_388
10
17.628892
20
72.1019997
40
0.3483116
50
129.2317021
51
133.5294826
0
ARC
8
DEFAULT_255_1_388
10
17.6348889
20
72.0914383
40
0.360291
50
100.440976
51
128.9081567
0
ARC
8
DEFAULT_255_1_388
10
17.6657006
20
71.9468357
40
0.5080996
50
89.6985063
51
100.9029043
0
ARC
8
DEFAULT_255_1_388
10
17.6721161
20
71.9287739
40
0.5261675
50
77.6967144
51
90.4074623
0
ARC
8
DEFAULT_255_1_388
10
17.7093513
20
72.0893503
40
0.3613511
50
50.7278431
51
78.0397473
0
ARC
8
DEFAULT_255_1_388
10
17.7593556
20
72.1476173
40
0.2845966
50
25.754382
51
51.0957456
0
ARC
8
DEFAULT_255_1_388
10
17.7594923
20
72.1532311
40
0.2820785
50
359.2468358
51
24.7393861
0
ARC
8
DEFAULT_255_1_388
10
17.7274811
20
72.1500204
40
0.1460032
50
359.8048924
51
45.1543866
0
ARC
8
DEFAULT_255_1_388
10
17.6816544
20
72.1108291
40
0.2061641
50
43.8053172
51
49.625485
0
ARC
8
DEFAULT_255_1_388
10
17.6825987
20
72.1109849
40
0.2054344
50
49.7979696
51
82.121802
0
ARC
8
DEFAULT_255_1_388
10
17.669207
20
72.0382473
40
0.2793404
50
81.4458692
51
90.1707936
0
ARC
8
DEFAULT_255_1_388
10
17.6664646
20
71.9790478
40
0.3385438
50
89.6768097
51
99.1267111
0
ARC
8
DEFAULT_255_1_388
10
17.6471628
20
72.0953405
40
0.2206627
50
98.9679878
51
113.4573418
0
ARC
8
DEFAULT_255_1_388
10
17.6251309
20
72.1480193
40
0.1635691
50
113.7230234
51
127.4758155
0
ARC
8
DEFAULT_255_1_388
10
17.6061891
20
72.1705433
40
0.1341757
50
126.9086647
51
150.3160891
0
ARC
8
DEFAULT_255_1_388
10
17.6008222
20
72.176268
40
0.1266992
50
151.363328
51
180.0701537
0
ARC
8
DEFAULT_255_1_388
10
17.6318443
20
72.173923
40
0.1577364
50
179.2045432
51
180.0012892
0
ARC
8
DEFAULT_255_1_388
10
17.5949554
20
72.1724515
40
0.1208564
50
179.3040542
51
198.4225767
0
ARC
8
DEFAULT_255_1_388
10
17.5733696
20
72.1668337
40
0.0986126
50
199.2893055
51
238.6036855
0
ARC
8
DEFAULT_255_1_388
10
17.6411789
20
72.2732752
40
0.2248082
50
237.9844191
51
246.8751643
0
ARC
8
DEFAULT_255_1_388
10
17.7376649
20
72.4939861
40
0.4656832
50
246.6226408
51
251.8174794
0
ARC
8
DEFAULT_255_1_388
10
17.8537116
20
72.8424909
40
0.8329993
50
251.7140983
51
255.0775146
0
ARC
8
DEFAULT_255_1_388
10
17.988664
20
73.3451708
40
1.3534786
50
255.0370864
51
257.4701577
0
ARC
8
DEFAULT_255_1_388
10
17.4139185
20
70.7557535
40
1.298957
50
73.6835762
51
77.5015749
0
ARC
8
DEFAULT_255_1_388
10
17.5364099
20
71.1719699
40
0.8650912
50
68.7042835
51
73.7249997
0
ARC
8
DEFAULT_255_1_388
10
17.6379663
20
71.4336853
40
0.584363
50
63.5907059
51
68.6622978
0
ARC
8
DEFAULT_255_1_388
10
17.7247405
20
71.6067157
40
0.3907955
50
54.7106507
51
63.7018033
0
ARC
8
DEFAULT_255_1_388
10
17.7949792
20
71.7048287
40
0.2701345
50
41.0624597
51
54.8488532
0
ARC
8
DEFAULT_255_1_388
10
17.8333571
20
71.7400439
40
0.2180695
50
34.4952722
51
40.7097584
0
ARC
8
DEFAULT_255_1_388
10
17.8386536
20
71.7455204
40
0.2106083
50
9.3761233
51
34.0834046
0
ARC
8
DEFAULT_255_1_388
10
17.7651664
20
71.7314174
40
0.2854177
50
359.7695264
51
9.7660556
0
ARC
8
DEFAULT_255_1_388
10
17.7873958
20
71.7265841
40
0.2632121
50
335.8653103
51
0.8022272
0
ARC
8
DEFAULT_255_1_388
10
17.7958363
20
71.7280951
40
0.2561728
50
307.7357819
51
334.7849324
0
ARC
8
DEFAULT_255_1_388
10
17.7513004
20
71.7780553
40
0.3229737
50
307.0217048
51
308.5596894
0
ARC
8
DEFAULT_255_1_388
10
17.7217588
20
71.8222063
40
0.3760237
50
282.9361285
51
306.5649033
0
ARC
8
DEFAULT_255_1_388
10
17.681065
20
71.9872871
40
0.5460314
50
271.1026197
51
283.2199962
0
ARC
8
DEFAULT_255_1_388
10
17.6738839
20
72.1273744
40
0.6862456
50
269.9926344
51
271.4770056
0
ARC
8
DEFAULT_255_1_388
10
17.6709409
20
72.0056633
40
0.5645418
50
259.0723633
51
270.2897324
0
ARC
8
DEFAULT_255_1_388
10
17.6470633
20
71.8799887
40
0.4366198
50
245.4965026
51
259.0225745
0
ARC
8
DEFAULT_255_1_388
10
17.615785
20
71.8145491
40
0.3641037
50
228.9686619
51
245.7042678
0
ARC
8
DEFAULT_255_1_388
10
17.5859125
20
71.7777573
40
0.3167435
50
214.4015391
51
228.6759028
0
ARC
8
DEFAULT_255_1_388
10
17.5533622
20
71.7599429
40
0.2798456
50
179.9704983
51
215.1574389
0
ARC
8
DEFAULT_255_1_388
10
17.6321834
20
71.7682148
40
0.1916798
50
182.430239
51
203.0329751
0
ARC
8
DEFAULT_255_1_388
10
17.611443
20
71.7618675
40
0.1701248
50
203.7987464
51
232.5483345
0
ARC
8
DEFAULT_255_1_388
10
17.6425515
20
71.8014049
40
0.2204299
50
232.3784541
51
256.3934343
0
ARC
8
DEFAULT_255_1_388
10
17.6684662
20
71.9015359
40
0.3238512
50
256.1048329
51
268.4627478
0
ARC
8
DEFAULT_255_1_388
10
17.6737081
20
71.9919297
40
0.4143627
50
268.0734924
51
270.0121004
0
ARC
8
DEFAULT_255_1_388
10
17.67578
20
71.9605191
40
0.3829573
50
269.7031202
51
278.8338867
0
ARC
8
DEFAULT_255_1_388
10
17.6962664
20
71.8333553
40
0.2541568
50
278.6727378
51
292.82331
0
ARC
8
DEFAULT_255_1_388
10
17.718821
20
71.7769546
40
0.1934264
50
293.1457581
51
303.6656964
0
ARC
8
DEFAULT_255_1_388
10
17.7486284
20
71.7346159
40
0.1416713
50
303.1245849
51
321.7434683
0
ARC
8
DEFAULT_255_1_388
10
17.7695365
20
71.716278
40
0.1139081
50
322.4747616
51
1.1293039
0
LINE
8
DEFAULT_255_2_778
10
9.3932834
20
36.9093333
11
12.0390834
21
36.9093333
0
LINE
8
DEFAULT_255_2_778
10
12.0390834
20
36.9093333
11
12.0390834
21
31.6176333
0
LINE
8
DEFAULT_255_2_778
10
12.0390834
20
31.6176333
11
9.3932834
21
31.6176333
0
LINE
8
DEFAULT_255_2_778
10
9.3932834
20
31.6176333
11
9.3932834
21
36.9093333
0
LINE
8
DEFAULT_255_2_778
10
10.187
20
36.1155833
11
10.187
21
32.4113833
0
ARC
8
DEFAULT_255_2_778
10
11.1121335
20
35.7196666
40
0.3960095
50
89.8710075
51
180.1289967
0
ARC
8
DEFAULT_255_2_778
10
11.113838
20
35.7196878
40
0.395988
50
359.8679252
51
90.1176342
0
ARC
8
DEFAULT_255_2_778
10
11.1138595
20
35.7179405
40
0.3959664
50
269.8792548
51
0.1207452
0
ARC
8
DEFAULT_255_2_778
10
11.1121123
20
35.7179621
40
0.3959881
50
179.8823802
51
270.1320647
0
LINE
8
DEFAULT_255_2_778
10
10.716125
20
35.718775
11
10.716125
21
35.718775
0
ARC
8
DEFAULT_255_2_778
10
11.1121335
20
32.8091666
40
0.3960095
50
89.8710075
51
180.1289967
0
ARC
8
DEFAULT_255_2_778
10
11.113838
20
32.8091878
40
0.395988
50
359.8679252
51
90.1176342
0
ARC
8
DEFAULT_255_2_778
10
11.1138595
20
32.8074405
40
0.3959664
50
269.8792548
51
0.1207452
0
ARC
8
DEFAULT_255_2_778
10
11.1121123
20
32.8074621
40
0.3959881
50
179.8823802
51
270.1320647
0
LINE
8
DEFAULT_255_2_778
10
10.716125
20
32.808275
11
10.716125
21
32.808275
0
LINE
8
DEFAULT_255_2_778
10
9.3932417
20
62.0447492
11
10.7161417
21
62.0447492
0
LINE
8
DEFAULT_255_2_778
10
10.7161417
20
62.0447492
11
10.7161417
21
36.9093492
0
LINE
8
DEFAULT_255_2_778
10
10.7161417
20
31.6176492
11
10.7161417
21
6.4822492
0
LINE
8
DEFAULT_255_2_778
10
10.7161417
20
6.4822492
11
9.3932417
21
6.4822492
0
LINE
8
DEFAULT_255_2_778
10
17.3307834
20
44.8468333
11
19.9765834
21
44.8468333
0
LINE
8
DEFAULT_255_2_778
10
19.9765834
20
44.8468333
11
19.9765834
21
39.5551333
0
LINE
8
DEFAULT_255_2_778
10
19.9765834
20
39.5551333
11
17.3307834
21
39.5551333
0
LINE
8
DEFAULT_255_2_778
10
17.3307834
20
39.5551333
11
17.3307834
21
44.8468333
0
LINE
8
DEFAULT_255_2_778
10
18.1245
20
44.0530833
11
18.1245
21
40.3488833
0
ARC
8
DEFAULT_255_2_778
10
19.0496335
20
43.6571666
40
0.3960095
50
89.8710075
51
180.1289967
0
ARC
8
DEFAULT_255_2_778
10
19.051338
20
43.6571878
40
0.395988
50
359.8679252
51
90.1176342
0
ARC
8
DEFAULT_255_2_778
10
19.0513595
20
43.6554405
40
0.3959664
50
269.8792548
51
0.1207452
0
ARC
8
DEFAULT_255_2_778
10
19.0496123
20
43.6554621
40
0.3959881
50
179.8823802
51
270.1320647
0
LINE
8
DEFAULT_255_2_778
10
18.653625
20
43.656275
11
18.653625
21
43.656275
0
ARC
8
DEFAULT_255_2_778
10
19.0496335
20
40.7466666
40
0.3960095
50
89.8710075
51
180.1289967
0
ARC
8
DEFAULT_255_2_778
10
19.051338
20
40.7466878
40
0.395988
50
359.8679252
51
90.1176342
0
ARC
8
DEFAULT_255_2_778
10
19.0513595
20
40.7449405
40
0.3959664
50
269.8792548
51
0.1207452
0
ARC
8
DEFAULT_255_2_778
10
19.0496123
20
40.7449621
40
0.3959881
50
179.8823802
51
270.1320647
0
LINE
8
DEFAULT_255_2_778
10
18.653625
20
40.745775
11
18.653625
21
40.745775
0
LINE
8
DEFAULT_255_2_778
10
19.9765417
20
62.0447494
11
18.6536417
21
62.0447494
0
LINE
8
DEFAULT_255_2_778
10
18.6536417
20
62.0447494
11
18.6536417
21
44.8468494
0
LINE
8
DEFAULT_255_2_778
10
18.6536417
20
39.5551494
11
18.6536417
21
22.3572494
0
LINE
8
DEFAULT_255_2_778
10
18.6536417
20
22.3572494
11
19.9765417
21
22.3572494
0
LINE
8
DEFAULT_255_1_388
10
4.8809318
20
68.2883382
11
4.8809318
21
68.1519
0
LINE
8
DEFAULT_255_1_388
10
4.8809318
20
68.1519
11
4.0189313
21
68.1519
0
LINE
8
DEFAULT_255_1_388
10
4.0189313
20
68.1519
11
4.0189313
21
68.2720741
0
LINE
8
DEFAULT_255_1_388
10
4.0189313
20
68.2720741
11
4.4743278
21
68.7780702
0
LINE
8
DEFAULT_255_1_388
10
4.1607909
20
69.0798607
11
3.9936315
21
69.0798607
0
LINE
8
DEFAULT_255_1_388
10
4.5728163
20
68.670546
11
4.2204262
21
68.2883382
0
LINE
8
DEFAULT_255_1_388
10
4.2204262
20
68.2883382
11
4.8809318
21
68.2883382
0
ARC
8
DEFAULT_255_1_388
10
2.9567337
20
70.1200983
40
2.0258655
50
318.5132526
51
320.7829045
0
ARC
8
DEFAULT_255_1_388
10
3.5515294
20
69.6359929
40
1.2589638
50
320.7372878
51
323.9739031
0
ARC
8
DEFAULT_255_1_388
10
3.9924226
20
69.3165554
40
0.7145141
50
323.8962701
51
328.64194
0
ARC
8
DEFAULT_255_1_388
10
4.2226484
20
69.1745545
40
0.4440242
50
328.8294576
51
331.7891185
0
ARC
8
DEFAULT_255_1_388
10
4.3348804
20
69.1166374
40
0.3177517
50
331.4254512
51
352.9365785
0
ARC
8
DEFAULT_255_1_388
10
4.3501804
20
69.113205
40
0.3021496
50
353.2257659
51
0.0166158
0
ARC
8
DEFAULT_255_1_388
10
4.3738564
20
69.1157894
40
0.2784847
50
359.486299
51
15.9343185
0
ARC
8
DEFAULT_255_1_388
10
4.4308831
20
69.1311269
40
0.2194403
50
16.1712913
51
43.5286088
0
ARC
8
DEFAULT_255_1_388
10
4.4395776
20
69.1398191
40
0.2071504
50
43.4417391
51
83.1661095
0
ARC
8
DEFAULT_255_1_388
10
4.4244937
20
69.0569316
40
0.2912888
50
82.160179
51
90.1505708
0
ARC
8
DEFAULT_255_1_388
10
4.4209418
20
68.9965279
40
0.3517025
50
89.5460741
51
102.5418361
0
ARC
8
DEFAULT_255_1_388
10
4.3936138
20
69.1124933
40
0.2325748
50
102.1738499
51
129.206123
0
ARC
8
DEFAULT_255_1_388
10
4.3847592
20
69.1264664
40
0.2161591
50
129.72865
51
135.753947
0
ARC
8
DEFAULT_255_1_388
10
4.3984074
20
69.1155728
40
0.2335433
50
136.1757367
51
166.3673339
0
ARC
8
DEFAULT_255_1_388
10
4.5116762
20
69.0852148
40
0.3507873
50
165.9090694
51
178.8684636
0
ARC
8
DEFAULT_255_1_388
10
4.6092534
20
69.0799263
40
0.4484624
50
178.4391136
51
180.0083808
0
ARC
8
DEFAULT_255_1_388
10
4.4513235
20
69.0843197
40
0.4577138
50
163.2878482
51
180.5581842
0
ARC
8
DEFAULT_255_1_388
10
4.3611276
20
69.1091393
40
0.3641968
50
133.4540601
51
162.947111
0
ARC
8
DEFAULT_255_1_388
10
4.3812158
20
69.0877789
40
0.3935189
50
100.7869829
51
133.4382499
0
ARC
8
DEFAULT_255_1_388
10
4.4203403
20
68.9135399
40
0.5720313
50
89.660664
51
101.3702276
0
ARC
8
DEFAULT_255_1_388
10
4.4278012
20
68.9204263
40
0.5651495
50
78.2172678
51
90.412935
0
ARC
8
DEFAULT_255_1_388
10
4.4677478
20
69.1031511
40
0.378122
50
55.9269121
51
78.4888449
0
ARC
8
DEFAULT_255_1_388
10
4.4898193
20
69.1412187
40
0.3342379
50
47.929771
51
55.4049217
0
ARC
8
DEFAULT_255_1_388
10
4.5012723
20
69.1528618
40
0.3179217
50
4.334829
51
48.0560205
0
ARC
8
DEFAULT_255_1_388
10
4.3780525
20
69.1337487
40
0.442341
50
359.9251713
51
5.5971671
0
ARC
8
DEFAULT_255_1_388
10
4.426268
20
69.1400728
40
0.3941854
50
337.8914027
51
358.9967534
0
ARC
8
DEFAULT_255_1_388
10
4.121025
20
69.2578295
40
0.7213271
50
326.9132501
51
338.3508308
0
ARC
8
DEFAULT_255_1_388
10
3.6726362
20
69.5452105
40
1.2538973
50
319.6471833
51
327.0959558
0
ARC
8
DEFAULT_255_1_388
10
3.241302
20
69.901005
40
1.8129975
50
317.2588228
51
319.9045804
0
LINE
8
DEFAULT_255_1_388
10
5.7637143
20
69.4674898
11
5.7637143
21
68.593743
0
LINE
8
DEFAULT_255_1_388
10
5.7637143
20
68.593743
11
5.9462343
21
68.593743
0
LINE
8
DEFAULT_255_1_388
10
5.9462343
20
68.593743
11
5.9462343
21
68.4573048
0
LINE
8
DEFAULT_255_1_388
10
5.9462343
20
68.4573048
11
5.7637143
21
68.4573048
0
LINE
8
DEFAULT_255_1_388
10
5.7637143
20
68.4573048
11
5.7637143
21
68.1519
0
LINE
8
DEFAULT_255_1_388
10
5.7637143
20
68.1519
11
5.5956513
21
68.1519
0
LINE
8
DEFAULT_255_1_388
10
5.5956513
20
68.1519
11
5.5956513
21
68.4573048
0
LINE
8
DEFAULT_255_1_388
10
5.5956513
20
68.4573048
11
4.996588
21
68.4573048
0
LINE
8
DEFAULT_255_1_388
10
4.996588
20
68.4573048
11
4.996588
21
68.5557933
0
LINE
8
DEFAULT_255_1_388
10
4.996588
20
68.5557933
11
5.5857121
21
69.4674898
0
LINE
8
DEFAULT_255_1_388
10
5.5857121
20
69.4674898
11
5.7637143
21
69.4674898
0
LINE
8
DEFAULT_255_1_388
10
5.5757729
20
69.2027455
11
5.1863366
21
68.593743
0
LINE
8
DEFAULT_255_1_388
10
5.1863366
20
68.593743
11
5.5956513
21
68.593743
0
LINE
8
DEFAULT_255_1_388
10
5.5956513
20
68.593743
11
5.5956513
21
69.238888
0
LINE
8
DEFAULT_255_1_388
10
5.5956513
20
69.238888
11
5.5757729
21
69.2027455
0
LINE
8
DEFAULT_255_1_388
10
6.201943
20
69.4674898
11
6.5760187
21
68.3823089
0
LINE
8
DEFAULT_255_1_388
10
6.5760187
20
68.3823089
11
6.9519015
21
69.4674898
0
LINE
8
DEFAULT_255_1_388
10
6.9519015
20
69.4674898
11
7.14165
21
69.4674898
0
LINE
8
DEFAULT_255_1_388
10
7.14165
20
69.4674898
11
6.6537252
21
68.1519
0
LINE
8
DEFAULT_255_1_388
10
6.6537252
20
68.1519
11
6.5001193
21
68.1519
0
LINE
8
DEFAULT_255_1_388
10
6.5001193
20
68.1519
11
6.013098
21
69.4674898
0
LINE
8
DEFAULT_255_1_388
10
6.013098
20
69.4674898
11
6.201943
21
69.4674898
0
LINE
8
DEFAULT_255_1_388
10
4.8035819
20
5.9674898
11
4.8035819
21
5.8735191
0
LINE
8
DEFAULT_255_1_388
10
4.8035819
20
5.8735191
11
4.2587325
21
4.6519
0
LINE
8
DEFAULT_255_1_388
10
4.2587325
20
4.6519
11
4.083441
21
4.6519
0
LINE
8
DEFAULT_255_1_388
10
4.083441
20
4.6519
11
4.6264833
21
5.830148
0
LINE
8
DEFAULT_255_1_388
10
4.6264833
20
5.830148
11
3.9144745
21
5.830148
0
LINE
8
DEFAULT_255_1_388
10
3.9144745
20
5.830148
11
3.9144745
21
5.9674898
0
LINE
8
DEFAULT_255_1_388
10
3.9144745
20
5.9674898
11
4.8035819
21
5.9674898
0
LINE
8
DEFAULT_255_1_388
10
4.5804015
20
13.9058934
11
4.6102191
21
13.9058934
0
LINE
8
DEFAULT_255_1_388
10
4.6102191
20
13.9058934
11
4.6102191
21
13.7640338
0
LINE
8
DEFAULT_255_1_388
10
4.6102191
20
13.7640338
11
4.5794979
21
13.7640338
0
LINE
8
DEFAULT_255_1_388
10
3.9641705
20
13.0899747
11
3.9641705
21
13.1541278
0
LINE
8
DEFAULT_255_1_388
10
4.1322335
20
13.1324422
11
4.1322335
21
13.0709999
0
ARC
8
DEFAULT_255_1_388
10
4.5853871
20
13.2017826
40
0.562282
50
90.6001079
51
104.5146616
0
ARC
8
DEFAULT_255_1_388
10
4.541683
20
13.36431
40
0.3939917
50
104.2855758
51
133.8630124
0
ARC
8
DEFAULT_255_1_388
10
4.5601083
20
13.3521243
40
0.4155734
50
134.5304124
51
161.6210222
0
ARC
8
DEFAULT_255_1_388
10
4.7461015
20
13.2865421
40
0.6127682
50
161.2850533
51
174.2074364
0
ARC
8
DEFAULT_255_1_388
10
4.9050582
20
13.2646437
40
0.7731446
50
173.7817938
51
174.9251711
0
ARC
8
DEFAULT_255_1_388
10
4.3924775
20
13.109127
40
0.3412588
50
95.8332067
51
138.995412
0
ARC
8
DEFAULT_255_1_388
10
4.4176056
20
12.9652695
40
0.4870358
50
89.8755506
51
97.0540979
0
ARC
8
DEFAULT_255_1_388
10
4.4229445
20
13.0592841
40
0.3930432
50
71.6407016
51
90.6240821
0
ARC
8
DEFAULT_255_1_388
10
4.4398838
20
13.1216433
40
0.3285421
50
39.6368051
51
71.0190743
0
ARC
8
DEFAULT_255_1_388
10
4.3682746
20
13.0597586
40
0.4231706
50
10.6588054
51
39.9044509
0
ARC
8
DEFAULT_255_1_388
10
4.1941291
20
13.0219223
40
0.60133
50
359.6827842
51
11.1326896
0
ARC
8
DEFAULT_255_1_388
10
4.1896627
20
13.0139715
40
0.6058047
50
347.2485908
51
0.4371098
0
ARC
8
DEFAULT_255_1_388
10
4.3772413
20
12.9688379
40
0.4128987
50
318.1408565
51
347.6118497
0
ARC
8
DEFAULT_255_1_388
10
4.4138009
20
12.9387903
40
0.3656244
50
275.6342406
51
317.824739
0
ARC
8
DEFAULT_255_1_388
10
4.388953
20
13.0849827
40
0.513655
50
269.8872513
51
276.7916069
0
ARC
8
DEFAULT_255_1_388
10
4.3827723
20
12.9696181
40
0.398323
50
246.9139443
51
270.7436787
0
ARC
8
DEFAULT_255_1_388
10
4.3834919
20
12.9536044
40
0.3839368
50
218.1665534
51
245.8780431
0
ARC
8
DEFAULT_255_1_388
10
4.4824291
20
13.0363903
40
0.5128958
50
191.4115343
51
218.6077624
0
ARC
8
DEFAULT_255_1_388
10
4.7004607
20
13.0852777
40
0.7363054
50
179.6344971
51
191.7836758
0
ARC
8
DEFAULT_255_1_388
10
5.3284482
20
13.1616495
40
1.3642984
50
171.4523743
51
180.3158856
0
ARC
8
DEFAULT_255_1_388
10
4.8340209
20
13.2385895
40
0.8639311
50
157.9802296
51
171.6246761
0
ARC
8
DEFAULT_255_1_388
10
4.5849559
20
13.3379038
40
0.5958004
50
141.4299236
51
157.8541251
0
ARC
8
DEFAULT_255_1_388
10
4.5127643
20
13.3889746
40
0.5075416
50
102.871586
51
140.8564533
0
ARC
8
DEFAULT_255_1_388
10
4.5856195
20
13.1144943
40
0.7914163
50
90.377773
51
103.5868422
0
ARC
8
DEFAULT_255_1_388
10
4.3900717
20
13.0464543
40
0.2667015
50
89.8751238
51
126.2072139
0
ARC
8
DEFAULT_255_1_388
10
4.3952188
20
13.0290847
40
0.2838229
50
124.9742447
51
144.8960197
0
ARC
8
DEFAULT_255_1_388
10
4.3754433
20
13.0451981
40
0.2583845
50
145.2974778
51
160.2660922
0
ARC
8
DEFAULT_255_1_388
10
4.7210921
20
13.0674151
40
0.5888695
50
179.6512124
51
190.285571
0
ARC
8
DEFAULT_255_1_388
10
4.5305401
20
13.0314968
40
0.3949683
50
190.0944895
51
207.5099647
0
ARC
8
DEFAULT_255_1_388
10
4.4668982
20
13.0012177
40
0.3245464
50
207.9585471
51
216.325377
0
ARC
8
DEFAULT_255_1_388
10
4.4286619
20
12.9697712
40
0.2751259
50
215.7661336
51
232.5457193
0
ARC
8
DEFAULT_255_1_388
10
4.3855735
20
12.9150273
40
0.2054668
50
232.8005815
51
270.6605497
0
ARC
8
DEFAULT_255_1_388
10
4.390716
20
12.9559853
40
0.2464268
50
269.3550767
51
288.474612
0
ARC
8
DEFAULT_255_1_388
10
4.4011667
20
12.9166721
40
0.2058436
50
289.1831976
51
322.9685307
0
ARC
8
DEFAULT_255_1_388
10
4.3323768
20
12.9709279
40
0.2934408
50
322.6007085
51
346.5183319
0
ARC
8
DEFAULT_255_1_388
10
4.2021524
20
13.0041434
40
0.4278249
50
346.2584622
51
358.7739592
0
ARC
8
DEFAULT_255_1_388
10
4.08701
20
13.0103829
40
0.5430876
50
358.3757628
51
0.0082477
0
ARC
8
DEFAULT_255_1_388
10
4.1726918
20
13.0134856
40
0.4574157
50
359.6211417
51
11.28403
0
ARC
8
DEFAULT_255_1_388
10
4.3163524
20
13.0434535
40
0.3106708
50
11.0483152
51
31.8145585
0
ARC
8
DEFAULT_255_1_388
10
4.3511229
20
13.0623045
40
0.2711963
50
32.3028554
51
38.0820598
0
ARC
8
DEFAULT_255_1_388
10
4.3984462
20
13.1051717
40
0.2075566
50
36.8249851
51
85.741667
0
ARC
8
DEFAULT_255_1_388
10
4.3908875
20
13.0488065
40
0.2643487
50
85.0150021
51
90.050843
0
LINE
8
DEFAULT_255_1_388
10
4.1647618
20
21.1521666
11
4.0310343
21
21.1865021
0
LINE
8
DEFAULT_255_1_388
10
4.0310343
20
21.1865021
11
4.097898
21
21.8424898
0
LINE
8
DEFAULT_255_1_388
10
4.097898
20
21.8424898
11
4.7719571
21
21.8424898
0
LINE
8
DEFAULT_255_1_388
10
4.7719571
20
21.8424898
11
4.7719571
21
21.6879803
0
LINE
8
DEFAULT_255_1_388
10
4.7719571
20
21.6879803
11
4.2397577
21
21.6879803
0
LINE
8
DEFAULT_255_1_388
10
4.2397577
20
21.6879803
11
4.2000008
21
21.3292652
0
LINE
8
DEFAULT_255_1_388
10
3.9840489
20
20.8729652
11
4.1421727
21
20.8729652
0
LINE
8
DEFAULT_255_1_388
10
4.2090365
20
21.1883092
11
4.1647618
21
21.1521666
0
ARC
8
DEFAULT_255_1_388
10
4.4086622
20
20.9715241
40
0.4141476
50
93.7181681
51
120.253934
0
ARC
8
DEFAULT_255_1_388
10
4.4192674
20
20.8806284
40
0.5055616
50
89.9660471
51
94.2495185
0
ARC
8
DEFAULT_255_1_388
10
4.4238496
20
20.9469154
40
0.4392953
50
73.8045384
51
90.5585736
0
ARC
8
DEFAULT_255_1_388
10
4.4502754
20
21.043452
40
0.3392225
50
41.3071072
51
73.543002
0
ARC
8
DEFAULT_255_1_388
10
4.4034574
20
21.0031461
40
0.4009977
50
13.5075837
51
41.2174839
0
ARC
8
DEFAULT_255_1_388
10
4.2187671
20
20.9547907
40
0.5918864
50
1.1330171
51
13.8830737
0
ARC
8
DEFAULT_255_1_388
10
4.0591317
20
20.9462522
40
0.7516787
50
359.9925091
51
1.5431298
0
ARC
8
DEFAULT_255_1_388
10
4.2035932
20
20.9416027
40
0.6072343
50
347.8572712
51
0.4294349
0
ARC
8
DEFAULT_255_1_388
10
4.4005066
20
20.8969898
40
0.4053482
50
323.6727442
51
348.1674594
0
ARC
8
DEFAULT_255_1_388
10
4.4336031
20
20.8768175
40
0.3667495
50
316.8171818
51
323.1486802
0
ARC
8
DEFAULT_255_1_388
10
4.4405155
20
20.8726612
40
0.358869
50
281.839603
51
316.5458142
0
ARC
8
DEFAULT_255_1_388
10
4.3982442
20
21.0476363
40
0.5388223
50
269.5770964
51
282.4214641
0
ARC
8
DEFAULT_255_1_388
10
4.3902363
20
21.023593
40
0.5147801
50
256.2425863
51
270.4486481
0
ARC
8
DEFAULT_255_1_388
10
4.3565891
20
20.8886124
40
0.3756708
50
228.9024379
51
256.33135
0
ARC
8
DEFAULT_255_1_388
10
4.3482871
20
20.8755054
40
0.360344
50
193.7536029
51
228.5272638
0
ARC
8
DEFAULT_255_1_388
10
4.4875436
20
20.9163463
40
0.5053599
50
184.9244437
51
194.4976052
0
ARC
8
DEFAULT_255_1_388
10
4.5092077
20
20.9203722
40
0.3700839
50
187.3596909
51
198.6733728
0
ARC
8
DEFAULT_255_1_388
10
4.3911321
20
20.8794373
40
0.2451195
50
198.4453795
51
217.7945479
0
ARC
8
DEFAULT_255_1_388
10
4.3578493
20
20.8558563
40
0.2043754
50
218.2887146
51
228.5613203
0
ARC
8
DEFAULT_255_1_388
10
4.36885
20
20.8706902
40
0.2227819
50
228.9652423
51
258.1237049
0
ARC
8
DEFAULT_255_1_388
10
4.3919937
20
20.9697964
40
0.3245374
50
257.7260585
51
270.4013717
0
ARC
8
DEFAULT_255_1_388
10
4.3970435
20
20.9197255
40
0.2744726
50
269.4204315
51
286.420998
0
ARC
8
DEFAULT_255_1_388
10
4.4137491
20
20.8590705
40
0.2115721
50
286.7250065
51
320.6004665
0
ARC
8
DEFAULT_255_1_388
10
4.3706407
20
20.8940527
40
0.2670878
50
320.6712228
51
344.5440474
0
ARC
8
DEFAULT_255_1_388
10
4.240512
20
20.9322394
40
0.4026927
50
344.241448
51
356.735803
0
ARC
8
DEFAULT_255_1_388
10
4.1001428
20
20.9438656
40
0.5435085
50
356.3547471
51
0.0507222
0
ARC
8
DEFAULT_255_1_388
10
4.2503693
20
20.9473812
40
0.3932934
50
359.5579289
51
12.9534322
0
ARC
8
DEFAULT_255_1_388
10
4.3690533
20
20.9761586
40
0.2711827
50
12.6489751
51
41.608121
0
ARC
8
DEFAULT_255_1_388
10
4.3949693
20
20.9981946
40
0.2371737
50
41.7851122
51
85.9892156
0
ARC
8
DEFAULT_255_1_388
10
4.3811003
20
20.9066738
40
0.3295244
50
84.6965848
51
90.0672125
0
ARC
8
DEFAULT_255_1_388
10
4.378457
20
20.8315118
40
0.4046926
50
89.6804991
51
99.161352
0
ARC
8
DEFAULT_255_1_388
10
4.3553579
20
20.9695848
40
0.2647044
50
98.9836248
51
113.8905702
0
ARC
8
DEFAULT_255_1_388
10
4.3295254
20
21.0305118
40
0.1985386
50
114.195234
51
127.3641866
0
LINE
8
DEFAULT_255_1_388
10
4.9245151
20
29.7799898
11
4.9245151
21
28.906243
0
LINE
8
DEFAULT_255_1_388
10
4.9245151
20
28.906243
11
5.1070352
21
28.906243
0
LINE
8
DEFAULT_255_1_388
10
5.1070352
20
28.906243
11
5.1070352
21
28.7698048
0
LINE
8
DEFAULT_255_1_388
10
5.1070352
20
28.7698048
11
4.9245151
21
28.7698048
0
LINE
8
DEFAULT_255_1_388
10
4.9245151
20
28.7698048
11
4.9245151
21
28.4644
0
LINE
8
DEFAULT_255_1_388
10
4.9245151
20
28.4644
11
4.7564521
21
28.4644
0
LINE
8
DEFAULT_255_1_388
10
4.7564521
20
28.4644
11
4.7564521
21
28.7698048
0
LINE
8
DEFAULT_255_1_388
10
4.7564521
20
28.7698048
11
4.1573889
21
28.7698048
0
LINE
8
DEFAULT_255_1_388
10
4.1573889
20
28.7698048
11
4.1573889
21
28.8682933
0
LINE
8
DEFAULT_255_1_388
10
4.1573889
20
28.8682933
11
4.7465129
21
29.7799898
0
LINE
8
DEFAULT_255_1_388
10
4.7465129
20
29.7799898
11
4.9245151
21
29.7799898
0
LINE
8
DEFAULT_255_1_388
10
4.7365737
20
29.5152455
11
4.3471375
21
28.906243
0
LINE
8
DEFAULT_255_1_388
10
4.3471375
20
28.906243
11
4.7564521
21
28.906243
0
LINE
8
DEFAULT_255_1_388
10
4.7564521
20
28.906243
11
4.7564521
21
29.551388
0
LINE
8
DEFAULT_255_1_388
10
4.7564521
20
29.551388
11
4.7365737
21
29.5152455
0
LINE
8
DEFAULT_255_1_388
10
4.1972901
20
37.0045775
11
4.1972901
21
37.1410157
0
LINE
8
DEFAULT_255_1_388
10
4.1972901
20
37.1410157
11
4.3228856
21
37.1410157
0
LINE
8
DEFAULT_255_1_388
10
4.1087408
20
37.3723282
11
3.9415814
21
37.3723282
0
LINE
8
DEFAULT_255_1_388
10
3.9298351
20
36.7488688
11
4.097898
21
36.7488688
0
LINE
8
DEFAULT_255_1_388
10
4.3228856
20
37.0045775
11
4.1972901
21
37.0045775
0
ARC
8
DEFAULT_255_1_388
10
4.3196082
20
37.5226922
40
0.3816905
50
270.491971
51
281.8953028
0
ARC
8
DEFAULT_255_1_388
10
4.3467509
20
37.3987199
40
0.2547877
50
281.6690378
51
301.2943765
0
ARC
8
DEFAULT_255_1_388
10
4.3658961
20
37.3636926
40
0.2149197
50
301.7834992
51
311.754567
0
ARC
8
DEFAULT_255_1_388
10
4.3762002
20
37.352265
40
0.1995326
50
311.7325027
51
354.2803031
0
ARC
8
DEFAULT_255_1_388
10
4.2944418
20
37.366328
40
0.2823461
50
353.0941646
51
0.1174696
0
ARC
8
DEFAULT_255_1_388
10
4.2425976
20
37.3716874
40
0.3342238
50
359.1804452
51
15.0452323
0
ARC
8
DEFAULT_255_1_388
10
4.3940034
20
37.4158546
40
0.1765747
50
13.957816
51
77.6713812
0
ARC
8
DEFAULT_255_1_388
10
4.350527
20
37.2600464
40
0.3381982
50
76.111571
51
90.7028736
0
ARC
8
DEFAULT_255_1_388
10
4.3438682
20
37.290825
40
0.3074046
50
89.5321574
51
103.5319393
0
ARC
8
DEFAULT_255_1_388
10
4.3213066
20
37.3807443
40
0.2147041
50
103.2930114
51
133.5619756
0
ARC
8
DEFAULT_255_1_388
10
4.3163007
20
37.3874351
40
0.2064084
50
133.8349761
51
173.5343225
0
ARC
8
DEFAULT_255_1_388
10
4.3976665
20
37.3730144
40
0.2889266
50
172.5097183
51
180.1360699
0
ARC
8
DEFAULT_255_1_388
10
4.2906429
20
37.376888
40
0.3490913
50
155.3483706
51
180.7484035
0
ARC
8
DEFAULT_255_1_388
10
4.2851404
20
37.3736519
40
0.3454798
50
131.5745177
51
154.4799474
0
ARC
8
DEFAULT_255_1_388
10
4.3203687
20
37.3380422
40
0.3955058
50
96.9874487
51
131.9690874
0
ARC
8
DEFAULT_255_1_388
10
4.345058
20
37.1979407
40
0.537622
50
89.8592909
51
97.7827481
0
ARC
8
DEFAULT_255_1_388
10
4.3504689
20
37.168436
40
0.5671399
50
78.3654493
51
90.4132586
0
ARC
8
DEFAULT_255_1_388
10
4.390733
20
37.3550918
40
0.3762034
50
56.6229818
51
78.6387103
0
ARC
8
DEFAULT_255_1_388
10
4.4149159
20
37.3973846
40
0.3275964
50
47.0254604
51
56.085558
0
ARC
8
DEFAULT_255_1_388
10
4.417141
20
37.4018189
40
0.3228382
50
10.9207523
51
46.777927
0
ARC
8
DEFAULT_255_1_388
10
4.2637004
20
37.3663401
40
0.4802559
50
359.6364235
51
11.6087615
0
ARC
8
DEFAULT_255_1_388
10
4.470117
20
37.3646404
40
0.273833
50
332.3549969
51
359.7179765
0
ARC
8
DEFAULT_255_1_388
10
4.396957
20
37.3993285
40
0.3547505
50
325.2332381
51
332.8746682
0
ARC
8
DEFAULT_255_1_388
10
4.4141153
20
37.3873763
40
0.3338396
50
292.9803892
51
325.2391113
0
ARC
8
DEFAULT_255_1_388
10
4.3830349
20
37.4478679
40
0.4016959
50
292.542178
51
293.6931461
0
ARC
8
DEFAULT_255_1_388
10
4.4273921
20
36.7213036
40
0.372079
50
57.643292
51
72.8626085
0
ARC
8
DEFAULT_255_1_388
10
4.4672755
20
36.7859273
40
0.2961455
50
36.7246661
51
57.4701329
0
ARC
8
DEFAULT_255_1_388
10
4.4659912
20
36.787347
40
0.2963321
50
8.054535
51
36.3561529
0
ARC
8
DEFAULT_255_1_388
10
4.3689585
20
36.7699073
40
0.3948682
50
359.8316595
51
8.5873361
0
ARC
8
DEFAULT_255_1_388
10
4.3267059
20
36.764497
40
0.4371398
50
343.9831631
51
0.557075
0
ARC
8
DEFAULT_255_1_388
10
4.4264108
20
36.7371963
40
0.3337749
50
311.6358204
51
343.7652116
0
ARC
8
DEFAULT_255_1_388
10
4.3838362
20
36.7851955
40
0.3979351
50
279.7829743
51
311.625622
0
ARC
8
DEFAULT_255_1_388
10
4.3499497
20
36.9468642
40
0.5630417
50
269.7285092
51
280.3857694
0
ARC
8
DEFAULT_255_1_388
10
4.342981
20
36.9422241
40
0.5584119
50
256.6827433
51
270.4412869
0
ARC
8
DEFAULT_255_1_388
10
4.3048797
20
36.7864698
40
0.3980715
50
229.4223821
51
256.8554507
0
ARC
8
DEFAULT_255_1_388
10
4.258235
20
36.7339683
40
0.3278564
50
181.8183354
51
229.6455015
0
ARC
8
DEFAULT_255_1_388
10
4.375196
20
36.7486825
40
0.4453611
50
179.9760419
51
183.2330638
0
ARC
8
DEFAULT_255_1_388
10
4.3558512
20
36.7463781
40
0.2579652
50
179.4467996
51
196.2871626
0
ARC
8
DEFAULT_255_1_388
10
4.3009966
20
36.7313709
40
0.2011057
50
196.5661293
51
227.7059371
0
ARC
8
DEFAULT_255_1_388
10
4.3194573
20
36.7520155
40
0.2287994
50
227.7653015
51
257.8763321
0
ARC
8
DEFAULT_255_1_388
10
4.3447656
20
36.8580961
40
0.3378385
50
257.4583525
51
270.4267406
0
ARC
8
DEFAULT_255_1_388
10
4.3498906
20
36.890723
40
0.3704652
50
269.5965319
51
280.8788143
0
ARC
8
DEFAULT_255_1_388
10
4.3757134
20
36.7617529
40
0.2389415
50
280.6347277
51
299.8594068
0
ARC
8
DEFAULT_255_1_388
10
4.3971903
20
36.7209736
40
0.19289
50
300.3575552
51
314.5515667
0
ARC
8
DEFAULT_255_1_388
10
4.3878579
20
36.7278025
40
0.204312
50
315.0730962
51
345.0429362
0
ARC
8
DEFAULT_255_1_388
10
4.2840087
20
36.7580539
40
0.31246
50
344.598526
51
357.9270698
0
ARC
8
DEFAULT_255_1_388
10
4.1830391
20
36.7649705
40
0.4136265
50
357.4755098
51
0.0224936
0
ARC
8
DEFAULT_255_1_388
10
4.2983269
20
36.7677099
40
0.2983498
50
359.5051035
51
13.4236939
0
ARC
8
DEFAULT_255_1_388
10
4.3958359
20
36.7926637
40
0.1977186
50
12.9497905
51
48.7550905
0
ARC
8
DEFAULT_255_1_388
10
4.3753281
20
36.7646373
40
0.2323321
50
49.509109
51
72.1832965
0
ARC
8
DEFAULT_255_1_388
10
4.3350749
20
36.6451632
40
0.358397
50
71.9008458
51
84.3555134
0
ARC
8
DEFAULT_255_1_388
10
4.3169144
20
36.4919712
40
0.512641
50
84.019632
51
89.3326067
0
LINE
8
DEFAULT_255_1_388
10
4.8162318
20
44.4758382
11
4.8162318
21
44.3394
0
LINE
8
DEFAULT_255_1_388
10
4.8162318
20
44.3394
11
3.9542313
21
44.3394
0
LINE
8
DEFAULT_255_1_388
10
3.9542313
20
44.3394
11
3.9542313
21
44.4595741
0
LINE
8
DEFAULT_255_1_388
10
3.9542313
20
44.4595741
11
4.4096278
21
44.9655702
0
LINE
8
DEFAULT_255_1_388
10
4.0960909
20
45.2673607
11
3.9289315
21
45.2673607
0
LINE
8
DEFAULT_255_1_388
10
4.5081163
20
44.858046
11
4.1557262
21
44.4758382
0
LINE
8
DEFAULT_255_1_388
10
4.1557262
20
44.4758382
11
4.8162318
21
44.4758382
0
ARC
8
DEFAULT_255_1_388
10
2.8920337
20
46.3075983
40
2.0258655
50
318.5132526
51
320.7829045
0
ARC
8
DEFAULT_255_1_388
10
3.4868294
20
45.8234929
40
1.2589638
50
320.7372878
51
323.9739031
0
ARC
8
DEFAULT_255_1_388
10
3.9277226
20
45.5040554
40
0.7145141
50
323.8962701
51
328.64194
0
ARC
8
DEFAULT_255_1_388
10
4.1579484
20
45.3620545
40
0.4440242
50
328.8294576
51
331.7891185
0
ARC
8
DEFAULT_255_1_388
10
4.2701804
20
45.3041374
40
0.3177517
50
331.4254512
51
352.9365785
0
ARC
8
DEFAULT_255_1_388
10
4.2854804
20
45.300705
40
0.3021496
50
353.2257659
51
0.0166158
0
ARC
8
DEFAULT_255_1_388
10
4.3091564
20
45.3032894
40
0.2784847
50
359.486299
51
15.9343185
0
ARC
8
DEFAULT_255_1_388
10
4.3661831
20
45.3186269
40
0.2194403
50
16.1712913
51
43.5286088
0
ARC
8
DEFAULT_255_1_388
10
4.3748776
20
45.3273191
40
0.2071504
50
43.4417391
51
83.1661095
0
ARC
8
DEFAULT_255_1_388
10
4.3597937
20
45.2444316
40
0.2912888
50
82.160179
51
90.1505708
0
ARC
8
DEFAULT_255_1_388
10
4.3562418
20
45.1840279
40
0.3517025
50
89.5460741
51
102.5418361
0
ARC
8
DEFAULT_255_1_388
10
4.3289138
20
45.2999933
40
0.2325748
50
102.1738499
51
129.206123
0
ARC
8
DEFAULT_255_1_388
10
4.3200592
20
45.3139664
40
0.2161591
50
129.72865
51
135.753947
0
ARC
8
DEFAULT_255_1_388
10
4.3337074
20
45.3030728
40
0.2335433
50
136.1757367
51
166.3673339
0
ARC
8
DEFAULT_255_1_388
10
4.4469762
20
45.2727148
40
0.3507873
50
165.9090694
51
178.8684636
0
ARC
8
DEFAULT_255_1_388
10
4.5445534
20
45.2674263
40
0.4484624
50
178.4391136
51
180.0083808
0
ARC
8
DEFAULT_255_1_388
10
4.3866235
20
45.2718197
40
0.4577138
50
163.2878482
51
180.5581842
0
ARC
8
DEFAULT_255_1_388
10
4.2964276
20
45.2966393
40
0.3641968
50
133.4540601
51
162.947111
0
ARC
8
DEFAULT_255_1_388
10
4.3165158
20
45.2752789
40
0.3935189
50
100.7869829
51
133.4382499
0
ARC
8
DEFAULT_255_1_388
10
4.3556403
20
45.1010399
40
0.5720313
50
89.660664
51
101.3702276
0
ARC
8
DEFAULT_255_1_388
10
4.3631012
20
45.1079263
40
0.5651495
50
78.2172678
51
90.412935
0
ARC
8
DEFAULT_255_1_388
10
4.4030478
20
45.2906511
40
0.378122
50
55.9269121
51
78.4888449
0
ARC
8
DEFAULT_255_1_388
10
4.4251193
20
45.3287187
40
0.3342379
50
47.929771
51
55.4049217
0
ARC
8
DEFAULT_255_1_388
10
4.4365723
20
45.3403618
40
0.3179217
50
4.334829
51
48.0560205
0
ARC
8
DEFAULT_255_1_388
10
4.3133525
20
45.3212487
40
0.442341
50
359.9251713
51
5.5971671
0
ARC
8
DEFAULT_255_1_388
10
4.361568
20
45.3275728
40
0.3941854
50
337.8914027
51
358.9967534
0
ARC
8
DEFAULT_255_1_388
10
4.056325
20
45.4453295
40
0.7213271
50
326.9132501
51
338.3508308
0
ARC
8
DEFAULT_255_1_388
10
3.6079362
20
45.7327105
40
1.2538973
50
319.6471833
51
327.0959558
0
ARC
8
DEFAULT_255_1_388
10
3.176602
20
46.088505
40
1.8129975
50
317.2588228
51
319.9045804
0
LINE
8
DEFAULT_255_1_388
10
4.4952985
20
53.5988148
11
4.4952985
21
52.2769
0
LINE
8
DEFAULT_255_1_388
10
4.4952985
20
52.2769
11
4.3272355
21
52.2769
0
LINE
8
DEFAULT_255_1_388
10
4.3272355
20
52.2769
11
4.3272355
21
53.390995
0
LINE
8
DEFAULT_255_1_388
10
4.3272355
20
53.390995
11
3.990206
21
53.2672066
0
LINE
8
DEFAULT_255_1_388
10
3.990206
20
53.2672066
11
3.990206
21
53.4190055
0
LINE
8
DEFAULT_255_1_388
10
3.990206
20
53.4190055
11
4.4690951
21
53.5988148
0
LINE
8
DEFAULT_255_1_388
10
4.4690951
20
53.5988148
11
4.4952985
21
53.5988148
0
LINE
8
DEFAULT_255_1_388
10
4.7791856
20
60.992369
11
4.7791856
21
60.7755135
0
LINE
8
DEFAULT_255_1_388
10
3.9488099
20
60.7529244
11
3.9488099
21
60.9761048
0
LINE
8
DEFAULT_255_1_388
10
4.6120262
20
60.7303353
11
4.6120262
21
61.0041153
0
LINE
8
DEFAULT_255_1_388
10
4.1159693
20
61.0167652
11
4.1159693
21
60.7493102
0
ARC
8
DEFAULT_255_1_388
10
3.401419
20
60.7700118
40
1.3777776
50
353.8440855
51
0.2287917
0
ARC
8
DEFAULT_255_1_388
10
3.9233208
20
60.7117414
40
0.852639
50
344.4934746
51
353.9763743
0
ARC
8
DEFAULT_255_1_388
10
4.2600015
20
60.6160191
40
0.5026273
50
329.2803599
51
344.7473406
0
ARC
8
DEFAULT_255_1_388
10
4.3715511
20
60.5548038
40
0.3754848
50
324.9361395
51
328.6153007
0
ARC
8
DEFAULT_255_1_388
10
4.4141161
20
60.5250586
40
0.3235566
50
280.5801797
51
324.9173226
0
ARC
8
DEFAULT_255_1_388
10
4.3689789
20
60.7130236
40
0.5167077
50
269.5979457
51
281.6732777
0
ARC
8
DEFAULT_255_1_388
10
4.3608693
20
60.6995113
40
0.5032026
50
256.6228565
51
270.5105488
0
ARC
8
DEFAULT_255_1_388
10
4.3156435
20
60.5253345
40
0.3233092
50
215.8618351
51
257.2787793
0
ARC
8
DEFAULT_255_1_388
10
4.4305142
20
60.6024106
40
0.4615831
50
197.9695203
51
215.2622745
0
ARC
8
DEFAULT_255_1_388
10
4.7100818
20
60.6967641
40
0.7566307
50
187.8816486
51
198.2346584
0
ARC
8
DEFAULT_255_1_388
10
5.1554056
20
60.7610453
40
1.2065653
50
180.8977266
51
188.0054894
0
ARC
8
DEFAULT_255_1_388
10
5.460427
20
60.77254
40
1.5117443
50
180.7434591
51
181.152202
0
ARC
8
DEFAULT_255_1_388
10
5.2929266
20
60.9815371
40
1.3441277
50
173.7674302
51
180.2315596
0
ARC
8
DEFAULT_255_1_388
10
4.7847135
20
61.0389779
40
0.8326847
50
164.3058537
51
173.9000553
0
ARC
8
DEFAULT_255_1_388
10
4.4571135
20
61.1333652
40
0.4917711
50
148.7922028
51
164.5682288
0
ARC
8
DEFAULT_255_1_388
10
4.3501872
20
61.1930457
40
0.3694204
50
144.5883979
51
148.1161588
0
ARC
8
DEFAULT_255_1_388
10
4.3114618
20
61.2200667
40
0.322202
50
101.6440149
51
144.5142619
0
ARC
8
DEFAULT_255_1_388
10
4.359281
20
61.0300337
40
0.5180451
50
89.528284
51
102.5820197
0
ARC
8
DEFAULT_255_1_388
10
4.3681802
20
61.0256376
40
0.5224441
50
77.0437914
51
90.508231
0
ARC
8
DEFAULT_255_1_388
10
4.4134055
20
61.2104272
40
0.3322297
50
48.2777708
51
77.4996087
0
ARC
8
DEFAULT_255_1_388
10
4.4215795
20
61.2249557
40
0.315966
50
36.3141586
51
47.6307332
0
ARC
8
DEFAULT_255_1_388
10
4.3238518
20
61.1591159
40
0.4337313
50
18.2931065
51
35.6770203
0
ARC
8
DEFAULT_255_1_388
10
4.0377358
20
61.0609107
40
0.7362203
50
8.0246996
51
18.5605636
0
ARC
8
DEFAULT_255_1_388
10
3.5693714
20
60.9917432
40
1.2096583
50
1.127539
51
8.1718423
0
ARC
8
DEFAULT_255_1_388
10
3.2044847
20
60.9774374
40
1.5747719
50
0.5432713
51
1.38669
0
ARC
8
DEFAULT_255_1_388
10
3.4102226
20
61.0081163
40
1.2018103
50
359.8092569
51
4.9408001
0
ARC
8
DEFAULT_255_1_388
10
3.8838807
20
61.05039
40
0.7262727
50
4.8364937
51
12.2906017
0
ARC
8
DEFAULT_255_1_388
10
4.1938272
20
61.1194485
40
0.4087324
50
12.0806994
51
23.8171225
0
ARC
8
DEFAULT_255_1_388
10
4.3258668
20
61.1753508
40
0.2653719
50
24.2874621
51
31.3934353
0
ARC
8
DEFAULT_255_1_388
10
4.3849104
20
61.2139822
40
0.1948607
50
30.7407708
51
82.4658033
0
ARC
8
DEFAULT_255_1_388
10
4.3646765
20
61.1146017
40
0.2961198
50
81.1057101
51
90.2187368
0
ARC
8
DEFAULT_255_1_388
10
4.3606577
20
61.1436421
40
0.2670929
50
89.380395
51
105.6763916
0
ARC
8
DEFAULT_255_1_388
10
4.3400299
20
61.218632
40
0.1893189
50
105.7980655
51
149.7387869
0
ARC
8
DEFAULT_255_1_388
10
4.4597439
20
61.1466719
40
0.3289892
50
149.4208441
51
163.628295
0
ARC
8
DEFAULT_255_1_388
10
4.6949668
20
61.0749345
40
0.5749004
50
163.3764549
51
172.141138
0
ARC
8
DEFAULT_255_1_388
10
5.066239
20
61.0217582
40
0.9499585
50
172.0258462
51
178.0705453
0
ARC
8
DEFAULT_255_1_388
10
5.4083943
20
61.0055682
40
1.2924734
50
177.8639301
51
179.5036263
0
ARC
8
DEFAULT_255_1_388
10
5.2864961
20
60.7452151
40
1.170534
50
179.7995545
51
185.246089
0
ARC
8
DEFAULT_255_1_388
10
4.8316554
20
60.7021404
40
0.7136613
50
185.1411911
51
193.0082205
0
ARC
8
DEFAULT_255_1_388
10
4.5342815
20
60.6318441
40
0.4080987
50
192.7897338
51
205.2507384
0
ARC
8
DEFAULT_255_1_388
10
4.4165025
20
60.5792538
40
0.2791522
50
205.8001921
51
211.2545876
0
ARC
8
DEFAULT_255_1_388
10
4.3576564
20
60.5398132
40
0.2084074
50
210.3789935
51
238.4007996
0
ARC
8
DEFAULT_255_1_388
10
4.355465
20
60.5450786
40
0.2117943
50
239.6521916
51
265.9793852
0
ARC
8
DEFAULT_255_1_388
10
4.3650499
20
60.6207358
40
0.2879689
50
265.1324455
51
270.0603288
0
ARC
8
DEFAULT_255_1_388
10
4.3682876
20
60.5842418
40
0.2514919
50
269.3314378
51
287.2180039
0
ARC
8
DEFAULT_255_1_388
10
4.3837958
20
60.5276291
40
0.1928357
50
287.7957942
51
329.0808983
0
ARC
8
DEFAULT_255_1_388
10
4.2760715
20
60.5948651
40
0.319808
50
328.6635261
51
343.3325043
0
ARC
8
DEFAULT_255_1_388
10
4.0316174
20
60.6710195
40
0.5758408
50
343.0498092
51
351.9392499
0
ARC
8
DEFAULT_255_1_388
10
3.6415496
20
60.7285205
40
0.9701202
50
351.8071632
51
357.7957897
0
ARC
8
DEFAULT_255_1_388
10
3.2780973
20
60.7473724
40
1.3340376
50
357.5870923
51
359.2682493
0
LINE
8
DEFAULT_255_1_388
10
21.7506342
20
68.8069842
11
21.7506342
21
68.3244808
0
LINE
8
DEFAULT_255_1_388
10
20.7368349
20
68.7464454
11
20.7368349
21
68.8611981
0
LINE
8
DEFAULT_255_1_388
10
21.7506342
20
69.0816678
11
21.5771498
21
69.0816678
0
LINE
8
DEFAULT_255_1_388
10
20.9112228
20
68.8657159
11
20.9112228
21
68.7581917
0
LINE
8
DEFAULT_255_1_388
10
21.5780534
20
68.3705626
11
21.5780534
21
68.6660282
0
LINE
8
DEFAULT_255_1_388
10
21.5780534
20
68.6660282
11
21.2735521
21
68.6660282
0
LINE
8
DEFAULT_255_1_388
10
21.2735521
20
68.6660282
11
21.2735521
21
68.8069842
0
LINE
8
DEFAULT_255_1_388
10
21.2735521
20
68.8069842
11
21.7506342
21
68.8069842
0
ARC
8
DEFAULT_255_1_388
10
21.4320942
20
68.5487284
40
0.3895571
50
295.8437277
51
324.8549962
0
ARC
8
DEFAULT_255_1_388
10
21.3853325
20
68.6333619
40
0.4861381
50
291.5691164
51
296.4556269
0
ARC
8
DEFAULT_255_1_388
10
21.3278327
20
68.7869801
40
0.6501442
50
278.6622213
51
291.3047061
0
ARC
8
DEFAULT_255_1_388
10
21.2896359
20
69.0286557
40
0.8948168
50
270.0200506
51
278.7494673
0
ARC
8
DEFAULT_255_1_388
10
21.2852563
20
69.2132453
40
1.0794166
50
270.0022372
51
270.2490917
0
ARC
8
DEFAULT_255_1_388
10
21.2810456
20
68.7173827
40
0.5835695
50
253.5785313
51
270.4175629
0
ARC
8
DEFAULT_255_1_388
10
21.2615452
20
68.6418625
40
0.5056241
50
238.8203954
51
253.2788387
0
ARC
8
DEFAULT_255_1_388
10
21.2593367
20
68.6361224
40
0.4995712
50
206.7883476
51
238.696262
0
ARC
8
DEFAULT_255_1_388
10
21.3468763
20
68.6885847
40
0.6014056
50
206.1137778
51
207.4912776
0
ARC
8
DEFAULT_255_1_388
10
21.4135599
20
68.7169284
40
0.6737692
50
188.6922336
51
205.782076
0
ARC
8
DEFAULT_255_1_388
10
21.6223958
20
68.7524455
40
0.8855812
50
180.3881972
51
188.9218085
0
ARC
8
DEFAULT_255_1_388
10
21.7605116
20
68.8675622
40
1.0236965
50
170.2024645
51
180.3561986
0
ARC
8
DEFAULT_255_1_388
10
21.4046266
20
68.9312101
40
0.6621746
50
154.2856519
51
170.3893388
0
ARC
8
DEFAULT_255_1_388
10
21.260423
20
68.9972192
40
0.5036209
50
139.8400879
51
153.9334639
0
ARC
8
DEFAULT_255_1_388
10
21.2200133
20
69.0295716
40
0.4518751
50
98.4190017
51
139.6707015
0
ARC
8
DEFAULT_255_1_388
10
21.2627101
20
68.8219755
40
0.6635912
50
89.7660128
51
99.4415389
0
ARC
8
DEFAULT_255_1_388
10
21.2700497
20
68.8293517
40
0.6562258
50
78.0552044
51
90.4042252
0
ARC
8
DEFAULT_255_1_388
10
21.3155561
20
69.0339661
40
0.4466287
50
54.6380186
51
78.3338577
0
ARC
8
DEFAULT_255_1_388
10
21.3369859
20
69.0700444
40
0.4048184
50
50.0313964
51
54.1562739
0
ARC
8
DEFAULT_255_1_388
10
21.3248753
20
69.0591798
40
0.4209308
50
18.1092229
51
49.7179911
0
ARC
8
DEFAULT_255_1_388
10
21.1609833
20
68.9991399
40
0.5953982
50
7.967396
51
18.698492
0
ARC
8
DEFAULT_255_1_388
10
21.1779094
20
69.0130236
40
0.4050986
50
9.7558763
51
27.3214087
0
ARC
8
DEFAULT_255_1_388
10
21.3047559
20
69.0764087
40
0.2633168
50
27.736147
51
84.5257861
0
ARC
8
DEFAULT_255_1_388
10
21.2678968
20
68.8914988
40
0.4513019
50
82.1064239
51
90.1997295
0
ARC
8
DEFAULT_255_1_388
10
21.2622985
20
68.9486501
40
0.3941684
50
89.4148952
51
105.5824837
0
ARC
8
DEFAULT_255_1_388
10
21.2333865
20
69.0539043
40
0.2850167
50
105.6678541
51
144.2649156
0
ARC
8
DEFAULT_255_1_388
10
21.3338758
20
68.9824024
40
0.4083468
50
144.3560675
51
162.8564185
0
ARC
8
DEFAULT_255_1_388
10
21.56832
20
68.9071083
40
0.6545749
50
162.6076338
51
173.6779811
0
ARC
8
DEFAULT_255_1_388
10
21.9127315
20
68.8652422
40
1.0015089
50
173.4670996
51
179.9729015
0
ARC
8
DEFAULT_255_1_388
10
21.6980186
20
68.7534636
40
0.78681
50
179.6556955
51
190.007958
0
ARC
8
DEFAULT_255_1_388
10
21.4374468
20
68.705666
40
0.5218997
50
189.8117884
51
206.6795375
0
ARC
8
DEFAULT_255_1_388
10
21.3423914
20
68.6613514
40
0.4170788
50
207.1031171
51
217.7074698
0
ARC
8
DEFAULT_255_1_388
10
21.2710344
20
68.5992596
40
0.3226945
50
216.7345117
51
265.6812141
0
ARC
8
DEFAULT_255_1_388
10
21.2857486
20
68.701003
40
0.4253149
50
264.7367524
51
270.0610826
0
ARC
8
DEFAULT_255_1_388
10
21.2883672
20
69.0205173
40
0.7448321
50
269.8334494
51
276.0538364
0
ARC
8
DEFAULT_255_1_388
10
21.3116534
20
68.8065924
40
0.5296446
50
275.9894423
51
284.4615914
0
ARC
8
DEFAULT_255_1_388
10
21.3338047
20
68.713357
40
0.4338353
50
284.7038488
51
286.4938196
0
ARC
8
DEFAULT_255_1_388
10
21.3797196
20
68.5654371
40
0.2789738
50
286.0770429
51
304.2629628
0
ARC
8
DEFAULT_255_1_388
10
21.3947354
20
68.540868
40
0.2502188
50
304.5886247
51
317.1074126
0
LINE
8
DEFAULT_255_1_388
10
23.0508634
20
69.4674898
11
23.0508634
21
68.1519
0
LINE
8
DEFAULT_255_1_388
10
23.0508634
20
68.1519
11
22.8764755
21
68.1519
0
LINE
8
DEFAULT_255_1_388
10
22.8764755
20
68.1519
11
22.2141627
21
69.1656993
0
LINE
8
DEFAULT_255_1_388
10
22.2141627
20
69.1656993
11
22.2141627
21
68.1519
0
LINE
8
DEFAULT_255_1_388
10
22.2141627
20
68.1519
11
22.0397748
21
68.1519
0
LINE
8
DEFAULT_255_1_388
10
22.0397748
20
68.1519
11
22.0397748
21
69.4674898
0
LINE
8
DEFAULT_255_1_388
10
22.0397748
20
69.4674898
11
22.2141627
21
69.4674898
0
LINE
8
DEFAULT_255_1_388
10
22.2141627
20
69.4674898
11
22.8782826
21
68.4491727
0
LINE
8
DEFAULT_255_1_388
10
22.8782826
20
68.4491727
11
22.8782826
21
69.4674898
0
LINE
8
DEFAULT_255_1_388
10
22.8782826
20
69.4674898
11
23.0508634
21
69.4674898
0
LINE
8
DEFAULT_255_1_388
10
23.7231154
20
68.1519
11
23.3589789
21
68.1519
0
LINE
8
DEFAULT_255_1_388
10
23.3589789
20
68.1519
11
23.3589789
21
69.4674898
0
LINE
8
DEFAULT_255_1_388
10
23.3589789
20
69.4674898
11
23.7303439
21
69.4674898
0
LINE
8
DEFAULT_255_1_388
10
24.3104323
20
68.8539696
11
24.3104323
21
68.7699381
0
LINE
8
DEFAULT_255_1_388
10
23.7348617
20
69.3247267
11
23.5324633
21
69.3247267
0
LINE
8
DEFAULT_255_1_388
10
23.5324633
20
69.3247267
11
23.5324633
21
68.2937596
0
LINE
8
DEFAULT_255_1_388
10
23.5324633
20
68.2937596
11
23.7149833
21
68.2937596
0
LINE
8
DEFAULT_255_1_388
10
24.138755
20
68.7735523
11
24.138755
21
68.8503553
0
ARC
8
DEFAULT_255_1_388
10
23.7347234
20
68.8076436
40
0.6598608
50
75.4100343
51
90.3802731
0
ARC
8
DEFAULT_255_1_388
10
23.7605479
20
68.9152691
40
0.5492049
50
60.1455157
51
75.1889627
0
ARC
8
DEFAULT_255_1_388
10
23.7784071
20
68.9463914
40
0.5133226
50
26.525419
51
60.1451222
0
ARC
8
DEFAULT_255_1_388
10
23.6523857
20
68.8795642
40
0.6559324
50
7.4029944
51
26.832209
0
ARC
8
DEFAULT_255_1_388
10
23.4730254
20
68.8516229
40
0.8374103
50
0.1605597
51
7.7176135
0
ARC
8
DEFAULT_255_1_388
10
23.4914654
20
68.7656321
40
0.8189782
50
348.7289744
51
0.30125
0
ARC
8
DEFAULT_255_1_388
10
23.6778118
20
68.7286156
40
0.628991
50
333.0706936
51
348.7181455
0
ARC
8
DEFAULT_255_1_388
10
23.7865747
20
68.6695449
40
0.5052808
50
299.2531435
51
333.4571133
0
ARC
8
DEFAULT_255_1_388
10
23.7459777
20
68.7466629
40
0.5924066
50
278.1072193
51
299.0340218
0
ARC
8
DEFAULT_255_1_388
10
23.7171826
20
68.9162979
40
0.7644209
50
270.4446841
51
278.4508355
0
ARC
8
DEFAULT_255_1_388
10
23.719531
20
68.81173
40
0.5179903
50
269.4969684
51
284.0204874
0
ARC
8
DEFAULT_255_1_388
10
23.7595028
20
68.6581415
40
0.3592968
50
283.7699076
51
318.1557121
0
ARC
8
DEFAULT_255_1_388
10
23.7215573
20
68.6865399
40
0.4065308
50
318.7417595
51
343.687252
0
ARC
8
DEFAULT_255_1_388
10
23.5186152
20
68.7499275
40
0.6191194
50
343.3324891
51
355.8548594
0
ARC
8
DEFAULT_255_1_388
10
23.282519
20
68.7723719
40
0.856237
50
355.4988754
51
0.0789913
0
ARC
8
DEFAULT_255_1_388
10
23.3705989
20
68.855108
40
0.7681709
50
359.6455047
51
9.8607559
0
ARC
8
DEFAULT_255_1_388
10
23.6361712
20
68.9030664
40
0.498312
50
9.6573037
51
26.1931522
0
ARC
8
DEFAULT_255_1_388
10
23.7405787
20
68.9515587
40
0.3832303
50
26.5777895
51
40.1533752
0
ARC
8
DEFAULT_255_1_388
10
23.7693452
20
68.974002
40
0.3467742
50
40.3839958
51
80.1430923
0
ARC
8
DEFAULT_255_1_388
10
23.7325708
20
68.8109486
40
0.5137832
50
79.2153636
51
89.7445174
0
LINE
8
DEFAULT_255_1_388
10
23.7460618
20
21.1521666
11
23.6123343
21
21.1865021
0
LINE
8
DEFAULT_255_1_388
10
23.6123343
20
21.1865021
11
23.679198
21
21.8424898
0
LINE
8
DEFAULT_255_1_388
10
23.679198
20
21.8424898
11
24.3532571
21
21.8424898
0
LINE
8
DEFAULT_255_1_388
10
24.3532571
20
21.8424898
11
24.3532571
21
21.6879803
0
LINE
8
DEFAULT_255_1_388
10
24.3532571
20
21.6879803
11
23.8210577
21
21.6879803
0
LINE
8
DEFAULT_255_1_388
10
23.8210577
20
21.6879803
11
23.7813008
21
21.3292652
0
LINE
8
DEFAULT_255_1_388
10
23.5653489
20
20.8729652
11
23.7234727
21
20.8729652
0
LINE
8
DEFAULT_255_1_388
10
23.7903365
20
21.1883092
11
23.7460618
21
21.1521666
0
ARC
8
DEFAULT_255_1_388
10
23.9899622
20
20.9715241
40
0.4141476
50
93.7181681
51
120.253934
0
ARC
8
DEFAULT_255_1_388
10
24.0005674
20
20.8806284
40
0.5055616
50
89.9660471
51
94.2495185
0
ARC
8
DEFAULT_255_1_388
10
24.0051496
20
20.9469154
40
0.4392953
50
73.8045384
51
90.5585736
0
ARC
8
DEFAULT_255_1_388
10
24.0315754
20
21.043452
40
0.3392225
50
41.3071072
51
73.543002
0
ARC
8
DEFAULT_255_1_388
10
23.9847574
20
21.0031461
40
0.4009977
50
13.5075837
51
41.2174839
0
ARC
8
DEFAULT_255_1_388
10
23.8000671
20
20.9547907
40
0.5918864
50
1.1330171
51
13.8830737
0
ARC
8
DEFAULT_255_1_388
10
23.6404317
20
20.9462522
40
0.7516787
50
359.9925091
51
1.5431298
0
ARC
8
DEFAULT_255_1_388
10
23.7848932
20
20.9416027
40
0.6072343
50
347.8572712
51
0.4294349
0
ARC
8
DEFAULT_255_1_388
10
23.9818066
20
20.8969898
40
0.4053482
50
323.6727442
51
348.1674594
0
ARC
8
DEFAULT_255_1_388
10
24.0149031
20
20.8768175
40
0.3667495
50
316.8171818
51
323.1486802
0
ARC
8
DEFAULT_255_1_388
10
24.0218155
20
20.8726612
40
0.358869
50
281.839603
51
316.5458142
0
ARC
8
DEFAULT_255_1_388
10
23.9795442
20
21.0476363
40
0.5388223
50
269.5770964
51
282.4214641
0
ARC
8
DEFAULT_255_1_388
10
23.9715363
20
21.023593
40
0.5147801
50
256.2425863
51
270.4486481
0
ARC
8
DEFAULT_255_1_388
10
23.9378891
20
20.8886124
40
0.3756708
50
228.9024379
51
256.33135
0
ARC
8
DEFAULT_255_1_388
10
23.9295871
20
20.8755054
40
0.360344
50
193.7536029
51
228.5272638
0
ARC
8
DEFAULT_255_1_388
10
24.0688436
20
20.9163463
40
0.5053599
50
184.9244437
51
194.4976052
0
ARC
8
DEFAULT_255_1_388
10
24.0905077
20
20.9203722
40
0.3700839
50
187.3596909
51
198.6733728
0
ARC
8
DEFAULT_255_1_388
10
23.9724321
20
20.8794373
40
0.2451195
50
198.4453795
51
217.7945479
0
ARC
8
DEFAULT_255_1_388
10
23.9391493
20
20.8558563
40
0.2043754
50
218.2887146
51
228.5613203
0
ARC
8
DEFAULT_255_1_388
10
23.95015
20
20.8706902
40
0.2227819
50
228.9652423
51
258.1237049
0
ARC
8
DEFAULT_255_1_388
10
23.9732937
20
20.9697964
40
0.3245374
50
257.7260585
51
270.4013717
0
ARC
8
DEFAULT_255_1_388
10
23.9783435
20
20.9197255
40
0.2744726
50
269.4204315
51
286.420998
0
ARC
8
DEFAULT_255_1_388
10
23.9950491
20
20.8590705
40
0.2115721
50
286.7250065
51
320.6004665
0
ARC
8
DEFAULT_255_1_388
10
23.9519407
20
20.8940527
40
0.2670878
50
320.6712228
51
344.5440474
0
ARC
8
DEFAULT_255_1_388
10
23.821812
20
20.9322394
40
0.4026927
50
344.241448
51
356.735803
0
ARC
8
DEFAULT_255_1_388
10
23.6814428
20
20.9438656
40
0.5435085
50
356.3547471
51
0.0507222
0
ARC
8
DEFAULT_255_1_388
10
23.8316693
20
20.9473812
40
0.3932934
50
359.5579289
51
12.9534322
0
ARC
8
DEFAULT_255_1_388
10
23.9503533
20
20.9761586
40
0.2711827
50
12.6489751
51
41.608121
0
ARC
8
DEFAULT_255_1_388
10
23.9762693
20
20.9981946
40
0.2371737
50
41.7851122
51
85.9892156
0
ARC
8
DEFAULT_255_1_388
10
23.9624003
20
20.9066738
40
0.3295244
50
84.6965848
51
90.0672125
0
ARC
8
DEFAULT_255_1_388
10
23.959757
20
20.8315118
40
0.4046926
50
89.6804991
51
99.161352
0
ARC
8
DEFAULT_255_1_388
10
23.9366579
20
20.9695848
40
0.2647044
50
98.9836248
51
113.8905702
0
ARC
8
DEFAULT_255_1_388
10
23.9108254
20
21.0305118
40
0.1985386
50
114.195234
51
127.3641866
0
LINE
8
DEFAULT_255_1_388
10
23.9766151
20
29.7799898
11
23.9766151
21
28.906243
0
LINE
8
DEFAULT_255_1_388
10
23.9766151
20
28.906243
11
24.1591352
21
28.906243
0
LINE
8
DEFAULT_255_1_388
10
24.1591352
20
28.906243
11
24.1591352
21
28.7698048
0
LINE
8
DEFAULT_255_1_388
10
24.1591352
20
28.7698048
11
23.9766151
21
28.7698048
0
LINE
8
DEFAULT_255_1_388
10
23.9766151
20
28.7698048
11
23.9766151
21
28.4644
0
LINE
8
DEFAULT_255_1_388
10
23.9766151
20
28.4644
11
23.8085521
21
28.4644
0
LINE
8
DEFAULT_255_1_388
10
23.8085521
20
28.4644
11
23.8085521
21
28.7698048
0
LINE
8
DEFAULT_255_1_388
10
23.8085521
20
28.7698048
11
23.2094889
21
28.7698048
0
LINE
8
DEFAULT_255_1_388
10
23.2094889
20
28.7698048
11
23.2094889
21
28.8682933
0
LINE
8
DEFAULT_255_1_388
10
23.2094889
20
28.8682933
11
23.7986129
21
29.7799898
0
LINE
8
DEFAULT_255_1_388
10
23.7986129
20
29.7799898
11
23.9766151
21
29.7799898
0
LINE
8
DEFAULT_255_1_388
10
23.7886737
20
29.5152455
11
23.3992375
21
28.906243
0
LINE
8
DEFAULT_255_1_388
10
23.3992375
20
28.906243
11
23.8085521
21
28.906243
0
LINE
8
DEFAULT_255_1_388
10
23.8085521
20
28.906243
11
23.8085521
21
29.551388
0
LINE
8
DEFAULT_255_1_388
10
23.8085521
20
29.551388
11
23.7886737
21
29.5152455
0
LINE
8
DEFAULT_255_1_388
10
23.7785901
20
37.0045775
11
23.7785901
21
37.1410157
0
LINE
8
DEFAULT_255_1_388
10
23.7785901
20
37.1410157
11
23.9041856
21
37.1410157
0
LINE
8
DEFAULT_255_1_388
10
23.6900408
20
37.3723282
11
23.5228814
21
37.3723282
0
LINE
8
DEFAULT_255_1_388
10
23.5111351
20
36.7488688
11
23.679198
21
36.7488688
0
LINE
8
DEFAULT_255_1_388
10
23.9041856
20
37.0045775
11
23.7785901
21
37.0045775
0
ARC
8
DEFAULT_255_1_388
10
23.9009082
20
37.5226922
40
0.3816905
50
270.491971
51
281.8953028
0
ARC
8
DEFAULT_255_1_388
10
23.9280509
20
37.3987199
40
0.2547877
50
281.6690378
51
301.2943765
0
ARC
8
DEFAULT_255_1_388
10
23.9471961
20
37.3636926
40
0.2149197
50
301.7834992
51
311.754567
0
ARC
8
DEFAULT_255_1_388
10
23.9575002
20
37.352265
40
0.1995326
50
311.7325027
51
354.2803031
0
ARC
8
DEFAULT_255_1_388
10
23.8757418
20
37.366328
40
0.2823461
50
353.0941646
51
0.1174696
0
ARC
8
DEFAULT_255_1_388
10
23.8238976
20
37.3716874
40
0.3342238
50
359.1804452
51
15.0452323
0
ARC
8
DEFAULT_255_1_388
10
23.9753034
20
37.4158546
40
0.1765747
50
13.957816
51
77.6713812
0
ARC
8
DEFAULT_255_1_388
10
23.931827
20
37.2600464
40
0.3381982
50
76.111571
51
90.7028736
0
ARC
8
DEFAULT_255_1_388
10
23.9251682
20
37.290825
40
0.3074046
50
89.5321574
51
103.5319393
0
ARC
8
DEFAULT_255_1_388
10
23.9026066
20
37.3807443
40
0.2147041
50
103.2930114
51
133.5619756
0
ARC
8
DEFAULT_255_1_388
10
23.8976007
20
37.3874351
40
0.2064084
50
133.8349761
51
173.5343225
0
ARC
8
DEFAULT_255_1_388
10
23.9789665
20
37.3730144
40
0.2889266
50
172.5097183
51
180.1360699
0
ARC
8
DEFAULT_255_1_388
10
23.8719429
20
37.376888
40
0.3490913
50
155.3483706
51
180.7484035
0
ARC
8
DEFAULT_255_1_388
10
23.8664404
20
37.3736519
40
0.3454798
50
131.5745177
51
154.4799474
0
ARC
8
DEFAULT_255_1_388
10
23.9016687
20
37.3380422
40
0.3955058
50
96.9874487
51
131.9690874
0
ARC
8
DEFAULT_255_1_388
10
23.926358
20
37.1979407
40
0.537622
50
89.8592909
51
97.7827481
0
ARC
8
DEFAULT_255_1_388
10
23.9317689
20
37.168436
40
0.5671399
50
78.3654493
51
90.4132586
0
ARC
8
DEFAULT_255_1_388
10
23.972033
20
37.3550918
40
0.3762034
50
56.6229818
51
78.6387103
0
ARC
8
DEFAULT_255_1_388
10
23.9962159
20
37.3973846
40
0.3275964
50
47.0254604
51
56.085558
0
ARC
8
DEFAULT_255_1_388
10
23.998441
20
37.4018189
40
0.3228382
50
10.9207523
51
46.777927
0
ARC
8
DEFAULT_255_1_388
10
23.8450004
20
37.3663401
40
0.4802559
50
359.6364235
51
11.6087615
0
ARC
8
DEFAULT_255_1_388
10
24.051417
20
37.3646404
40
0.273833
50
332.3549969
51
359.7179765
0
ARC
8
DEFAULT_255_1_388
10
23.978257
20
37.3993285
40
0.3547505
50
325.2332381
51
332.8746682
0
ARC
8
DEFAULT_255_1_388
10
23.9954153
20
37.3873763
40
0.3338396
50
292.9803892
51
325.2391113
0
ARC
8
DEFAULT_255_1_388
10
23.9643349
20
37.4478679
40
0.4016959
50
292.542178
51
293.6931461
0
ARC
8
DEFAULT_255_1_388
10
24.0086921
20
36.7213036
40
0.372079
50
57.643292
51
72.8626085
0
ARC
8
DEFAULT_255_1_388
10
24.0485755
20
36.7859273
40
0.2961455
50
36.7246661
51
57.4701329
0
ARC
8
DEFAULT_255_1_388
10
24.0472912
20
36.787347
40
0.2963321
50
8.054535
51
36.3561529
0
ARC
8
DEFAULT_255_1_388
10
23.9502585
20
36.7699073
40
0.3948682
50
359.8316595
51
8.5873361
0
ARC
8
DEFAULT_255_1_388
10
23.9080059
20
36.764497
40
0.4371398
50
343.9831631
51
0.557075
0
ARC
8
DEFAULT_255_1_388
10
24.0077108
20
36.7371963
40
0.3337749
50
311.6358204
51
343.7652116
0
ARC
8
DEFAULT_255_1_388
10
23.9651362
20
36.7851955
40
0.3979351
50
279.7829743
51
311.625622
0
ARC
8
DEFAULT_255_1_388
10
23.9312497
20
36.9468642
40
0.5630417
50
269.7285092
51
280.3857694
0
ARC
8
DEFAULT_255_1_388
10
23.924281
20
36.9422241
40
0.5584119
50
256.6827433
51
270.4412869
0
ARC
8
DEFAULT_255_1_388
10
23.8861797
20
36.7864698
40
0.3980715
50
229.4223821
51
256.8554507
0
ARC
8
DEFAULT_255_1_388
10
23.839535
20
36.7339683
40
0.3278564
50
181.8183354
51
229.6455015
0
ARC
8
DEFAULT_255_1_388
10
23.956496
20
36.7486825
40
0.4453611
50
179.9760419
51
183.2330638
0
ARC
8
DEFAULT_255_1_388
10
23.9371512
20
36.7463781
40
0.2579652
50
179.4467996
51
196.2871626
0
ARC
8
DEFAULT_255_1_388
10
23.8822966
20
36.7313709
40
0.2011057
50
196.5661293
51
227.7059371
0
ARC
8
DEFAULT_255_1_388
10
23.9007573
20
36.7520155
40
0.2287994
50
227.7653015
51
257.8763321
0
ARC
8
DEFAULT_255_1_388
10
23.9260656
20
36.8580961
40
0.3378385
50
257.4583525
51
270.4267406
0
ARC
8
DEFAULT_255_1_388
10
23.9311906
20
36.890723
40
0.3704652
50
269.5965319
51
280.8788143
0
ARC
8
DEFAULT_255_1_388
10
23.9570134
20
36.7617529
40
0.2389415
50
280.6347277
51
299.8594068
0
ARC
8
DEFAULT_255_1_388
10
23.9784903
20
36.7209736
40
0.19289
50
300.3575552
51
314.5515667
0
ARC
8
DEFAULT_255_1_388
10
23.9691579
20
36.7278025
40
0.204312
50
315.0730962
51
345.0429362
0
ARC
8
DEFAULT_255_1_388
10
23.8653087
20
36.7580539
40
0.31246
50
344.598526
51
357.9270698
0
ARC
8
DEFAULT_255_1_388
10
23.7643391
20
36.7649705
40
0.4136265
50
357.4755098
51
0.0224936
0
ARC
8
DEFAULT_255_1_388
10
23.8796269
20
36.7677099
40
0.2983498
50
359.5051035
51
13.4236939
0
ARC
8
DEFAULT_255_1_388
10
23.9771359
20
36.7926637
40
0.1977186
50
12.9497905
51
48.7550905
0
ARC
8
DEFAULT_255_1_388
10
23.9566281
20
36.7646373
40
0.2323321
50
49.509109
51
72.1832965
0
ARC
8
DEFAULT_255_1_388
10
23.9163749
20
36.6451632
40
0.358397
50
71.9008458
51
84.3555134
0
ARC
8
DEFAULT_255_1_388
10
23.8982144
20
36.4919712
40
0.512641
50
84.019632
51
89.3326067
0
LINE
8
DEFAULT_255_1_388
10
24.3975318
20
44.4758382
11
24.3975318
21
44.3394
0
LINE
8
DEFAULT_255_1_388
10
24.3975318
20
44.3394
11
23.5355313
21
44.3394
0
LINE
8
DEFAULT_255_1_388
10
23.5355313
20
44.3394
11
23.5355313
21
44.4595741
0
LINE
8
DEFAULT_255_1_388
10
23.5355313
20
44.4595741
11
23.9909278
21
44.9655702
0
LINE
8
DEFAULT_255_1_388
10
23.6773909
20
45.2673607
11
23.5102315
21
45.2673607
0
LINE
8
DEFAULT_255_1_388
10
24.0894163
20
44.858046
11
23.7370262
21
44.4758382
0
LINE
8
DEFAULT_255_1_388
10
23.7370262
20
44.4758382
11
24.3975318
21
44.4758382
0
ARC
8
DEFAULT_255_1_388
10
22.4733337
20
46.3075983
40
2.0258655
50
318.5132526
51
320.7829045
0
ARC
8
DEFAULT_255_1_388
10
23.0681294
20
45.8234929
40
1.2589638
50
320.7372878
51
323.9739031
0
ARC
8
DEFAULT_255_1_388
10
23.5090226
20
45.5040554
40
0.7145141
50
323.8962701
51
328.64194
0
ARC
8
DEFAULT_255_1_388
10
23.7392484
20
45.3620545
40
0.4440242
50
328.8294576
51
331.7891185
0
ARC
8
DEFAULT_255_1_388
10
23.8514804
20
45.3041374
40
0.3177517
50
331.4254512
51
352.9365785
0
ARC
8
DEFAULT_255_1_388
10
23.8667804
20
45.300705
40
0.3021496
50
353.2257659
51
0.0166158
0
ARC
8
DEFAULT_255_1_388
10
23.8904564
20
45.3032894
40
0.2784847
50
359.486299
51
15.9343185
0
ARC
8
DEFAULT_255_1_388
10
23.9474831
20
45.3186269
40
0.2194403
50
16.1712913
51
43.5286088
0
ARC
8
DEFAULT_255_1_388
10
23.9561776
20
45.3273191
40
0.2071504
50
43.4417391
51
83.1661095
0
ARC
8
DEFAULT_255_1_388
10
23.9410937
20
45.2444316
40
0.2912888
50
82.160179
51
90.1505708
0
ARC
8
DEFAULT_255_1_388
10
23.9375418
20
45.1840279
40
0.3517025
50
89.5460741
51
102.5418361
0
ARC
8
DEFAULT_255_1_388
10
23.9102138
20
45.2999933
40
0.2325748
50
102.1738499
51
129.206123
0
ARC
8
DEFAULT_255_1_388
10
23.9013592
20
45.3139664
40
0.2161591
50
129.72865
51
135.753947
0
ARC
8
DEFAULT_255_1_388
10
23.9150074
20
45.3030728
40
0.2335433
50
136.1757367
51
166.3673339
0
ARC
8
DEFAULT_255_1_388
10
24.0282762
20
45.2727148
40
0.3507873
50
165.9090694
51
178.8684636
0
ARC
8
DEFAULT_255_1_388
10
24.1258534
20
45.2674263
40
0.4484624
50
178.4391136
51
180.0083808
0
ARC
8
DEFAULT_255_1_388
10
23.9679235
20
45.2718197
40
0.4577138
50
163.2878482
51
180.5581842
0
ARC
8
DEFAULT_255_1_388
10
23.8777276
20
45.2966393
40
0.3641968
50
133.4540601
51
162.947111
0
ARC
8
DEFAULT_255_1_388
10
23.8978158
20
45.2752789
40
0.3935189
50
100.7869829
51
133.4382499
0
ARC
8
DEFAULT_255_1_388
10
23.9369403
20
45.1010399
40
0.5720313
50
89.660664
51
101.3702276
0
ARC
8
DEFAULT_255_1_388
10
23.9444012
20
45.1079263
40
0.5651495
50
78.2172678
51
90.412935
0
ARC
8
DEFAULT_255_1_388
10
23.9843478
20
45.2906511
40
0.378122
50
55.9269121
51
78.4888449
0
ARC
8
DEFAULT_255_1_388
10
24.0064193
20
45.3287187
40
0.3342379
50
47.929771
51
55.4049217
0
ARC
8
DEFAULT_255_1_388
10
24.0178723
20
45.3403618
40
0.3179217
50
4.334829
51
48.0560205
0
ARC
8
DEFAULT_255_1_388
10
23.8946525
20
45.3212487
40
0.442341
50
359.9251713
51
5.5971671
0
ARC
8
DEFAULT_255_1_388
10
23.942868
20
45.3275728
40
0.3941854
50
337.8914027
51
358.9967534
0
ARC
8
DEFAULT_255_1_388
10
23.637625
20
45.4453295
40
0.7213271
50
326.9132501
51
338.3508308
0
ARC
8
DEFAULT_255_1_388
10
23.1892362
20
45.7327105
40
1.2538973
50
319.6471833
51
327.0959558
0
ARC
8
DEFAULT_255_1_388
10
22.757902
20
46.088505
40
1.8129975
50
317.2588228
51
319.9045804
0
LINE
8
DEFAULT_255_1_388
10
24.0931985
20
53.5988148
11
24.0931985
21
52.2769
0
LINE
8
DEFAULT_255_1_388
10
24.0931985
20
52.2769
11
23.9251355
21
52.2769
0
LINE
8
DEFAULT_255_1_388
10
23.9251355
20
52.2769
11
23.9251355
21
53.390995
0
LINE
8
DEFAULT_255_1_388
10
23.9251355
20
53.390995
11
23.588106
21
53.2672066
0
LINE
8
DEFAULT_255_1_388
10
23.588106
20
53.2672066
11
23.588106
21
53.4190055
0
LINE
8
DEFAULT_255_1_388
10
23.588106
20
53.4190055
11
24.0669951
21
53.5988148
0
LINE
8
DEFAULT_255_1_388
10
24.0669951
20
53.5988148
11
24.0931985
21
53.5988148
0
LINE
8
DEFAULT_255_1_388
10
24.3604856
20
60.992369
11
24.3604856
21
60.7755135
0
LINE
8
DEFAULT_255_1_388
10
23.5301099
20
60.7529244
11
23.5301099
21
60.9761048
0
LINE
8
DEFAULT_255_1_388
10
24.1933262
20
60.7303353
11
24.1933262
21
61.0041153
0
LINE
8
DEFAULT_255_1_388
10
23.6972693
20
61.0167652
11
23.6972693
21
60.7493102
0
ARC
8
DEFAULT_255_1_388
10
22.982719
20
60.7700118
40
1.3777776
50
353.8440855
51
0.2287917
0
ARC
8
DEFAULT_255_1_388
10
23.5046208
20
60.7117414
40
0.852639
50
344.4934746
51
353.9763743
0
ARC
8
DEFAULT_255_1_388
10
23.8413015
20
60.6160191
40
0.5026273
50
329.2803599
51
344.7473406
0
ARC
8
DEFAULT_255_1_388
10
23.9528511
20
60.5548038
40
0.3754848
50
324.9361395
51
328.6153007
0
ARC
8
DEFAULT_255_1_388
10
23.9954161
20
60.5250586
40
0.3235566
50
280.5801797
51
324.9173226
0
ARC
8
DEFAULT_255_1_388
10
23.9502789
20
60.7130236
40
0.5167077
50
269.5979457
51
281.6732777
0
ARC
8
DEFAULT_255_1_388
10
23.9421693
20
60.6995113
40
0.5032026
50
256.6228565
51
270.5105488
0
ARC
8
DEFAULT_255_1_388
10
23.8969435
20
60.5253345
40
0.3233092
50
215.8618351
51
257.2787793
0
ARC
8
DEFAULT_255_1_388
10
24.0118142
20
60.6024106
40
0.4615831
50
197.9695203
51
215.2622745
0
ARC
8
DEFAULT_255_1_388
10
24.2913818
20
60.6967641
40
0.7566307
50
187.8816486
51
198.2346584
0
ARC
8
DEFAULT_255_1_388
10
24.7367056
20
60.7610453
40
1.2065653
50
180.8977266
51
188.0054894
0
ARC
8
DEFAULT_255_1_388
10
25.041727
20
60.77254
40
1.5117443
50
180.7434591
51
181.152202
0
ARC
8
DEFAULT_255_1_388
10
24.8742266
20
60.9815371
40
1.3441277
50
173.7674302
51
180.2315596
0
ARC
8
DEFAULT_255_1_388
10
24.3660135
20
61.0389779
40
0.8326847
50
164.3058537
51
173.9000553
0
ARC
8
DEFAULT_255_1_388
10
24.0384135
20
61.1333652
40
0.4917711
50
148.7922028
51
164.5682288
0
ARC
8
DEFAULT_255_1_388
10
23.9314872
20
61.1930457
40
0.3694204
50
144.5883979
51
148.1161588
0
ARC
8
DEFAULT_255_1_388
10
23.8927618
20
61.2200667
40
0.322202
50
101.6440149
51
144.5142619
0
ARC
8
DEFAULT_255_1_388
10
23.940581
20
61.0300337
40
0.5180451
50
89.528284
51
102.5820197
0
ARC
8
DEFAULT_255_1_388
10
23.9494802
20
61.0256376
40
0.5224441
50
77.0437914
51
90.508231
0
ARC
8
DEFAULT_255_1_388
10
23.9947055
20
61.2104272
40
0.3322297
50
48.2777708
51
77.4996087
0
ARC
8
DEFAULT_255_1_388
10
24.0028795
20
61.2249557
40
0.315966
50
36.3141586
51
47.6307332
0
ARC
8
DEFAULT_255_1_388
10
23.9051518
20
61.1591159
40
0.4337313
50
18.2931065
51
35.6770203
0
ARC
8
DEFAULT_255_1_388
10
23.6190358
20
61.0609107
40
0.7362203
50
8.0246996
51
18.5605636
0
ARC
8
DEFAULT_255_1_388
10
23.1506714
20
60.9917432
40
1.2096583
50
1.127539
51
8.1718423
0
ARC
8
DEFAULT_255_1_388
10
22.7857847
20
60.9774374
40
1.5747719
50
0.5432713
51
1.38669
0
ARC
8
DEFAULT_255_1_388
10
22.9915226
20
61.0081163
40
1.2018103
50
359.8092569
51
4.9408001
0
ARC
8
DEFAULT_255_1_388
10
23.4651807
20
61.05039
40
0.7262727
50
4.8364937
51
12.2906017
0
ARC
8
DEFAULT_255_1_388
10
23.7751272
20
61.1194485
40
0.4087324
50
12.0806994
51
23.8171225
0
ARC
8
DEFAULT_255_1_388
10
23.9071668
20
61.1753508
40
0.2653719
50
24.2874621
51
31.3934353
0
ARC
8
DEFAULT_255_1_388
10
23.9662104
20
61.2139822
40
0.1948607
50
30.7407708
51
82.4658033
0
ARC
8
DEFAULT_255_1_388
10
23.9459765
20
61.1146017
40
0.2961198
50
81.1057101
51
90.2187368
0
ARC
8
DEFAULT_255_1_388
10
23.9419577
20
61.1436421
40
0.2670929
50
89.380395
51
105.6763916
0
ARC
8
DEFAULT_255_1_388
10
23.9213299
20
61.218632
40
0.1893189
50
105.7980655
51
149.7387869
0
ARC
8
DEFAULT_255_1_388
10
24.0410439
20
61.1466719
40
0.3289892
50
149.4208441
51
163.628295
0
ARC
8
DEFAULT_255_1_388
10
24.2762668
20
61.0749345
40
0.5749004
50
163.3764549
51
172.141138
0
ARC
8
DEFAULT_255_1_388
10
24.647539
20
61.0217582
40
0.9499585
50
172.0258462
51
178.0705453
0
ARC
8
DEFAULT_255_1_388
10
24.9896943
20
61.0055682
40
1.2924734
50
177.8639301
51
179.5036263
0
ARC
8
DEFAULT_255_1_388
10
24.8677961
20
60.7452151
40
1.170534
50
179.7995545
51
185.246089
0
ARC
8
DEFAULT_255_1_388
10
24.4129554
20
60.7021404
40
0.7136613
50
185.1411911
51
193.0082205
0
ARC
8
DEFAULT_255_1_388
10
24.1155815
20
60.6318441
40
0.4080987
50
192.7897338
51
205.2507384
0
ARC
8
DEFAULT_255_1_388
10
23.9978025
20
60.5792538
40
0.2791522
50
205.8001921
51
211.2545876
0
ARC
8
DEFAULT_255_1_388
10
23.9389564
20
60.5398132
40
0.2084074
50
210.3789935
51
238.4007996
0
ARC
8
DEFAULT_255_1_388
10
23.936765
20
60.5450786
40
0.2117943
50
239.6521916
51
265.9793852
0
ARC
8
DEFAULT_255_1_388
10
23.9463499
20
60.6207358
40
0.2879689
50
265.1324455
51
270.0603288
0
ARC
8
DEFAULT_255_1_388
10
23.9495876
20
60.5842418
40
0.2514919
50
269.3314378
51
287.2180039
0
ARC
8
DEFAULT_255_1_388
10
23.9650958
20
60.5276291
40
0.1928357
50
287.7957942
51
329.0808983
0
ARC
8
DEFAULT_255_1_388
10
23.8573715
20
60.5948651
40
0.319808
50
328.6635261
51
343.3325043
0
ARC
8
DEFAULT_255_1_388
10
23.6129174
20
60.6710195
40
0.5758408
50
343.0498092
51
351.9392499
0
ARC
8
DEFAULT_255_1_388
10
23.2228496
20
60.7285205
40
0.9701202
50
351.8071632
51
357.7957897
0
ARC
8
DEFAULT_255_1_388
10
22.8593973
20
60.7473724
40
1.3340376
50
357.5870923
51
359.2682493
0
ENDSEC
0
EOF