0
SECTION
2
HEADER
9
$MEASUREMENT
70
1
0
ENDSEC
0
SECTION
2
TABLES
0
TABLE
2
LTYPE
0
LTYPE
72
65
70
64
2
CONTINUOUS
3
______
73
0
40
0
0
ENDTAB
0
TABLE
2
LAYER
0
LAYER
2
DEFAULT_255_2_778
70
0
62
255
6
CONTINUOUS
0
LAYER
2
DEFAULT_255_1_234
70
0
62
255
6
CONTINUOUS
0
ENDTAB
0
ENDSEC
0
SECTION
2
ENTITIES
0
ARC
8
DEFAULT_255_2_778
10
3.5700693
20
202.8052013
40
0.7914215
50
129.1312896
51
180.1450914
0
ARC
8
DEFAULT_255_2_778
10
3.5703345
20
202.8056884
40
0.7912112
50
89.854026
51
129.1684493
0
ARC
8
DEFAULT_255_2_778
10
25.7993937
20
202.8053749
40
0.7915249
50
39.4792447
51
90.147911
0
ARC
8
DEFAULT_255_2_778
10
25.7999935
20
202.8052216
40
0.7911595
50
359.8533901
51
39.5154338
0
ARC
8
DEFAULT_255_2_778
10
25.7996693
20
-1.986351
40
0.7914836
50
309.4761667
51
0.1482649
0
ARC
8
DEFAULT_255_2_778
10
25.799398
20
-1.9867821
40
0.7913235
50
269.8517415
51
309.511178
0
ARC
8
DEFAULT_255_2_778
10
3.570342
20
-1.9867239
40
0.7913815
50
219.1282118
51
270.1454017
0
ARC
8
DEFAULT_255_2_778
10
3.5700247
20
-1.9863414
40
0.7913769
50
179.8524075
51
219.1641908
0
LINE
8
DEFAULT_255_2_778
10
3.5723503
20
203.5968971
11
25.7973503
21
203.5968971
0
LINE
8
DEFAULT_255_2_778
10
26.5911503
20
202.8031971
11
26.5911503
21
-1.9843029
0
LINE
8
DEFAULT_255_2_778
10
25.7973503
20
-2.7781029
11
3.5723503
21
-2.7781029
0
LINE
8
DEFAULT_255_2_778
10
2.7786503
20
-1.9843029
11
2.7786503
21
202.8031971
0
LINE
8
DEFAULT_255_1_234
10
9.589223
20
-0.2802337
11
9.7442355
21
-0.2802337
0
LINE
8
DEFAULT_255_1_234
10
8.8438777
20
-0.1212053
11
8.8438777
21
-0.0087609
0
LINE
8
DEFAULT_255_1_234
10
9.7442355
20
0.1422357
11
9.589223
21
0.1422357
0
LINE
8
DEFAULT_255_1_234
10
8.9988902
20
-0.0127768
11
8.9988902
21
-0.1260243
0
ARC
8
DEFAULT_255_1_234
10
9.1961742
20
-0.2205154
40
0.5513052
50
340.1774281
51
353.7814284
0
ARC
8
DEFAULT_255_1_234
10
9.3533095
20
-0.2790418
40
0.3836379
50
311.4558989
51
340.4421614
0
ARC
8
DEFAULT_255_1_234
10
9.3499763
20
-0.2679472
40
0.3941894
50
282.4333181
51
310.7513653
0
ARC
8
DEFAULT_255_1_234
10
9.3060502
20
-0.0864321
40
0.5809175
50
269.9358511
51
282.809604
0
ARC
8
DEFAULT_255_1_234
10
9.3008568
20
0.0593212
40
0.7266847
50
270.0021091
51
270.3581957
0
ARC
8
DEFAULT_255_1_234
10
9.2955985
20
-0.2007415
40
0.4666519
50
250.7884749
51
270.6489167
0
ARC
8
DEFAULT_255_1_234
10
9.278782
20
-0.2644681
40
0.4009729
50
219.3627325
51
250.0611886
0
ARC
8
DEFAULT_255_1_234
10
9.3617031
20
-0.1939958
40
0.5097822
50
193.5479632
51
219.5756669
0
ARC
8
DEFAULT_255_1_234
10
9.5988652
20
-0.1324081
40
0.7547848
50
181.1218675
51
193.87563
0
ARC
8
DEFAULT_255_1_234
10
9.8058833
20
-0.121342
40
0.9620055
50
179.9918545
51
181.5394234
0
ARC
8
DEFAULT_255_1_234
10
9.6207935
20
-0.0050212
40
0.7769248
50
169.5837241
51
180.2757934
0
ARC
8
DEFAULT_255_1_234
10
9.4370873
20
0.0289229
40
0.590109
50
155.0365899
51
169.6003176
0
ARC
8
DEFAULT_255_1_234
10
9.3235337
20
0.0836677
40
0.4640625
50
136.783148
51
155.2472683
0
ARC
8
DEFAULT_255_1_234
10
9.2845814
20
0.1167562
40
0.4130255
50
121.7633186
51
136.428115
0
ARC
8
DEFAULT_255_1_234
10
9.2980776
20
0.0918227
40
0.4413323
50
95.6459699
51
121.5490577
0
ARC
8
DEFAULT_255_1_234
10
9.3138058
20
-0.0190051
40
0.55319
50
89.924208
51
96.1377933
0
ARC
8
DEFAULT_255_1_234
10
9.3188491
20
-0.0071458
40
0.5413475
50
76.6779277
51
90.4563316
0
ARC
8
DEFAULT_255_1_234
10
9.3582114
20
0.1519114
40
0.3775041
50
47.485847
51
76.9287264
0
ARC
8
DEFAULT_255_1_234
10
9.3435087
20
0.1419159
40
0.3948286
50
16.5424086
51
46.8933463
0
ARC
8
DEFAULT_255_1_234
10
9.1827244
20
0.0890861
40
0.564021
50
5.4072051
51
17.0365086
0
ARC
8
DEFAULT_255_1_234
10
9.0388261
20
0.0659679
40
0.5556559
50
7.8891745
51
15.9239216
0
ARC
8
DEFAULT_255_1_234
10
9.2375274
20
0.1236631
40
0.3487515
50
15.7653144
51
27.9410532
0
ARC
8
DEFAULT_255_1_234
10
9.3479492
20
0.182779
40
0.2235026
50
27.8166557
51
46.4008329
0
ARC
8
DEFAULT_255_1_234
10
9.3529135
20
0.1822082
40
0.2205286
50
47.4371857
51
75.0698205
0
ARC
8
DEFAULT_255_1_234
10
9.3220529
20
0.0747765
40
0.3322915
50
74.7008593
51
87.8124495
0
ARC
8
DEFAULT_255_1_234
10
9.3147217
20
-0.0308156
40
0.4380987
50
87.3814673
51
90.0240855
0
ARC
8
DEFAULT_255_1_234
10
9.310876
20
0.0869291
40
0.3203749
50
89.3451631
51
108.5745436
0
ARC
8
DEFAULT_255_1_234
10
9.2971865
20
0.1382908
40
0.2673494
50
109.2998449
51
143.3037509
0
ARC
8
DEFAULT_255_1_234
10
9.3733938
20
0.0796881
40
0.3634757
50
143.0753173
51
163.1916937
0
ARC
8
DEFAULT_255_1_234
10
9.5685666
20
0.0180967
40
0.5681262
50
162.9373603
51
174.6208611
0
ARC
8
DEFAULT_255_1_234
10
9.8311708
20
-0.010699
40
0.8322832
50
174.3419979
51
180.1430411
0
ARC
8
DEFAULT_255_1_234
10
9.7380864
20
-0.1301302
40
0.7392076
50
179.6817502
51
189.150529
0
ARC
8
DEFAULT_255_1_234
10
9.4880112
20
-0.171781
40
0.4856932
50
188.9910863
51
203.5773039
0
ARC
8
DEFAULT_255_1_234
10
9.3800445
20
-0.2165789
40
0.3688271
50
203.9077269
51
215.1312379
0
ARC
8
DEFAULT_255_1_234
10
9.2877539
20
-0.2881059
40
0.2522457
50
213.9071664
51
263.8849284
0
ARC
8
DEFAULT_255_1_234
10
9.3002868
20
-0.2096482
40
0.3316174
50
263.1758525
51
270.1031083
0
ARC
8
DEFAULT_255_1_234
10
9.303496
20
-0.0849635
40
0.4563091
50
269.6719807
51
279.0609165
0
ARC
8
DEFAULT_255_1_234
10
9.3301728
20
-0.2462093
40
0.2928759
50
278.8750225
51
293.6346586
0
ARC
8
DEFAULT_255_1_234
10
9.3621936
20
-0.32141
40
0.2111472
50
293.8553404
51
310.0518804
0
ARC
8
DEFAULT_255_1_234
10
9.362679
20
-0.3276484
40
0.2060917
50
311.0646779
51
332.0108348
0
ARC
8
DEFAULT_255_1_234
10
9.2434517
20
-0.2619022
40
0.3422352
50
331.6588543
51
343.2878891
0
ARC
8
DEFAULT_255_1_234
10
9.0372032
20
-0.1985202
40
0.5580003
50
343.1446044
51
351.010618
0
ARC
8
DEFAULT_255_1_234
10
8.8830678
20
-0.1704129
40
0.7146438
50
350.7157277
51
351.1602153
0
LINE
8
DEFAULT_255_1_234
10
10.3843651
20
-0.1934909
11
10.1088765
21
-0.1934909
0
LINE
8
DEFAULT_255_1_234
10
10.1088765
20
-0.1934909
11
10.1088765
21
-0.6513
0
LINE
8
DEFAULT_255_1_234
10
10.1088765
20
-0.6513
11
9.9546671
21
-0.6513
0
LINE
8
DEFAULT_255_1_234
10
9.9546671
20
-0.6513
11
9.9546671
21
0.5181211
0
LINE
8
DEFAULT_255_1_234
10
9.9546671
20
0.5181211
11
10.3859714
21
0.5181211
0
LINE
8
DEFAULT_255_1_234
10
10.1088765
20
0.3912196
11
10.1088765
21
-0.0673926
0
LINE
8
DEFAULT_255_1_234
10
10.1088765
20
-0.0673926
11
10.3859714
21
-0.0673926
0
LINE
8
DEFAULT_255_1_234
10
10.3948063
20
0.3912196
11
10.1088765
21
0.3912196
0
ARC
8
DEFAULT_255_1_234
10
10.3901841
20
-0.0877805
40
0.6059162
50
78.8378113
51
90.3983573
0
ARC
8
DEFAULT_255_1_234
10
10.4317855
20
0.1142879
40
0.3996205
50
58.9632738
51
79.0810598
0
ARC
8
DEFAULT_255_1_234
10
10.4619397
20
0.1702721
40
0.3361177
50
48.0197965
51
58.447194
0
ARC
8
DEFAULT_255_1_234
10
10.4708258
20
0.1788225
40
0.3238191
50
3.3375044
51
48.1766626
0
ARC
8
DEFAULT_255_1_234
10
10.3478098
20
0.1611171
40
0.4477806
50
359.9477528
51
4.6829065
0
ARC
8
DEFAULT_255_1_234
10
10.3601414
20
0.1568628
40
0.4354656
50
346.1877825
51
0.5060252
0
ARC
8
DEFAULT_255_1_234
10
10.4960282
20
0.1215731
40
0.295089
50
310.8831995
51
346.5426355
0
ARC
8
DEFAULT_255_1_234
10
10.4651702
20
0.1632695
40
0.3468331
50
286.6925341
51
310.2288297
0
ARC
8
DEFAULT_255_1_234
10
10.4082533
20
0.3422882
40
0.5346654
50
274.6850312
51
287.0245141
0
ARC
8
DEFAULT_255_1_234
10
10.3857256
20
0.5631932
40
0.7566852
50
269.8969846
51
275.018904
0
ARC
8
DEFAULT_255_1_234
10
10.3884847
20
0.3552707
40
0.4226708
50
269.6593078
51
279.4153575
0
ARC
8
DEFAULT_255_1_234
10
10.4142122
20
0.2062133
40
0.2714146
50
279.2049762
51
294.9900808
0
ARC
8
DEFAULT_255_1_234
10
10.4432448
20
0.1414508
40
0.2004525
50
295.2888114
51
311.2911209
0
ARC
8
DEFAULT_255_1_234
10
10.4503342
20
0.130922
40
0.1878703
50
311.7854996
51
347.2861051
0
ARC
8
DEFAULT_255_1_234
10
10.3519501
20
0.1562092
40
0.2894234
50
346.6893224
51
0.1059443
0
ARC
8
DEFAULT_255_1_234
10
10.2764396
20
0.1590685
40
0.3649409
50
359.6350983
51
0.0053152
0
ARC
8
DEFAULT_255_1_234
10
10.3734724
20
0.1615937
40
0.2679199
50
359.4672059
51
15.5933957
0
ARC
8
DEFAULT_255_1_234
10
10.4359613
20
0.1784779
40
0.2031932
50
15.7442113
51
46.6203375
0
ARC
8
DEFAULT_255_1_234
10
10.4211834
20
0.1614484
40
0.2257226
50
46.8628658
51
75.6676503
0
ARC
8
DEFAULT_255_1_234
10
10.3917654
20
0.0555718
40
0.3355939
50
75.276167
51
88.2915297
0
ARC
8
DEFAULT_255_1_234
10
10.3859361
20
-0.0322476
40
0.4235602
50
87.8575022
51
88.8000139
0
LINE
8
DEFAULT_255_1_234
10
11.442145
20
0.5237433
11
11.442145
21
-0.6513
0
LINE
8
DEFAULT_255_1_234
10
11.442145
20
-0.6513
11
11.2927547
21
-0.6513
0
LINE
8
DEFAULT_255_1_234
10
11.2927547
20
-0.6513
11
11.2927547
21
0.3390133
0
LINE
8
DEFAULT_255_1_234
10
11.2927547
20
0.3390133
11
10.9931708
21
0.2289785
0
LINE
8
DEFAULT_255_1_234
10
10.9931708
20
0.2289785
11
10.9931708
21
0.3639117
0
LINE
8
DEFAULT_255_1_234
10
10.9931708
20
0.3639117
11
11.418853
21
0.5237433
0
LINE
8
DEFAULT_255_1_234
10
11.418853
20
0.5237433
11
11.442145
21
0.5237433
0
LINE
8
DEFAULT_255_1_234
10
12.5770296
20
0.0153343
11
12.5770296
21
-0.110764
0
LINE
8
DEFAULT_255_1_234
10
12.5770296
20
-0.110764
11
12.070227
21
-0.110764
0
LINE
8
DEFAULT_255_1_234
10
12.070227
20
-0.110764
11
12.070227
21
-0.5252017
0
LINE
8
DEFAULT_255_1_234
10
12.070227
20
-0.5252017
11
12.6589534
21
-0.5252017
0
LINE
8
DEFAULT_255_1_234
10
12.6589534
20
-0.5252017
11
12.6589534
21
-0.6513
0
LINE
8
DEFAULT_255_1_234
10
12.6589534
20
-0.6513
11
11.9160176
21
-0.6513
0
LINE
8
DEFAULT_255_1_234
10
11.9160176
20
-0.6513
11
11.9160176
21
0.5181211
0
LINE
8
DEFAULT_255_1_234
10
11.9160176
20
0.5181211
11
12.6509216
21
0.5181211
0
LINE
8
DEFAULT_255_1_234
10
12.6509216
20
0.5181211
11
12.6509216
21
0.3912196
0
LINE
8
DEFAULT_255_1_234
10
12.6509216
20
0.3912196
11
12.070227
21
0.3912196
0
LINE
8
DEFAULT_255_1_234
10
12.070227
20
0.3912196
11
12.070227
21
0.0153343
0
LINE
8
DEFAULT_255_1_234
10
12.070227
20
0.0153343
11
12.5770296
21
0.0153343
0
LINE
8
DEFAULT_255_1_234
10
13.1368418
20
-0.0938974
11
13.1368418
21
-0.2151766
0
LINE
8
DEFAULT_255_1_234
10
13.1368418
20
-0.2151766
11
12.744893
21
-0.2151766
0
LINE
8
DEFAULT_255_1_234
10
12.744893
20
-0.2151766
11
12.744893
21
-0.0938974
0
LINE
8
DEFAULT_255_1_234
10
12.744893
20
-0.0938974
11
13.1368418
21
-0.0938974
0
LINE
8
DEFAULT_255_1_234
10
14.2034566
20
0.5181211
11
14.2034566
21
-0.6513
0
LINE
8
DEFAULT_255_1_234
10
14.2034566
20
-0.6513
11
14.0484441
21
-0.6513
0
LINE
8
DEFAULT_255_1_234
10
14.0484441
20
-0.6513
11
13.4597177
21
0.249861
0
LINE
8
DEFAULT_255_1_234
10
13.4597177
20
0.249861
11
13.4597177
21
-0.6513
0
LINE
8
DEFAULT_255_1_234
10
13.4597177
20
-0.6513
11
13.3047051
21
-0.6513
0
LINE
8
DEFAULT_255_1_234
10
13.3047051
20
-0.6513
11
13.3047051
21
0.5181211
0
LINE
8
DEFAULT_255_1_234
10
13.3047051
20
0.5181211
11
13.4597177
21
0.5181211
0
LINE
8
DEFAULT_255_1_234
10
13.4597177
20
0.5181211
11
14.0500504
21
-0.3870558
0
LINE
8
DEFAULT_255_1_234
10
14.0500504
20
-0.3870558
11
14.0500504
21
0.5181211
0
LINE
8
DEFAULT_255_1_234
10
14.0500504
20
0.5181211
11
14.2034566
21
0.5181211
0
LINE
8
DEFAULT_255_1_234
10
15.0660653
20
0.5181211
11
15.0660653
21
-0.258548
0
LINE
8
DEFAULT_255_1_234
10
15.0660653
20
-0.258548
11
15.2283064
21
-0.258548
0
LINE
8
DEFAULT_255_1_234
10
15.2283064
20
-0.258548
11
15.2283064
21
-0.3798272
0
LINE
8
DEFAULT_255_1_234
10
15.2283064
20
-0.3798272
11
15.0660653
21
-0.3798272
0
LINE
8
DEFAULT_255_1_234
10
15.0660653
20
-0.3798272
11
15.0660653
21
-0.6513
0
LINE
8
DEFAULT_255_1_234
10
15.0660653
20
-0.6513
11
14.916675
21
-0.6513
0
LINE
8
DEFAULT_255_1_234
10
14.916675
20
-0.6513
11
14.916675
21
-0.3798272
0
LINE
8
DEFAULT_255_1_234
10
14.916675
20
-0.3798272
11
14.3841708
21
-0.3798272
0
LINE
8
DEFAULT_255_1_234
10
14.3841708
20
-0.3798272
11
14.3841708
21
-0.2922813
0
LINE
8
DEFAULT_255_1_234
10
14.3841708
20
-0.2922813
11
14.9078401
21
0.5181211
0
LINE
8
DEFAULT_255_1_234
10
14.9078401
20
0.5181211
11
15.0660653
21
0.5181211
0
LINE
8
DEFAULT_255_1_234
10
14.8990052
20
0.2827912
11
14.5528373
21
-0.258548
0
LINE
8
DEFAULT_255_1_234
10
14.5528373
20
-0.258548
11
14.916675
21
-0.258548
0
LINE
8
DEFAULT_255_1_234
10
14.916675
20
-0.258548
11
14.916675
21
0.3149181
0
LINE
8
DEFAULT_255_1_234
10
14.916675
20
0.3149181
11
14.8990052
21
0.2827912
0
LINE
8
DEFAULT_255_1_234
10
16.0957342
20
0.0402327
11
16.0957342
21
-0.1525291
0
LINE
8
DEFAULT_255_1_234
10
15.3576174
20
-0.1726084
11
15.3576174
21
0.0257755
0
LINE
8
DEFAULT_255_1_234
10
15.947147
20
-0.1926877
11
15.947147
21
0.0506739
0
LINE
8
DEFAULT_255_1_234
10
15.5062046
20
0.0619184
11
15.5062046
21
-0.1758211
0
ARC
8
DEFAULT_255_1_234
10
14.8710231
20
-0.1574195
40
1.2247208
50
353.8441951
51
0.2287902
0
ARC
8
DEFAULT_255_1_234
10
15.3349735
20
-0.2092194
40
0.7578929
50
344.4934747
51
353.9765454
0
ARC
8
DEFAULT_255_1_234
10
15.6342325
20
-0.2943019
40
0.4467846
50
329.2803592
51
344.7472793
0
ARC
8
DEFAULT_255_1_234
10
15.733515
20
-0.3487982
40
0.3336173
50
324.9352394
51
328.6160465
0
ARC
8
DEFAULT_255_1_234
10
15.7712259
20
-0.3751573
40
0.2876076
50
280.580143
51
324.9173126
0
ARC
8
DEFAULT_255_1_234
10
15.7311051
20
-0.2080901
40
0.4592847
50
269.5977311
51
281.6734359
0
ARC
8
DEFAULT_255_1_234
10
15.7238957
20
-0.2200827
40
0.4472986
50
256.6228859
51
270.51044
0
ARC
8
DEFAULT_255_1_234
10
15.6836935
20
-0.3749123
40
0.2873874
50
215.8618325
51
257.2788573
0
ARC
8
DEFAULT_255_1_234
10
15.7857966
20
-0.3064023
40
0.4102928
50
197.9693508
51
215.2623606
0
ARC
8
DEFAULT_255_1_234
10
16.0343082
20
-0.2225291
40
0.6725652
50
187.8816417
51
198.2346507
0
ARC
8
DEFAULT_255_1_234
10
16.430129
20
-0.1653921
40
1.0724845
50
180.8976217
51
188.0055519
0
ARC
8
DEFAULT_255_1_234
10
16.7101478
20
-0.1550223
40
1.3526448
50
180.7449369
51
181.1510016
0
ARC
8
DEFAULT_255_1_234
10
16.5524208
20
0.0306042
40
1.1948131
50
173.7675579
51
180.231553
0
ARC
8
DEFAULT_255_1_234
10
16.1006354
20
0.0816666
40
0.7401564
50
164.3058563
51
173.9002247
0
ARC
8
DEFAULT_255_1_234
10
15.8094423
20
0.1655656
40
0.4371288
50
148.7922025
51
164.568378
0
ARC
8
DEFAULT_255_1_234
10
15.7142875
20
0.2186929
40
0.3282386
50
144.5883898
51
148.1176286
0
ARC
8
DEFAULT_255_1_234
10
15.6799773
20
0.2426315
40
0.2864044
50
101.6440918
51
144.514236
0
ARC
8
DEFAULT_255_1_234
10
15.722484
20
0.0737069
40
0.4604934
50
89.5284041
51
102.5819763
0
ARC
8
DEFAULT_255_1_234
10
15.7303928
20
0.0698018
40
0.464401
50
77.0437873
51
90.5081339
0
ARC
8
DEFAULT_255_1_234
10
15.7705929
20
0.2340615
40
0.2953195
50
48.2778575
51
77.4994676
0
ARC
8
DEFAULT_255_1_234
10
15.7778561
20
0.2469746
40
0.2808655
50
36.3142134
51
47.6305865
0
ARC
8
DEFAULT_255_1_234
10
15.6909868
20
0.1884515
40
0.3855453
50
18.2931786
51
35.6769206
0
ARC
8
DEFAULT_255_1_234
10
15.4366626
20
0.1011593
40
0.654423
50
8.024666
51
18.5605216
0
ARC
8
DEFAULT_255_1_234
10
15.0203546
20
0.0396792
40
1.0752407
50
1.1274072
51
8.1718305
0
ARC
8
DEFAULT_255_1_234
10
14.6967737
20
0.0269885
40
1.3990231
50
0.5424119
51
1.3863029
0
ARC
8
DEFAULT_255_1_234
10
14.8789115
20
0.0542342
40
1.0682415
50
359.8090433
51
4.9407866
0
ARC
8
DEFAULT_255_1_234
10
15.2999129
20
0.0918113
40
0.6455691
50
4.8362157
51
12.2904523
0
ARC
8
DEFAULT_255_1_234
10
15.5754244
20
0.1531965
40
0.3633074
50
12.0805627
51
23.8173984
0
ARC
8
DEFAULT_255_1_234
10
15.6927949
20
0.2028919
40
0.2358723
50
24.2871213
51
31.3935614
0
ARC
8
DEFAULT_255_1_234
10
15.7452646
20
0.2372233
40
0.1732111
50
30.7407893
51
82.4657128
0
ARC
8
DEFAULT_255_1_234
10
15.7272781
20
0.1488691
40
0.263235
50
81.1060089
51
90.2184952
0
ARC
8
DEFAULT_255_1_234
10
15.7237079
20
0.1746924
40
0.2374236
50
89.3806855
51
105.6762551
0
ARC
8
DEFAULT_255_1_234
10
15.705371
20
0.2413567
40
0.1682847
50
105.7981136
51
149.7388061
0
ARC
8
DEFAULT_255_1_234
10
15.8117788
20
0.177395
40
0.2924306
50
149.4208916
51
163.6286378
0
ARC
8
DEFAULT_255_1_234
10
16.0208676
20
0.113625
40
0.5110213
50
163.3763315
51
172.1410975
0
ARC
8
DEFAULT_255_1_234
10
16.3509395
20
0.0663518
40
0.8444586
50
172.0259487
51
178.0703232
0
ARC
8
DEFAULT_255_1_234
10
16.6539485
20
0.0519906
40
1.1477868
50
177.8631668
51
179.5044149
0
ARC
8
DEFAULT_255_1_234
10
16.5466889
20
-0.1794611
40
1.0404907
50
179.7995573
51
185.2460446
0
ARC
8
DEFAULT_255_1_234
10
16.1423929
20
-0.2177487
40
0.6343885
50
185.1411642
51
193.0079639
0
ARC
8
DEFAULT_255_1_234
10
15.8780401
20
-0.2802359
40
0.3627568
50
192.7897626
51
205.2507664
0
ARC
8
DEFAULT_255_1_234
10
15.7733948
20
-0.3269585
40
0.2481908
50
205.8005384
51
211.2537509
0
ARC
8
DEFAULT_255_1_234
10
15.7210389
20
-0.362042
40
0.1852521
50
210.3789793
51
238.4008143
0
ARC
8
DEFAULT_255_1_234
10
15.719091
20
-0.3573624
40
0.1882621
50
239.6520629
51
265.9793761
0
ARC
8
DEFAULT_255_1_234
10
15.7276111
20
-0.2901573
40
0.2559272
50
265.1315437
51
270.060332
0
ARC
8
DEFAULT_255_1_234
10
15.7304889
20
-0.3225466
40
0.2235528
50
269.3314664
51
287.2178029
0
ARC
8
DEFAULT_255_1_234
10
15.7442741
20
-0.3728721
40
0.1714108
50
287.7958004
51
329.080874
0
ARC
8
DEFAULT_255_1_234
10
15.6485198
20
-0.313107
40
0.2842745
50
328.6634704
51
343.3325132
0
ARC
8
DEFAULT_255_1_234
10
15.4312218
20
-0.2454137
40
0.5118644
50
343.0499468
51
351.9393422
0
ARC
8
DEFAULT_255_1_234
10
15.0845518
20
-0.1943051
40
0.8622784
50
351.8069023
51
357.7959224
0
ARC
8
DEFAULT_255_1_234
10
14.7610074
20
-0.1775279
40
1.1862365
50
357.5871873
51
359.2677531
0
LINE
8
DEFAULT_255_1_234
10
16.6483178
20
-0.6513
11
16.3246387
21
-0.6513
0
LINE
8
DEFAULT_255_1_234
10
16.3246387
20
-0.6513
11
16.3246387
21
0.5181211
0
LINE
8
DEFAULT_255_1_234
10
16.3246387
20
0.5181211
11
16.6547432
21
0.5181211
0
LINE
8
DEFAULT_255_1_234
10
17.1703808
20
-0.0272339
11
17.1703808
21
-0.1019291
0
LINE
8
DEFAULT_255_1_234
10
16.658759
20
0.3912196
11
16.4788481
21
0.3912196
0
LINE
8
DEFAULT_255_1_234
10
16.4788481
20
0.3912196
11
16.4788481
21
-0.5252017
0
LINE
8
DEFAULT_255_1_234
10
16.4788481
20
-0.5252017
11
16.6410892
21
-0.5252017
0
LINE
8
DEFAULT_255_1_234
10
17.0177777
20
-0.0987164
11
17.0177777
21
-0.0304466
0
ARC
8
DEFAULT_255_1_234
10
16.6586374
20
-0.0684106
40
0.5865446
50
75.4101064
51
90.3804066
0
ARC
8
DEFAULT_255_1_234
10
16.6815888
20
0.0272492
40
0.4881916
50
60.145586
51
75.1888407
0
ARC
8
DEFAULT_255_1_234
10
16.6974663
20
0.0549199
40
0.4562893
50
26.5253612
51
60.1450928
0
ARC
8
DEFAULT_255_1_234
10
16.5854412
20
-0.0044842
40
0.5830602
50
7.4030428
51
26.8320788
0
ARC
8
DEFAULT_255_1_234
10
16.4260169
20
-0.0293196
40
0.7443669
50
0.1605367
51
7.7176192
0
ARC
8
DEFAULT_255_1_234
10
16.4424074
20
-0.1057566
40
0.7279835
50
348.7289388
51
0.3012466
0
ARC
8
DEFAULT_255_1_234
10
16.6080504
20
-0.1386614
40
0.559104
50
333.0706509
51
348.7181832
0
ARC
8
DEFAULT_255_1_234
10
16.7047262
20
-0.1911681
40
0.4491417
50
299.2531685
51
333.4571258
0
ARC
8
DEFAULT_255_1_234
10
16.6686401
20
-0.1226172
40
0.5265881
50
278.107187
51
299.0339503
0
ARC
8
DEFAULT_255_1_234
10
16.643048
20
0.0281216
40
0.679442
50
270.4443897
51
278.4511052
0
ARC
8
DEFAULT_255_1_234
10
16.645131
20
-0.0647787
40
0.4604407
50
269.4970433
51
284.0205042
0
ARC
8
DEFAULT_255_1_234
10
16.6806611
20
-0.2013022
40
0.3193797
50
283.7700273
51
318.1555492
0
ARC
8
DEFAULT_255_1_234
10
16.6469369
20
-0.1760633
40
0.3613588
50
318.7415601
51
343.6873628
0
ARC
8
DEFAULT_255_1_234
10
16.4665393
20
-0.1197168
40
0.5503313
50
343.3325091
51
355.8548958
0
ARC
8
DEFAULT_255_1_234
10
16.2567077
20
-0.0997681
40
0.7610708
50
355.4988528
51
0.0791727
0
ARC
8
DEFAULT_255_1_234
10
16.33497
20
-0.026222
40
0.6828208
50
359.6455037
51
9.8607896
0
ARC
8
DEFAULT_255_1_234
10
16.5710397
20
0.0164099
40
0.4429406
50
9.6571907
51
26.1932807
0
ARC
8
DEFAULT_255_1_234
10
16.6638386
20
0.0595118
40
0.3406537
50
26.5777228
51
40.1532208
0
ARC
8
DEFAULT_255_1_234
10
16.6894113
20
0.0794619
40
0.308246
50
40.3840491
51
80.1431104
0
ARC
8
DEFAULT_255_1_234
10
16.656723
20
-0.0654667
40
0.4566909
50
79.2152159
51
89.7445637
0
LINE
8
DEFAULT_255_1_234
10
18.1896083
20
0.5181211
11
18.1896083
21
0.3912196
0
LINE
8
DEFAULT_255_1_234
10
18.1896083
20
0.3912196
11
17.813723
21
0.3912196
0
LINE
8
DEFAULT_255_1_234
10
17.813723
20
0.3912196
11
17.813723
21
-0.6513
0
LINE
8
DEFAULT_255_1_234
10
17.813723
20
-0.6513
11
17.6603168
21
-0.6513
0
LINE
8
DEFAULT_255_1_234
10
17.6603168
20
-0.6513
11
17.6603168
21
0.3912196
0
LINE
8
DEFAULT_255_1_234
10
17.6603168
20
0.3912196
11
17.2852346
21
0.3912196
0
LINE
8
DEFAULT_255_1_234
10
17.2852346
20
0.3912196
11
17.2852346
21
0.5181211
0
LINE
8
DEFAULT_255_1_234
10
17.2852346
20
0.5181211
11
18.1896083
21
0.5181211
0
LINE
8
DEFAULT_255_1_234
10
18.4626875
20
-0.0938974
11
18.4626875
21
-0.2151766
0
LINE
8
DEFAULT_255_1_234
10
18.4626875
20
-0.2151766
11
18.0707386
21
-0.2151766
0
LINE
8
DEFAULT_255_1_234
10
18.0707386
20
-0.2151766
11
18.0707386
21
-0.0938974
0
LINE
8
DEFAULT_255_1_234
10
18.0707386
20
-0.0938974
11
18.4626875
21
-0.0938974
0
LINE
8
DEFAULT_255_1_234
10
18.9542298
20
-0.6513
11
18.6305508
21
-0.6513
0
LINE
8
DEFAULT_255_1_234
10
18.6305508
20
-0.6513
11
18.6305508
21
0.5181211
0
LINE
8
DEFAULT_255_1_234
10
18.6305508
20
0.5181211
11
18.9606552
21
0.5181211
0
LINE
8
DEFAULT_255_1_234
10
19.4762928
20
-0.0272339
11
19.4762928
21
-0.1019291
0
LINE
8
DEFAULT_255_1_234
10
18.9646711
20
0.3912196
11
18.7847602
21
0.3912196
0
LINE
8
DEFAULT_255_1_234
10
18.7847602
20
0.3912196
11
18.7847602
21
-0.5252017
0
LINE
8
DEFAULT_255_1_234
10
18.7847602
20
-0.5252017
11
18.9470013
21
-0.5252017
0
LINE
8
DEFAULT_255_1_234
10
19.3236898
20
-0.0987164
11
19.3236898
21
-0.0304466
0
ARC
8
DEFAULT_255_1_234
10
18.9645495
20
-0.0684106
40
0.5865446
50
75.4101064
51
90.3804066
0
ARC
8
DEFAULT_255_1_234
10
18.9875008
20
0.0272492
40
0.4881916
50
60.145586
51
75.1888407
0
ARC
8
DEFAULT_255_1_234
10
19.0033784
20
0.0549199
40
0.4562893
50
26.5253612
51
60.1450928
0
ARC
8
DEFAULT_255_1_234
10
18.8913533
20
-0.0044842
40
0.5830602
50
7.4030428
51
26.8320788
0
ARC
8
DEFAULT_255_1_234
10
18.731929
20
-0.0293196
40
0.7443669
50
0.1605367
51
7.7176192
0
ARC
8
DEFAULT_255_1_234
10
18.7483194
20
-0.1057566
40
0.7279835
50
348.7289388
51
0.3012466
0
ARC
8
DEFAULT_255_1_234
10
18.9139625
20
-0.1386614
40
0.559104
50
333.0706509
51
348.7181832
0
ARC
8
DEFAULT_255_1_234
10
19.0106382
20
-0.1911681
40
0.4491417
50
299.2531685
51
333.4571258
0
ARC
8
DEFAULT_255_1_234
10
18.9745522
20
-0.1226172
40
0.5265881
50
278.107187
51
299.0339503
0
ARC
8
DEFAULT_255_1_234
10
18.9489601
20
0.0281216
40
0.679442
50
270.4443897
51
278.4511052
0
ARC
8
DEFAULT_255_1_234
10
18.9510431
20
-0.0647787
40
0.4604407
50
269.4970433
51
284.0205042
0
ARC
8
DEFAULT_255_1_234
10
18.9865732
20
-0.2013022
40
0.3193797
50
283.7700273
51
318.1555492
0
ARC
8
DEFAULT_255_1_234
10
18.952849
20
-0.1760633
40
0.3613588
50
318.7415601
51
343.6873628
0
ARC
8
DEFAULT_255_1_234
10
18.7724513
20
-0.1197168
40
0.5503313
50
343.3325091
51
355.8548958
0
ARC
8
DEFAULT_255_1_234
10
18.5626198
20
-0.0997681
40
0.7610708
50
355.4988528
51
0.0791727
0
ARC
8
DEFAULT_255_1_234
10
18.640882
20
-0.026222
40
0.6828208
50
359.6455037
51
9.8607896
0
ARC
8
DEFAULT_255_1_234
10
18.8769518
20
0.0164099
40
0.4429406
50
9.6571907
51
26.1932807
0
ARC
8
DEFAULT_255_1_234
10
18.9697507
20
0.0595118
40
0.3406537
50
26.5777228
51
40.1532208
0
ARC
8
DEFAULT_255_1_234
10
18.9953233
20
0.0794619
40
0.308246
50
40.3840491
51
80.1431104
0
ARC
8
DEFAULT_255_1_234
10
18.9626351
20
-0.0654667
40
0.4566909
50
79.2152159
51
89.7445637
0
ARC
8
DEFAULT_255_2_778
10
15.2718323
20
202.684589
40
0.3782009
50
0.4397807
51
91.3045231
0
ARC
8
DEFAULT_255_2_778
10
15.2696879
20
202.6823064
40
0.3803695
50
269.0259909
51
0.7811192
0
ARC
8
DEFAULT_255_2_778
10
15.4292635
20
202.6695149
40
0.7634811
50
290.7150207
51
357.6789493
0
ARC
8
DEFAULT_255_2_778
10
15.3436879
20
202.6874213
40
0.849834
50
356.7063002
51
0.0047554
0
ARC
8
DEFAULT_255_2_778
10
15.3422443
20
202.6874748
40
0.8512778
50
0.0011515
51
85.3589632
0
ARC
8
DEFAULT_255_2_778
10
15.3422371
20
202.6684092
40
0.8702827
50
85.4600549
51
90.0075769
0
ARC
8
DEFAULT_255_2_778
10
20.173385
20
202.6781426
40
0.3845507
50
1.3931151
51
90.158378
0
ARC
8
DEFAULT_255_2_778
10
20.2329096
20
202.6717635
40
0.8684198
50
359.7643557
51
42.1181505
0
ARC
8
DEFAULT_255_2_778
10
20.2353156
20
202.6721931
40
0.866348
50
42.2037872
51
87.9292218
0
ARC
8
DEFAULT_255_2_778
10
20.2305626
20
202.6309097
40
0.9077821
50
87.7235759
51
90.0025578
0
ARC
8
DEFAULT_255_2_778
10
12.9264947
20
202.6850344
40
0.3777354
50
0.3727528
51
91.1638813
0
ARC
8
DEFAULT_255_2_778
10
12.9805692
20
202.6717595
40
0.8684602
50
359.7646302
51
42.1161032
0
ARC
8
DEFAULT_255_2_778
10
12.9830774
20
202.6723127
40
0.8662296
50
42.2002176
51
87.9268901
0
ARC
8
DEFAULT_255_2_778
10
12.9783626
20
202.6312749
40
0.9074169
50
87.7231194
51
90.002558
0
ARC
8
DEFAULT_255_2_778
10
17.559042
20
202.2799858
40
1.2841942
50
233.3100129
51
270.0348017
0
ARC
8
DEFAULT_255_2_778
10
17.5711133
20
202.3003622
40
1.3077482
50
187.7860459
51
233.4193197
0
ARC
8
DEFAULT_255_2_778
10
17.5893588
20
202.3019185
40
1.3260368
50
179.9838663
51
187.7458681
0
ARC
8
DEFAULT_255_2_778
10
17.5478523
20
202.3025375
40
1.2845303
50
143.7084173
51
180.0109545
0
ARC
8
DEFAULT_255_2_778
10
17.5629238
20
202.2974899
40
1.2996747
50
94.9692901
51
143.9223324
0
ARC
8
DEFAULT_255_2_778
10
17.5597032
20
202.2981347
40
1.2987573
50
89.9947559
51
94.8302073
0
ARC
8
DEFAULT_255_2_778
10
17.5619339
20
202.2923304
40
1.3045632
50
58.1407344
51
90.0927508
0
ARC
8
DEFAULT_255_2_778
10
17.5700831
20
202.2979662
40
1.2954809
50
3.5056409
51
58.315291
0
ARC
8
DEFAULT_255_2_778
10
17.5711163
20
202.3020563
40
1.2942058
50
359.9971467
51
3.3277024
0
ARC
8
DEFAULT_255_2_778
10
17.3826088
20
202.2999483
40
1.4827147
50
0.006083
51
0.0789681
0
ARC
8
DEFAULT_255_2_778
10
17.5604187
20
202.3001022
40
1.3049047
50
315.0308293
51
0.0001529
0
ARC
8
DEFAULT_255_2_778
10
17.5609377
20
202.2998521
40
1.3043608
50
270.000667
51
315.0224921
0
LINE
8
DEFAULT_255_2_778
10
17.5609529
20
200.9954914
11
17.5598221
21
200.9954919
0
ARC
8
DEFAULT_255_2_778
10
17.5640812
20
202.2983112
40
0.7580313
50
269.6780691
51
315.5292436
0
ARC
8
DEFAULT_255_2_778
10
17.5610107
20
202.2975878
40
0.7597205
50
315.7303962
51
0.2857903
0
ARC
8
DEFAULT_255_2_778
10
17.8487376
20
202.3018382
40
0.4719845
50
359.944048
51
0.0186519
0
ARC
8
DEFAULT_255_2_778
10
17.5687772
20
202.3008605
40
0.7519457
50
0.086204
51
85.4319233
0
ARC
8
DEFAULT_255_2_778
10
17.5599609
20
202.2584338
40
0.7949581
50
85.0420495
51
90.0100075
0
ARC
8
DEFAULT_255_2_778
10
17.5579396
20
202.3151519
40
0.7382424
50
89.8538973
51
89.9999976
0
ARC
8
DEFAULT_255_2_778
10
17.558077
20
202.3022044
40
0.7511899
50
90.01048
51
134.9443097
0
ARC
8
DEFAULT_255_2_778
10
17.5582947
20
202.3020222
40
0.7514726
50
134.9462486
51
180.0023145
0
ARC
8
DEFAULT_255_2_778
10
17.5703854
20
202.2980405
40
0.7635736
50
179.7035048
51
222.5717333
0
ARC
8
DEFAULT_255_2_778
10
17.5578483
20
202.2874991
40
0.7472099
50
222.6268256
51
270.1513439
0
ARC
8
DEFAULT_255_2_778
10
9.564442
20
202.2799858
40
1.2841942
50
233.3100129
51
270.0348017
0
ARC
8
DEFAULT_255_2_778
10
9.5765133
20
202.3003622
40
1.3077482
50
187.7860459
51
233.4193197
0
ARC
8
DEFAULT_255_2_778
10
9.5947588
20
202.3019185
40
1.3260368
50
179.9838663
51
187.7458681
0
ARC
8
DEFAULT_255_2_778
10
9.5535129
20
202.3023961
40
1.2847909
50
143.1940819
51
180.0046489
0
ARC
8
DEFAULT_255_2_778
10
9.5683078
20
202.2977006
40
1.2994598
50
94.9233187
51
143.4191345
0
ARC
8
DEFAULT_255_2_778
10
9.5651008
20
202.298412
40
1.2984798
50
89.9946509
51
94.7850278
0
ARC
8
DEFAULT_255_2_778
10
9.5673999
20
202.2923513
40
1.3045424
50
58.1404634
51
90.0956514
0
ARC
8
DEFAULT_255_2_778
10
9.5754868
20
202.2981335
40
1.2953683
50
3.4985319
51
58.3092733
0
ARC
8
DEFAULT_255_2_778
10
9.5757037
20
202.3020528
40
1.2949184
50
359.9973027
51
3.3260236
0
ARC
8
DEFAULT_255_2_778
10
9.5936726
20
202.2998448
40
1.2769512
50
359.9949307
51
0.0963391
0
ARC
8
DEFAULT_255_2_778
10
9.5661345
20
202.2999309
40
1.3044895
50
315.0232454
51
359.9912531
0
ARC
8
DEFAULT_255_2_778
10
9.5663338
20
202.29962
40
1.3041287
50
270.0008363
51
315.026719
0
LINE
8
DEFAULT_255_2_778
10
9.5663529
20
200.9954914
11
9.5652221
21
200.9954919
0
ARC
8
DEFAULT_255_2_778
10
9.5694412
20
202.2983135
40
0.7580334
50
269.6810953
51
315.6152252
0
ARC
8
DEFAULT_255_2_778
10
9.5663839
20
202.2976381
40
0.7597504
50
315.8129036
51
0.3254485
0
ARC
8
DEFAULT_255_2_778
10
9.5738176
20
202.3005565
40
0.7523058
50
0.1093155
51
85.7820321
0
ARC
8
DEFAULT_255_2_778
10
9.5653381
20
202.2590263
40
0.7943655
50
85.3923987
51
90.0083732
0
ARC
8
DEFAULT_255_2_778
10
9.5633385
20
202.3142348
40
0.7391595
50
89.8539942
51
89.9999859
0
ARC
8
DEFAULT_255_2_778
10
9.563405
20
202.3023783
40
0.7510159
50
90.0050654
51
134.9497993
0
ARC
8
DEFAULT_255_2_778
10
9.5632746
20
202.3021963
40
0.7510526
50
134.9329452
51
180.0155944
0
ARC
8
DEFAULT_255_2_778
10
9.5758388
20
202.2980203
40
0.7636271
50
179.7020056
51
222.5023072
0
ARC
8
DEFAULT_255_2_778
10
9.5632004
20
202.2874735
40
0.7471843
50
222.5608304
51
270.1550274
0
LINE
8
DEFAULT_255_2_778
10
14.0768221
20
203.5180919
11
14.0768221
21
201.0552919
0
LINE
8
DEFAULT_255_2_778
10
14.0768221
20
201.0552919
11
14.6203221
21
201.0552919
0
LINE
8
DEFAULT_255_2_778
10
14.6203221
20
201.0552919
11
14.6203221
21
203.0626919
0
LINE
8
DEFAULT_255_2_778
10
14.6203221
20
203.0626919
11
15.2632221
21
203.0626919
0
LINE
8
DEFAULT_255_2_778
10
15.2632221
20
202.3019919
11
14.7986221
21
202.3019919
0
LINE
8
DEFAULT_255_2_778
10
14.7986221
20
202.3019919
11
15.6397221
21
201.0549919
0
LINE
8
DEFAULT_255_2_778
10
15.6397221
20
201.0549919
11
16.3126221
21
201.0549919
0
LINE
8
DEFAULT_255_2_778
10
16.3126221
20
201.0549919
11
15.6993221
21
201.9553919
0
LINE
8
DEFAULT_255_2_778
10
15.3421221
20
203.5386919
11
14.6200221
21
203.5386919
0
LINE
8
DEFAULT_255_2_778
10
14.6200221
20
203.5386919
11
14.0766221
21
203.5180919
0
LINE
8
DEFAULT_255_2_778
10
14.0766221
20
203.5180919
11
14.0768221
21
203.5180919
0
LINE
8
DEFAULT_255_2_778
10
19.0142221
20
203.5180919
11
19.0142221
21
201.0552919
0
LINE
8
DEFAULT_255_2_778
10
19.0142221
20
201.0552919
11
19.5577221
21
201.0552919
0
LINE
8
DEFAULT_255_2_778
10
19.5577221
20
201.0552919
11
19.5577221
21
203.0626919
0
LINE
8
DEFAULT_255_2_778
10
19.5577221
20
203.0626919
11
20.1723221
21
203.0626919
0
LINE
8
DEFAULT_255_2_778
10
20.5578221
20
202.6874919
11
20.5578221
21
201.0552919
0
LINE
8
DEFAULT_255_2_778
10
20.5578221
20
201.0552919
11
21.1013221
21
201.0552919
0
LINE
8
DEFAULT_255_2_778
10
21.1013221
20
201.0552919
11
21.1013221
21
202.6681919
0
LINE
8
DEFAULT_255_2_778
10
20.2305221
20
203.5386919
11
19.5577221
21
203.5386919
0
LINE
8
DEFAULT_255_2_778
10
19.5577221
20
203.5386919
11
19.0142221
21
203.5180919
0
LINE
8
DEFAULT_255_2_778
10
19.0142221
20
203.5180919
11
19.0142221
21
203.5180919
0
LINE
8
DEFAULT_255_2_778
10
11.0196221
20
203.5180919
11
11.0196221
21
201.0552919
0
LINE
8
DEFAULT_255_2_778
10
11.0196221
20
201.0552919
11
11.5628221
21
201.0552919
0
LINE
8
DEFAULT_255_2_778
10
11.5628221
20
201.0552919
11
11.5628221
21
203.0626919
0
LINE
8
DEFAULT_255_2_778
10
11.5628221
20
203.0626919
11
12.1671221
21
203.0626919
0
LINE
8
DEFAULT_255_2_778
10
12.1671221
20
203.0626919
11
12.1671221
21
201.0552919
0
LINE
8
DEFAULT_255_2_778
10
12.1671221
20
201.0552919
11
12.7105221
21
201.0552919
0
LINE
8
DEFAULT_255_2_778
10
12.7105221
20
201.0552919
11
12.7105221
21
203.0626919
0
LINE
8
DEFAULT_255_2_778
10
12.7105221
20
203.0626919
11
12.9188221
21
203.0626919
0
LINE
8
DEFAULT_255_2_778
10
13.3042221
20
202.6874919
11
13.3042221
21
201.0552919
0
LINE
8
DEFAULT_255_2_778
10
13.3042221
20
201.0552919
11
13.8490221
21
201.0552919
0
LINE
8
DEFAULT_255_2_778
10
13.8490221
20
201.0552919
11
13.8490221
21
202.6681919
0
LINE
8
DEFAULT_255_2_778
10
12.9783221
20
203.5386919
11
11.5731221
21
203.5386919
0
LINE
8
DEFAULT_255_2_778
10
11.5731221
20
203.5386919
11
11.0193221
21
203.5180919
0
LINE
8
DEFAULT_255_2_778
10
11.0193221
20
203.5180919
11
11.0196221
21
203.5180919
0
LINE
8
DEFAULT_255_2_778
10
17.5598221
20
200.9954919
11
17.5598221
21
200.9957919
0
LINE
8
DEFAULT_255_2_778
10
9.5652221
20
200.9954919
11
9.5652221
21
200.9957919
0
LINE
8
DEFAULT_255_1_234
10
11.457823
20
198.8187663
11
11.6128355
21
198.8187663
0
LINE
8
DEFAULT_255_1_234
10
10.7124777
20
198.9777947
11
10.7124777
21
199.0902391
0
LINE
8
DEFAULT_255_1_234
10
11.6128355
20
199.2412357
11
11.457823
21
199.2412357
0
LINE
8
DEFAULT_255_1_234
10
10.8674902
20
199.0862232
11
10.8674902
21
198.9729757
0
ARC
8
DEFAULT_255_1_234
10
11.0647742
20
198.8784846
40
0.5513052
50
340.1774281
51
353.7814284
0
ARC
8
DEFAULT_255_1_234
10
11.2219095
20
198.8199582
40
0.3836379
50
311.4558989
51
340.4421614
0
ARC
8
DEFAULT_255_1_234
10
11.2185763
20
198.8310528
40
0.3941894
50
282.4333181
51
310.7513653
0
ARC
8
DEFAULT_255_1_234
10
11.1746502
20
199.0125679
40
0.5809175
50
269.9358511
51
282.809604
0
ARC
8
DEFAULT_255_1_234
10
11.1694568
20
199.1583212
40
0.7266847
50
270.0021091
51
270.3581957
0
ARC
8
DEFAULT_255_1_234
10
11.1641985
20
198.8982585
40
0.4666519
50
250.7884749
51
270.6489167
0
ARC
8
DEFAULT_255_1_234
10
11.147382
20
198.8345319
40
0.4009729
50
219.3627325
51
250.0611886
0
ARC
8
DEFAULT_255_1_234
10
11.2303031
20
198.9050042
40
0.5097822
50
193.5479632
51
219.5756669
0
ARC
8
DEFAULT_255_1_234
10
11.4674652
20
198.9665919
40
0.7547848
50
181.1218675
51
193.87563
0
ARC
8
DEFAULT_255_1_234
10
11.6744833
20
198.977658
40
0.9620055
50
179.9918545
51
181.5394234
0
ARC
8
DEFAULT_255_1_234
10
11.4893935
20
199.0939788
40
0.7769248
50
169.5837241
51
180.2757934
0
ARC
8
DEFAULT_255_1_234
10
11.3056873
20
199.1279229
40
0.590109
50
155.0365899
51
169.6003176
0
ARC
8
DEFAULT_255_1_234
10
11.1921337
20
199.1826677
40
0.4640625
50
136.783148
51
155.2472683
0
ARC
8
DEFAULT_255_1_234
10
11.1531814
20
199.2157562
40
0.4130255
50
121.7633186
51
136.428115
0
ARC
8
DEFAULT_255_1_234
10
11.1666776
20
199.1908227
40
0.4413323
50
95.6459699
51
121.5490577
0
ARC
8
DEFAULT_255_1_234
10
11.1824058
20
199.0799949
40
0.55319
50
89.924208
51
96.1377933
0
ARC
8
DEFAULT_255_1_234
10
11.1874491
20
199.0918542
40
0.5413475
50
76.6779277
51
90.4563316
0
ARC
8
DEFAULT_255_1_234
10
11.2268114
20
199.2509114
40
0.3775041
50
47.485847
51
76.9287264
0
ARC
8
DEFAULT_255_1_234
10
11.2121087
20
199.2409159
40
0.3948286
50
16.5424086
51
46.8933463
0
ARC
8
DEFAULT_255_1_234
10
11.0513244
20
199.1880861
40
0.564021
50
5.4072051
51
17.0365086
0
ARC
8
DEFAULT_255_1_234
10
10.9074261
20
199.1649679
40
0.5556559
50
7.8891745
51
15.9239216
0
ARC
8
DEFAULT_255_1_234
10
11.1061274
20
199.2226631
40
0.3487515
50
15.7653144
51
27.9410532
0
ARC
8
DEFAULT_255_1_234
10
11.2165492
20
199.281779
40
0.2235026
50
27.8166557
51
46.4008329
0
ARC
8
DEFAULT_255_1_234
10
11.2215135
20
199.2812082
40
0.2205286
50
47.4371857
51
75.0698205
0
ARC
8
DEFAULT_255_1_234
10
11.1906529
20
199.1737765
40
0.3322915
50
74.7008593
51
87.8124495
0
ARC
8
DEFAULT_255_1_234
10
11.1833217
20
199.0681844
40
0.4380987
50
87.3814673
51
90.0240855
0
ARC
8
DEFAULT_255_1_234
10
11.179476
20
199.1859291
40
0.3203749
50
89.3451631
51
108.5745436
0
ARC
8
DEFAULT_255_1_234
10
11.1657865
20
199.2372908
40
0.2673494
50
109.2998449
51
143.3037509
0
ARC
8
DEFAULT_255_1_234
10
11.2419938
20
199.1786881
40
0.3634757
50
143.0753173
51
163.1916937
0
ARC
8
DEFAULT_255_1_234
10
11.4371666
20
199.1170967
40
0.5681262
50
162.9373603
51
174.6208611
0
ARC
8
DEFAULT_255_1_234
10
11.6997708
20
199.088301
40
0.8322832
50
174.3419979
51
180.1430411
0
ARC
8
DEFAULT_255_1_234
10
11.6066864
20
198.9688698
40
0.7392076
50
179.6817502
51
189.150529
0
ARC
8
DEFAULT_255_1_234
10
11.3566112
20
198.927219
40
0.4856932
50
188.9910863
51
203.5773039
0
ARC
8
DEFAULT_255_1_234
10
11.2486445
20
198.8824211
40
0.3688271
50
203.9077269
51
215.1312379
0
ARC
8
DEFAULT_255_1_234
10
11.1563539
20
198.8108941
40
0.2522457
50
213.9071664
51
263.8849284
0
ARC
8
DEFAULT_255_1_234
10
11.1688868
20
198.8893518
40
0.3316174
50
263.1758525
51
270.1031083
0
ARC
8
DEFAULT_255_1_234
10
11.172096
20
199.0140365
40
0.4563091
50
269.6719807
51
279.0609165
0
ARC
8
DEFAULT_255_1_234
10
11.1987728
20
198.8527907
40
0.2928759
50
278.8750225
51
293.6346586
0
ARC
8
DEFAULT_255_1_234
10
11.2307936
20
198.77759
40
0.2111472
50
293.8553404
51
310.0518804
0
ARC
8
DEFAULT_255_1_234
10
11.231279
20
198.7713516
40
0.2060917
50
311.0646779
51
332.0108348
0
ARC
8
DEFAULT_255_1_234
10
11.1120517
20
198.8370978
40
0.3422352
50
331.6588543
51
343.2878891
0
ARC
8
DEFAULT_255_1_234
10
10.9058032
20
198.9004798
40
0.5580003
50
343.1446044
51
351.010618
0
ARC
8
DEFAULT_255_1_234
10
10.7516678
20
198.9285871
40
0.7146438
50
350.7157277
51
351.1602153
0
LINE
8
DEFAULT_255_1_234
10
12.2529651
20
198.9055091
11
11.9774765
21
198.9055091
0
LINE
8
DEFAULT_255_1_234
10
11.9774765
20
198.9055091
11
11.9774765
21
198.4477
0
LINE
8
DEFAULT_255_1_234
10
11.9774765
20
198.4477
11
11.8232671
21
198.4477
0
LINE
8
DEFAULT_255_1_234
10
11.8232671
20
198.4477
11
11.8232671
21
199.6171211
0
LINE
8
DEFAULT_255_1_234
10
11.8232671
20
199.6171211
11
12.2545714
21
199.6171211
0
LINE
8
DEFAULT_255_1_234
10
11.9774765
20
199.4902196
11
11.9774765
21
199.0316074
0
LINE
8
DEFAULT_255_1_234
10
11.9774765
20
199.0316074
11
12.2545714
21
199.0316074
0
LINE
8
DEFAULT_255_1_234
10
12.2634063
20
199.4902196
11
11.9774765
21
199.4902196
0
ARC
8
DEFAULT_255_1_234
10
12.2587841
20
199.0112195
40
0.6059162
50
78.8378113
51
90.3983573
0
ARC
8
DEFAULT_255_1_234
10
12.3003855
20
199.2132879
40
0.3996205
50
58.9632738
51
79.0810598
0
ARC
8
DEFAULT_255_1_234
10
12.3305397
20
199.2692721
40
0.3361177
50
48.0197965
51
58.447194
0
ARC
8
DEFAULT_255_1_234
10
12.3394258
20
199.2778225
40
0.3238191
50
3.3375044
51
48.1766626
0
ARC
8
DEFAULT_255_1_234
10
12.2164098
20
199.2601171
40
0.4477806
50
359.9477528
51
4.6829065
0
ARC
8
DEFAULT_255_1_234
10
12.2287414
20
199.2558628
40
0.4354656
50
346.1877825
51
0.5060252
0
ARC
8
DEFAULT_255_1_234
10
12.3646282
20
199.2205731
40
0.295089
50
310.8831995
51
346.5426355
0
ARC
8
DEFAULT_255_1_234
10
12.3337702
20
199.2622695
40
0.3468331
50
286.6925341
51
310.2288297
0
ARC
8
DEFAULT_255_1_234
10
12.2768533
20
199.4412882
40
0.5346654
50
274.6850312
51
287.0245141
0
ARC
8
DEFAULT_255_1_234
10
12.2543256
20
199.6621932
40
0.7566852
50
269.8969846
51
275.018904
0
ARC
8
DEFAULT_255_1_234
10
12.2570847
20
199.4542707
40
0.4226708
50
269.6593078
51
279.4153575
0
ARC
8
DEFAULT_255_1_234
10
12.2828122
20
199.3052133
40
0.2714146
50
279.2049762
51
294.9900808
0
ARC
8
DEFAULT_255_1_234
10
12.3118448
20
199.2404508
40
0.2004525
50
295.2888114
51
311.2911209
0
ARC
8
DEFAULT_255_1_234
10
12.3189342
20
199.229922
40
0.1878703
50
311.7854996
51
347.2861051
0
ARC
8
DEFAULT_255_1_234
10
12.2205501
20
199.2552092
40
0.2894234
50
346.6893224
51
0.1059443
0
ARC
8
DEFAULT_255_1_234
10
12.1450396
20
199.2580685
40
0.3649409
50
359.6350983
51
0.0053152
0
ARC
8
DEFAULT_255_1_234
10
12.2420724
20
199.2605937
40
0.2679199
50
359.4672059
51
15.5933957
0
ARC
8
DEFAULT_255_1_234
10
12.3045613
20
199.2774779
40
0.2031932
50
15.7442113
51
46.6203375
0
ARC
8
DEFAULT_255_1_234
10
12.2897834
20
199.2604484
40
0.2257226
50
46.8628658
51
75.6676503
0
ARC
8
DEFAULT_255_1_234
10
12.2603654
20
199.1545718
40
0.3355939
50
75.276167
51
88.2915297
0
ARC
8
DEFAULT_255_1_234
10
12.2545361
20
199.0667524
40
0.4235602
50
87.8575022
51
88.8000139
0
LINE
8
DEFAULT_255_1_234
10
13.1468976
20
199.0051026
11
13.1468976
21
198.8838234
0
LINE
8
DEFAULT_255_1_234
10
13.1468976
20
198.8838234
11
12.7549487
21
198.8838234
0
LINE
8
DEFAULT_255_1_234
10
12.7549487
20
198.8838234
11
12.7549487
21
199.0051026
0
LINE
8
DEFAULT_255_1_234
10
12.7549487
20
199.0051026
11
13.1468976
21
199.0051026
0
LINE
8
DEFAULT_255_1_234
10
14.0906268
20
199.2789849
11
13.9356143
21
199.2789849
0
LINE
8
DEFAULT_255_1_234
10
13.2432784
20
198.7866394
11
13.398291
21
198.7866394
0
ARC
8
DEFAULT_255_1_234
10
14.0014955
20
200.1736768
40
1.252368
50
248.9199003
51
254.1439814
0
ARC
8
DEFAULT_255_1_234
10
13.833445
20
199.7410234
40
0.788226
50
241.633709
51
249.0064503
0
ARC
8
DEFAULT_255_1_234
10
13.6805845
20
199.4609317
40
0.4691427
50
230.498225
51
241.8087113
0
ARC
8
DEFAULT_255_1_234
10
13.6021419
20
199.3609906
40
0.3421437
50
227.4064532
51
229.9881192
0
ARC
8
DEFAULT_255_1_234
10
13.553394
20
199.3134088
40
0.2741476
50
200.6781896
51
228.1763934
0
ARC
8
DEFAULT_255_1_234
10
13.560625
20
199.3119077
40
0.2804109
50
179.5061581
51
199.8694617
0
ARC
8
DEFAULT_255_1_234
10
13.5597002
20
199.319321
40
0.2795204
50
132.4834203
51
181.0242172
0
ARC
8
DEFAULT_255_1_234
10
13.6192584
20
199.2630704
40
0.3612768
50
129.2532479
51
133.4242687
0
ARC
8
DEFAULT_255_1_234
10
13.6339034
20
199.2410965
40
0.3875675
50
101.98776
51
128.8742646
0
ARC
8
DEFAULT_255_1_234
10
13.6737644
20
199.0689741
40
0.5642249
50
89.5906553
51
102.3169264
0
ARC
8
DEFAULT_255_1_234
10
13.6808137
20
199.1008148
40
0.5323783
50
77.2360837
51
90.3248275
0
ARC
8
DEFAULT_255_1_234
10
13.7015216
20
199.19754
40
0.4334697
50
63.837784
51
77.0809408
0
ARC
8
DEFAULT_255_1_234
10
13.7292977
20
199.2492911
40
0.3747796
50
45.9864267
51
64.1607727
0
ARC
8
DEFAULT_255_1_234
10
13.7553859
20
199.2790866
40
0.3352302
50
32.2747395
51
45.6547121
0
ARC
8
DEFAULT_255_1_234
10
13.7620299
20
199.280988
40
0.328603
50
359.6507365
51
32.6130309
0
ARC
8
DEFAULT_255_1_234
10
13.6677395
20
199.281466
40
0.2678863
50
359.469343
51
14.9832209
0
ARC
8
DEFAULT_255_1_234
10
13.7382457
20
199.3003539
40
0.1948938
50
14.9781179
51
48.2004265
0
ARC
8
DEFAULT_255_1_234
10
13.7218101
20
199.2796983
40
0.2212521
50
48.5927837
51
74.1241538
0
ARC
8
DEFAULT_255_1_234
10
13.6884591
20
199.1696248
40
0.3362561
50
73.7888341
51
86.6652678
0
ARC
8
DEFAULT_255_1_234
10
13.6782156
20
199.0488881
40
0.4573953
50
86.2640471
51
90.0526343
0
ARC
8
DEFAULT_255_1_234
10
13.6753869
20
199.0884192
40
0.4178709
50
89.6697524
51
99.2309573
0
ARC
8
DEFAULT_255_1_234
10
13.651132
20
199.2328964
40
0.2713749
50
99.069534
51
113.7658566
0
ARC
8
DEFAULT_255_1_234
10
13.6237511
20
199.2974677
40
0.2012469
50
114.0401004
51
127.9850673
0
ARC
8
DEFAULT_255_1_234
10
13.5997075
20
199.327073
40
0.1631167
50
127.7287463
51
176.7105154
0
ARC
8
DEFAULT_255_1_234
10
13.6675792
20
199.3169693
40
0.2315392
50
175.1779447
51
180.0581938
0
ARC
8
DEFAULT_255_1_234
10
13.5832639
20
199.3157428
40
0.1472271
50
179.6142195
51
228.1246017
0
ARC
8
DEFAULT_255_1_234
10
13.6274308
20
199.3566308
40
0.2072299
50
226.5779593
51
230.8800004
0
ARC
8
DEFAULT_255_1_234
10
13.6745386
20
199.4191636
40
0.2854818
50
231.4635071
51
241.9260842
0
ARC
8
DEFAULT_255_1_234
10
13.7942564
20
199.63948
40
0.53622
50
241.7178533
51
248.3259551
0
ARC
8
DEFAULT_255_1_234
10
13.9327936
20
199.9827064
40
0.9063478
50
248.2007737
51
252.4528373
0
ARC
8
DEFAULT_255_1_234
10
14.0531661
20
200.3548441
40
1.2974635
50
252.3391078
51
254.3469452
0
ARC
8
DEFAULT_255_1_234
10
13.2989364
20
197.6571148
40
1.5037162
50
71.0197183
51
74.4087047
0
ARC
8
DEFAULT_255_1_234
10
13.4684049
20
198.1463111
40
0.9859993
50
66.1847285
51
71.086374
0
ARC
8
DEFAULT_255_1_234
10
13.6240361
20
198.49672
40
0.6025855
50
59.3536294
51
66.2691831
0
ARC
8
DEFAULT_255_1_234
10
13.7129014
20
198.6470609
40
0.4279449
50
49.1020879
51
59.3293958
0
ARC
8
DEFAULT_255_1_234
10
13.7947754
20
198.7403834
40
0.3038015
50
32.7919921
51
49.2505539
0
ARC
8
DEFAULT_255_1_234
10
13.8268844
20
198.7632191
40
0.264448
50
31.1181161
51
32.4005348
0
ARC
8
DEFAULT_255_1_234
10
13.8180381
20
198.7596779
40
0.2738556
50
8.1116974
51
30.7958831
0
ARC
8
DEFAULT_255_1_234
10
13.7370049
20
198.7458753
40
0.3560327
50
359.8389159
51
8.4706516
0
ARC
8
DEFAULT_255_1_234
10
13.7995841
20
198.7410137
40
0.2934776
50
337.4731098
51
0.7537279
0
ARC
8
DEFAULT_255_1_234
10
13.8174536
20
198.7390387
40
0.2762607
50
307.5917067
51
336.4315538
0
ARC
8
DEFAULT_255_1_234
10
13.7714364
20
198.7903102
40
0.3449979
50
307.6551545
51
308.4529766
0
ARC
8
DEFAULT_255_1_234
10
13.7484083
20
198.825825
40
0.3871988
50
284.3734338
51
307.1424381
0
ARC
8
DEFAULT_255_1_234
10
13.6988913
20
199.0079932
40
0.5759636
50
272.4382747
51
284.646547
0
ARC
8
DEFAULT_255_1_234
10
13.6862122
20
199.1879893
40
0.7563528
50
269.9708387
51
272.8178037
0
ARC
8
DEFAULT_255_1_234
10
13.6819161
20
198.9841716
40
0.5525489
50
248.2707594
51
270.4055579
0
ARC
8
DEFAULT_255_1_234
10
13.6764902
20
198.9651192
40
0.5328452
50
246.1383403
51
248.0542782
0
ARC
8
DEFAULT_255_1_234
10
13.6346281
20
198.8771843
40
0.4355005
50
233.1670131
51
246.4950969
0
ARC
8
DEFAULT_255_1_234
10
13.5792186
20
198.8023812
40
0.3424126
50
215.3403242
51
233.0843104
0
ARC
8
DEFAULT_255_1_234
10
13.5519617
20
198.7825549
40
0.3087104
50
179.2419209
51
215.2648451
0
ARC
8
DEFAULT_255_1_234
10
13.6287211
20
198.7839666
40
0.2304457
50
179.335461
51
199.1045811
0
ARC
8
DEFAULT_255_1_234
10
13.5954888
20
198.7752766
40
0.1962176
50
199.8828939
51
232.7063202
0
ARC
8
DEFAULT_255_1_234
10
13.6427156
20
198.8346788
40
0.2720938
50
232.3738199
51
255.5136649
0
ARC
8
DEFAULT_255_1_234
10
13.6768023
20
198.9590835
40
0.4010747
50
255.2446292
51
267.5320849
0
ARC
8
DEFAULT_255_1_234
10
13.6855646
20
199.0823702
40
0.5246356
50
267.1557994
51
270.0286766
0
ARC
8
DEFAULT_255_1_234
10
13.6883418
20
199.037995
40
0.4802668
50
269.7000017
51
278.1660162
0
ARC
8
DEFAULT_255_1_234
10
13.7139423
20
198.8649515
40
0.3053425
50
278.0231263
51
290.625471
0
ARC
8
DEFAULT_255_1_234
10
13.748711
20
198.7722025
40
0.206291
50
290.6619762
51
307.0370976
0
ARC
8
DEFAULT_255_1_234
10
13.77875
20
198.7353504
40
0.1587906
50
306.3943566
51
355.3030547
0
ARC
8
DEFAULT_255_1_234
10
13.7275431
20
198.7430113
40
0.2104809
50
354.3660432
51
0.0698737
0
ARC
8
DEFAULT_255_1_234
10
13.7417776
20
198.7452617
40
0.1962563
50
359.417946
51
16.1971788
0
ARC
8
DEFAULT_255_1_234
10
13.7873087
20
198.7577418
40
0.149053
50
16.4723299
51
52.6262157
0
ARC
8
DEFAULT_255_1_234
10
13.705214
20
198.6493433
40
0.2850296
50
52.7386432
51
62.4979148
0
ARC
8
DEFAULT_255_1_234
10
13.5667217
20
198.3887283
40
0.5801521
50
62.2515216
51
68.1220564
0
ARC
8
DEFAULT_255_1_234
10
13.3947128
20
197.9659872
40
1.0365451
50
68.0062803
51
71.8053402
0
ARC
8
DEFAULT_255_1_234
10
13.21515
20
197.4274758
40
1.6042013
50
71.7183119
51
73.9258742
0
LINE
8
DEFAULT_255_1_234
10
14.2295759
20
198.8581218
11
14.2295759
21
198.8854297
0
LINE
8
DEFAULT_255_1_234
10
14.9668895
20
198.9014932
11
14.9668895
21
198.8396488
0
LINE
8
DEFAULT_255_1_234
10
14.9668895
20
198.8396488
11
14.378163
21
198.8396488
0
LINE
8
DEFAULT_255_1_234
10
14.8648864
20
198.6701792
11
14.955645
21
198.5994999
0
LINE
8
DEFAULT_255_1_234
10
14.3829821
20
198.9617313
11
14.8183023
21
198.9617313
0
LINE
8
DEFAULT_255_1_234
10
14.8183023
20
198.9617313
11
14.8183023
21
198.9729757
0
ARC
8
DEFAULT_255_1_234
10
14.6235124
20
198.8692332
40
0.4376191
50
252.3266134
51
270.5810217
0
ARC
8
DEFAULT_255_1_234
10
14.6030213
20
198.7951644
40
0.3608374
50
223.3000567
51
251.8561855
0
ARC
8
DEFAULT_255_1_234
10
14.6241574
20
198.8156937
40
0.3902993
50
190.9374509
51
223.3654032
0
ARC
8
DEFAULT_255_1_234
10
14.7966546
20
198.8546885
40
0.5670891
50
179.6531105
51
191.4989439
0
ARC
8
DEFAULT_255_1_234
10
14.8088558
20
198.8886417
40
0.5792888
50
167.4007466
51
180.3176909
0
ARC
8
DEFAULT_255_1_234
10
14.703662
20
198.9108885
40
0.471777
50
154.1835823
51
167.250763
0
ARC
8
DEFAULT_255_1_234
10
14.6405087
20
198.9441417
40
0.4004528
50
134.3149965
51
154.5315275
0
ARC
8
DEFAULT_255_1_234
10
14.6187582
20
198.9632228
40
0.371612
50
122.8616532
51
133.9707695
0
ARC
8
DEFAULT_255_1_234
10
14.6084156
20
198.9854703
40
0.3473289
50
89.8249009
51
123.4199222
0
ARC
8
DEFAULT_255_1_234
10
14.6134197
20
198.9207967
40
0.4120197
50
74.7876118
51
90.5482747
0
ARC
8
DEFAULT_255_1_234
10
14.6427941
20
199.029303
40
0.2996077
50
39.8178249
51
74.7633718
0
ARC
8
DEFAULT_255_1_234
10
14.5915261
20
198.9893351
40
0.3645855
50
16.8990863
51
39.4829761
0
ARC
8
DEFAULT_255_1_234
10
14.4020557
20
198.9286526
40
0.5635218
50
4.9636328
51
17.2026414
0
ARC
8
DEFAULT_255_1_234
10
14.1602627
20
198.903134
40
0.8066286
50
359.8834553
51
5.2834307
0
ARC
8
DEFAULT_255_1_234
10
14.7640152
20
198.8462803
40
0.3859091
50
180.9846213
51
194.9401313
0
ARC
8
DEFAULT_255_1_234
10
14.659043
20
198.8175849
40
0.2770883
50
194.80314
51
222.0412631
0
ARC
8
DEFAULT_255_1_234
10
14.6286312
20
198.7874116
40
0.2343055
50
221.5417084
51
268.8614402
0
ARC
8
DEFAULT_255_1_234
10
14.6359306
20
198.8550686
40
0.3021528
50
267.732405
51
270.0097136
0
ARC
8
DEFAULT_255_1_234
10
14.6377116
20
198.8752105
40
0.3222994
50
269.6924892
51
280.4117579
0
ARC
8
DEFAULT_255_1_234
10
14.6553523
20
198.7833193
40
0.2287344
50
280.2255091
51
298.6338936
0
ARC
8
DEFAULT_255_1_234
10
14.6670315
20
198.7589223
40
0.2017294
50
299.0430333
51
300.4643464
0
ARC
8
DEFAULT_255_1_234
10
14.599032
20
198.8723038
40
0.3339357
50
300.6577328
51
322.0378878
0
ARC
8
DEFAULT_255_1_234
10
14.563986
20
198.9027021
40
0.3802736
50
321.6750233
51
322.3046845
0
ARC
8
DEFAULT_255_1_234
10
14.6570821
20
198.786037
40
0.3520454
50
276.9728461
51
328.0035423
0
ARC
8
DEFAULT_255_1_234
10
14.6293874
20
198.9340841
40
0.5024498
50
269.8361028
51
278.0581756
0
ARC
8
DEFAULT_255_1_234
10
14.6066611
20
199.0085757
40
0.202159
50
89.2018686
51
117.2851756
0
ARC
8
DEFAULT_255_1_234
10
14.611978
20
199.0043752
40
0.2083484
50
118.0551165
51
137.4540413
0
ARC
8
DEFAULT_255_1_234
10
14.649452
20
198.9703304
40
0.2589774
50
137.5109581
51
158.8516286
0
ARC
8
DEFAULT_255_1_234
10
14.7632356
20
198.9244074
40
0.38167
50
158.5845963
51
170.1721436
0
ARC
8
DEFAULT_255_1_234
10
14.8801745
20
198.9011823
40
0.5008657
50
169.8376422
51
173.0566086
0
ARC
8
DEFAULT_255_1_234
10
14.4104819
20
198.9522509
40
0.4083467
50
2.9091802
51
12.8847116
0
ARC
8
DEFAULT_255_1_234
10
14.5475495
20
198.9845101
40
0.2675383
50
12.6957781
51
28.6404489
0
ARC
8
DEFAULT_255_1_234
10
14.6017166
20
199.0125458
40
0.2065654
50
29.0169854
51
41.1487595
0
ARC
8
DEFAULT_255_1_234
10
14.6219951
20
199.0302003
40
0.1796786
50
41.1646065
51
85.0013516
0
ARC
8
DEFAULT_255_1_234
10
14.6099048
20
198.9567431
40
0.2539726
50
83.7280015
51
90.0964893
0
LINE
8
DEFAULT_255_1_234
10
15.5588286
20
199.3215531
11
15.5588286
21
199.1834072
0
LINE
8
DEFAULT_255_1_234
10
15.2873558
20
199.0645375
11
15.2873558
21
198.4477
0
LINE
8
DEFAULT_255_1_234
10
15.2873558
20
198.4477
11
15.1387687
21
198.4477
0
LINE
8
DEFAULT_255_1_234
10
15.1387687
20
198.4477
11
15.1387687
21
199.3167341
0
LINE
8
DEFAULT_255_1_234
10
15.1387687
20
199.3167341
11
15.2833399
21
199.3167341
0
LINE
8
DEFAULT_255_1_234
10
15.2833399
20
199.3167341
11
15.2857495
21
199.2163374
0
ARC
8
DEFAULT_255_1_234
10
15.4921691
20
198.7774342
40
0.4114092
50
80.6754243
51
86.8932892
0
ARC
8
DEFAULT_255_1_234
10
15.4861225
20
198.68067
40
0.5083596
50
86.8038578
51
90.0431435
0
ARC
8
DEFAULT_255_1_234
10
15.4824206
20
198.9263866
40
0.2626638
50
89.2759698
51
106.6213787
0
ARC
8
DEFAULT_255_1_234
10
15.461977
20
199.000683
40
0.1856317
50
107.1346045
51
157.6458115
0
ARC
8
DEFAULT_255_1_234
10
15.5311372
20
198.9623311
40
0.2643398
50
155.6586782
51
157.2539184
0
ARC
8
DEFAULT_255_1_234
10
15.5106574
20
199.0792157
40
0.2634121
50
127.8165941
51
148.6302098
0
ARC
8
DEFAULT_255_1_234
10
15.4853043
20
199.1052218
40
0.2273596
50
91.3329982
51
126.7875809
0
ARC
8
DEFAULT_255_1_234
10
15.4928983
20
199.0337195
40
0.299078
50
89.986594
51
92.4688449
0
ARC
8
DEFAULT_255_1_234
10
15.4937378
20
199.0612078
40
0.2715908
50
85.3589899
51
90.1623399
0
ARC
8
DEFAULT_255_1_234
10
15.5021894
20
199.1616164
40
0.1708278
50
78.401942
51
85.4594656
0
ARC
8
DEFAULT_255_1_234
10
15.5166778
20
199.2307236
40
0.1002194
50
67.7858312
51
78.5728455
0
ARC
8
DEFAULT_255_1_234
10
15.5274631
20
199.2586887
40
0.0702548
50
63.4835954
51
67.3062642
0
LINE
8
DEFAULT_255_1_234
10
15.8568061
20
199.3167341
11
15.8568061
21
198.4477
0
LINE
8
DEFAULT_255_1_234
10
15.8568061
20
198.4477
11
15.7082189
21
198.4477
0
LINE
8
DEFAULT_255_1_234
10
15.7082189
20
198.4477
11
15.7082189
21
199.3167341
0
LINE
8
DEFAULT_255_1_234
10
15.7082189
20
199.3167341
11
15.8568061
21
199.3167341
0
ARC
8
DEFAULT_255_1_234
10
15.7940338
20
199.5481889
40
0.097867
50
161.415052
51
180.5526306
0
ARC
8
DEFAULT_255_1_234
10
15.7816116
20
199.5516077
40
0.0850062
50
138.1827368
51
160.9307106
0
ARC
8
DEFAULT_255_1_234
10
15.7706061
20
199.5611588
40
0.0704362
50
104.6368899
51
138.0039868
0
ARC
8
DEFAULT_255_1_234
10
15.7813216
20
199.5244963
40
0.1086221
50
92.0600725
51
105.2189128
0
ARC
8
DEFAULT_255_1_234
10
15.7836564
20
199.4902117
40
0.1429728
50
89.9756393
51
92.5012496
0
ARC
8
DEFAULT_255_1_234
10
15.7846584
20
199.5127731
40
0.1204151
50
78.0235316
51
90.4478182
0
ARC
8
DEFAULT_255_1_234
10
15.7938676
20
199.5541295
40
0.0780493
50
55.051506
51
78.3369085
0
ARC
8
DEFAULT_255_1_234
10
15.798895
20
199.5625711
40
0.0682538
50
42.0501187
51
54.4513741
0
ARC
8
DEFAULT_255_1_234
10
15.7853817
20
199.5501798
40
0.0865878
50
1.7497075
51
42.1496013
0
ARC
8
DEFAULT_255_1_234
10
15.759915
20
199.5472738
40
0.1121515
50
359.9852656
51
2.8364544
0
ARC
8
DEFAULT_255_1_234
10
15.7765142
20
199.5463229
40
0.0955566
50
342.1070653
51
0.552888
0
ARC
8
DEFAULT_255_1_234
10
15.790784
20
199.5423904
40
0.0807713
50
316.7107116
51
341.6516965
0
ARC
8
DEFAULT_255_1_234
10
15.7974877
20
199.5363823
40
0.0717724
50
285.4397031
51
316.5324284
0
ARC
8
DEFAULT_255_1_234
10
15.7864794
20
199.5729554
40
0.1099597
50
272.3547054
51
285.8953117
0
ARC
8
DEFAULT_255_1_234
10
15.7837952
20
199.6095048
40
0.1465932
50
269.9695369
51
272.8160237
0
ARC
8
DEFAULT_255_1_234
10
15.7828133
20
199.5875863
40
0.1246779
50
258.8431134
51
270.4153935
0
ARC
8
DEFAULT_255_1_234
10
15.7738175
20
199.5440414
40
0.0802162
50
238.5431189
51
259.1288175
0
ARC
8
DEFAULT_255_1_234
10
15.767006
20
199.5316856
40
0.0661247
50
222.5062634
51
237.9906969
0
ARC
8
DEFAULT_255_1_234
10
15.7797648
20
199.5432889
40
0.0833707
50
184.1069131
51
222.460413
0
ARC
8
DEFAULT_255_1_234
10
15.8066889
20
199.5471349
40
0.1105176
50
179.9429482
51
185.0960898
0
LINE
8
DEFAULT_255_1_234
10
16.0567963
20
198.8581218
11
16.0567963
21
198.8854297
0
LINE
8
DEFAULT_255_1_234
10
16.7941099
20
198.9014932
11
16.7941099
21
198.8396488
0
LINE
8
DEFAULT_255_1_234
10
16.7941099
20
198.8396488
11
16.2053835
21
198.8396488
0
LINE
8
DEFAULT_255_1_234
10
16.6921068
20
198.6701792
11
16.7828655
21
198.5994999
0
LINE
8
DEFAULT_255_1_234
10
16.2102025
20
198.9617313
11
16.6455228
21
198.9617313
0
LINE
8
DEFAULT_255_1_234
10
16.6455228
20
198.9617313
11
16.6455228
21
198.9729757
0
ARC
8
DEFAULT_255_1_234
10
16.4507329
20
198.8692332
40
0.4376191
50
252.3266134
51
270.5810217
0
ARC
8
DEFAULT_255_1_234
10
16.4302418
20
198.7951644
40
0.3608374
50
223.3000567
51
251.8561855
0
ARC
8
DEFAULT_255_1_234
10
16.4513778
20
198.8156937
40
0.3902993
50
190.9374509
51
223.3654032
0
ARC
8
DEFAULT_255_1_234
10
16.623875
20
198.8546885
40
0.5670891
50
179.6531105
51
191.4989439
0
ARC
8
DEFAULT_255_1_234
10
16.6360763
20
198.8886417
40
0.5792888
50
167.4007466
51
180.3176909
0
ARC
8
DEFAULT_255_1_234
10
16.5308824
20
198.9108885
40
0.471777
50
154.1835823
51
167.250763
0
ARC
8
DEFAULT_255_1_234
10
16.4677292
20
198.9441417
40
0.4004528
50
134.3149965
51
154.5315275
0
ARC
8
DEFAULT_255_1_234
10
16.4459787
20
198.9632228
40
0.371612
50
122.8616532
51
133.9707695
0
ARC
8
DEFAULT_255_1_234
10
16.4356361
20
198.9854703
40
0.3473289
50
89.8249009
51
123.4199222
0
ARC
8
DEFAULT_255_1_234
10
16.4406402
20
198.9207967
40
0.4120197
50
74.7876118
51
90.5482747
0
ARC
8
DEFAULT_255_1_234
10
16.4700145
20
199.029303
40
0.2996077
50
39.8178249
51
74.7633718
0
ARC
8
DEFAULT_255_1_234
10
16.4187465
20
198.9893351
40
0.3645855
50
16.8990863
51
39.4829761
0
ARC
8
DEFAULT_255_1_234
10
16.2292762
20
198.9286526
40
0.5635218
50
4.9636328
51
17.2026414
0
ARC
8
DEFAULT_255_1_234
10
15.9874832
20
198.903134
40
0.8066286
50
359.8834553
51
5.2834307
0
ARC
8
DEFAULT_255_1_234
10
16.5912357
20
198.8462803
40
0.3859091
50
180.9846213
51
194.9401313
0
ARC
8
DEFAULT_255_1_234
10
16.4862634
20
198.8175849
40
0.2770883
50
194.80314
51
222.0412631
0
ARC
8
DEFAULT_255_1_234
10
16.4558516
20
198.7874116
40
0.2343055
50
221.5417084
51
268.8614402
0
ARC
8
DEFAULT_255_1_234
10
16.4631511
20
198.8550686
40
0.3021528
50
267.732405
51
270.0097136
0
ARC
8
DEFAULT_255_1_234
10
16.4649321
20
198.8752105
40
0.3222994
50
269.6924892
51
280.4117579
0
ARC
8
DEFAULT_255_1_234
10
16.4825728
20
198.7833193
40
0.2287344
50
280.2255091
51
298.6338936
0
ARC
8
DEFAULT_255_1_234
10
16.494252
20
198.7589223
40
0.2017294
50
299.0430333
51
300.4643464
0
ARC
8
DEFAULT_255_1_234
10
16.4262525
20
198.8723038
40
0.3339357
50
300.6577328
51
322.0378878
0
ARC
8
DEFAULT_255_1_234
10
16.3912064
20
198.9027021
40
0.3802736
50
321.6750233
51
322.3046845
0
ARC
8
DEFAULT_255_1_234
10
16.4843026
20
198.786037
40
0.3520454
50
276.9728461
51
328.0035423
0
ARC
8
DEFAULT_255_1_234
10
16.4566078
20
198.9340841
40
0.5024498
50
269.8361028
51
278.0581756
0
ARC
8
DEFAULT_255_1_234
10
16.4338816
20
199.0085757
40
0.202159
50
89.2018686
51
117.2851756
0
ARC
8
DEFAULT_255_1_234
10
16.4391985
20
199.0043752
40
0.2083484
50
118.0551165
51
137.4540413
0
ARC
8
DEFAULT_255_1_234
10
16.4766725
20
198.9703304
40
0.2589774
50
137.5109581
51
158.8516286
0
ARC
8
DEFAULT_255_1_234
10
16.590456
20
198.9244074
40
0.38167
50
158.5845963
51
170.1721436
0
ARC
8
DEFAULT_255_1_234
10
16.707395
20
198.9011823
40
0.5008657
50
169.8376422
51
173.0566086
0
ARC
8
DEFAULT_255_1_234
10
16.2377023
20
198.9522509
40
0.4083467
50
2.9091802
51
12.8847116
0
ARC
8
DEFAULT_255_1_234
10
16.37477
20
198.9845101
40
0.2675383
50
12.6957781
51
28.6404489
0
ARC
8
DEFAULT_255_1_234
10
16.4289371
20
199.0125458
40
0.2065654
50
29.0169854
51
41.1487595
0
ARC
8
DEFAULT_255_1_234
10
16.4492156
20
199.0302003
40
0.1796786
50
41.1646065
51
85.0013516
0
ARC
8
DEFAULT_255_1_234
10
16.4371253
20
198.9567431
40
0.2539726
50
83.7280015
51
90.0964893
0
LINE
8
DEFAULT_255_1_234
10
17.612544
20
199.0613248
11
17.4631537
21
199.0613248
0
LINE
8
DEFAULT_255_1_234
10
16.9298463
20
198.7151569
11
17.0784334
21
198.7151569
0
ARC
8
DEFAULT_255_1_234
10
17.3443356
20
198.6796959
40
0.1276617
50
359.3334982
51
18.5871358
0
ARC
8
DEFAULT_255_1_234
10
17.3651993
20
198.6852133
40
0.1061371
50
19.3540742
51
54.6485071
0
ARC
8
DEFAULT_255_1_234
10
17.3147895
20
198.6156919
40
0.1920087
50
54.3827097
51
65.0622807
0
ARC
8
DEFAULT_255_1_234
10
17.2379291
20
198.45399
40
0.3710447
50
64.8282493
51
71.4200025
0
ARC
8
DEFAULT_255_1_234
10
17.1477167
20
198.1893107
40
0.6506741
50
71.3164301
51
75.8006402
0
ARC
8
DEFAULT_255_1_234
10
17.0635987
20
197.8652561
40
0.9854641
50
75.6809531
51
78.0061883
0
ARC
8
DEFAULT_255_1_234
10
17.508452
20
199.963177
40
1.1591028
50
254.6901892
51
258.0466452
0
ARC
8
DEFAULT_255_1_234
10
17.4046428
20
199.5872781
40
0.7691345
50
249.9010773
51
254.755261
0
ARC
8
DEFAULT_255_1_234
10
17.304277
20
199.3146982
40
0.478665
50
243.3097214
51
249.9709442
0
ARC
8
DEFAULT_255_1_234
10
17.2413792
20
199.1892778
40
0.3383568
50
234.4047477
51
243.2862168
0
ARC
8
DEFAULT_255_1_234
10
17.1791315
20
199.1033232
40
0.2322322
50
220.8667099
51
234.5493881
0
ARC
8
DEFAULT_255_1_234
10
17.1449256
20
199.0721817
40
0.1859923
50
214.3062465
51
220.5065136
0
ARC
8
DEFAULT_255_1_234
10
17.1423335
20
199.069088
40
0.1821108
50
186.912965
51
213.9618616
0
ARC
8
DEFAULT_255_1_234
10
17.195543
20
199.0777009
40
0.2359799
50
179.8808832
51
187.4339886
0
ARC
8
DEFAULT_255_1_234
10
17.1800563
20
199.0797088
40
0.2204978
50
132.005434
51
180.3942919
0
ARC
8
DEFAULT_255_1_234
10
17.2457177
20
199.0191083
40
0.3095791
50
129.2319861
51
133.5302299
0
ARC
8
DEFAULT_255_1_234
10
17.2510685
20
199.0096928
40
0.3202615
50
100.4410011
51
128.9081242
0
ARC
8
DEFAULT_255_1_234
10
17.2784569
20
198.8811455
40
0.4516583
50
89.6985377
51
100.9026564
0
ARC
8
DEFAULT_255_1_234
10
17.2841611
20
198.8651166
40
0.4676928
50
77.6965325
51
90.4076836
0
ARC
8
DEFAULT_255_1_234
10
17.3172595
20
199.0078413
40
0.3211988
50
50.7276602
51
78.0399361
0
ARC
8
DEFAULT_255_1_234
10
17.3617053
20
199.0596296
40
0.2529778
50
25.7545084
51
51.0957453
0
ARC
8
DEFAULT_255_1_234
10
17.3618278
20
199.0646206
40
0.250738
50
359.2468627
51
24.7394243
0
ARC
8
DEFAULT_255_1_234
10
17.333373
20
199.0617664
40
0.1297815
50
359.8050318
51
45.1544908
0
ARC
8
DEFAULT_255_1_234
10
17.2926872
20
199.0269794
40
0.1831883
50
43.8047702
51
49.6271585
0
ARC
8
DEFAULT_255_1_234
10
17.2934773
20
199.0270678
40
0.18261
50
49.7980766
51
82.1218353
0
ARC
8
DEFAULT_255_1_234
10
17.2815745
20
198.9623998
40
0.2483163
50
81.4465357
51
90.1710293
0
ARC
8
DEFAULT_255_1_234
10
17.2791348
20
198.909788
40
0.300932
50
89.6766211
51
99.1264602
0
ARC
8
DEFAULT_255_1_234
10
17.261981
20
199.0131537
40
0.1961547
50
98.968313
51
113.4570237
0
ARC
8
DEFAULT_255_1_234
10
17.2423895
20
199.0599965
40
0.1453859
50
113.722589
51
127.4763106
0
ARC
8
DEFAULT_255_1_234
10
17.2255541
20
199.0800124
40
0.1192639
50
126.9083309
51
150.3165862
0
ARC
8
DEFAULT_255_1_234
10
17.2207874
20
199.0850981
40
0.112623
50
151.3635175
51
180.0701457
0
ARC
8
DEFAULT_255_1_234
10
17.2516658
20
199.082999
40
0.1435149
50
179.2169974
51
179.9954013
0
ARC
8
DEFAULT_255_1_234
10
17.2155716
20
199.0817056
40
0.1074286
50
179.3040112
51
198.4225446
0
ARC
8
DEFAULT_255_1_234
10
17.1963849
20
199.0767127
40
0.0876573
50
199.2895851
51
238.6034594
0
ARC
8
DEFAULT_255_1_234
10
17.2566696
20
199.171345
40
0.1998512
50
237.9846301
51
246.8744712
0
ARC
8
DEFAULT_255_1_234
10
17.3424641
20
199.3676205
40
0.4140547
50
246.6234531
51
251.8168941
0
ARC
8
DEFAULT_255_1_234
10
17.4455184
20
199.6770905
40
0.7402308
50
251.713434
51
255.0778414
0
ARC
8
DEFAULT_255_1_234
10
17.5654447
20
200.1237563
40
1.2027155
50
255.0367487
51
257.4705983
0
ARC
8
DEFAULT_255_1_234
10
17.0546457
20
197.8223863
40
1.1546601
50
73.6837552
51
77.5016755
0
ARC
8
DEFAULT_255_1_234
10
17.1635232
20
198.1923581
40
0.7690009
50
68.7044154
51
73.7249639
0
ARC
8
DEFAULT_255_1_234
10
17.2538252
20
198.4250654
40
0.5193873
50
63.590599
51
68.6626804
0
ARC
8
DEFAULT_255_1_234
10
17.3309271
20
198.5788123
40
0.3473927
50
54.7106439
51
63.7013633
0
ARC
8
DEFAULT_255_1_234
10
17.3933726
20
198.66604
40
0.2401192
50
41.0622434
51
54.8487496
0
ARC
8
DEFAULT_255_1_234
10
17.4275112
20
198.6973592
40
0.1938094
50
34.4950568
51
40.7105546
0
ARC
8
DEFAULT_255_1_234
10
17.4321919
20
198.7022078
40
0.1872106
50
9.3763373
51
34.0833615
0
ARC
8
DEFAULT_255_1_234
10
17.366879
20
198.6896728
40
0.2536988
50
359.7694872
51
9.7663171
0
ARC
8
DEFAULT_255_1_234
10
17.3866291
20
198.6853764
40
0.2339696
50
335.8654732
51
0.8022045
0
ARC
8
DEFAULT_255_1_234
10
17.3941335
20
198.6867197
40
0.2277108
50
307.7357725
51
334.7849066
0
ARC
8
DEFAULT_255_1_234
10
17.3540511
20
198.7317645
40
0.2878951
50
307.0241536
51
308.5578354
0
ARC
8
DEFAULT_255_1_234
10
17.3282842
20
198.7703801
40
0.3342515
50
282.9362969
51
306.5646424
0
ARC
8
DEFAULT_255_1_234
10
17.292114
20
198.9171108
40
0.4853615
50
271.1026298
51
283.2200835
0
ARC
8
DEFAULT_255_1_234
10
17.2857384
20
199.0412418
40
0.6096052
50
269.9919117
51
271.4772449
0
ARC
8
DEFAULT_255_1_234
10
17.2831139
20
198.9334436
40
0.5018135
50
259.0723564
51
270.289833
0
ARC
8
DEFAULT_255_1_234
10
17.2618871
20
198.8217271
40
0.388099
50
245.4963068
51
259.0227342
0
ARC
8
DEFAULT_255_1_234
10
17.2340827
20
198.7635615
40
0.3236422
50
228.9684658
51
245.7044727
0
ARC
8
DEFAULT_255_1_234
10
17.2075271
20
198.7308575
40
0.2815426
50
214.4011705
51
228.6759915
0
ARC
8
DEFAULT_255_1_234
10
17.1786011
20
198.715029
40
0.2487548
50
179.9705531
51
215.1572795
0
ARC
8
DEFAULT_255_1_234
10
17.2486611
20
198.7223806
40
0.1703809
50
182.4299387
51
203.0329699
0
ARC
8
DEFAULT_255_1_234
10
17.2302269
20
198.7167396
40
0.1512226
50
203.798802
51
232.548466
0
ARC
8
DEFAULT_255_1_234
10
17.257879
20
198.7518826
40
0.1959374
50
232.3782728
51
256.3934612
0
ARC
8
DEFAULT_255_1_234
10
17.2809152
20
198.8408842
40
0.2878639
50
256.104506
51
268.4626716
0
ARC
8
DEFAULT_255_1_234
10
17.2855636
20
198.9205487
40
0.3676329
50
268.0715632
51
270.0138206
0
ARC
8
DEFAULT_255_1_234
10
17.2874161
20
198.8933083
40
0.3403971
50
269.7031147
51
278.8341955
0
ARC
8
DEFAULT_255_1_234
10
17.3056254
20
198.7802876
40
0.2259217
50
278.6728789
51
292.8232582
0
ARC
8
DEFAULT_255_1_234
10
17.3256792
20
198.7301449
40
0.171929
50
293.1452328
51
303.6655899
0
ARC
8
DEFAULT_255_1_234
10
17.3521671
20
198.6925204
40
0.1259367
50
303.1248165
51
321.742847
0
ARC
8
DEFAULT_255_1_234
10
17.3707551
20
198.6762156
40
0.1012531
50
322.4748573
51
1.1291126
0
LINE
8
DEFAULT_255_2_778
10
9.3932417
20
189.0447475
11
10.7161417
21
189.0447475
0
LINE
8
DEFAULT_255_2_778
10
10.7161417
20
189.0447475
11
10.7161417
21
100.4093475
0
LINE
8
DEFAULT_255_2_778
10
10.7161417
20
95.1176475
11
10.7161417
21
6.4822475
0
LINE
8
DEFAULT_255_2_778
10
10.7161417
20
6.4822475
11
9.3932417
21
6.4822475
0
LINE
8
DEFAULT_255_2_778
10
9.3932834
20
100.4093333
11
12.0390834
21
100.4093333
0
LINE
8
DEFAULT_255_2_778
10
12.0390834
20
100.4093333
11
12.0390834
21
95.1176333
0
LINE
8
DEFAULT_255_2_778
10
12.0390834
20
95.1176333
11
9.3932834
21
95.1176333
0
LINE
8
DEFAULT_255_2_778
10
9.3932834
20
95.1176333
11
9.3932834
21
100.4093333
0
LINE
8
DEFAULT_255_2_778
10
10.187
20
95.6468666
11
10.187
21
99.8801666
0
LINE
8
DEFAULT_255_2_778
10
9.9224167
20
99.086475
11
10.1870167
21
99.880175
0
LINE
8
DEFAULT_255_2_778
10
10.1870167
20
99.880175
11
10.4516167
21
99.086475
0
LINE
8
DEFAULT_255_2_778
10
10.4516167
20
99.086475
11
9.9224167
21
99.086475
0
LINE
8
DEFAULT_255_2_778
10
11.2453
20
99.8801666
11
11.2453
21
95.6468666
0
LINE
8
DEFAULT_255_2_778
10
10.9807167
20
96.440675
11
11.2453167
21
95.646975
0
LINE
8
DEFAULT_255_2_778
10
11.2453167
20
95.646975
11
11.5099167
21
96.440675
0
LINE
8
DEFAULT_255_2_778
10
11.5099167
20
96.440675
11
10.9807167
21
96.440675
0
LINE
8
DEFAULT_255_2_778
10
19.9765417
20
189.0447483
11
18.6536417
21
189.0447483
0
LINE
8
DEFAULT_255_2_778
10
18.6536417
20
189.0447483
11
18.6536417
21
132.1593483
0
LINE
8
DEFAULT_255_2_778
10
18.6536417
20
126.8676483
11
18.6536417
21
69.9822483
0
LINE
8
DEFAULT_255_2_778
10
18.6536417
20
69.9822483
11
19.9765417
21
69.9822483
0
LINE
8
DEFAULT_255_2_778
10
17.3307834
20
132.1593333
11
19.9765834
21
132.1593333
0
LINE
8
DEFAULT_255_2_778
10
19.9765834
20
132.1593333
11
19.9765834
21
126.8676333
0
LINE
8
DEFAULT_255_2_778
10
19.9765834
20
126.8676333
11
17.3307834
21
126.8676333
0
LINE
8
DEFAULT_255_2_778
10
17.3307834
20
126.8676333
11
17.3307834
21
132.1593333
0
LINE
8
DEFAULT_255_2_778
10
18.1245
20
127.3968666
11
18.1245
21
131.6301666
0
LINE
8
DEFAULT_255_2_778
10
17.8599167
20
130.836475
11
18.1245167
21
131.630175
0
LINE
8
DEFAULT_255_2_778
10
18.1245167
20
131.630175
11
18.3891167
21
130.836475
0
LINE
8
DEFAULT_255_2_778
10
18.3891167
20
130.836475
11
17.8599167
21
130.836475
0
LINE
8
DEFAULT_255_2_778
10
19.1828
20
131.6301666
11
19.1828
21
127.3968666
0
LINE
8
DEFAULT_255_2_778
10
18.9182167
20
128.190675
11
19.1828167
21
127.396975
0
LINE
8
DEFAULT_255_2_778
10
19.1828167
20
127.396975
11
19.4474167
21
128.190675
0
LINE
8
DEFAULT_255_2_778
10
19.4474167
20
128.190675
11
18.9182167
21
128.190675
0
LINE
8
DEFAULT_255_1_234
10
4.9290119
20
195.2616792
11
4.9290119
21
195.1404
0
LINE
8
DEFAULT_255_1_234
10
4.9290119
20
195.1404
11
4.162784
21
195.1404
0
LINE
8
DEFAULT_255_1_234
10
4.162784
20
195.1404
11
4.162784
21
195.2472221
0
LINE
8
DEFAULT_255_1_234
10
4.162784
20
195.2472221
11
4.5675836
21
195.6969995
0
LINE
8
DEFAULT_255_1_234
10
4.2888823
20
195.9652595
11
4.1402952
21
195.9652595
0
LINE
8
DEFAULT_255_1_234
10
4.6551296
20
195.6014218
11
4.3418918
21
195.2616792
0
LINE
8
DEFAULT_255_1_234
10
4.3418918
20
195.2616792
11
4.9290119
21
195.2616792
0
ARC
8
DEFAULT_255_1_234
10
3.218567
20
196.8899527
40
1.8008286
50
318.5132453
51
320.7828378
0
ARC
8
DEFAULT_255_1_234
10
3.7472644
20
196.4596426
40
1.1191493
50
320.7372736
51
323.9737074
0
ARC
8
DEFAULT_255_1_234
10
4.1392501
20
196.1756361
40
0.6350923
50
323.8961724
51
328.6421089
0
ARC
8
DEFAULT_255_1_234
10
4.3439096
20
196.0494031
40
0.3946393
50
328.8299013
51
331.789948
0
ARC
8
DEFAULT_255_1_234
10
4.4436274
20
195.9979509
40
0.2824501
50
331.4255242
51
352.9364833
0
ARC
8
DEFAULT_255_1_234
10
4.4572775
20
195.9948976
40
0.2685315
50
353.2248685
51
0.0169286
0
ARC
8
DEFAULT_255_1_234
10
4.4782652
20
195.997195
40
0.2475536
50
359.4866256
51
15.9339782
0
ARC
8
DEFAULT_255_1_234
10
4.5289637
20
196.0108286
40
0.1950618
50
16.1714718
51
43.5284424
0
ARC
8
DEFAULT_255_1_234
10
4.5366946
20
196.0185573
40
0.184134
50
43.4415429
51
83.1661404
0
ARC
8
DEFAULT_255_1_234
10
4.5232864
20
195.9448771
40
0.258926
50
82.160215
51
90.1505798
0
ARC
8
DEFAULT_255_1_234
10
4.5201291
20
195.8911865
40
0.3126255
50
89.5460705
51
102.5418777
0
ARC
8
DEFAULT_255_1_234
10
4.4958377
20
195.9942665
40
0.2067346
50
102.1739365
51
129.2061916
0
ARC
8
DEFAULT_255_1_234
10
4.4879449
20
196.0067094
40
0.1921118
50
129.7279328
51
135.7542026
0
ARC
8
DEFAULT_255_1_234
10
4.5000977
20
195.9970045
40
0.2075944
50
136.175737
51
166.3674722
0
ARC
8
DEFAULT_255_1_234
10
4.6007896
20
195.9700182
40
0.3118201
50
165.9092917
51
178.8683903
0
ARC
8
DEFAULT_255_1_234
10
4.6872757
20
195.9653179
40
0.3983935
50
178.438168
51
180.0083905
0
ARC
8
DEFAULT_255_1_234
10
4.5471359
20
195.9692231
40
0.4068601
50
163.2878735
51
180.5581814
0
ARC
8
DEFAULT_255_1_234
10
4.4669621
20
195.991284
40
0.3237344
50
133.454115
51
162.9470031
0
ARC
8
DEFAULT_255_1_234
10
4.4848162
20
195.9723
40
0.349795
50
100.7869394
51
133.4384016
0
ARC
8
DEFAULT_255_1_234
10
4.5195934
20
195.8174319
40
0.5084616
50
89.6605301
51
101.3704185
0
ARC
8
DEFAULT_255_1_234
10
4.5262273
20
195.8235496
40
0.502348
50
78.2171172
51
90.4130393
0
ARC
8
DEFAULT_255_1_234
10
4.5617351
20
195.9859637
40
0.3361092
50
55.9268222
51
78.4888551
0
ARC
8
DEFAULT_255_1_234
10
4.5813791
20
196.0198324
40
0.2970617
50
47.9292255
51
55.4054003
0
ARC
8
DEFAULT_255_1_234
10
4.5915352
20
196.0301502
40
0.2825983
50
4.3347696
51
48.0560701
0
ARC
8
DEFAULT_255_1_234
10
4.4819745
20
196.0131601
40
0.393225
50
359.925209
51
5.5967654
0
ARC
8
DEFAULT_255_1_234
10
4.5248637
20
196.0187816
40
0.3503892
50
337.8914096
51
358.9967724
0
ARC
8
DEFAULT_255_1_234
10
4.2535049
20
196.1234706
40
0.6412172
50
326.9135351
51
338.3505194
0
ARC
8
DEFAULT_255_1_234
10
3.8549353
20
196.3789284
40
1.1146189
50
319.6472867
51
327.095818
0
ARC
8
DEFAULT_255_1_234
10
3.4716356
20
196.6951
40
1.6114559
50
317.2586784
51
319.9046139
0
LINE
8
DEFAULT_255_1_234
10
5.7137127
20
196.3098211
11
5.7137127
21
195.533152
0
LINE
8
DEFAULT_255_1_234
10
5.7137127
20
195.533152
11
5.8759538
21
195.533152
0
LINE
8
DEFAULT_255_1_234
10
5.8759538
20
195.533152
11
5.8759538
21
195.4118728
0
LINE
8
DEFAULT_255_1_234
10
5.8759538
20
195.4118728
11
5.7137127
21
195.4118728
0
LINE
8
DEFAULT_255_1_234
10
5.7137127
20
195.4118728
11
5.7137127
21
195.1404
0
LINE
8
DEFAULT_255_1_234
10
5.7137127
20
195.1404
11
5.5643224
21
195.1404
0
LINE
8
DEFAULT_255_1_234
10
5.5643224
20
195.1404
11
5.5643224
21
195.4118728
0
LINE
8
DEFAULT_255_1_234
10
5.5643224
20
195.4118728
11
5.0318181
21
195.4118728
0
LINE
8
DEFAULT_255_1_234
10
5.0318181
20
195.4118728
11
5.0318181
21
195.4994187
0
LINE
8
DEFAULT_255_1_234
10
5.0318181
20
195.4994187
11
5.5554875
21
196.3098211
0
LINE
8
DEFAULT_255_1_234
10
5.5554875
20
196.3098211
11
5.7137127
21
196.3098211
0
LINE
8
DEFAULT_255_1_234
10
5.5466525
20
196.0744912
11
5.2004846
21
195.533152
0
LINE
8
DEFAULT_255_1_234
10
5.2004846
20
195.533152
11
5.5643224
21
195.533152
0
LINE
8
DEFAULT_255_1_234
10
5.5643224
20
195.533152
11
5.5643224
21
196.1066181
0
LINE
8
DEFAULT_255_1_234
10
5.5643224
20
196.1066181
11
5.5466525
21
196.0744912
0
LINE
8
DEFAULT_255_1_234
10
6.103252
20
196.3098211
11
6.435766
21
195.3452093
0
LINE
8
DEFAULT_255_1_234
10
6.435766
20
195.3452093
11
6.7698863
21
196.3098211
0
LINE
8
DEFAULT_255_1_234
10
6.7698863
20
196.3098211
11
6.9385528
21
196.3098211
0
LINE
8
DEFAULT_255_1_234
10
6.9385528
20
196.3098211
11
6.5048389
21
195.1404
0
LINE
8
DEFAULT_255_1_234
10
6.5048389
20
195.1404
11
6.3682994
21
195.1404
0
LINE
8
DEFAULT_255_1_234
10
6.3682994
20
195.1404
11
5.9353887
21
196.3098211
0
LINE
8
DEFAULT_255_1_234
10
5.9353887
20
196.3098211
11
6.103252
21
196.3098211
0
LINE
8
DEFAULT_255_1_234
10
4.8257119
20
4.7616792
11
4.8257119
21
4.6404
0
LINE
8
DEFAULT_255_1_234
10
4.8257119
20
4.6404
11
4.059484
21
4.6404
0
LINE
8
DEFAULT_255_1_234
10
4.059484
20
4.6404
11
4.059484
21
4.7472221
0
LINE
8
DEFAULT_255_1_234
10
4.059484
20
4.7472221
11
4.4642836
21
5.1969995
0
LINE
8
DEFAULT_255_1_234
10
4.1855823
20
5.4652595
11
4.0369952
21
5.4652595
0
LINE
8
DEFAULT_255_1_234
10
4.5518296
20
5.1014218
11
4.2385918
21
4.7616792
0
LINE
8
DEFAULT_255_1_234
10
4.2385918
20
4.7616792
11
4.8257119
21
4.7616792
0
ARC
8
DEFAULT_255_1_234
10
3.115267
20
6.3899527
40
1.8008286
50
318.5132453
51
320.7828378
0
ARC
8
DEFAULT_255_1_234
10
3.6439644
20
5.9596426
40
1.1191493
50
320.7372736
51
323.9737074
0
ARC
8
DEFAULT_255_1_234
10
4.0359501
20
5.6756361
40
0.6350923
50
323.8961724
51
328.6421089
0
ARC
8
DEFAULT_255_1_234
10
4.2406096
20
5.5494031
40
0.3946393
50
328.8299013
51
331.789948
0
ARC
8
DEFAULT_255_1_234
10
4.3403274
20
5.4979509
40
0.2824501
50
331.4255242
51
352.9364833
0
ARC
8
DEFAULT_255_1_234
10
4.3539775
20
5.4948976
40
0.2685315
50
353.2248685
51
0.0169286
0
ARC
8
DEFAULT_255_1_234
10
4.3749652
20
5.497195
40
0.2475536
50
359.4866256
51
15.9339782
0
ARC
8
DEFAULT_255_1_234
10
4.4256637
20
5.5108286
40
0.1950618
50
16.1714718
51
43.5284424
0
ARC
8
DEFAULT_255_1_234
10
4.4333946
20
5.5185573
40
0.184134
50
43.4415429
51
83.1661404
0
ARC
8
DEFAULT_255_1_234
10
4.4199864
20
5.4448771
40
0.258926
50
82.160215
51
90.1505798
0
ARC
8
DEFAULT_255_1_234
10
4.4168291
20
5.3911865
40
0.3126255
50
89.5460705
51
102.5418777
0
ARC
8
DEFAULT_255_1_234
10
4.3925377
20
5.4942665
40
0.2067346
50
102.1739365
51
129.2061916
0
ARC
8
DEFAULT_255_1_234
10
4.3846449
20
5.5067094
40
0.1921118
50
129.7279328
51
135.7542026
0
ARC
8
DEFAULT_255_1_234
10
4.3967977
20
5.4970045
40
0.2075944
50
136.175737
51
166.3674722
0
ARC
8
DEFAULT_255_1_234
10
4.4974896
20
5.4700182
40
0.3118201
50
165.9092917
51
178.8683903
0
ARC
8
DEFAULT_255_1_234
10
4.5839757
20
5.4653179
40
0.3983935
50
178.438168
51
180.0083905
0
ARC
8
DEFAULT_255_1_234
10
4.4438359
20
5.4692231
40
0.4068601
50
163.2878735
51
180.5581814
0
ARC
8
DEFAULT_255_1_234
10
4.3636621
20
5.491284
40
0.3237344
50
133.454115
51
162.9470031
0
ARC
8
DEFAULT_255_1_234
10
4.3815162
20
5.4723
40
0.349795
50
100.7869394
51
133.4384016
0
ARC
8
DEFAULT_255_1_234
10
4.4162934
20
5.3174319
40
0.5084616
50
89.6605301
51
101.3704185
0
ARC
8
DEFAULT_255_1_234
10
4.4229273
20
5.3235496
40
0.502348
50
78.2171172
51
90.4130393
0
ARC
8
DEFAULT_255_1_234
10
4.4584351
20
5.4859637
40
0.3361092
50
55.9268222
51
78.4888551
0
ARC
8
DEFAULT_255_1_234
10
4.4780791
20
5.5198324
40
0.2970617
50
47.9292255
51
55.4054003
0
ARC
8
DEFAULT_255_1_234
10
4.4882352
20
5.5301502
40
0.2825983
50
4.3347696
51
48.0560701
0
ARC
8
DEFAULT_255_1_234
10
4.3786745
20
5.5131601
40
0.393225
50
359.925209
51
5.5967654
0
ARC
8
DEFAULT_255_1_234
10
4.4215637
20
5.5187816
40
0.3503892
50
337.8914096
51
358.9967724
0
ARC
8
DEFAULT_255_1_234
10
4.1502049
20
5.6234706
40
0.6412172
50
326.9135351
51
338.3505194
0
ARC
8
DEFAULT_255_1_234
10
3.7516353
20
5.8789284
40
1.1146189
50
319.6472867
51
327.095818
0
ARC
8
DEFAULT_255_1_234
10
3.3683356
20
6.1951
40
1.6114559
50
317.2586784
51
319.9046139
0
LINE
8
DEFAULT_255_1_234
10
5.1991877
20
5.1761169
11
5.1991877
21
5.2973962
0
LINE
8
DEFAULT_255_1_234
10
5.1991877
20
5.2973962
11
5.3108289
21
5.2973962
0
LINE
8
DEFAULT_255_1_234
10
5.1204767
20
5.5030087
11
4.9718895
21
5.5030087
0
LINE
8
DEFAULT_255_1_234
10
4.9614482
20
4.9488188
11
5.1108386
21
4.9488188
0
LINE
8
DEFAULT_255_1_234
10
5.3108289
20
5.1761169
11
5.1991877
21
5.1761169
0
ARC
8
DEFAULT_255_1_234
10
5.3079155
20
5.6366713
40
0.3392876
50
270.4919872
51
281.8951556
0
ARC
8
DEFAULT_255_1_234
10
5.3320417
20
5.5264702
40
0.2264817
50
281.6691735
51
301.2943132
0
ARC
8
DEFAULT_255_1_234
10
5.3490627
20
5.4953304
40
0.1910381
50
301.7833094
51
311.7545298
0
ARC
8
DEFAULT_255_1_234
10
5.3582203
20
5.4851748
40
0.1773635
50
311.7323931
51
354.2802411
0
ARC
8
DEFAULT_255_1_234
10
5.2855828
20
5.4976722
40
0.2509385
50
353.0937916
51
0.1181479
0
ARC
8
DEFAULT_255_1_234
10
5.2394613
20
5.5024386
40
0.2970898
50
359.1805295
51
15.0453146
0
ARC
8
DEFAULT_255_1_234
10
5.374045
20
5.5416992
40
0.1569564
50
13.9577229
51
77.6713066
0
ARC
8
DEFAULT_255_1_234
10
5.3353979
20
5.4031949
40
0.3006298
50
76.1116566
51
90.7026153
0
ARC
8
DEFAULT_255_1_234
10
5.3294817
20
5.4305545
40
0.2732568
50
89.5324876
51
103.531937
0
ARC
8
DEFAULT_255_1_234
10
5.3094261
20
5.5104884
40
0.1908508
50
103.2931773
51
133.5619022
0
ARC
8
DEFAULT_255_1_234
10
5.304975
20
5.5164375
40
0.1834746
50
133.8349307
51
173.5344437
0
ARC
8
DEFAULT_255_1_234
10
5.3772793
20
5.5036213
40
0.2568033
50
172.5096846
51
180.1366907
0
ARC
8
DEFAULT_255_1_234
10
5.2821687
20
5.5070622
40
0.3103056
50
155.3484492
51
180.7484736
0
ARC
8
DEFAULT_255_1_234
10
5.2772776
20
5.5041846
40
0.3070957
50
131.5744599
51
154.4798489
0
ARC
8
DEFAULT_255_1_234
10
5.3085923
20
5.472531
40
0.3515643
50
96.9875458
51
131.9690667
0
ARC
8
DEFAULT_255_1_234
10
5.3305403
20
5.3479636
40
0.4779224
50
89.8596053
51
97.7825159
0
ARC
8
DEFAULT_255_1_234
10
5.3353466
20
5.3217616
40
0.5041361
50
78.3655447
51
90.4131539
0
ARC
8
DEFAULT_255_1_234
10
5.3711384
20
5.4876887
40
0.3344039
50
56.6229102
51
78.638727
0
ARC
8
DEFAULT_255_1_234
10
5.3926328
20
5.5252805
40
0.2912001
50
47.0253525
51
56.0854072
0
ARC
8
DEFAULT_255_1_234
10
5.3946108
20
5.5292223
40
0.2869704
50
10.9208013
51
46.7778124
0
ARC
8
DEFAULT_255_1_234
10
5.2582174
20
5.4976857
40
0.426899
50
359.6364486
51
11.6087304
0
ARC
8
DEFAULT_255_1_234
10
5.4417018
20
5.4961752
40
0.243409
50
332.3549906
51
359.7179418
0
ARC
8
DEFAULT_255_1_234
10
5.376662
20
5.5270142
40
0.3153459
50
325.2333722
51
332.8745602
0
ARC
8
DEFAULT_255_1_234
10
5.3919244
20
5.5163828
40
0.2967456
50
292.9802137
51
325.2392345
0
ARC
8
DEFAULT_255_1_234
10
5.3644617
20
5.5697863
40
0.3566604
50
292.5402179
51
293.6924929
0
ARC
8
DEFAULT_255_1_234
10
5.4037213
20
4.9243091
40
0.3307468
50
57.6435486
51
72.8625112
0
ARC
8
DEFAULT_255_1_234
10
5.4391713
20
4.9817549
40
0.2632492
50
36.7248896
51
57.4697979
0
ARC
8
DEFAULT_255_1_234
10
5.4380346
20
4.983022
40
0.2634081
50
8.0545065
51
36.356114
0
ARC
8
DEFAULT_255_1_234
10
5.3517531
20
4.9675174
40
0.3510261
50
359.8320645
51
8.5869982
0
ARC
8
DEFAULT_255_1_234
10
5.3142307
20
4.9627101
40
0.3885653
50
343.9829931
51
0.5571613
0
ARC
8
DEFAULT_255_1_234
10
5.4028504
20
4.9384438
40
0.2966924
50
311.6359546
51
343.7651759
0
ARC
8
DEFAULT_255_1_234
10
5.3650074
20
4.9811102
40
0.3537231
50
279.7829875
51
311.6255694
0
ARC
8
DEFAULT_255_1_234
10
5.334885
20
5.124828
40
0.5004971
50
269.7286406
51
280.3856417
0
ARC
8
DEFAULT_255_1_234
10
5.3286922
20
5.1206996
40
0.4963778
50
256.6828919
51
270.4412052
0
ARC
8
DEFAULT_255_1_234
10
5.2948218
20
4.9822394
40
0.3538406
50
229.4223008
51
256.8556159
0
ARC
8
DEFAULT_255_1_234
10
5.2533611
20
4.9355736
40
0.2914296
50
181.818294
51
229.6455059
0
ARC
8
DEFAULT_255_1_234
10
5.3573567
20
4.9486496
40
0.3959084
50
179.9755256
51
183.2323064
0
ARC
8
DEFAULT_255_1_234
10
5.3401313
20
4.9466037
40
0.2293034
50
179.4465117
51
196.2869258
0
ARC
8
DEFAULT_255_1_234
10
5.2913721
20
4.9332651
40
0.1787621
50
196.5661473
51
227.705904
0
ARC
8
DEFAULT_255_1_234
10
5.3077816
20
4.9516155
40
0.2033784
50
227.7652068
51
257.8762805
0
ARC
8
DEFAULT_255_1_234
10
5.3302786
20
5.0459156
40
0.3003081
50
257.4584385
51
270.426602
0
ARC
8
DEFAULT_255_1_234
10
5.3348352
20
5.0748996
40
0.329292
50
269.5962073
51
280.8789248
0
ARC
8
DEFAULT_255_1_234
10
5.3577881
20
4.9602685
40
0.2123908
50
280.6346389
51
299.8595945
0
ARC
8
DEFAULT_255_1_234
10
5.3768788
20
4.9240212
40
0.171457
50
300.3576302
51
314.5517981
0
ARC
8
DEFAULT_255_1_234
10
5.3685848
20
4.9300919
40
0.1816095
50
315.0728369
51
345.0431014
0
ARC
8
DEFAULT_255_1_234
10
5.2762662
20
4.9569841
40
0.2777492
50
344.5986631
51
357.9269593
0
ARC
8
DEFAULT_255_1_234
10
5.1866989
20
4.9631276
40
0.3674917
50
357.4748886
51
0.0231117
0
ARC
8
DEFAULT_255_1_234
10
5.2890098
20
4.9655679
40
0.2651907
50
359.5047933
51
13.4239635
0
ARC
8
DEFAULT_255_1_234
10
5.3756741
20
4.9877478
40
0.1757509
50
12.9498199
51
48.7551375
0
ARC
8
DEFAULT_255_1_234
10
5.3574475
20
4.96284
40
0.2065134
50
49.5088623
51
72.1836453
0
ARC
8
DEFAULT_255_1_234
10
5.3216628
20
4.8566291
40
0.3185836
50
71.9010081
51
84.3554254
0
ARC
8
DEFAULT_255_1_234
10
5.305526
20
4.7205326
40
0.4556151
50
84.0193428
51
89.333121
0
LINE
8
DEFAULT_255_1_234
10
4.8257119
20
12.6991792
11
4.8257119
21
12.5779
0
LINE
8
DEFAULT_255_1_234
10
4.8257119
20
12.5779
11
4.059484
21
12.5779
0
LINE
8
DEFAULT_255_1_234
10
4.059484
20
12.5779
11
4.059484
21
12.6847221
0
LINE
8
DEFAULT_255_1_234
10
4.059484
20
12.6847221
11
4.4642836
21
13.1344995
0
LINE
8
DEFAULT_255_1_234
10
4.1855823
20
13.4027595
11
4.0369952
21
13.4027595
0
LINE
8
DEFAULT_255_1_234
10
4.5518296
20
13.0389218
11
4.2385918
21
12.6991792
0
LINE
8
DEFAULT_255_1_234
10
4.2385918
20
12.6991792
11
4.8257119
21
12.6991792
0
ARC
8
DEFAULT_255_1_234
10
3.115267
20
14.3274527
40
1.8008286
50
318.5132453
51
320.7828378
0
ARC
8
DEFAULT_255_1_234
10
3.6439644
20
13.8971426
40
1.1191493
50
320.7372736
51
323.9737074
0
ARC
8
DEFAULT_255_1_234
10
4.0359501
20
13.6131361
40
0.6350923
50
323.8961724
51
328.6421089
0
ARC
8
DEFAULT_255_1_234
10
4.2406096
20
13.4869031
40
0.3946393
50
328.8299013
51
331.789948
0
ARC
8
DEFAULT_255_1_234
10
4.3403274
20
13.4354509
40
0.2824501
50
331.4255242
51
352.9364833
0
ARC
8
DEFAULT_255_1_234
10
4.3539775
20
13.4323976
40
0.2685315
50
353.2248685
51
0.0169286
0
ARC
8
DEFAULT_255_1_234
10
4.3749652
20
13.434695
40
0.2475536
50
359.4866256
51
15.9339782
0
ARC
8
DEFAULT_255_1_234
10
4.4256637
20
13.4483286
40
0.1950618
50
16.1714718
51
43.5284424
0
ARC
8
DEFAULT_255_1_234
10
4.4333946
20
13.4560573
40
0.184134
50
43.4415429
51
83.1661404
0
ARC
8
DEFAULT_255_1_234
10
4.4199864
20
13.3823771
40
0.258926
50
82.160215
51
90.1505798
0
ARC
8
DEFAULT_255_1_234
10
4.4168291
20
13.3286865
40
0.3126255
50
89.5460705
51
102.5418777
0
ARC
8
DEFAULT_255_1_234
10
4.3925377
20
13.4317665
40
0.2067346
50
102.1739365
51
129.2061916
0
ARC
8
DEFAULT_255_1_234
10
4.3846449
20
13.4442094
40
0.1921118
50
129.7279328
51
135.7542026
0
ARC
8
DEFAULT_255_1_234
10
4.3967977
20
13.4345045
40
0.2075944
50
136.175737
51
166.3674722
0
ARC
8
DEFAULT_255_1_234
10
4.4974896
20
13.4075182
40
0.3118201
50
165.9092917
51
178.8683903
0
ARC
8
DEFAULT_255_1_234
10
4.5839757
20
13.4028179
40
0.3983935
50
178.438168
51
180.0083905
0
ARC
8
DEFAULT_255_1_234
10
4.4438359
20
13.4067231
40
0.4068601
50
163.2878735
51
180.5581814
0
ARC
8
DEFAULT_255_1_234
10
4.3636621
20
13.428784
40
0.3237344
50
133.454115
51
162.9470031
0
ARC
8
DEFAULT_255_1_234
10
4.3815162
20
13.4098
40
0.349795
50
100.7869394
51
133.4384016
0
ARC
8
DEFAULT_255_1_234
10
4.4162934
20
13.2549319
40
0.5084616
50
89.6605301
51
101.3704185
0
ARC
8
DEFAULT_255_1_234
10
4.4229273
20
13.2610496
40
0.502348
50
78.2171172
51
90.4130393
0
ARC
8
DEFAULT_255_1_234
10
4.4584351
20
13.4234637
40
0.3361092
50
55.9268222
51
78.4888551
0
ARC
8
DEFAULT_255_1_234
10
4.4780791
20
13.4573324
40
0.2970617
50
47.9292255
51
55.4054003
0
ARC
8
DEFAULT_255_1_234
10
4.4882352
20
13.4676502
40
0.2825983
50
4.3347696
51
48.0560701
0
ARC
8
DEFAULT_255_1_234
10
4.3786745
20
13.4506601
40
0.393225
50
359.925209
51
5.5967654
0
ARC
8
DEFAULT_255_1_234
10
4.4215637
20
13.4562816
40
0.3503892
50
337.8914096
51
358.9967724
0
ARC
8
DEFAULT_255_1_234
10
4.1502049
20
13.5609706
40
0.6412172
50
326.9135351
51
338.3505194
0
ARC
8
DEFAULT_255_1_234
10
3.7516353
20
13.8164284
40
1.1146189
50
319.6472867
51
327.095818
0
ARC
8
DEFAULT_255_1_234
10
3.3683356
20
14.1326
40
1.6114559
50
317.2586784
51
319.9046139
0
LINE
8
DEFAULT_255_1_234
10
5.7493618
20
12.6991792
11
5.7493618
21
12.5779
0
LINE
8
DEFAULT_255_1_234
10
5.7493618
20
12.5779
11
4.9831339
21
12.5779
0
LINE
8
DEFAULT_255_1_234
10
4.9831339
20
12.5779
11
4.9831339
21
12.6847221
0
LINE
8
DEFAULT_255_1_234
10
4.9831339
20
12.6847221
11
5.3879335
21
13.1344995
0
LINE
8
DEFAULT_255_1_234
10
5.1092322
20
13.4027595
11
4.9606451
21
13.4027595
0
LINE
8
DEFAULT_255_1_234
10
5.4754795
20
13.0389218
11
5.1622417
21
12.6991792
0
LINE
8
DEFAULT_255_1_234
10
5.1622417
20
12.6991792
11
5.7493618
21
12.6991792
0
ARC
8
DEFAULT_255_1_234
10
4.0389169
20
14.3274527
40
1.8008286
50
318.5132453
51
320.7828378
0
ARC
8
DEFAULT_255_1_234
10
4.5676143
20
13.8971426
40
1.1191493
50
320.7372736
51
323.9737074
0
ARC
8
DEFAULT_255_1_234
10
4.9596
20
13.6131361
40
0.6350923
50
323.8961724
51
328.6421089
0
ARC
8
DEFAULT_255_1_234
10
5.1642595
20
13.4869031
40
0.3946393
50
328.8299013
51
331.789948
0
ARC
8
DEFAULT_255_1_234
10
5.2639774
20
13.4354509
40
0.2824501
50
331.4255242
51
352.9364833
0
ARC
8
DEFAULT_255_1_234
10
5.2776274
20
13.4323976
40
0.2685315
50
353.2248685
51
0.0169286
0
ARC
8
DEFAULT_255_1_234
10
5.2986151
20
13.434695
40
0.2475536
50
359.4866256
51
15.9339782
0
ARC
8
DEFAULT_255_1_234
10
5.3493136
20
13.4483286
40
0.1950618
50
16.1714718
51
43.5284424
0
ARC
8
DEFAULT_255_1_234
10
5.3570445
20
13.4560573
40
0.184134
50
43.4415429
51
83.1661404
0
ARC
8
DEFAULT_255_1_234
10
5.3436363
20
13.3823771
40
0.258926
50
82.160215
51
90.1505798
0
ARC
8
DEFAULT_255_1_234
10
5.340479
20
13.3286865
40
0.3126255
50
89.5460705
51
102.5418777
0
ARC
8
DEFAULT_255_1_234
10
5.3161876
20
13.4317665
40
0.2067346
50
102.1739365
51
129.2061916
0
ARC
8
DEFAULT_255_1_234
10
5.3082948
20
13.4442094
40
0.1921118
50
129.7279328
51
135.7542026
0
ARC
8
DEFAULT_255_1_234
10
5.3204476
20
13.4345045
40
0.2075944
50
136.175737
51
166.3674722
0
ARC
8
DEFAULT_255_1_234
10
5.4211395
20
13.4075182
40
0.3118201
50
165.9092917
51
178.8683903
0
ARC
8
DEFAULT_255_1_234
10
5.5076256
20
13.4028179
40
0.3983935
50
178.438168
51
180.0083905
0
ARC
8
DEFAULT_255_1_234
10
5.3674859
20
13.4067231
40
0.4068601
50
163.2878735
51
180.5581814
0
ARC
8
DEFAULT_255_1_234
10
5.287312
20
13.428784
40
0.3237344
50
133.454115
51
162.9470031
0
ARC
8
DEFAULT_255_1_234
10
5.3051661
20
13.4098
40
0.349795
50
100.7869394
51
133.4384016
0
ARC
8
DEFAULT_255_1_234
10
5.3399433
20
13.2549319
40
0.5084616
50
89.6605301
51
101.3704185
0
ARC
8
DEFAULT_255_1_234
10
5.3465772
20
13.2610496
40
0.502348
50
78.2171172
51
90.4130393
0
ARC
8
DEFAULT_255_1_234
10
5.382085
20
13.4234637
40
0.3361092
50
55.9268222
51
78.4888551
0
ARC
8
DEFAULT_255_1_234
10
5.401729
20
13.4573324
40
0.2970617
50
47.9292255
51
55.4054003
0
ARC
8
DEFAULT_255_1_234
10
5.4118851
20
13.4676502
40
0.2825983
50
4.3347696
51
48.0560701
0
ARC
8
DEFAULT_255_1_234
10
5.3023244
20
13.4506601
40
0.393225
50
359.925209
51
5.5967654
0
ARC
8
DEFAULT_255_1_234
10
5.3452136
20
13.4562816
40
0.3503892
50
337.8914096
51
358.9967724
0
ARC
8
DEFAULT_255_1_234
10
5.0738548
20
13.5609706
40
0.6412172
50
326.9135351
51
338.3505194
0
ARC
8
DEFAULT_255_1_234
10
4.6752852
20
13.8164284
40
1.1146189
50
319.6472867
51
327.095818
0
ARC
8
DEFAULT_255_1_234
10
4.2919855
20
14.1326
40
1.6114559
50
317.2586784
51
319.9046139
0
LINE
8
DEFAULT_255_1_234
10
4.8168119
20
20.6366792
11
4.8168119
21
20.5154
0
LINE
8
DEFAULT_255_1_234
10
4.8168119
20
20.5154
11
4.050584
21
20.5154
0
LINE
8
DEFAULT_255_1_234
10
4.050584
20
20.5154
11
4.050584
21
20.6222221
0
LINE
8
DEFAULT_255_1_234
10
4.050584
20
20.6222221
11
4.4553836
21
21.0719995
0
LINE
8
DEFAULT_255_1_234
10
4.1766823
20
21.3402595
11
4.0280952
21
21.3402595
0
LINE
8
DEFAULT_255_1_234
10
4.5429296
20
20.9764218
11
4.2296918
21
20.6366792
0
LINE
8
DEFAULT_255_1_234
10
4.2296918
20
20.6366792
11
4.8168119
21
20.6366792
0
ARC
8
DEFAULT_255_1_234
10
3.106367
20
22.2649527
40
1.8008286
50
318.5132453
51
320.7828378
0
ARC
8
DEFAULT_255_1_234
10
3.6350644
20
21.8346426
40
1.1191493
50
320.7372736
51
323.9737074
0
ARC
8
DEFAULT_255_1_234
10
4.0270501
20
21.5506361
40
0.6350923
50
323.8961724
51
328.6421089
0
ARC
8
DEFAULT_255_1_234
10
4.2317096
20
21.4244031
40
0.3946393
50
328.8299013
51
331.789948
0
ARC
8
DEFAULT_255_1_234
10
4.3314274
20
21.3729509
40
0.2824501
50
331.4255242
51
352.9364833
0
ARC
8
DEFAULT_255_1_234
10
4.3450775
20
21.3698976
40
0.2685315
50
353.2248685
51
0.0169286
0
ARC
8
DEFAULT_255_1_234
10
4.3660652
20
21.372195
40
0.2475536
50
359.4866256
51
15.9339782
0
ARC
8
DEFAULT_255_1_234
10
4.4167637
20
21.3858286
40
0.1950618
50
16.1714718
51
43.5284424
0
ARC
8
DEFAULT_255_1_234
10
4.4244946
20
21.3935573
40
0.184134
50
43.4415429
51
83.1661404
0
ARC
8
DEFAULT_255_1_234
10
4.4110864
20
21.3198771
40
0.258926
50
82.160215
51
90.1505798
0
ARC
8
DEFAULT_255_1_234
10
4.4079291
20
21.2661865
40
0.3126255
50
89.5460705
51
102.5418777
0
ARC
8
DEFAULT_255_1_234
10
4.3836377
20
21.3692665
40
0.2067346
50
102.1739365
51
129.2061916
0
ARC
8
DEFAULT_255_1_234
10
4.3757449
20
21.3817094
40
0.1921118
50
129.7279328
51
135.7542026
0
ARC
8
DEFAULT_255_1_234
10
4.3878977
20
21.3720045
40
0.2075944
50
136.175737
51
166.3674722
0
ARC
8
DEFAULT_255_1_234
10
4.4885896
20
21.3450182
40
0.3118201
50
165.9092917
51
178.8683903
0
ARC
8
DEFAULT_255_1_234
10
4.5750757
20
21.3403179
40
0.3983935
50
178.438168
51
180.0083905
0
ARC
8
DEFAULT_255_1_234
10
4.4349359
20
21.3442231
40
0.4068601
50
163.2878735
51
180.5581814
0
ARC
8
DEFAULT_255_1_234
10
4.3547621
20
21.366284
40
0.3237344
50
133.454115
51
162.9470031
0
ARC
8
DEFAULT_255_1_234
10
4.3726162
20
21.3473
40
0.349795
50
100.7869394
51
133.4384016
0
ARC
8
DEFAULT_255_1_234
10
4.4073934
20
21.1924319
40
0.5084616
50
89.6605301
51
101.3704185
0
ARC
8
DEFAULT_255_1_234
10
4.4140273
20
21.1985496
40
0.502348
50
78.2171172
51
90.4130393
0
ARC
8
DEFAULT_255_1_234
10
4.4495351
20
21.3609637
40
0.3361092
50
55.9268222
51
78.4888551
0
ARC
8
DEFAULT_255_1_234
10
4.4691791
20
21.3948324
40
0.2970617
50
47.9292255
51
55.4054003
0
ARC
8
DEFAULT_255_1_234
10
4.4793352
20
21.4051502
40
0.2825983
50
4.3347696
51
48.0560701
0
ARC
8
DEFAULT_255_1_234
10
4.3697745
20
21.3881601
40
0.393225
50
359.925209
51
5.5967654
0
ARC
8
DEFAULT_255_1_234
10
4.4126637
20
21.3937816
40
0.3503892
50
337.8914096
51
358.9967724
0
ARC
8
DEFAULT_255_1_234
10
4.1413049
20
21.4984706
40
0.6412172
50
326.9135351
51
338.3505194
0
ARC
8
DEFAULT_255_1_234
10
3.7427353
20
21.7539284
40
1.1146189
50
319.6472867
51
327.095818
0
ARC
8
DEFAULT_255_1_234
10
3.3594356
20
22.0701
40
1.6114559
50
317.2586784
51
319.9046139
0
LINE
8
DEFAULT_255_1_234
10
5.4625636
20
21.6904433
11
5.4625636
21
20.5154
0
LINE
8
DEFAULT_255_1_234
10
5.4625636
20
20.5154
11
5.3131733
21
20.5154
0
LINE
8
DEFAULT_255_1_234
10
5.3131733
20
20.5154
11
5.3131733
21
21.5057133
0
LINE
8
DEFAULT_255_1_234
10
5.3131733
20
21.5057133
11
5.0135895
21
21.3956785
0
LINE
8
DEFAULT_255_1_234
10
5.0135895
20
21.3956785
11
5.0135895
21
21.5306117
0
LINE
8
DEFAULT_255_1_234
10
5.0135895
20
21.5306117
11
5.4392716
21
21.6904433
0
LINE
8
DEFAULT_255_1_234
10
5.4392716
20
21.6904433
11
5.4625636
21
21.6904433
0
LINE
8
DEFAULT_255_1_234
10
4.8257119
20
28.5741792
11
4.8257119
21
28.4529
0
LINE
8
DEFAULT_255_1_234
10
4.8257119
20
28.4529
11
4.059484
21
28.4529
0
LINE
8
DEFAULT_255_1_234
10
4.059484
20
28.4529
11
4.059484
21
28.5597221
0
LINE
8
DEFAULT_255_1_234
10
4.059484
20
28.5597221
11
4.4642836
21
29.0094995
0
LINE
8
DEFAULT_255_1_234
10
4.1855823
20
29.2777595
11
4.0369952
21
29.2777595
0
LINE
8
DEFAULT_255_1_234
10
4.5518296
20
28.9139218
11
4.2385918
21
28.5741792
0
LINE
8
DEFAULT_255_1_234
10
4.2385918
20
28.5741792
11
4.8257119
21
28.5741792
0
ARC
8
DEFAULT_255_1_234
10
3.115267
20
30.2024527
40
1.8008286
50
318.5132453
51
320.7828378
0
ARC
8
DEFAULT_255_1_234
10
3.6439644
20
29.7721426
40
1.1191493
50
320.7372736
51
323.9737074
0
ARC
8
DEFAULT_255_1_234
10
4.0359501
20
29.4881361
40
0.6350923
50
323.8961724
51
328.6421089
0
ARC
8
DEFAULT_255_1_234
10
4.2406096
20
29.3619031
40
0.3946393
50
328.8299013
51
331.789948
0
ARC
8
DEFAULT_255_1_234
10
4.3403274
20
29.3104509
40
0.2824501
50
331.4255242
51
352.9364833
0
ARC
8
DEFAULT_255_1_234
10
4.3539775
20
29.3073976
40
0.2685315
50
353.2248685
51
0.0169286
0
ARC
8
DEFAULT_255_1_234
10
4.3749652
20
29.309695
40
0.2475536
50
359.4866256
51
15.9339782
0
ARC
8
DEFAULT_255_1_234
10
4.4256637
20
29.3233286
40
0.1950618
50
16.1714718
51
43.5284424
0
ARC
8
DEFAULT_255_1_234
10
4.4333946
20
29.3310573
40
0.184134
50
43.4415429
51
83.1661404
0
ARC
8
DEFAULT_255_1_234
10
4.4199864
20
29.2573771
40
0.258926
50
82.160215
51
90.1505798
0
ARC
8
DEFAULT_255_1_234
10
4.4168291
20
29.2036865
40
0.3126255
50
89.5460705
51
102.5418777
0
ARC
8
DEFAULT_255_1_234
10
4.3925377
20
29.3067665
40
0.2067346
50
102.1739365
51
129.2061916
0
ARC
8
DEFAULT_255_1_234
10
4.3846449
20
29.3192094
40
0.1921118
50
129.7279328
51
135.7542026
0
ARC
8
DEFAULT_255_1_234
10
4.3967977
20
29.3095045
40
0.2075944
50
136.175737
51
166.3674722
0
ARC
8
DEFAULT_255_1_234
10
4.4974896
20
29.2825182
40
0.3118201
50
165.9092917
51
178.8683903
0
ARC
8
DEFAULT_255_1_234
10
4.5839757
20
29.2778179
40
0.3983935
50
178.438168
51
180.0083905
0
ARC
8
DEFAULT_255_1_234
10
4.4438359
20
29.2817231
40
0.4068601
50
163.2878735
51
180.5581814
0
ARC
8
DEFAULT_255_1_234
10
4.3636621
20
29.303784
40
0.3237344
50
133.454115
51
162.9470031
0
ARC
8
DEFAULT_255_1_234
10
4.3815162
20
29.2848
40
0.349795
50
100.7869394
51
133.4384016
0
ARC
8
DEFAULT_255_1_234
10
4.4162934
20
29.1299319
40
0.5084616
50
89.6605301
51
101.3704185
0
ARC
8
DEFAULT_255_1_234
10
4.4229273
20
29.1360496
40
0.502348
50
78.2171172
51
90.4130393
0
ARC
8
DEFAULT_255_1_234
10
4.4584351
20
29.2984637
40
0.3361092
50
55.9268222
51
78.4888551
0
ARC
8
DEFAULT_255_1_234
10
4.4780791
20
29.3323324
40
0.2970617
50
47.9292255
51
55.4054003
0
ARC
8
DEFAULT_255_1_234
10
4.4882352
20
29.3426502
40
0.2825983
50
4.3347696
51
48.0560701
0
ARC
8
DEFAULT_255_1_234
10
4.3786745
20
29.3256601
40
0.393225
50
359.925209
51
5.5967654
0
ARC
8
DEFAULT_255_1_234
10
4.4215637
20
29.3312816
40
0.3503892
50
337.8914096
51
358.9967724
0
ARC
8
DEFAULT_255_1_234
10
4.1502049
20
29.4359706
40
0.6412172
50
326.9135351
51
338.3505194
0
ARC
8
DEFAULT_255_1_234
10
3.7516353
20
29.6914284
40
1.1146189
50
319.6472867
51
327.095818
0
ARC
8
DEFAULT_255_1_234
10
3.3683356
20
30.0076
40
1.6114559
50
317.2586784
51
319.9046139
0
LINE
8
DEFAULT_255_1_234
10
5.7164316
20
29.1444327
11
5.7164316
21
28.9516709
0
LINE
8
DEFAULT_255_1_234
10
4.9783149
20
28.9315916
11
4.9783149
21
29.1299755
0
LINE
8
DEFAULT_255_1_234
10
5.5678445
20
28.9115123
11
5.5678445
21
29.1548739
0
LINE
8
DEFAULT_255_1_234
10
5.1269021
20
29.1661184
11
5.1269021
21
28.9283789
0
ARC
8
DEFAULT_255_1_234
10
4.4917206
20
28.9467805
40
1.2247208
50
353.8441951
51
0.2287902
0
ARC
8
DEFAULT_255_1_234
10
4.955671
20
28.8949806
40
0.7578929
50
344.4934747
51
353.9765454
0
ARC
8
DEFAULT_255_1_234
10
5.25493
20
28.8098981
40
0.4467846
50
329.2803592
51
344.7472793
0
ARC
8
DEFAULT_255_1_234
10
5.3542125
20
28.7554018
40
0.3336173
50
324.9352394
51
328.6160465
0
ARC
8
DEFAULT_255_1_234
10
5.3919233
20
28.7290427
40
0.2876076
50
280.580143
51
324.9173126
0
ARC
8
DEFAULT_255_1_234
10
5.3518026
20
28.8961099
40
0.4592847
50
269.5977311
51
281.6734359
0
ARC
8
DEFAULT_255_1_234
10
5.3445932
20
28.8841173
40
0.4472986
50
256.6228859
51
270.51044
0
ARC
8
DEFAULT_255_1_234
10
5.3043909
20
28.7292877
40
0.2873874
50
215.8618325
51
257.2788573
0
ARC
8
DEFAULT_255_1_234
10
5.4064941
20
28.7977977
40
0.4102928
50
197.9693508
51
215.2623606
0
ARC
8
DEFAULT_255_1_234
10
5.6550057
20
28.8816709
40
0.6725652
50
187.8816417
51
198.2346507
0
ARC
8
DEFAULT_255_1_234
10
6.0508265
20
28.9388079
40
1.0724845
50
180.8976217
51
188.0055519
0
ARC
8
DEFAULT_255_1_234
10
6.3308453
20
28.9491777
40
1.3526448
50
180.7449369
51
181.1510016
0
ARC
8
DEFAULT_255_1_234
10
6.1731182
20
29.1348042
40
1.1948131
50
173.7675579
51
180.231553
0
ARC
8
DEFAULT_255_1_234
10
5.7213329
20
29.1858666
40
0.7401564
50
164.3058563
51
173.9002247
0
ARC
8
DEFAULT_255_1_234
10
5.4301398
20
29.2697656
40
0.4371288
50
148.7922025
51
164.568378
0
ARC
8
DEFAULT_255_1_234
10
5.334985
20
29.3228929
40
0.3282386
50
144.5883898
51
148.1176286
0
ARC
8
DEFAULT_255_1_234
10
5.3006748
20
29.3468315
40
0.2864044
50
101.6440918
51
144.514236
0
ARC
8
DEFAULT_255_1_234
10
5.3431814
20
29.1779069
40
0.4604934
50
89.5284041
51
102.5819763
0
ARC
8
DEFAULT_255_1_234
10
5.3510902
20
29.1740018
40
0.464401
50
77.0437873
51
90.5081339
0
ARC
8
DEFAULT_255_1_234
10
5.3912904
20
29.3382615
40
0.2953195
50
48.2778575
51
77.4994676
0
ARC
8
DEFAULT_255_1_234
10
5.3985535
20
29.3511746
40
0.2808655
50
36.3142134
51
47.6305865
0
ARC
8
DEFAULT_255_1_234
10
5.3116842
20
29.2926515
40
0.3855453
50
18.2931786
51
35.6769206
0
ARC
8
DEFAULT_255_1_234
10
5.0573601
20
29.2053593
40
0.654423
50
8.024666
51
18.5605216
0
ARC
8
DEFAULT_255_1_234
10
4.6410521
20
29.1438792
40
1.0752407
50
1.1274072
51
8.1718305
0
ARC
8
DEFAULT_255_1_234
10
4.3174712
20
29.1311885
40
1.3990231
50
0.5424119
51
1.3863029
0
ARC
8
DEFAULT_255_1_234
10
4.4996089
20
29.1584342
40
1.0682415
50
359.8090433
51
4.9407866
0
ARC
8
DEFAULT_255_1_234
10
4.9206103
20
29.1960113
40
0.6455691
50
4.8362157
51
12.2904523
0
ARC
8
DEFAULT_255_1_234
10
5.1961218
20
29.2573965
40
0.3633074
50
12.0805627
51
23.8173984
0
ARC
8
DEFAULT_255_1_234
10
5.3134924
20
29.3070919
40
0.2358723
50
24.2871213
51
31.3935614
0
ARC
8
DEFAULT_255_1_234
10
5.3659621
20
29.3414233
40
0.1732111
50
30.7407893
51
82.4657128
0
ARC
8
DEFAULT_255_1_234
10
5.3479755
20
29.2530691
40
0.263235
50
81.1060089
51
90.2184952
0
ARC
8
DEFAULT_255_1_234
10
5.3444054
20
29.2788924
40
0.2374236
50
89.3806855
51
105.6762551
0
ARC
8
DEFAULT_255_1_234
10
5.3260685
20
29.3455567
40
0.1682847
50
105.7981136
51
149.7388061
0
ARC
8
DEFAULT_255_1_234
10
5.4324763
20
29.281595
40
0.2924306
50
149.4208916
51
163.6286378
0
ARC
8
DEFAULT_255_1_234
10
5.6415651
20
29.217825
40
0.5110213
50
163.3763315
51
172.1410975
0
ARC
8
DEFAULT_255_1_234
10
5.971637
20
29.1705518
40
0.8444586
50
172.0259487
51
178.0703232
0
ARC
8
DEFAULT_255_1_234
10
6.274646
20
29.1561906
40
1.1477868
50
177.8631668
51
179.5044149
0
ARC
8
DEFAULT_255_1_234
10
6.1673864
20
28.9247389
40
1.0404907
50
179.7995573
51
185.2460446
0
ARC
8
DEFAULT_255_1_234
10
5.7630903
20
28.8864513
40
0.6343885
50
185.1411642
51
193.0079639
0
ARC
8
DEFAULT_255_1_234
10
5.4987376
20
28.8239641
40
0.3627568
50
192.7897626
51
205.2507664
0
ARC
8
DEFAULT_255_1_234
10
5.3940923
20
28.7772415
40
0.2481908
50
205.8005384
51
211.2537509
0
ARC
8
DEFAULT_255_1_234
10
5.3417363
20
28.742158
40
0.1852521
50
210.3789793
51
238.4008143
0
ARC
8
DEFAULT_255_1_234
10
5.3397885
20
28.7468376
40
0.1882621
50
239.6520629
51
265.9793761
0
ARC
8
DEFAULT_255_1_234
10
5.3483085
20
28.8140427
40
0.2559272
50
265.1315437
51
270.060332
0
ARC
8
DEFAULT_255_1_234
10
5.3511864
20
28.7816534
40
0.2235528
50
269.3314664
51
287.2178029
0
ARC
8
DEFAULT_255_1_234
10
5.3649716
20
28.7313279
40
0.1714108
50
287.7958004
51
329.080874
0
ARC
8
DEFAULT_255_1_234
10
5.2692173
20
28.791093
40
0.2842745
50
328.6634704
51
343.3325132
0
ARC
8
DEFAULT_255_1_234
10
5.0519193
20
28.8587863
40
0.5118644
50
343.0499468
51
351.9393422
0
ARC
8
DEFAULT_255_1_234
10
4.7052493
20
28.9098949
40
0.8622784
50
351.8069023
51
357.7959224
0
ARC
8
DEFAULT_255_1_234
10
4.3817049
20
28.9266721
40
1.1862365
50
357.5871873
51
359.2677531
0
LINE
8
DEFAULT_255_1_234
10
4.5478137
20
37.5654433
11
4.5478137
21
36.3904
0
LINE
8
DEFAULT_255_1_234
10
4.5478137
20
36.3904
11
4.3984234
21
36.3904
0
LINE
8
DEFAULT_255_1_234
10
4.3984234
20
36.3904
11
4.3984234
21
37.3807133
0
LINE
8
DEFAULT_255_1_234
10
4.3984234
20
37.3807133
11
4.0988396
21
37.2706785
0
LINE
8
DEFAULT_255_1_234
10
4.0988396
20
37.2706785
11
4.0988396
21
37.4056117
0
LINE
8
DEFAULT_255_1_234
10
4.0988396
20
37.4056117
11
4.5245217
21
37.5654433
0
LINE
8
DEFAULT_255_1_234
10
4.5245217
20
37.5654433
11
4.5478137
21
37.5654433
0
LINE
8
DEFAULT_255_1_234
10
5.7019745
20
37.0923739
11
5.7019745
21
37.0490025
0
LINE
8
DEFAULT_255_1_234
10
5.1598322
20
36.3895968
11
5.1309179
21
36.3895968
0
LINE
8
DEFAULT_255_1_234
10
5.1309179
20
36.3895968
11
5.1309179
21
36.5148919
0
LINE
8
DEFAULT_255_1_234
10
5.1309179
20
36.5148919
11
5.1622417
21
36.5148919
0
LINE
8
DEFAULT_255_1_234
10
5.5533874
20
37.0634597
11
5.5533874
21
37.1228945
0
ARC
8
DEFAULT_255_1_234
10
5.2740143
20
37.1380403
40
0.3635579
50
297.4037347
51
320.016758
0
ARC
8
DEFAULT_255_1_234
10
5.3030092
20
37.082324
40
0.3007486
50
270.2633101
51
297.3851877
0
ARC
8
DEFAULT_255_1_234
10
5.2996048
20
37.1286904
40
0.3471448
50
269.9966443
51
270.7900392
0
ARC
8
DEFAULT_255_1_234
10
5.2970529
20
37.1285143
40
0.3469779
50
254.5999133
51
270.4180344
0
ARC
8
DEFAULT_255_1_234
10
5.2827888
20
37.0720647
40
0.2887697
50
236.4717942
51
254.3541279
0
ARC
8
DEFAULT_255_1_234
10
5.2984106
20
37.0930711
40
0.3149125
50
208.4727207
51
236.2134933
0
ARC
8
DEFAULT_255_1_234
10
5.3622881
20
37.1321455
40
0.3897115
50
204.3447514
51
209.0453999
0
ARC
8
DEFAULT_255_1_234
10
5.4302457
20
37.1609656
40
0.4635101
50
183.9375985
51
204.1276318
0
ARC
8
DEFAULT_255_1_234
10
5.5210708
20
37.1707482
40
0.5548037
50
179.9652252
51
184.3013875
0
ARC
8
DEFAULT_255_1_234
10
5.4970754
20
37.1740507
40
0.5308164
50
166.7585989
51
180.3201225
0
ARC
8
DEFAULT_255_1_234
10
5.4124368
20
37.1924488
40
0.4442163
50
154.6955053
51
166.5679793
0
ARC
8
DEFAULT_255_1_234
10
5.3271238
20
37.235421
40
0.3487299
50
136.3324195
51
155.0871442
0
ARC
8
DEFAULT_255_1_234
10
5.2990311
20
37.2594954
40
0.3117924
50
121.236733
51
135.9680508
0
ARC
8
DEFAULT_255_1_234
10
5.3130809
20
37.2334743
40
0.3413302
50
96.845628
51
120.9881519
0
ARC
8
DEFAULT_255_1_234
10
5.3276391
20
37.1399515
40
0.4359341
50
89.8870174
51
97.2802754
0
ARC
8
DEFAULT_255_1_234
10
5.3328829
20
37.2037095
40
0.3722009
50
70.6505584
51
90.6749113
0
ARC
8
DEFAULT_255_1_234
10
5.3460108
20
37.2550361
40
0.3194571
50
36.7492984
51
69.8219918
0
ARC
8
DEFAULT_255_1_234
10
5.2461273
20
37.1771993
40
0.4460685
50
15.39587
51
37.0840084
0
ARC
8
DEFAULT_255_1_234
10
5.0331706
20
37.1151242
40
0.6678714
50
3.9488873
51
15.6798563
0
ARC
8
DEFAULT_255_1_234
10
4.7930334
20
37.0934964
40
0.9089418
50
359.929245
51
4.2665314
0
ARC
8
DEFAULT_255_1_234
10
4.3324771
20
37.0423513
40
1.3695135
50
352.8366322
51
0.2782669
0
ARC
8
DEFAULT_255_1_234
10
4.861245
20
36.9736629
40
0.8363105
50
341.8359505
51
352.9884176
0
ARC
8
DEFAULT_255_1_234
10
5.1831169
20
36.86517
40
0.4966642
50
322.8578092
51
342.1527901
0
ARC
8
DEFAULT_255_1_234
10
5.2695125
20
36.8062384
40
0.3922466
50
319.334325
51
322.0998941
0
ARC
8
DEFAULT_255_1_234
10
5.2385462
20
36.8373209
40
0.4360033
50
285.9541367
51
318.8878087
0
ARC
8
DEFAULT_255_1_234
10
5.1658723
20
37.06836
40
0.678149
50
272.9281676
51
286.4922826
0
ARC
8
DEFAULT_255_1_234
10
5.1468841
20
37.2934587
40
0.9039547
50
270.8207226
51
273.4012994
0
ARC
8
DEFAULT_255_1_234
10
5.1557692
20
37.1115666
40
0.5967098
50
270.6214993
51
281.4062806
0
ARC
8
DEFAULT_255_1_234
10
5.1987673
20
36.9059833
40
0.3866861
50
281.1852553
51
299.0621114
0
ARC
8
DEFAULT_255_1_234
10
5.2361244
20
36.8338798
40
0.3055236
50
299.5067782
51
313.1200873
0
ARC
8
DEFAULT_255_1_234
10
5.2383211
20
36.8259554
40
0.2982623
50
313.8526205
51
338.5989322
0
ARC
8
DEFAULT_255_1_234
10
5.0759285
20
36.8926781
40
0.4738131
50
338.2523585
51
351.2430902
0
ARC
8
DEFAULT_255_1_234
10
4.8348581
20
36.9336447
40
0.7183203
50
350.9409515
51
357.6691871
0
ARC
8
DEFAULT_255_1_234
10
5.3239011
20
37.1338764
40
0.2294452
50
269.9447023
51
306.8248917
0
ARC
8
DEFAULT_255_1_234
10
5.3001926
20
37.1761898
40
0.2775994
50
305.5072438
51
327.0773448
0
ARC
8
DEFAULT_255_1_234
10
5.3120367
20
37.1667025
40
0.2625056
50
327.4104943
51
336.840169
0
ARC
8
DEFAULT_255_1_234
10
5.0026432
20
37.1261302
40
0.5507537
50
359.6633817
51
10.117533
0
ARC
8
DEFAULT_255_1_234
10
5.178023
20
37.1585777
40
0.372403
50
9.9430141
51
26.7700076
0
ARC
8
DEFAULT_255_1_234
10
5.2377442
20
37.1861187
40
0.3066865
50
27.2015464
51
34.6829435
0
ARC
8
DEFAULT_255_1_234
10
5.2866922
20
37.2228977
40
0.245519
50
34.1250343
51
50.3070065
0
ARC
8
DEFAULT_255_1_234
10
5.3313602
20
37.2763385
40
0.1758693
50
50.3851167
51
90.6705993
0
ARC
8
DEFAULT_255_1_234
10
5.3266835
20
37.2458799
40
0.2063326
50
89.272901
51
111.9140407
0
ARC
8
DEFAULT_255_1_234
10
5.3247363
20
37.259944
40
0.1925887
50
112.9382311
51
142.5320782
0
ARC
8
DEFAULT_255_1_234
10
5.3793543
20
37.2155969
40
0.2629232
50
142.1021256
51
166.3835592
0
ARC
8
DEFAULT_255_1_234
10
5.4974848
20
37.1850915
40
0.3849193
50
166.1100289
51
178.665427
0
ARC
8
DEFAULT_255_1_234
10
5.6022437
20
37.1792117
40
0.4897989
50
178.2632126
51
180.0111093
0
ARC
8
DEFAULT_255_1_234
10
5.5220558
20
37.1763728
40
0.40962
50
179.6161962
51
191.8787166
0
ARC
8
DEFAULT_255_1_234
10
5.4000397
20
37.1493896
40
0.2846655
50
191.6191692
51
215.2972286
0
ARC
8
DEFAULT_255_1_234
10
5.3803588
20
37.1378918
40
0.2619665
50
215.7320102
51
216.5355409
0
ARC
8
DEFAULT_255_1_234
10
5.3264674
20
37.0946647
40
0.1929497
50
215.7486685
51
239.9727502
0
ARC
8
DEFAULT_255_1_234
10
5.319459
20
37.0895894
40
0.1850822
50
241.0650169
51
269.2810483
0
ARC
8
DEFAULT_255_1_234
10
5.3236505
20
37.1386371
40
0.2342059
50
268.4062526
51
270.0071348
0
LINE
8
DEFAULT_255_1_234
10
4.5478137
20
45.5029433
11
4.5478137
21
44.3279
0
LINE
8
DEFAULT_255_1_234
10
4.5478137
20
44.3279
11
4.3984234
21
44.3279
0
LINE
8
DEFAULT_255_1_234
10
4.3984234
20
44.3279
11
4.3984234
21
45.3182133
0
LINE
8
DEFAULT_255_1_234
10
4.3984234
20
45.3182133
11
4.0988396
21
45.2081785
0
LINE
8
DEFAULT_255_1_234
10
4.0988396
20
45.2081785
11
4.0988396
21
45.3431117
0
LINE
8
DEFAULT_255_1_234
10
4.0988396
20
45.3431117
11
4.5245217
21
45.5029433
0
LINE
8
DEFAULT_255_1_234
10
4.5245217
20
45.5029433
11
4.5478137
21
45.5029433
0
ARC
8
DEFAULT_255_1_234
10
5.4101123
20
45.1895703
40
0.2822356
50
338.8763615
51
0.5166041
0
ARC
8
DEFAULT_255_1_234
10
5.4269777
20
45.1850208
40
0.2648703
50
325.8412414
51
338.4795939
0
ARC
8
DEFAULT_255_1_234
10
5.3879145
20
45.2121042
40
0.3124019
50
296.7586019
51
325.753654
0
ARC
8
DEFAULT_255_1_234
10
5.3591253
20
45.2605789
40
0.368668
50
296.0902311
51
297.3618122
0
ARC
8
DEFAULT_255_1_234
10
5.3848711
20
44.6051041
40
0.3518806
50
47.9009248
51
67.1946869
0
ARC
8
DEFAULT_255_1_234
10
5.4044953
20
44.6297395
40
0.320451
50
35.236241
51
47.551371
0
ARC
8
DEFAULT_255_1_234
10
5.4306571
20
44.6471993
40
0.2890103
50
359.2759738
51
35.4014081
0
ARC
8
DEFAULT_255_1_234
10
5.3561602
20
44.6398826
40
0.3635026
50
343.1294516
51
0.5776525
0
ARC
8
DEFAULT_255_1_234
10
5.4286147
20
44.619933
40
0.2883832
50
310.8497458
51
342.744803
0
ARC
8
DEFAULT_255_1_234
10
5.386826
20
44.6676294
40
0.3517954
50
281.5473923
51
310.9169905
0
ARC
8
DEFAULT_255_1_234
10
5.351171
20
44.8229084
40
0.5110832
50
269.6192722
51
281.9789957
0
ARC
8
DEFAULT_255_1_234
10
5.3439499
20
44.8229828
40
0.5111606
50
257.4584469
51
270.4287458
0
ARC
8
DEFAULT_255_1_234
10
5.3058642
20
44.6626344
40
0.3463762
50
228.7553743
51
257.8484423
0
ARC
8
DEFAULT_255_1_234
10
5.274884
20
44.6253442
40
0.297916
50
184.0104442
51
228.5071787
0
ARC
8
DEFAULT_255_1_234
10
5.3911784
20
44.6430512
40
0.4152734
50
179.9315461
51
185.3254504
0
ARC
8
DEFAULT_255_1_234
10
5.273543
20
44.6467992
40
0.2976554
50
145.6795913
51
180.6259649
0
ARC
8
DEFAULT_255_1_234
10
5.2898779
20
44.6353929
40
0.3175776
50
115.5537925
51
145.6416199
0
ARC
8
DEFAULT_255_1_234
10
5.3239709
20
44.5743028
40
0.3874232
50
113.2437915
51
116.2054627
0
ARC
8
DEFAULT_255_1_234
10
5.3086922
20
45.214158
40
0.3154751
50
222.9548379
51
244.1372485
0
ARC
8
DEFAULT_255_1_234
10
5.2964997
20
45.2004834
40
0.2972382
50
213.3439227
51
222.6271327
0
ARC
8
DEFAULT_255_1_234
10
5.2772932
20
45.1874308
40
0.274019
50
180.4316517
51
213.2713999
0
ARC
8
DEFAULT_255_1_234
10
5.3347933
20
45.192111
40
0.33158
50
179.9992944
51
181.1655061
0
ARC
8
DEFAULT_255_1_234
10
5.375735
20
45.1955561
40
0.3725376
50
164.6186108
51
180.5292368
0
ARC
8
DEFAULT_255_1_234
10
5.2859213
20
45.2197101
40
0.2795349
50
132.2454369
51
164.5092287
0
ARC
8
DEFAULT_255_1_234
10
5.3146317
20
45.1872028
40
0.3229019
50
100.7052766
51
132.1387266
0
ARC
8
DEFAULT_255_1_234
10
5.3451289
20
45.0494086
40
0.4639835
50
89.6732617
51
101.2449487
0
ARC
8
DEFAULT_255_1_234
10
5.3513487
20
45.066899
40
0.4464999
50
76.2876631
51
90.4586123
0
ARC
8
DEFAULT_255_1_234
10
5.3819719
20
45.189122
40
0.3205023
50
47.8240157
51
76.4266918
0
ARC
8
DEFAULT_255_1_234
10
5.4042269
20
45.215159
40
0.2862661
50
6.9168658
51
47.6261438
0
ARC
8
DEFAULT_255_1_234
10
5.2855672
20
45.193237
40
0.4067708
50
359.8419705
51
7.9694496
0
ARC
8
DEFAULT_255_1_234
10
5.3197569
20
44.6491925
40
0.2513121
50
359.4454068
51
16.9256425
0
ARC
8
DEFAULT_255_1_234
10
5.366638
20
44.6621033
40
0.2027071
50
17.292259
51
45.462717
0
ARC
8
DEFAULT_255_1_234
10
5.3612316
20
44.6574434
40
0.2098212
50
45.3028762
51
83.1921472
0
ARC
8
DEFAULT_255_1_234
10
5.3469
20
44.5772895
40
0.2911472
50
82.2614531
51
90.143954
0
ARC
8
DEFAULT_255_1_234
10
5.343812
20
44.600595
40
0.2678513
50
89.4959189
51
104.8579811
0
ARC
8
DEFAULT_255_1_234
10
5.3261379
20
44.667589
40
0.1985654
50
104.8855873
51
135.2448349
0
ARC
8
DEFAULT_255_1_234
10
5.3311152
20
44.6631336
40
0.2052373
50
135.3398955
51
172.104394
0
ARC
8
DEFAULT_255_1_234
10
5.411821
20
44.6476925
40
0.2873299
50
171.2651929
51
180.1859362
0
ARC
8
DEFAULT_255_1_234
10
5.3948911
20
44.6444733
40
0.2704083
50
179.515471
51
193.6466734
0
ARC
8
DEFAULT_255_1_234
10
5.313268
20
44.6236777
40
0.1861855
50
193.3540587
51
225.8256931
0
ARC
8
DEFAULT_255_1_234
10
5.3173437
20
44.6307524
40
0.1941102
50
226.418029
51
255.8553723
0
ARC
8
DEFAULT_255_1_234
10
5.342987
20
44.7243998
40
0.2911917
50
255.4655572
51
268.7985967
0
ARC
8
DEFAULT_255_1_234
10
5.3477062
20
44.8082491
40
0.3751331
50
268.3464808
51
270.0104874
0
ARC
8
DEFAULT_255_1_234
10
5.350045
20
44.7398138
40
0.3067064
50
269.575914
51
282.0823146
0
ARC
8
DEFAULT_255_1_234
10
5.3725359
20
44.6403803
40
0.2047712
50
281.7522535
51
306.6056425
0
ARC
8
DEFAULT_255_1_234
10
5.3823785
20
44.6242487
40
0.1859604
50
307.1350025
51
314.0277951
0
ARC
8
DEFAULT_255_1_234
10
5.3787869
20
44.6268766
40
0.1903475
50
314.2553419
51
350.169324
0
ARC
8
DEFAULT_255_1_234
10
5.2936338
20
44.6453409
40
0.2774269
50
349.4145679
51
0.2930737
0
ARC
8
DEFAULT_255_1_234
10
5.3456771
20
45.1612353
40
0.2300764
50
89.477591
51
105.729794
0
ARC
8
DEFAULT_255_1_234
10
5.3320684
20
45.2117637
40
0.1777519
50
105.922966
51
135.1662921
0
ARC
8
DEFAULT_255_1_234
10
5.3341187
20
45.2103419
40
0.1802087
50
135.3053131
51
168.9882338
0
ARC
8
DEFAULT_255_1_234
10
5.4168759
20
45.1913721
40
0.2650806
50
168.3802067
51
180.3602358
0
ARC
8
DEFAULT_255_1_234
10
5.3940339
20
45.1876041
40
0.2422425
50
179.5029707
51
194.9126783
0
ARC
8
DEFAULT_255_1_234
10
5.3355
20
45.172211
40
0.1817188
50
194.9722181
51
224.1943972
0
ARC
8
DEFAULT_255_1_234
10
5.3326867
20
45.1699169
40
0.1781027
50
224.2961434
51
262.0157375
0
ARC
8
DEFAULT_255_1_234
10
5.346911
20
45.2430661
40
0.2525492
50
261.1250369
51
270.1959853
0
ARC
8
DEFAULT_255_1_234
10
5.3498865
20
45.2243339
40
0.233825
50
269.4825617
51
285.0988277
0
ARC
8
DEFAULT_255_1_234
10
5.3653024
20
45.166499
40
0.1739712
50
285.1585659
51
315.9484648
0
ARC
8
DEFAULT_255_1_234
10
5.3564036
20
45.1746886
40
0.1860616
50
316.0412958
51
351.9162715
0
ARC
8
DEFAULT_255_1_234
10
5.2830991
20
45.1888245
40
0.2606517
50
351.1056823
51
0.1936567
0
ARC
8
DEFAULT_255_1_234
10
5.309382
20
45.1918369
40
0.234377
50
359.4789506
51
16.0679113
0
ARC
8
DEFAULT_255_1_234
10
5.3569779
20
45.204681
40
0.1850875
50
16.3251951
51
44.791304
0
ARC
8
DEFAULT_255_1_234
10
5.355206
20
45.2047339
40
0.186312
50
44.3958661
51
88.2498933
0
ARC
8
DEFAULT_255_1_234
10
5.3478614
20
45.1436154
40
0.2476868
50
86.9833827
51
90.0200148
0
LINE
8
DEFAULT_255_1_234
10
4.5478137
20
53.4404433
11
4.5478137
21
52.2654
0
LINE
8
DEFAULT_255_1_234
10
4.5478137
20
52.2654
11
4.3984234
21
52.2654
0
LINE
8
DEFAULT_255_1_234
10
4.3984234
20
52.2654
11
4.3984234
21
53.2557133
0
LINE
8
DEFAULT_255_1_234
10
4.3984234
20
53.2557133
11
4.0988396
21
53.1456785
0
LINE
8
DEFAULT_255_1_234
10
4.0988396
20
53.1456785
11
4.0988396
21
53.2806117
0
LINE
8
DEFAULT_255_1_234
10
4.0988396
20
53.2806117
11
4.5245217
21
53.4404433
0
LINE
8
DEFAULT_255_1_234
10
4.5245217
20
53.4404433
11
4.5478137
21
53.4404433
0
LINE
8
DEFAULT_255_1_234
10
5.7381173
20
53.4348211
11
5.7381173
21
53.351291
0
LINE
8
DEFAULT_255_1_234
10
5.7381173
20
53.351291
11
5.2538035
21
52.2654
0
LINE
8
DEFAULT_255_1_234
10
5.2538035
20
52.2654
11
5.0979878
21
52.2654
0
LINE
8
DEFAULT_255_1_234
10
5.0979878
20
52.2654
11
5.5806953
21
53.3127387
0
LINE
8
DEFAULT_255_1_234
10
5.5806953
20
53.3127387
11
4.9477943
21
53.3127387
0
LINE
8
DEFAULT_255_1_234
10
4.9477943
20
53.3127387
11
4.9477943
21
53.4348211
0
LINE
8
DEFAULT_255_1_234
10
4.9477943
20
53.4348211
11
5.7381173
21
53.4348211
0
LINE
8
DEFAULT_255_1_234
10
4.5478137
20
61.3779433
11
4.5478137
21
60.2029
0
LINE
8
DEFAULT_255_1_234
10
4.5478137
20
60.2029
11
4.3984234
21
60.2029
0
LINE
8
DEFAULT_255_1_234
10
4.3984234
20
60.2029
11
4.3984234
21
61.1932133
0
LINE
8
DEFAULT_255_1_234
10
4.3984234
20
61.1932133
11
4.0988396
21
61.0831785
0
LINE
8
DEFAULT_255_1_234
10
4.0988396
20
61.0831785
11
4.0988396
21
61.2181117
0
LINE
8
DEFAULT_255_1_234
10
4.0988396
20
61.2181117
11
4.5245217
21
61.3779433
0
LINE
8
DEFAULT_255_1_234
10
4.5245217
20
61.3779433
11
4.5478137
21
61.3779433
0
LINE
8
DEFAULT_255_1_234
10
5.5397334
20
61.3731243
11
5.5662381
21
61.3731243
0
LINE
8
DEFAULT_255_1_234
10
5.5662381
20
61.3731243
11
5.5662381
21
61.247026
0
LINE
8
DEFAULT_255_1_234
10
5.5662381
20
61.247026
11
5.5389302
21
61.247026
0
LINE
8
DEFAULT_255_1_234
10
4.9919688
20
60.6478583
11
4.9919688
21
60.7048836
0
LINE
8
DEFAULT_255_1_234
10
5.1413592
20
60.6856075
11
5.1413592
21
60.6309917
0
ARC
8
DEFAULT_255_1_234
10
5.544165
20
60.7472455
40
0.4998079
50
90.6001036
51
104.514704
0
ARC
8
DEFAULT_255_1_234
10
5.5053166
20
60.8917131
40
0.3502176
50
104.2855254
51
133.862935
0
ARC
8
DEFAULT_255_1_234
10
5.5216923
20
60.880883
40
0.3693984
50
134.5302688
51
161.6210873
0
ARC
8
DEFAULT_255_1_234
10
5.6870112
20
60.8225895
40
0.5446739
50
161.2849839
51
174.2076652
0
ARC
8
DEFAULT_255_1_234
10
5.8277049
20
60.8031787
40
0.6866274
50
173.7810589
51
174.9254635
0
ARC
8
DEFAULT_255_1_234
10
5.3726881
20
60.6648839
40
0.3033419
50
95.8330959
51
138.9954921
0
ARC
8
DEFAULT_255_1_234
10
5.3950237
20
60.5370375
40
0.4328947
50
89.8753725
51
97.0544009
0
ARC
8
DEFAULT_255_1_234
10
5.3997703
20
60.6205748
40
0.3493769
50
71.6407809
51
90.6240094
0
ARC
8
DEFAULT_255_1_234
10
5.4148276
20
60.6760082
40
0.2920396
50
39.6367836
51
71.019018
0
ARC
8
DEFAULT_255_1_234
10
5.3511749
20
60.6209998
40
0.3761538
50
10.658731
51
39.9043955
0
ARC
8
DEFAULT_255_1_234
10
5.1963832
20
60.5873686
40
0.5345136
50
359.682601
51
11.132623
0
ARC
8
DEFAULT_255_1_234
10
5.1923963
20
60.580301
40
0.5385081
50
347.2486944
51
0.4369317
0
ARC
8
DEFAULT_255_1_234
10
5.359144
20
60.5401807
40
0.3670249
50
318.1409698
51
347.6118597
0
ARC
8
DEFAULT_255_1_234
10
5.3916433
20
60.5134702
40
0.3250007
50
275.6342139
51
317.8248465
0
ARC
8
DEFAULT_255_1_234
10
5.3695544
20
60.6434219
40
0.4565864
50
269.8874292
51
276.7917694
0
ARC
8
DEFAULT_255_1_234
10
5.3640615
20
60.5408743
40
0.3540676
50
246.9140195
51
270.7437342
0
ARC
8
DEFAULT_255_1_234
10
5.3647005
20
60.5266384
40
0.3412781
50
218.1665114
51
245.878116
0
ARC
8
DEFAULT_255_1_234
10
5.4526466
20
60.6002279
40
0.455911
50
191.4115814
51
218.6077802
0
ARC
8
DEFAULT_255_1_234
10
5.6464555
20
60.6436833
40
0.6545001
50
179.6345085
51
191.7836486
0
ARC
8
DEFAULT_255_1_234
10
6.2046892
20
60.7115697
40
1.2127388
50
171.4525249
51
180.3158839
0
ARC
8
DEFAULT_255_1_234
10
5.7651768
20
60.7799608
40
0.7679464
50
157.9802646
51
171.6246686
0
ARC
8
DEFAULT_255_1_234
10
5.5437789
20
60.8682421
40
0.5296008
50
141.4298019
51
157.854097
0
ARC
8
DEFAULT_255_1_234
10
5.4796109
20
60.9136381
40
0.4511509
50
102.8715806
51
140.8564722
0
ARC
8
DEFAULT_255_1_234
10
5.5443725
20
60.6696552
40
0.7034845
50
90.3778349
51
103.5869322
0
ARC
8
DEFAULT_255_1_234
10
5.3705501
20
60.609173
40
0.2370698
50
89.8751008
51
126.2071704
0
ARC
8
DEFAULT_255_1_234
10
5.3751291
20
60.5937303
40
0.2522934
50
124.9745049
51
144.895901
0
ARC
8
DEFAULT_255_1_234
10
5.3575481
20
60.608056
40
0.2296779
50
145.2974905
51
160.2660252
0
ARC
8
DEFAULT_255_1_234
10
5.664802
20
60.6278071
40
0.5234525
50
179.6514266
51
190.2855912
0
ARC
8
DEFAULT_255_1_234
10
5.4954157
20
60.5958786
40
0.3510893
50
190.0945431
51
207.5098196
0
ARC
8
DEFAULT_255_1_234
10
5.4388427
20
60.5689623
40
0.288489
50
207.9583163
51
216.3251085
0
ARC
8
DEFAULT_255_1_234
10
5.4048535
20
60.5410105
40
0.2445587
50
215.7661442
51
232.5456785
0
ARC
8
DEFAULT_255_1_234
10
5.3665518
20
60.4923482
40
0.1826382
50
232.8005391
51
270.6605633
0
ARC
8
DEFAULT_255_1_234
10
5.3711219
20
60.5287612
40
0.2190529
50
269.35537
51
288.4744281
0
ARC
8
DEFAULT_255_1_234
10
5.3804116
20
60.4938118
40
0.1829749
50
289.1833337
51
322.9683818
0
ARC
8
DEFAULT_255_1_234
10
5.3192638
20
60.5420391
40
0.2608399
50
322.6007884
51
346.5182367
0
ARC
8
DEFAULT_255_1_234
10
5.2035234
20
60.5715616
40
0.3802777
50
346.2582162
51
358.7741648
0
ARC
8
DEFAULT_255_1_234
10
5.1016903
20
60.5770965
40
0.4822176
50
358.3755224
51
0.0098023
0
ARC
8
DEFAULT_255_1_234
10
5.177309
20
60.5798657
40
0.4066078
50
359.6214041
51
11.2839074
0
ARC
8
DEFAULT_255_1_234
10
5.3050237
20
60.6065066
40
0.2761514
50
11.0482309
51
31.8146458
0
ARC
8
DEFAULT_255_1_234
10
5.335928
20
60.6232584
40
0.2410679
50
32.3035391
51
38.082671
0
ARC
8
DEFAULT_255_1_234
10
5.377994
20
60.6613662
40
0.1844966
50
36.825067
51
85.7415724
0
ARC
8
DEFAULT_255_1_234
10
5.3712773
20
60.6113301
40
0.2349122
50
85.0140713
51
90.0513278
0
LINE
8
DEFAULT_255_1_234
10
4.5478137
20
69.3154433
11
4.5478137
21
68.1404
0
LINE
8
DEFAULT_255_1_234
10
4.5478137
20
68.1404
11
4.3984234
21
68.1404
0
LINE
8
DEFAULT_255_1_234
10
4.3984234
20
68.1404
11
4.3984234
21
69.1307133
0
LINE
8
DEFAULT_255_1_234
10
4.3984234
20
69.1307133
11
4.0988396
21
69.0206785
0
LINE
8
DEFAULT_255_1_234
10
4.0988396
20
69.0206785
11
4.0988396
21
69.1556117
0
LINE
8
DEFAULT_255_1_234
10
4.0988396
20
69.1556117
11
4.5245217
21
69.3154433
0
LINE
8
DEFAULT_255_1_234
10
4.5245217
20
69.3154433
11
4.5478137
21
69.3154433
0
LINE
8
DEFAULT_255_1_234
10
5.1702734
20
68.6961963
11
5.0514037
21
68.7267169
0
LINE
8
DEFAULT_255_1_234
10
5.0514037
20
68.7267169
11
5.1108386
21
69.3098211
0
LINE
8
DEFAULT_255_1_234
10
5.1108386
20
69.3098211
11
5.7100063
21
69.3098211
0
LINE
8
DEFAULT_255_1_234
10
5.7100063
20
69.3098211
11
5.7100063
21
69.1724784
0
LINE
8
DEFAULT_255_1_234
10
5.7100063
20
69.1724784
11
5.2369369
21
69.1724784
0
LINE
8
DEFAULT_255_1_234
10
5.2369369
20
69.1724784
11
5.2015972
21
68.8536184
0
LINE
8
DEFAULT_255_1_234
10
5.0096387
20
68.4480156
11
5.1501941
21
68.4480156
0
LINE
8
DEFAULT_255_1_234
10
5.209629
20
68.7283232
11
5.1702734
21
68.6961963
0
ARC
8
DEFAULT_255_1_234
10
5.3870756
20
68.535623
40
0.3681349
50
93.7182161
51
120.2538958
0
ARC
8
DEFAULT_255_1_234
10
5.3965019
20
68.4548394
40
0.449379
50
89.9660152
51
94.2496022
0
ARC
8
DEFAULT_255_1_234
10
5.4005753
20
68.5137549
40
0.390482
50
73.8043271
51
90.5585896
0
ARC
8
DEFAULT_255_1_234
10
5.424065
20
68.5995602
40
0.3015334
50
41.3071453
51
73.5430202
0
ARC
8
DEFAULT_255_1_234
10
5.3824477
20
68.5637324
40
0.3564457
50
13.5075983
51
41.2174222
0
ARC
8
DEFAULT_255_1_234
10
5.2182681
20
68.5207486
40
0.5261351
50
1.1331335
51
13.8829381
0
ARC
8
DEFAULT_255_1_234
10
5.077105
20
68.5131665
40
0.6674378
50
359.9919444
51
1.544251
0
ARC
8
DEFAULT_255_1_234
10
5.2047876
20
68.509028
40
0.5397702
50
347.8572367
51
0.4293338
0
ARC
8
DEFAULT_255_1_234
10
5.3798194
20
68.4693736
40
0.3603188
50
323.673004
51
348.1672506
0
ARC
8
DEFAULT_255_1_234
10
5.4092702
20
68.4514168
40
0.3259678
50
316.8171152
51
323.1492751
0
ARC
8
DEFAULT_255_1_234
10
5.4153891
20
68.447746
40
0.3189975
50
281.8396411
51
316.5457803
0
ARC
8
DEFAULT_255_1_234
10
5.3778155
20
68.6032762
40
0.4789527
50
269.5770101
51
282.4214771
0
ARC
8
DEFAULT_255_1_234
10
5.3706966
20
68.5819125
40
0.45759
50
256.2427136
51
270.4486331
0
ARC
8
DEFAULT_255_1_234
10
5.3407869
20
68.4619229
40
0.3339303
50
228.9023911
51
256.3314342
0
ARC
8
DEFAULT_255_1_234
10
5.3334101
20
68.4502746
40
0.32031
50
193.753695
51
228.5271154
0
ARC
8
DEFAULT_255_1_234
10
5.4572055
20
68.48658
40
0.4492253
50
184.924711
51
194.497588
0
ARC
8
DEFAULT_255_1_234
10
5.4764622
20
68.4901591
40
0.3289787
50
187.3600538
51
198.6732863
0
ARC
8
DEFAULT_255_1_234
10
5.3714916
20
68.4537674
40
0.217884
50
198.4451669
51
217.794479
0
ARC
8
DEFAULT_255_1_234
10
5.3419091
20
68.4328085
40
0.1816698
50
218.2887171
51
228.5612368
0
ARC
8
DEFAULT_255_1_234
10
5.3516878
20
68.4459963
40
0.1980329
50
228.9654866
51
258.1234728
0
ARC
8
DEFAULT_255_1_234
10
5.3722588
20
68.5340833
40
0.2884748
50
257.7258293
51
270.401361
0
ARC
8
DEFAULT_255_1_234
10
5.3767474
20
68.4895821
40
0.2439788
50
269.4204404
51
286.4209037
0
ARC
8
DEFAULT_255_1_234
10
5.3915962
20
68.4356657
40
0.1880666
50
286.7251356
51
320.600362
0
ARC
8
DEFAULT_255_1_234
10
5.3532787
20
68.4667595
40
0.2374121
50
320.6712579
51
344.5441685
0
ARC
8
DEFAULT_255_1_234
10
5.2376113
20
68.5007045
40
0.3579479
50
344.2412205
51
356.7357071
0
ARC
8
DEFAULT_255_1_234
10
5.1127262
20
68.5110444
40
0.4832297
50
356.3548756
51
0.0500261
0
ARC
8
DEFAULT_255_1_234
10
5.2463771
20
68.514165
40
0.3495889
50
359.5576869
51
12.953486
0
ARC
8
DEFAULT_255_1_234
10
5.3518668
20
68.5397434
40
0.2410532
50
12.6490276
51
41.6081334
0
ARC
8
DEFAULT_255_1_234
10
5.3749039
20
68.5593321
40
0.2108218
50
41.7850273
51
85.9892764
0
ARC
8
DEFAULT_255_1_234
10
5.3625776
20
68.4780462
40
0.2928454
50
84.6957577
51
90.0676183
0
ARC
8
DEFAULT_255_1_234
10
5.360226
20
68.4111716
40
0.3597255
50
89.6804936
51
99.1614436
0
ARC
8
DEFAULT_255_1_234
10
5.3396891
20
68.5339131
40
0.235281
50
98.9830931
51
113.8908934
0
ARC
8
DEFAULT_255_1_234
10
5.3167301
20
68.5880587
40
0.176479
50
114.1950727
51
127.3641004
0
LINE
8
DEFAULT_255_1_234
10
4.6537137
20
77.2529433
11
4.6537137
21
76.0779
0
LINE
8
DEFAULT_255_1_234
10
4.6537137
20
76.0779
11
4.5043234
21
76.0779
0
LINE
8
DEFAULT_255_1_234
10
4.5043234
20
76.0779
11
4.5043234
21
77.0682133
0
LINE
8
DEFAULT_255_1_234
10
4.5043234
20
77.0682133
11
4.2047396
21
76.9581785
0
LINE
8
DEFAULT_255_1_234
10
4.2047396
20
76.9581785
11
4.2047396
21
77.0931117
0
LINE
8
DEFAULT_255_1_234
10
4.2047396
20
77.0931117
11
4.6304217
21
77.2529433
0
LINE
8
DEFAULT_255_1_234
10
4.6304217
20
77.2529433
11
4.6537137
21
77.2529433
0
LINE
8
DEFAULT_255_1_234
10
5.7163127
20
77.2473211
11
5.7163127
21
76.470652
0
LINE
8
DEFAULT_255_1_234
10
5.7163127
20
76.470652
11
5.8785538
21
76.470652
0
LINE
8
DEFAULT_255_1_234
10
5.8785538
20
76.470652
11
5.8785538
21
76.3493728
0
LINE
8
DEFAULT_255_1_234
10
5.8785538
20
76.3493728
11
5.7163127
21
76.3493728
0
LINE
8
DEFAULT_255_1_234
10
5.7163127
20
76.3493728
11
5.7163127
21
76.0779
0
LINE
8
DEFAULT_255_1_234
10
5.7163127
20
76.0779
11
5.5669224
21
76.0779
0
LINE
8
DEFAULT_255_1_234
10
5.5669224
20
76.0779
11
5.5669224
21
76.3493728
0
LINE
8
DEFAULT_255_1_234
10
5.5669224
20
76.3493728
11
5.0344181
21
76.3493728
0
LINE
8
DEFAULT_255_1_234
10
5.0344181
20
76.3493728
11
5.0344181
21
76.4369187
0
LINE
8
DEFAULT_255_1_234
10
5.0344181
20
76.4369187
11
5.5580875
21
77.2473211
0
LINE
8
DEFAULT_255_1_234
10
5.5580875
20
77.2473211
11
5.7163127
21
77.2473211
0
LINE
8
DEFAULT_255_1_234
10
5.5492525
20
77.0119912
11
5.2030846
21
76.470652
0
LINE
8
DEFAULT_255_1_234
10
5.2030846
20
76.470652
11
5.5669224
21
76.470652
0
LINE
8
DEFAULT_255_1_234
10
5.5669224
20
76.470652
11
5.5669224
21
77.0441181
0
LINE
8
DEFAULT_255_1_234
10
5.5669224
20
77.0441181
11
5.5492525
21
77.0119912
0
LINE
8
DEFAULT_255_1_234
10
4.5478137
20
85.1904433
11
4.5478137
21
84.0154
0
LINE
8
DEFAULT_255_1_234
10
4.5478137
20
84.0154
11
4.3984234
21
84.0154
0
LINE
8
DEFAULT_255_1_234
10
4.3984234
20
84.0154
11
4.3984234
21
85.0057133
0
LINE
8
DEFAULT_255_1_234
10
4.3984234
20
85.0057133
11
4.0988396
21
84.8956785
0
LINE
8
DEFAULT_255_1_234
10
4.0988396
20
84.8956785
11
4.0988396
21
85.0306117
0
LINE
8
DEFAULT_255_1_234
10
4.0988396
20
85.0306117
11
4.5245217
21
85.1904433
0
LINE
8
DEFAULT_255_1_234
10
4.5245217
20
85.1904433
11
4.5478137
21
85.1904433
0
LINE
8
DEFAULT_255_1_234
10
5.1991877
20
84.5511169
11
5.1991877
21
84.6723962
0
LINE
8
DEFAULT_255_1_234
10
5.1991877
20
84.6723962
11
5.3108289
21
84.6723962
0
LINE
8
DEFAULT_255_1_234
10
5.1204767
20
84.8780087
11
4.9718895
21
84.8780087
0
LINE
8
DEFAULT_255_1_234
10
4.9614482
20
84.3238188
11
5.1108386
21
84.3238188
0
LINE
8
DEFAULT_255_1_234
10
5.3108289
20
84.5511169
11
5.1991877
21
84.5511169
0
ARC
8
DEFAULT_255_1_234
10
5.3079155
20
85.0116713
40
0.3392876
50
270.4919872
51
281.8951556
0
ARC
8
DEFAULT_255_1_234
10
5.3320417
20
84.9014702
40
0.2264817
50
281.6691735
51
301.2943132
0
ARC
8
DEFAULT_255_1_234
10
5.3490627
20
84.8703304
40
0.1910381
50
301.7833094
51
311.7545298
0
ARC
8
DEFAULT_255_1_234
10
5.3582203
20
84.8601748
40
0.1773635
50
311.7323931
51
354.2802411
0
ARC
8
DEFAULT_255_1_234
10
5.2855828
20
84.8726722
40
0.2509385
50
353.0937916
51
0.1181479
0
ARC
8
DEFAULT_255_1_234
10
5.2394613
20
84.8774386
40
0.2970898
50
359.1805295
51
15.0453146
0
ARC
8
DEFAULT_255_1_234
10
5.374045
20
84.9166992
40
0.1569564
50
13.9577229
51
77.6713066
0
ARC
8
DEFAULT_255_1_234
10
5.3353979
20
84.7781949
40
0.3006298
50
76.1116566
51
90.7026153
0
ARC
8
DEFAULT_255_1_234
10
5.3294817
20
84.8055545
40
0.2732568
50
89.5324876
51
103.531937
0
ARC
8
DEFAULT_255_1_234
10
5.3094261
20
84.8854884
40
0.1908508
50
103.2931773
51
133.5619022
0
ARC
8
DEFAULT_255_1_234
10
5.304975
20
84.8914375
40
0.1834746
50
133.8349307
51
173.5344437
0
ARC
8
DEFAULT_255_1_234
10
5.3772793
20
84.8786213
40
0.2568033
50
172.5096846
51
180.1366907
0
ARC
8
DEFAULT_255_1_234
10
5.2821687
20
84.8820622
40
0.3103056
50
155.3484492
51
180.7484736
0
ARC
8
DEFAULT_255_1_234
10
5.2772776
20
84.8791846
40
0.3070957
50
131.5744599
51
154.4798489
0
ARC
8
DEFAULT_255_1_234
10
5.3085923
20
84.847531
40
0.3515643
50
96.9875458
51
131.9690667
0
ARC
8
DEFAULT_255_1_234
10
5.3305403
20
84.7229636
40
0.4779224
50
89.8596053
51
97.7825159
0
ARC
8
DEFAULT_255_1_234
10
5.3353466
20
84.6967616
40
0.5041361
50
78.3655447
51
90.4131539
0
ARC
8
DEFAULT_255_1_234
10
5.3711384
20
84.8626887
40
0.3344039
50
56.6229102
51
78.638727
0
ARC
8
DEFAULT_255_1_234
10
5.3926328
20
84.9002805
40
0.2912001
50
47.0253525
51
56.0854072
0
ARC
8
DEFAULT_255_1_234
10
5.3946108
20
84.9042223
40
0.2869704
50
10.9208013
51
46.7778124
0
ARC
8
DEFAULT_255_1_234
10
5.2582174
20
84.8726857
40
0.426899
50
359.6364486
51
11.6087304
0
ARC
8
DEFAULT_255_1_234
10
5.4417018
20
84.8711752
40
0.243409
50
332.3549906
51
359.7179418
0
ARC
8
DEFAULT_255_1_234
10
5.376662
20
84.9020142
40
0.3153459
50
325.2333722
51
332.8745602
0
ARC
8
DEFAULT_255_1_234
10
5.3919244
20
84.8913828
40
0.2967456
50
292.9802137
51
325.2392345
0
ARC
8
DEFAULT_255_1_234
10
5.3644617
20
84.9447863
40
0.3566604
50
292.5402179
51
293.6924929
0
ARC
8
DEFAULT_255_1_234
10
5.4037213
20
84.2993091
40
0.3307468
50
57.6435486
51
72.8625112
0
ARC
8
DEFAULT_255_1_234
10
5.4391713
20
84.3567549
40
0.2632492
50
36.7248896
51
57.4697979
0
ARC
8
DEFAULT_255_1_234
10
5.4380346
20
84.358022
40
0.2634081
50
8.0545065
51
36.356114
0
ARC
8
DEFAULT_255_1_234
10
5.3517531
20
84.3425174
40
0.3510261
50
359.8320645
51
8.5869982
0
ARC
8
DEFAULT_255_1_234
10
5.3142307
20
84.3377101
40
0.3885653
50
343.9829931
51
0.5571613
0
ARC
8
DEFAULT_255_1_234
10
5.4028504
20
84.3134438
40
0.2966924
50
311.6359546
51
343.7651759
0
ARC
8
DEFAULT_255_1_234
10
5.3650074
20
84.3561102
40
0.3537231
50
279.7829875
51
311.6255694
0
ARC
8
DEFAULT_255_1_234
10
5.334885
20
84.499828
40
0.5004971
50
269.7286406
51
280.3856417
0
ARC
8
DEFAULT_255_1_234
10
5.3286922
20
84.4956996
40
0.4963778
50
256.6828919
51
270.4412052
0
ARC
8
DEFAULT_255_1_234
10
5.2948218
20
84.3572394
40
0.3538406
50
229.4223008
51
256.8556159
0
ARC
8
DEFAULT_255_1_234
10
5.2533611
20
84.3105736
40
0.2914296
50
181.818294
51
229.6455059
0
ARC
8
DEFAULT_255_1_234
10
5.3573567
20
84.3236496
40
0.3959084
50
179.9755256
51
183.2323064
0
ARC
8
DEFAULT_255_1_234
10
5.3401313
20
84.3216037
40
0.2293034
50
179.4465117
51
196.2869258
0
ARC
8
DEFAULT_255_1_234
10
5.2913721
20
84.3082651
40
0.1787621
50
196.5661473
51
227.705904
0
ARC
8
DEFAULT_255_1_234
10
5.3077816
20
84.3266155
40
0.2033784
50
227.7652068
51
257.8762805
0
ARC
8
DEFAULT_255_1_234
10
5.3302786
20
84.4209156
40
0.3003081
50
257.4584385
51
270.426602
0
ARC
8
DEFAULT_255_1_234
10
5.3348352
20
84.4498996
40
0.329292
50
269.5962073
51
280.8789248
0
ARC
8
DEFAULT_255_1_234
10
5.3577881
20
84.3352685
40
0.2123908
50
280.6346389
51
299.8595945
0
ARC
8
DEFAULT_255_1_234
10
5.3768788
20
84.2990212
40
0.171457
50
300.3576302
51
314.5517981
0
ARC
8
DEFAULT_255_1_234
10
5.3685848
20
84.3050919
40
0.1816095
50
315.0728369
51
345.0431014
0
ARC
8
DEFAULT_255_1_234
10
5.2762662
20
84.3319841
40
0.2777492
50
344.5986631
51
357.9269593
0
ARC
8
DEFAULT_255_1_234
10
5.1866989
20
84.3381276
40
0.3674917
50
357.4748886
51
0.0231117
0
ARC
8
DEFAULT_255_1_234
10
5.2890098
20
84.3405679
40
0.2651907
50
359.5047933
51
13.4239635
0
ARC
8
DEFAULT_255_1_234
10
5.3756741
20
84.3627478
40
0.1757509
50
12.9498199
51
48.7551375
0
ARC
8
DEFAULT_255_1_234
10
5.3574475
20
84.33784
40
0.2065134
50
49.5088623
51
72.1836453
0
ARC
8
DEFAULT_255_1_234
10
5.3216628
20
84.2316291
40
0.3185836
50
71.9010081
51
84.3554254
0
ARC
8
DEFAULT_255_1_234
10
5.305526
20
84.0955326
40
0.4556151
50
84.0193428
51
89.333121
0
LINE
8
DEFAULT_255_1_234
10
4.5478137
20
93.1279433
11
4.5478137
21
91.9529
0
LINE
8
DEFAULT_255_1_234
10
4.5478137
20
91.9529
11
4.3984234
21
91.9529
0
LINE
8
DEFAULT_255_1_234
10
4.3984234
20
91.9529
11
4.3984234
21
92.9432133
0
LINE
8
DEFAULT_255_1_234
10
4.3984234
20
92.9432133
11
4.0988396
21
92.8331785
0
LINE
8
DEFAULT_255_1_234
10
4.0988396
20
92.8331785
11
4.0988396
21
92.9681117
0
LINE
8
DEFAULT_255_1_234
10
4.0988396
20
92.9681117
11
4.5245217
21
93.1279433
0
LINE
8
DEFAULT_255_1_234
10
4.5245217
20
93.1279433
11
4.5478137
21
93.1279433
0
LINE
8
DEFAULT_255_1_234
10
5.7493618
20
92.0741792
11
5.7493618
21
91.9529
0
LINE
8
DEFAULT_255_1_234
10
5.7493618
20
91.9529
11
4.9831339
21
91.9529
0
LINE
8
DEFAULT_255_1_234
10
4.9831339
20
91.9529
11
4.9831339
21
92.0597221
0
LINE
8
DEFAULT_255_1_234
10
4.9831339
20
92.0597221
11
5.3879335
21
92.5094995
0
LINE
8
DEFAULT_255_1_234
10
5.1092322
20
92.7777595
11
4.9606451
21
92.7777595
0
LINE
8
DEFAULT_255_1_234
10
5.4754795
20
92.4139218
11
5.1622417
21
92.0741792
0
LINE
8
DEFAULT_255_1_234
10
5.1622417
20
92.0741792
11
5.7493618
21
92.0741792
0
ARC
8
DEFAULT_255_1_234
10
4.0389169
20
93.7024527
40
1.8008286
50
318.5132453
51
320.7828378
0
ARC
8
DEFAULT_255_1_234
10
4.5676143
20
93.2721426
40
1.1191493
50
320.7372736
51
323.9737074
0
ARC
8
DEFAULT_255_1_234
10
4.9596
20
92.9881361
40
0.6350923
50
323.8961724
51
328.6421089
0
ARC
8
DEFAULT_255_1_234
10
5.1642595
20
92.8619031
40
0.3946393
50
328.8299013
51
331.789948
0
ARC
8
DEFAULT_255_1_234
10
5.2639774
20
92.8104509
40
0.2824501
50
331.4255242
51
352.9364833
0
ARC
8
DEFAULT_255_1_234
10
5.2776274
20
92.8073976
40
0.2685315
50
353.2248685
51
0.0169286
0
ARC
8
DEFAULT_255_1_234
10
5.2986151
20
92.809695
40
0.2475536
50
359.4866256
51
15.9339782
0
ARC
8
DEFAULT_255_1_234
10
5.3493136
20
92.8233286
40
0.1950618
50
16.1714718
51
43.5284424
0
ARC
8
DEFAULT_255_1_234
10
5.3570445
20
92.8310573
40
0.184134
50
43.4415429
51
83.1661404
0
ARC
8
DEFAULT_255_1_234
10
5.3436363
20
92.7573771
40
0.258926
50
82.160215
51
90.1505798
0
ARC
8
DEFAULT_255_1_234
10
5.340479
20
92.7036865
40
0.3126255
50
89.5460705
51
102.5418777
0
ARC
8
DEFAULT_255_1_234
10
5.3161876
20
92.8067665
40
0.2067346
50
102.1739365
51
129.2061916
0
ARC
8
DEFAULT_255_1_234
10
5.3082948
20
92.8192094
40
0.1921118
50
129.7279328
51
135.7542026
0
ARC
8
DEFAULT_255_1_234
10
5.3204476
20
92.8095045
40
0.2075944
50
136.175737
51
166.3674722
0
ARC
8
DEFAULT_255_1_234
10
5.4211395
20
92.7825182
40
0.3118201
50
165.9092917
51
178.8683903
0
ARC
8
DEFAULT_255_1_234
10
5.5076256
20
92.7778179
40
0.3983935
50
178.438168
51
180.0083905
0
ARC
8
DEFAULT_255_1_234
10
5.3674859
20
92.7817231
40
0.4068601
50
163.2878735
51
180.5581814
0
ARC
8
DEFAULT_255_1_234
10
5.287312
20
92.803784
40
0.3237344
50
133.454115
51
162.9470031
0
ARC
8
DEFAULT_255_1_234
10
5.3051661
20
92.7848
40
0.349795
50
100.7869394
51
133.4384016
0
ARC
8
DEFAULT_255_1_234
10
5.3399433
20
92.6299319
40
0.5084616
50
89.6605301
51
101.3704185
0
ARC
8
DEFAULT_255_1_234
10
5.3465772
20
92.6360496
40
0.502348
50
78.2171172
51
90.4130393
0
ARC
8
DEFAULT_255_1_234
10
5.382085
20
92.7984637
40
0.3361092
50
55.9268222
51
78.4888551
0
ARC
8
DEFAULT_255_1_234
10
5.401729
20
92.8323324
40
0.2970617
50
47.9292255
51
55.4054003
0
ARC
8
DEFAULT_255_1_234
10
5.4118851
20
92.8426502
40
0.2825983
50
4.3347696
51
48.0560701
0
ARC
8
DEFAULT_255_1_234
10
5.3023244
20
92.8256601
40
0.393225
50
359.925209
51
5.5967654
0
ARC
8
DEFAULT_255_1_234
10
5.3452136
20
92.8312816
40
0.3503892
50
337.8914096
51
358.9967724
0
ARC
8
DEFAULT_255_1_234
10
5.0738548
20
92.9359706
40
0.6412172
50
326.9135351
51
338.3505194
0
ARC
8
DEFAULT_255_1_234
10
4.6752852
20
93.1914284
40
1.1146189
50
319.6472867
51
327.095818
0
ARC
8
DEFAULT_255_1_234
10
4.2919855
20
93.5076
40
1.6114559
50
317.2586784
51
319.9046139
0
LINE
8
DEFAULT_255_1_234
10
4.5389137
20
101.0654433
11
4.5389137
21
99.8904
0
LINE
8
DEFAULT_255_1_234
10
4.5389137
20
99.8904
11
4.3895234
21
99.8904
0
LINE
8
DEFAULT_255_1_234
10
4.3895234
20
99.8904
11
4.3895234
21
100.8807133
0
LINE
8
DEFAULT_255_1_234
10
4.3895234
20
100.8807133
11
4.0899396
21
100.7706785
0
LINE
8
DEFAULT_255_1_234
10
4.0899396
20
100.7706785
11
4.0899396
21
100.9056117
0
LINE
8
DEFAULT_255_1_234
10
4.0899396
20
100.9056117
11
4.5156217
21
101.0654433
0
LINE
8
DEFAULT_255_1_234
10
4.5156217
20
101.0654433
11
4.5389137
21
101.0654433
0
LINE
8
DEFAULT_255_1_234
10
5.4625636
20
101.0654433
11
5.4625636
21
99.8904
0
LINE
8
DEFAULT_255_1_234
10
5.4625636
20
99.8904
11
5.3131733
21
99.8904
0
LINE
8
DEFAULT_255_1_234
10
5.3131733
20
99.8904
11
5.3131733
21
100.8807133
0
LINE
8
DEFAULT_255_1_234
10
5.3131733
20
100.8807133
11
5.0135895
21
100.7706785
0
LINE
8
DEFAULT_255_1_234
10
5.0135895
20
100.7706785
11
5.0135895
21
100.9056117
0
LINE
8
DEFAULT_255_1_234
10
5.0135895
20
100.9056117
11
5.4392716
21
101.0654433
0
LINE
8
DEFAULT_255_1_234
10
5.4392716
20
101.0654433
11
5.4625636
21
101.0654433
0
LINE
8
DEFAULT_255_1_234
10
4.5478137
20
109.0029433
11
4.5478137
21
107.8279
0
LINE
8
DEFAULT_255_1_234
10
4.5478137
20
107.8279
11
4.3984234
21
107.8279
0
LINE
8
DEFAULT_255_1_234
10
4.3984234
20
107.8279
11
4.3984234
21
108.8182133
0
LINE
8
DEFAULT_255_1_234
10
4.3984234
20
108.8182133
11
4.0988396
21
108.7081785
0
LINE
8
DEFAULT_255_1_234
10
4.0988396
20
108.7081785
11
4.0988396
21
108.8431117
0
LINE
8
DEFAULT_255_1_234
10
4.0988396
20
108.8431117
11
4.5245217
21
109.0029433
0
LINE
8
DEFAULT_255_1_234
10
4.5245217
20
109.0029433
11
4.5478137
21
109.0029433
0
LINE
8
DEFAULT_255_1_234
10
5.7164316
20
108.5194327
11
5.7164316
21
108.3266709
0
LINE
8
DEFAULT_255_1_234
10
4.9783149
20
108.3065916
11
4.9783149
21
108.5049755
0
LINE
8
DEFAULT_255_1_234
10
5.5678445
20
108.2865123
11
5.5678445
21
108.5298739
0
LINE
8
DEFAULT_255_1_234
10
5.1269021
20
108.5411184
11
5.1269021
21
108.3033789
0
ARC
8
DEFAULT_255_1_234
10
4.4917206
20
108.3217805
40
1.2247208
50
353.8441951
51
0.2287902
0
ARC
8
DEFAULT_255_1_234
10
4.955671
20
108.2699806
40
0.7578929
50
344.4934747
51
353.9765454
0
ARC
8
DEFAULT_255_1_234
10
5.25493
20
108.1848981
40
0.4467846
50
329.2803592
51
344.7472793
0
ARC
8
DEFAULT_255_1_234
10
5.3542125
20
108.1304018
40
0.3336173
50
324.9352394
51
328.6160465
0
ARC
8
DEFAULT_255_1_234
10
5.3919233
20
108.1040427
40
0.2876076
50
280.580143
51
324.9173126
0
ARC
8
DEFAULT_255_1_234
10
5.3518026
20
108.2711099
40
0.4592847
50
269.5977311
51
281.6734359
0
ARC
8
DEFAULT_255_1_234
10
5.3445932
20
108.2591173
40
0.4472986
50
256.6228859
51
270.51044
0
ARC
8
DEFAULT_255_1_234
10
5.3043909
20
108.1042877
40
0.2873874
50
215.8618325
51
257.2788573
0
ARC
8
DEFAULT_255_1_234
10
5.4064941
20
108.1727977
40
0.4102928
50
197.9693508
51
215.2623606
0
ARC
8
DEFAULT_255_1_234
10
5.6550057
20
108.2566709
40
0.6725652
50
187.8816417
51
198.2346507
0
ARC
8
DEFAULT_255_1_234
10
6.0508265
20
108.3138079
40
1.0724845
50
180.8976217
51
188.0055519
0
ARC
8
DEFAULT_255_1_234
10
6.3308453
20
108.3241777
40
1.3526448
50
180.7449369
51
181.1510016
0
ARC
8
DEFAULT_255_1_234
10
6.1731182
20
108.5098042
40
1.1948131
50
173.7675579
51
180.231553
0
ARC
8
DEFAULT_255_1_234
10
5.7213329
20
108.5608666
40
0.7401564
50
164.3058563
51
173.9002247
0
ARC
8
DEFAULT_255_1_234
10
5.4301398
20
108.6447656
40
0.4371288
50
148.7922025
51
164.568378
0
ARC
8
DEFAULT_255_1_234
10
5.334985
20
108.6978929
40
0.3282386
50
144.5883898
51
148.1176286
0
ARC
8
DEFAULT_255_1_234
10
5.3006748
20
108.7218315
40
0.2864044
50
101.6440918
51
144.514236
0
ARC
8
DEFAULT_255_1_234
10
5.3431814
20
108.5529069
40
0.4604934
50
89.5284041
51
102.5819763
0
ARC
8
DEFAULT_255_1_234
10
5.3510902
20
108.5490018
40
0.464401
50
77.0437873
51
90.5081339
0
ARC
8
DEFAULT_255_1_234
10
5.3912904
20
108.7132615
40
0.2953195
50
48.2778575
51
77.4994676
0
ARC
8
DEFAULT_255_1_234
10
5.3985535
20
108.7261746
40
0.2808655
50
36.3142134
51
47.6305865
0
ARC
8
DEFAULT_255_1_234
10
5.3116842
20
108.6676515
40
0.3855453
50
18.2931786
51
35.6769206
0
ARC
8
DEFAULT_255_1_234
10
5.0573601
20
108.5803593
40
0.654423
50
8.024666
51
18.5605216
0
ARC
8
DEFAULT_255_1_234
10
4.6410521
20
108.5188792
40
1.0752407
50
1.1274072
51
8.1718305
0
ARC
8
DEFAULT_255_1_234
10
4.3174712
20
108.5061885
40
1.3990231
50
0.5424119
51
1.3863029
0
ARC
8
DEFAULT_255_1_234
10
4.4996089
20
108.5334342
40
1.0682415
50
359.8090433
51
4.9407866
0
ARC
8
DEFAULT_255_1_234
10
4.9206103
20
108.5710113
40
0.6455691
50
4.8362157
51
12.2904523
0
ARC
8
DEFAULT_255_1_234
10
5.1961218
20
108.6323965
40
0.3633074
50
12.0805627
51
23.8173984
0
ARC
8
DEFAULT_255_1_234
10
5.3134924
20
108.6820919
40
0.2358723
50
24.2871213
51
31.3935614
0
ARC
8
DEFAULT_255_1_234
10
5.3659621
20
108.7164233
40
0.1732111
50
30.7407893
51
82.4657128
0
ARC
8
DEFAULT_255_1_234
10
5.3479755
20
108.6280691
40
0.263235
50
81.1060089
51
90.2184952
0
ARC
8
DEFAULT_255_1_234
10
5.3444054
20
108.6538924
40
0.2374236
50
89.3806855
51
105.6762551
0
ARC
8
DEFAULT_255_1_234
10
5.3260685
20
108.7205567
40
0.1682847
50
105.7981136
51
149.7388061
0
ARC
8
DEFAULT_255_1_234
10
5.4324763
20
108.656595
40
0.2924306
50
149.4208916
51
163.6286378
0
ARC
8
DEFAULT_255_1_234
10
5.6415651
20
108.592825
40
0.5110213
50
163.3763315
51
172.1410975
0
ARC
8
DEFAULT_255_1_234
10
5.971637
20
108.5455518
40
0.8444586
50
172.0259487
51
178.0703232
0
ARC
8
DEFAULT_255_1_234
10
6.274646
20
108.5311906
40
1.1477868
50
177.8631668
51
179.5044149
0
ARC
8
DEFAULT_255_1_234
10
6.1673864
20
108.2997389
40
1.0404907
50
179.7995573
51
185.2460446
0
ARC
8
DEFAULT_255_1_234
10
5.7630903
20
108.2614513
40
0.6343885
50
185.1411642
51
193.0079639
0
ARC
8
DEFAULT_255_1_234
10
5.4987376
20
108.1989641
40
0.3627568
50
192.7897626
51
205.2507664
0
ARC
8
DEFAULT_255_1_234
10
5.3940923
20
108.1522415
40
0.2481908
50
205.8005384
51
211.2537509
0
ARC
8
DEFAULT_255_1_234
10
5.3417363
20
108.117158
40
0.1852521
50
210.3789793
51
238.4008143
0
ARC
8
DEFAULT_255_1_234
10
5.3397885
20
108.1218376
40
0.1882621
50
239.6520629
51
265.9793761
0
ARC
8
DEFAULT_255_1_234
10
5.3483085
20
108.1890427
40
0.2559272
50
265.1315437
51
270.060332
0
ARC
8
DEFAULT_255_1_234
10
5.3511864
20
108.1566534
40
0.2235528
50
269.3314664
51
287.2178029
0
ARC
8
DEFAULT_255_1_234
10
5.3649716
20
108.1063279
40
0.1714108
50
287.7958004
51
329.080874
0
ARC
8
DEFAULT_255_1_234
10
5.2692173
20
108.166093
40
0.2842745
50
328.6634704
51
343.3325132
0
ARC
8
DEFAULT_255_1_234
10
5.0519193
20
108.2337863
40
0.5118644
50
343.0499468
51
351.9393422
0
ARC
8
DEFAULT_255_1_234
10
4.7052493
20
108.2848949
40
0.8622784
50
351.8069023
51
357.7959224
0
ARC
8
DEFAULT_255_1_234
10
4.3817049
20
108.3016721
40
1.1862365
50
357.5871873
51
359.2677531
0
LINE
8
DEFAULT_255_1_234
10
4.7181246
20
116.4673739
11
4.7181246
21
116.4240025
0
LINE
8
DEFAULT_255_1_234
10
4.1759823
20
115.7645968
11
4.147068
21
115.7645968
0
LINE
8
DEFAULT_255_1_234
10
4.147068
20
115.7645968
11
4.147068
21
115.8898919
0
LINE
8
DEFAULT_255_1_234
10
4.147068
20
115.8898919
11
4.1783918
21
115.8898919
0
LINE
8
DEFAULT_255_1_234
10
4.5695375
20
116.4384597
11
4.5695375
21
116.4978945
0
ARC
8
DEFAULT_255_1_234
10
4.2901644
20
116.5130403
40
0.3635579
50
297.4037347
51
320.016758
0
ARC
8
DEFAULT_255_1_234
10
4.3191593
20
116.457324
40
0.3007486
50
270.2633101
51
297.3851877
0
ARC
8
DEFAULT_255_1_234
10
4.3157549
20
116.5036904
40
0.3471448
50
269.9966443
51
270.7900392
0
ARC
8
DEFAULT_255_1_234
10
4.313203
20
116.5035143
40
0.3469779
50
254.5999133
51
270.4180344
0
ARC
8
DEFAULT_255_1_234
10
4.2989389
20
116.4470647
40
0.2887697
50
236.4717942
51
254.3541279
0
ARC
8
DEFAULT_255_1_234
10
4.3145607
20
116.4680711
40
0.3149125
50
208.4727207
51
236.2134933
0
ARC
8
DEFAULT_255_1_234
10
4.3784382
20
116.5071455
40
0.3897115
50
204.3447514
51
209.0453999
0
ARC
8
DEFAULT_255_1_234
10
4.4463958
20
116.5359656
40
0.4635101
50
183.9375985
51
204.1276318
0
ARC
8
DEFAULT_255_1_234
10
4.5372209
20
116.5457482
40
0.5548037
50
179.9652252
51
184.3013875
0
ARC
8
DEFAULT_255_1_234
10
4.5132255
20
116.5490507
40
0.5308164
50
166.7585989
51
180.3201225
0
ARC
8
DEFAULT_255_1_234
10
4.4285869
20
116.5674488
40
0.4442163
50
154.6955053
51
166.5679793
0
ARC
8
DEFAULT_255_1_234
10
4.3432739
20
116.610421
40
0.3487299
50
136.3324195
51
155.0871442
0
ARC
8
DEFAULT_255_1_234
10
4.3151812
20
116.6344954
40
0.3117924
50
121.236733
51
135.9680508
0
ARC
8
DEFAULT_255_1_234
10
4.329231
20
116.6084743
40
0.3413302
50
96.845628
51
120.9881519
0
ARC
8
DEFAULT_255_1_234
10
4.3437892
20
116.5149515
40
0.4359341
50
89.8870174
51
97.2802754
0
ARC
8
DEFAULT_255_1_234
10
4.349033
20
116.5787095
40
0.3722009
50
70.6505584
51
90.6749113
0
ARC
8
DEFAULT_255_1_234
10
4.3621609
20
116.6300361
40
0.3194571
50
36.7492984
51
69.8219918
0
ARC
8
DEFAULT_255_1_234
10
4.2622774
20
116.5521993
40
0.4460685
50
15.39587
51
37.0840084
0
ARC
8
DEFAULT_255_1_234
10
4.0493207
20
116.4901242
40
0.6678714
50
3.9488873
51
15.6798563
0
ARC
8
DEFAULT_255_1_234
10
3.8091835
20
116.4684964
40
0.9089418
50
359.929245
51
4.2665314
0
ARC
8
DEFAULT_255_1_234
10
3.3486272
20
116.4173513
40
1.3695135
50
352.8366322
51
0.2782669
0
ARC
8
DEFAULT_255_1_234
10
3.8773951
20
116.3486629
40
0.8363105
50
341.8359505
51
352.9884176
0
ARC
8
DEFAULT_255_1_234
10
4.199267
20
116.24017
40
0.4966642
50
322.8578092
51
342.1527901
0
ARC
8
DEFAULT_255_1_234
10
4.2856626
20
116.1812384
40
0.3922466
50
319.334325
51
322.0998941
0
ARC
8
DEFAULT_255_1_234
10
4.2546963
20
116.2123209
40
0.4360033
50
285.9541367
51
318.8878087
0
ARC
8
DEFAULT_255_1_234
10
4.1820224
20
116.44336
40
0.678149
50
272.9281676
51
286.4922826
0
ARC
8
DEFAULT_255_1_234
10
4.1630342
20
116.6684587
40
0.9039547
50
270.8207226
51
273.4012994
0
ARC
8
DEFAULT_255_1_234
10
4.1719193
20
116.4865666
40
0.5967098
50
270.6214993
51
281.4062806
0
ARC
8
DEFAULT_255_1_234
10
4.2149174
20
116.2809833
40
0.3866861
50
281.1852553
51
299.0621114
0
ARC
8
DEFAULT_255_1_234
10
4.2522745
20
116.2088798
40
0.3055236
50
299.5067782
51
313.1200873
0
ARC
8
DEFAULT_255_1_234
10
4.2544712
20
116.2009554
40
0.2982623
50
313.8526205
51
338.5989322
0
ARC
8
DEFAULT_255_1_234
10
4.0920786
20
116.2676781
40
0.4738131
50
338.2523585
51
351.2430902
0
ARC
8
DEFAULT_255_1_234
10
3.8510082
20
116.3086447
40
0.7183203
50
350.9409515
51
357.6691871
0
ARC
8
DEFAULT_255_1_234
10
4.3400512
20
116.5088764
40
0.2294452
50
269.9447023
51
306.8248917
0
ARC
8
DEFAULT_255_1_234
10
4.3163427
20
116.5511898
40
0.2775994
50
305.5072438
51
327.0773448
0
ARC
8
DEFAULT_255_1_234
10
4.3281868
20
116.5417025
40
0.2625056
50
327.4104943
51
336.840169
0
ARC
8
DEFAULT_255_1_234
10
4.0187933
20
116.5011302
40
0.5507537
50
359.6633817
51
10.117533
0
ARC
8
DEFAULT_255_1_234
10
4.1941731
20
116.5335777
40
0.372403
50
9.9430141
51
26.7700076
0
ARC
8
DEFAULT_255_1_234
10
4.2538943
20
116.5611187
40
0.3066865
50
27.2015464
51
34.6829435
0
ARC
8
DEFAULT_255_1_234
10
4.3028423
20
116.5978977
40
0.245519
50
34.1250343
51
50.3070065
0
ARC
8
DEFAULT_255_1_234
10
4.3475103
20
116.6513385
40
0.1758693
50
50.3851167
51
90.6705993
0
ARC
8
DEFAULT_255_1_234
10
4.3428336
20
116.6208799
40
0.2063326
50
89.272901
51
111.9140407
0
ARC
8
DEFAULT_255_1_234
10
4.3408864
20
116.634944
40
0.1925887
50
112.9382311
51
142.5320782
0
ARC
8
DEFAULT_255_1_234
10
4.3955044
20
116.5905969
40
0.2629232
50
142.1021256
51
166.3835592
0
ARC
8
DEFAULT_255_1_234
10
4.5136349
20
116.5600915
40
0.3849193
50
166.1100289
51
178.665427
0
ARC
8
DEFAULT_255_1_234
10
4.6183938
20
116.5542117
40
0.4897989
50
178.2632126
51
180.0111093
0
ARC
8
DEFAULT_255_1_234
10
4.5382059
20
116.5513728
40
0.40962
50
179.6161962
51
191.8787166
0
ARC
8
DEFAULT_255_1_234
10
4.4161898
20
116.5243896
40
0.2846655
50
191.6191692
51
215.2972286
0
ARC
8
DEFAULT_255_1_234
10
4.3965089
20
116.5128918
40
0.2619665
50
215.7320102
51
216.5355409
0
ARC
8
DEFAULT_255_1_234
10
4.3426175
20
116.4696647
40
0.1929497
50
215.7486685
51
239.9727502
0
ARC
8
DEFAULT_255_1_234
10
4.3356091
20
116.4645894
40
0.1850822
50
241.0650169
51
269.2810483
0
ARC
8
DEFAULT_255_1_234
10
4.3398006
20
116.5136371
40
0.2342059
50
268.4062526
51
270.0071348
0
ARC
8
DEFAULT_255_1_234
10
4.4262624
20
124.5645703
40
0.2822356
50
338.8763615
51
0.5166041
0
ARC
8
DEFAULT_255_1_234
10
4.4431278
20
124.5600208
40
0.2648703
50
325.8412414
51
338.4795939
0
ARC
8
DEFAULT_255_1_234
10
4.4040646
20
124.5871042
40
0.3124019
50
296.7586019
51
325.753654
0
ARC
8
DEFAULT_255_1_234
10
4.3752754
20
124.6355789
40
0.368668
50
296.0902311
51
297.3618122
0
ARC
8
DEFAULT_255_1_234
10
4.4010212
20
123.9801041
40
0.3518806
50
47.9009248
51
67.1946869
0
ARC
8
DEFAULT_255_1_234
10
4.4206454
20
124.0047395
40
0.320451
50
35.236241
51
47.551371
0
ARC
8
DEFAULT_255_1_234
10
4.4468072
20
124.0221993
40
0.2890103
50
359.2759738
51
35.4014081
0
ARC
8
DEFAULT_255_1_234
10
4.3723103
20
124.0148826
40
0.3635026
50
343.1294516
51
0.5776525
0
ARC
8
DEFAULT_255_1_234
10
4.4447648
20
123.994933
40
0.2883832
50
310.8497458
51
342.744803
0
ARC
8
DEFAULT_255_1_234
10
4.4029761
20
124.0426294
40
0.3517954
50
281.5473923
51
310.9169905
0
ARC
8
DEFAULT_255_1_234
10
4.367321
20
124.1979084
40
0.5110832
50
269.6192722
51
281.9789957
0
ARC
8
DEFAULT_255_1_234
10
4.3601
20
124.1979828
40
0.5111606
50
257.4584469
51
270.4287458
0
ARC
8
DEFAULT_255_1_234
10
4.3220143
20
124.0376344
40
0.3463762
50
228.7553743
51
257.8484423
0
ARC
8
DEFAULT_255_1_234
10
4.2910341
20
124.0003442
40
0.297916
50
184.0104442
51
228.5071787
0
ARC
8
DEFAULT_255_1_234
10
4.4073285
20
124.0180512
40
0.4152734
50
179.9315461
51
185.3254504
0
ARC
8
DEFAULT_255_1_234
10
4.2896931
20
124.0217992
40
0.2976554
50
145.6795913
51
180.6259649
0
ARC
8
DEFAULT_255_1_234
10
4.306028
20
124.0103929
40
0.3175776
50
115.5537925
51
145.6416199
0
ARC
8
DEFAULT_255_1_234
10
4.340121
20
123.9493028
40
0.3874232
50
113.2437915
51
116.2054627
0
ARC
8
DEFAULT_255_1_234
10
4.3248423
20
124.589158
40
0.3154751
50
222.9548379
51
244.1372485
0
ARC
8
DEFAULT_255_1_234
10
4.3126498
20
124.5754834
40
0.2972382
50
213.3439227
51
222.6271327
0
ARC
8
DEFAULT_255_1_234
10
4.2934433
20
124.5624308
40
0.274019
50
180.4316517
51
213.2713999
0
ARC
8
DEFAULT_255_1_234
10
4.3509434
20
124.567111
40
0.33158
50
179.9992944
51
181.1655061
0
ARC
8
DEFAULT_255_1_234
10
4.3918851
20
124.5705561
40
0.3725376
50
164.6186108
51
180.5292368
0
ARC
8
DEFAULT_255_1_234
10
4.3020714
20
124.5947101
40
0.2795349
50
132.2454369
51
164.5092287
0
ARC
8
DEFAULT_255_1_234
10
4.3307818
20
124.5622028
40
0.3229019
50
100.7052766
51
132.1387266
0
ARC
8
DEFAULT_255_1_234
10
4.361279
20
124.4244086
40
0.4639835
50
89.6732617
51
101.2449487
0
ARC
8
DEFAULT_255_1_234
10
4.3674988
20
124.441899
40
0.4464999
50
76.2876631
51
90.4586123
0
ARC
8
DEFAULT_255_1_234
10
4.398122
20
124.564122
40
0.3205023
50
47.8240157
51
76.4266918
0
ARC
8
DEFAULT_255_1_234
10
4.420377
20
124.590159
40
0.2862661
50
6.9168658
51
47.6261438
0
ARC
8
DEFAULT_255_1_234
10
4.3017173
20
124.568237
40
0.4067708
50
359.8419705
51
7.9694496
0
ARC
8
DEFAULT_255_1_234
10
4.335907
20
124.0241925
40
0.2513121
50
359.4454068
51
16.9256425
0
ARC
8
DEFAULT_255_1_234
10
4.3827881
20
124.0371033
40
0.2027071
50
17.292259
51
45.462717
0
ARC
8
DEFAULT_255_1_234
10
4.3773817
20
124.0324434
40
0.2098212
50
45.3028762
51
83.1921472
0
ARC
8
DEFAULT_255_1_234
10
4.3630501
20
123.9522895
40
0.2911472
50
82.2614531
51
90.143954
0
ARC
8
DEFAULT_255_1_234
10
4.3599621
20
123.975595
40
0.2678513
50
89.4959189
51
104.8579811
0
ARC
8
DEFAULT_255_1_234
10
4.342288
20
124.042589
40
0.1985654
50
104.8855873
51
135.2448349
0
ARC
8
DEFAULT_255_1_234
10
4.3472653
20
124.0381336
40
0.2052373
50
135.3398955
51
172.104394
0
ARC
8
DEFAULT_255_1_234
10
4.4279711
20
124.0226925
40
0.2873299
50
171.2651929
51
180.1859362
0
ARC
8
DEFAULT_255_1_234
10
4.4110412
20
124.0194733
40
0.2704083
50
179.515471
51
193.6466734
0
ARC
8
DEFAULT_255_1_234
10
4.3294181
20
123.9986777
40
0.1861855
50
193.3540587
51
225.8256931
0
ARC
8
DEFAULT_255_1_234
10
4.3334938
20
124.0057524
40
0.1941102
50
226.418029
51
255.8553723
0
ARC
8
DEFAULT_255_1_234
10
4.3591371
20
124.0993998
40
0.2911917
50
255.4655572
51
268.7985967
0
ARC
8
DEFAULT_255_1_234
10
4.3638563
20
124.1832491
40
0.3751331
50
268.3464808
51
270.0104874
0
ARC
8
DEFAULT_255_1_234
10
4.3661951
20
124.1148138
40
0.3067064
50
269.575914
51
282.0823146
0
ARC
8
DEFAULT_255_1_234
10
4.388686
20
124.0153803
40
0.2047712
50
281.7522535
51
306.6056425
0
ARC
8
DEFAULT_255_1_234
10
4.3985286
20
123.9992487
40
0.1859604
50
307.1350025
51
314.0277951
0
ARC
8
DEFAULT_255_1_234
10
4.394937
20
124.0018766
40
0.1903475
50
314.2553419
51
350.169324
0
ARC
8
DEFAULT_255_1_234
10
4.3097839
20
124.0203409
40
0.2774269
50
349.4145679
51
0.2930737
0
ARC
8
DEFAULT_255_1_234
10
4.3618272
20
124.5362353
40
0.2300764
50
89.477591
51
105.729794
0
ARC
8
DEFAULT_255_1_234
10
4.3482185
20
124.5867637
40
0.1777519
50
105.922966
51
135.1662921
0
ARC
8
DEFAULT_255_1_234
10
4.3502688
20
124.5853419
40
0.1802087
50
135.3053131
51
168.9882338
0
ARC
8
DEFAULT_255_1_234
10
4.433026
20
124.5663721
40
0.2650806
50
168.3802067
51
180.3602358
0
ARC
8
DEFAULT_255_1_234
10
4.410184
20
124.5626041
40
0.2422425
50
179.5029707
51
194.9126783
0
ARC
8
DEFAULT_255_1_234
10
4.3516501
20
124.547211
40
0.1817188
50
194.9722181
51
224.1943972
0
ARC
8
DEFAULT_255_1_234
10
4.3488368
20
124.5449169
40
0.1781027
50
224.2961434
51
262.0157375
0
ARC
8
DEFAULT_255_1_234
10
4.3630611
20
124.6180661
40
0.2525492
50
261.1250369
51
270.1959853
0
ARC
8
DEFAULT_255_1_234
10
4.3660366
20
124.5993339
40
0.233825
50
269.4825617
51
285.0988277
0
ARC
8
DEFAULT_255_1_234
10
4.3814525
20
124.541499
40
0.1739712
50
285.1585659
51
315.9484648
0
ARC
8
DEFAULT_255_1_234
10
4.3725537
20
124.5496886
40
0.1860616
50
316.0412958
51
351.9162715
0
ARC
8
DEFAULT_255_1_234
10
4.2992492
20
124.5638245
40
0.2606517
50
351.1056823
51
0.1936567
0
ARC
8
DEFAULT_255_1_234
10
4.3255321
20
124.5668369
40
0.234377
50
359.4789506
51
16.0679113
0
ARC
8
DEFAULT_255_1_234
10
4.373128
20
124.579681
40
0.1850875
50
16.3251951
51
44.791304
0
ARC
8
DEFAULT_255_1_234
10
4.3713561
20
124.5797339
40
0.186312
50
44.3958661
51
88.2498933
0
ARC
8
DEFAULT_255_1_234
10
4.3640115
20
124.5186154
40
0.2476868
50
86.9833827
51
90.0200148
0
LINE
8
DEFAULT_255_1_234
10
4.7542674
20
132.8098211
11
4.7542674
21
132.726291
0
LINE
8
DEFAULT_255_1_234
10
4.7542674
20
132.726291
11
4.2699536
21
131.6404
0
LINE
8
DEFAULT_255_1_234
10
4.2699536
20
131.6404
11
4.1141379
21
131.6404
0
LINE
8
DEFAULT_255_1_234
10
4.1141379
20
131.6404
11
4.5968454
21
132.6877387
0
LINE
8
DEFAULT_255_1_234
10
4.5968454
20
132.6877387
11
3.9639444
21
132.6877387
0
LINE
8
DEFAULT_255_1_234
10
3.9639444
20
132.6877387
11
3.9639444
21
132.8098211
0
LINE
8
DEFAULT_255_1_234
10
3.9639444
20
132.8098211
11
4.7542674
21
132.8098211
0
LINE
8
DEFAULT_255_1_234
10
4.5558835
20
140.7481243
11
4.5823882
21
140.7481243
0
LINE
8
DEFAULT_255_1_234
10
4.5823882
20
140.7481243
11
4.5823882
21
140.622026
0
LINE
8
DEFAULT_255_1_234
10
4.5823882
20
140.622026
11
4.5550803
21
140.622026
0
LINE
8
DEFAULT_255_1_234
10
4.0081189
20
140.0228583
11
4.0081189
21
140.0798836
0
LINE
8
DEFAULT_255_1_234
10
4.1575093
20
140.0606075
11
4.1575093
21
140.0059917
0
ARC
8
DEFAULT_255_1_234
10
4.5603151
20
140.1222455
40
0.4998079
50
90.6001036
51
104.514704
0
ARC
8
DEFAULT_255_1_234
10
4.5214667
20
140.2667131
40
0.3502176
50
104.2855254
51
133.862935
0
ARC
8
DEFAULT_255_1_234
10
4.5378424
20
140.255883
40
0.3693984
50
134.5302688
51
161.6210873
0
ARC
8
DEFAULT_255_1_234
10
4.7031613
20
140.1975895
40
0.5446739
50
161.2849839
51
174.2076652
0
ARC
8
DEFAULT_255_1_234
10
4.843855
20
140.1781787
40
0.6866274
50
173.7810589
51
174.9254635
0
ARC
8
DEFAULT_255_1_234
10
4.3888382
20
140.0398839
40
0.3033419
50
95.8330959
51
138.9954921
0
ARC
8
DEFAULT_255_1_234
10
4.4111738
20
139.9120375
40
0.4328947
50
89.8753725
51
97.0544009
0
ARC
8
DEFAULT_255_1_234
10
4.4159204
20
139.9955748
40
0.3493769
50
71.6407809
51
90.6240094
0
ARC
8
DEFAULT_255_1_234
10
4.4309777
20
140.0510082
40
0.2920396
50
39.6367836
51
71.019018
0
ARC
8
DEFAULT_255_1_234
10
4.367325
20
139.9959998
40
0.3761538
50
10.658731
51
39.9043955
0
ARC
8
DEFAULT_255_1_234
10
4.2125333
20
139.9623686
40
0.5345136
50
359.682601
51
11.132623
0
ARC
8
DEFAULT_255_1_234
10
4.2085464
20
139.955301
40
0.5385081
50
347.2486944
51
0.4369317
0
ARC
8
DEFAULT_255_1_234
10
4.3752941
20
139.9151807
40
0.3670249
50
318.1409698
51
347.6118597
0
ARC
8
DEFAULT_255_1_234
10
4.4077934
20
139.8884702
40
0.3250007
50
275.6342139
51
317.8248465
0
ARC
8
DEFAULT_255_1_234
10
4.3857045
20
140.0184219
40
0.4565864
50
269.8874292
51
276.7917694
0
ARC
8
DEFAULT_255_1_234
10
4.3802116
20
139.9158743
40
0.3540676
50
246.9140195
51
270.7437342
0
ARC
8
DEFAULT_255_1_234
10
4.3808506
20
139.9016384
40
0.3412781
50
218.1665114
51
245.878116
0
ARC
8
DEFAULT_255_1_234
10
4.4687967
20
139.9752279
40
0.455911
50
191.4115814
51
218.6077802
0
ARC
8
DEFAULT_255_1_234
10
4.6626056
20
140.0186833
40
0.6545001
50
179.6345085
51
191.7836486
0
ARC
8
DEFAULT_255_1_234
10
5.2208393
20
140.0865697
40
1.2127388
50
171.4525249
51
180.3158839
0
ARC
8
DEFAULT_255_1_234
10
4.7813269
20
140.1549608
40
0.7679464
50
157.9802646
51
171.6246686
0
ARC
8
DEFAULT_255_1_234
10
4.559929
20
140.2432421
40
0.5296008
50
141.4298019
51
157.854097
0
ARC
8
DEFAULT_255_1_234
10
4.495761
20
140.2886381
40
0.4511509
50
102.8715806
51
140.8564722
0
ARC
8
DEFAULT_255_1_234
10
4.5605226
20
140.0446552
40
0.7034845
50
90.3778349
51
103.5869322
0
ARC
8
DEFAULT_255_1_234
10
4.3867002
20
139.984173
40
0.2370698
50
89.8751008
51
126.2071704
0
ARC
8
DEFAULT_255_1_234
10
4.3912792
20
139.9687303
40
0.2522934
50
124.9745049
51
144.895901
0
ARC
8
DEFAULT_255_1_234
10
4.3736982
20
139.983056
40
0.2296779
50
145.2974905
51
160.2660252
0
ARC
8
DEFAULT_255_1_234
10
4.6809521
20
140.0028071
40
0.5234525
50
179.6514266
51
190.2855912
0
ARC
8
DEFAULT_255_1_234
10
4.5115658
20
139.9708786
40
0.3510893
50
190.0945431
51
207.5098196
0
ARC
8
DEFAULT_255_1_234
10
4.4549928
20
139.9439623
40
0.288489
50
207.9583163
51
216.3251085
0
ARC
8
DEFAULT_255_1_234
10
4.4210036
20
139.9160105
40
0.2445587
50
215.7661442
51
232.5456785
0
ARC
8
DEFAULT_255_1_234
10
4.3827019
20
139.8673482
40
0.1826382
50
232.8005391
51
270.6605633
0
ARC
8
DEFAULT_255_1_234
10
4.387272
20
139.9037612
40
0.2190529
50
269.35537
51
288.4744281
0
ARC
8
DEFAULT_255_1_234
10
4.3965617
20
139.8688118
40
0.1829749
50
289.1833337
51
322.9683818
0
ARC
8
DEFAULT_255_1_234
10
4.3354139
20
139.9170391
40
0.2608399
50
322.6007884
51
346.5182367
0
ARC
8
DEFAULT_255_1_234
10
4.2196735
20
139.9465616
40
0.3802777
50
346.2582162
51
358.7741648
0
ARC
8
DEFAULT_255_1_234
10
4.1178404
20
139.9520965
40
0.4822176
50
358.3755224
51
0.0098023
0
ARC
8
DEFAULT_255_1_234
10
4.1934591
20
139.9548657
40
0.4066078
50
359.6214041
51
11.2839074
0
ARC
8
DEFAULT_255_1_234
10
4.3211738
20
139.9815066
40
0.2761514
50
11.0482309
51
31.8146458
0
ARC
8
DEFAULT_255_1_234
10
4.3520781
20
139.9982584
40
0.2410679
50
32.3035391
51
38.082671
0
ARC
8
DEFAULT_255_1_234
10
4.3941441
20
140.0363662
40
0.1844966
50
36.825067
51
85.7415724
0
ARC
8
DEFAULT_255_1_234
10
4.3874274
20
139.9863301
40
0.2349122
50
85.0140713
51
90.0513278
0
LINE
8
DEFAULT_255_1_234
10
4.1864235
20
148.0711963
11
4.0675538
21
148.1017169
0
LINE
8
DEFAULT_255_1_234
10
4.0675538
20
148.1017169
11
4.1269887
21
148.6848211
0
LINE
8
DEFAULT_255_1_234
10
4.1269887
20
148.6848211
11
4.7261563
21
148.6848211
0
LINE
8
DEFAULT_255_1_234
10
4.7261563
20
148.6848211
11
4.7261563
21
148.5474784
0
LINE
8
DEFAULT_255_1_234
10
4.7261563
20
148.5474784
11
4.253087
21
148.5474784
0
LINE
8
DEFAULT_255_1_234
10
4.253087
20
148.5474784
11
4.2177473
21
148.2286184
0
LINE
8
DEFAULT_255_1_234
10
4.0257888
20
147.8230156
11
4.1663442
21
147.8230156
0
LINE
8
DEFAULT_255_1_234
10
4.2257791
20
148.1033232
11
4.1864235
21
148.0711963
0
ARC
8
DEFAULT_255_1_234
10
4.4032257
20
147.910623
40
0.3681349
50
93.7182161
51
120.2538958
0
ARC
8
DEFAULT_255_1_234
10
4.412652
20
147.8298394
40
0.449379
50
89.9660152
51
94.2496022
0
ARC
8
DEFAULT_255_1_234
10
4.4167254
20
147.8887549
40
0.390482
50
73.8043271
51
90.5585896
0
ARC
8
DEFAULT_255_1_234
10
4.4402151
20
147.9745602
40
0.3015334
50
41.3071453
51
73.5430202
0
ARC
8
DEFAULT_255_1_234
10
4.3985978
20
147.9387324
40
0.3564457
50
13.5075983
51
41.2174222
0
ARC
8
DEFAULT_255_1_234
10
4.2344182
20
147.8957486
40
0.5261351
50
1.1331335
51
13.8829381
0
ARC
8
DEFAULT_255_1_234
10
4.0932551
20
147.8881665
40
0.6674378
50
359.9919444
51
1.544251
0
ARC
8
DEFAULT_255_1_234
10
4.2209377
20
147.884028
40
0.5397702
50
347.8572367
51
0.4293338
0
ARC
8
DEFAULT_255_1_234
10
4.3959695
20
147.8443736
40
0.3603188
50
323.673004
51
348.1672506
0
ARC
8
DEFAULT_255_1_234
10
4.4254203
20
147.8264168
40
0.3259678
50
316.8171152
51
323.1492751
0
ARC
8
DEFAULT_255_1_234
10
4.4315392
20
147.822746
40
0.3189975
50
281.8396411
51
316.5457803
0
ARC
8
DEFAULT_255_1_234
10
4.3939656
20
147.9782762
40
0.4789527
50
269.5770101
51
282.4214771
0
ARC
8
DEFAULT_255_1_234
10
4.3868467
20
147.9569125
40
0.45759
50
256.2427136
51
270.4486331
0
ARC
8
DEFAULT_255_1_234
10
4.356937
20
147.8369229
40
0.3339303
50
228.9023911
51
256.3314342
0
ARC
8
DEFAULT_255_1_234
10
4.3495602
20
147.8252746
40
0.32031
50
193.753695
51
228.5271154
0
ARC
8
DEFAULT_255_1_234
10
4.4733556
20
147.86158
40
0.4492253
50
184.924711
51
194.497588
0
ARC
8
DEFAULT_255_1_234
10
4.4926123
20
147.8651591
40
0.3289787
50
187.3600538
51
198.6732863
0
ARC
8
DEFAULT_255_1_234
10
4.3876417
20
147.8287674
40
0.217884
50
198.4451669
51
217.794479
0
ARC
8
DEFAULT_255_1_234
10
4.3580592
20
147.8078085
40
0.1816698
50
218.2887171
51
228.5612368
0
ARC
8
DEFAULT_255_1_234
10
4.3678379
20
147.8209963
40
0.1980329
50
228.9654866
51
258.1234728
0
ARC
8
DEFAULT_255_1_234
10
4.3884089
20
147.9090833
40
0.2884748
50
257.7258293
51
270.401361
0
ARC
8
DEFAULT_255_1_234
10
4.3928975
20
147.8645821
40
0.2439788
50
269.4204404
51
286.4209037
0
ARC
8
DEFAULT_255_1_234
10
4.4077463
20
147.8106657
40
0.1880666
50
286.7251356
51
320.600362
0
ARC
8
DEFAULT_255_1_234
10
4.3694288
20
147.8417595
40
0.2374121
50
320.6712579
51
344.5441685
0
ARC
8
DEFAULT_255_1_234
10
4.2537614
20
147.8757045
40
0.3579479
50
344.2412205
51
356.7357071
0
ARC
8
DEFAULT_255_1_234
10
4.1288763
20
147.8860444
40
0.4832297
50
356.3548756
51
0.0500261
0
ARC
8
DEFAULT_255_1_234
10
4.2625272
20
147.889165
40
0.3495889
50
359.5576869
51
12.953486
0
ARC
8
DEFAULT_255_1_234
10
4.3680169
20
147.9147434
40
0.2410532
50
12.6490276
51
41.6081334
0
ARC
8
DEFAULT_255_1_234
10
4.391054
20
147.9343321
40
0.2108218
50
41.7850273
51
85.9892764
0
ARC
8
DEFAULT_255_1_234
10
4.3787277
20
147.8530462
40
0.2928454
50
84.6957577
51
90.0676183
0
ARC
8
DEFAULT_255_1_234
10
4.3763761
20
147.7861716
40
0.3597255
50
89.6804936
51
99.1614436
0
ARC
8
DEFAULT_255_1_234
10
4.3558392
20
147.9089131
40
0.235281
50
98.9830931
51
113.8908934
0
ARC
8
DEFAULT_255_1_234
10
4.3328802
20
147.9630587
40
0.176479
50
114.1950727
51
127.3641004
0
LINE
8
DEFAULT_255_1_234
10
4.8381628
20
156.6223211
11
4.8381628
21
155.845652
0
LINE
8
DEFAULT_255_1_234
10
4.8381628
20
155.845652
11
5.0004039
21
155.845652
0
LINE
8
DEFAULT_255_1_234
10
5.0004039
20
155.845652
11
5.0004039
21
155.7243728
0
LINE
8
DEFAULT_255_1_234
10
5.0004039
20
155.7243728
11
4.8381628
21
155.7243728
0
LINE
8
DEFAULT_255_1_234
10
4.8381628
20
155.7243728
11
4.8381628
21
155.4529
0
LINE
8
DEFAULT_255_1_234
10
4.8381628
20
155.4529
11
4.6887725
21
155.4529
0
LINE
8
DEFAULT_255_1_234
10
4.6887725
20
155.4529
11
4.6887725
21
155.7243728
0
LINE
8
DEFAULT_255_1_234
10
4.6887725
20
155.7243728
11
4.1562682
21
155.7243728
0
LINE
8
DEFAULT_255_1_234
10
4.1562682
20
155.7243728
11
4.1562682
21
155.8119187
0
LINE
8
DEFAULT_255_1_234
10
4.1562682
20
155.8119187
11
4.6799375
21
156.6223211
0
LINE
8
DEFAULT_255_1_234
10
4.6799375
20
156.6223211
11
4.8381628
21
156.6223211
0
LINE
8
DEFAULT_255_1_234
10
4.6711026
20
156.3869912
11
4.3249347
21
155.845652
0
LINE
8
DEFAULT_255_1_234
10
4.3249347
20
155.845652
11
4.6887725
21
155.845652
0
LINE
8
DEFAULT_255_1_234
10
4.6887725
20
155.845652
11
4.6887725
21
156.4191181
0
LINE
8
DEFAULT_255_1_234
10
4.6887725
20
156.4191181
11
4.6711026
21
156.3869912
0
LINE
8
DEFAULT_255_1_234
10
4.2153378
20
163.9261169
11
4.2153378
21
164.0473962
0
LINE
8
DEFAULT_255_1_234
10
4.2153378
20
164.0473962
11
4.326979
21
164.0473962
0
LINE
8
DEFAULT_255_1_234
10
4.1366268
20
164.2530087
11
3.9880396
21
164.2530087
0
LINE
8
DEFAULT_255_1_234
10
3.9775983
20
163.6988188
11
4.1269887
21
163.6988188
0
LINE
8
DEFAULT_255_1_234
10
4.326979
20
163.9261169
11
4.2153378
21
163.9261169
0
ARC
8
DEFAULT_255_1_234
10
4.3240656
20
164.3866713
40
0.3392876
50
270.4919872
51
281.8951556
0
ARC
8
DEFAULT_255_1_234
10
4.3481918
20
164.2764702
40
0.2264817
50
281.6691735
51
301.2943132
0
ARC
8
DEFAULT_255_1_234
10
4.3652128
20
164.2453304
40
0.1910381
50
301.7833094
51
311.7545298
0
ARC
8
DEFAULT_255_1_234
10
4.3743704
20
164.2351748
40
0.1773635
50
311.7323931
51
354.2802411
0
ARC
8
DEFAULT_255_1_234
10
4.3017329
20
164.2476722
40
0.2509385
50
353.0937916
51
0.1181479
0
ARC
8
DEFAULT_255_1_234
10
4.2556114
20
164.2524386
40
0.2970898
50
359.1805295
51
15.0453146
0
ARC
8
DEFAULT_255_1_234
10
4.3901951
20
164.2916992
40
0.1569564
50
13.9577229
51
77.6713066
0
ARC
8
DEFAULT_255_1_234
10
4.351548
20
164.1531949
40
0.3006298
50
76.1116566
51
90.7026153
0
ARC
8
DEFAULT_255_1_234
10
4.3456318
20
164.1805545
40
0.2732568
50
89.5324876
51
103.531937
0
ARC
8
DEFAULT_255_1_234
10
4.3255762
20
164.2604884
40
0.1908508
50
103.2931773
51
133.5619022
0
ARC
8
DEFAULT_255_1_234
10
4.3211251
20
164.2664375
40
0.1834746
50
133.8349307
51
173.5344437
0
ARC
8
DEFAULT_255_1_234
10
4.3934294
20
164.2536213
40
0.2568033
50
172.5096846
51
180.1366907
0
ARC
8
DEFAULT_255_1_234
10
4.2983188
20
164.2570622
40
0.3103056
50
155.3484492
51
180.7484736
0
ARC
8
DEFAULT_255_1_234
10
4.2934277
20
164.2541846
40
0.3070957
50
131.5744599
51
154.4798489
0
ARC
8
DEFAULT_255_1_234
10
4.3247424
20
164.222531
40
0.3515643
50
96.9875458
51
131.9690667
0
ARC
8
DEFAULT_255_1_234
10
4.3466904
20
164.0979636
40
0.4779224
50
89.8596053
51
97.7825159
0
ARC
8
DEFAULT_255_1_234
10
4.3514967
20
164.0717616
40
0.5041361
50
78.3655447
51
90.4131539
0
ARC
8
DEFAULT_255_1_234
10
4.3872885
20
164.2376887
40
0.3344039
50
56.6229102
51
78.638727
0
ARC
8
DEFAULT_255_1_234
10
4.4087829
20
164.2752805
40
0.2912001
50
47.0253525
51
56.0854072
0
ARC
8
DEFAULT_255_1_234
10
4.4107609
20
164.2792223
40
0.2869704
50
10.9208013
51
46.7778124
0
ARC
8
DEFAULT_255_1_234
10
4.2743675
20
164.2476857
40
0.426899
50
359.6364486
51
11.6087304
0
ARC
8
DEFAULT_255_1_234
10
4.4578519
20
164.2461752
40
0.243409
50
332.3549906
51
359.7179418
0
ARC
8
DEFAULT_255_1_234
10
4.3928121
20
164.2770142
40
0.3153459
50
325.2333722
51
332.8745602
0
ARC
8
DEFAULT_255_1_234
10
4.4080744
20
164.2663828
40
0.2967456
50
292.9802137
51
325.2392345
0
ARC
8
DEFAULT_255_1_234
10
4.3806118
20
164.3197863
40
0.3566604
50
292.5402179
51
293.6924929
0
ARC
8
DEFAULT_255_1_234
10
4.4198714
20
163.6743091
40
0.3307468
50
57.6435486
51
72.8625112
0
ARC
8
DEFAULT_255_1_234
10
4.4553214
20
163.7317549
40
0.2632492
50
36.7248896
51
57.4697979
0
ARC
8
DEFAULT_255_1_234
10
4.4541847
20
163.733022
40
0.2634081
50
8.0545065
51
36.356114
0
ARC
8
DEFAULT_255_1_234
10
4.3679032
20
163.7175174
40
0.3510261
50
359.8320645
51
8.5869982
0
ARC
8
DEFAULT_255_1_234
10
4.3303808
20
163.7127101
40
0.3885653
50
343.9829931
51
0.5571613
0
ARC
8
DEFAULT_255_1_234
10
4.4190005
20
163.6884438
40
0.2966924
50
311.6359546
51
343.7651759
0
ARC
8
DEFAULT_255_1_234
10
4.3811574
20
163.7311102
40
0.3537231
50
279.7829875
51
311.6255694
0
ARC
8
DEFAULT_255_1_234
10
4.3510351
20
163.874828
40
0.5004971
50
269.7286406
51
280.3856417
0
ARC
8
DEFAULT_255_1_234
10
4.3448423
20
163.8706996
40
0.4963778
50
256.6828919
51
270.4412052
0
ARC
8
DEFAULT_255_1_234
10
4.3109719
20
163.7322394
40
0.3538406
50
229.4223008
51
256.8556159
0
ARC
8
DEFAULT_255_1_234
10
4.2695112
20
163.6855736
40
0.2914296
50
181.818294
51
229.6455059
0
ARC
8
DEFAULT_255_1_234
10
4.3735068
20
163.6986496
40
0.3959084
50
179.9755256
51
183.2323064
0
ARC
8
DEFAULT_255_1_234
10
4.3562814
20
163.6966037
40
0.2293034
50
179.4465117
51
196.2869258
0
ARC
8
DEFAULT_255_1_234
10
4.3075222
20
163.6832651
40
0.1787621
50
196.5661473
51
227.705904
0
ARC
8
DEFAULT_255_1_234
10
4.3239317
20
163.7016155
40
0.2033784
50
227.7652068
51
257.8762805
0
ARC
8
DEFAULT_255_1_234
10
4.3464287
20
163.7959156
40
0.3003081
50
257.4584385
51
270.426602
0
ARC
8
DEFAULT_255_1_234
10
4.3509853
20
163.8248996
40
0.329292
50
269.5962073
51
280.8789248
0
ARC
8
DEFAULT_255_1_234
10
4.3739382
20
163.7102685
40
0.2123908
50
280.6346389
51
299.8595945
0
ARC
8
DEFAULT_255_1_234
10
4.3930289
20
163.6740212
40
0.171457
50
300.3576302
51
314.5517981
0
ARC
8
DEFAULT_255_1_234
10
4.3847349
20
163.6800919
40
0.1816095
50
315.0728369
51
345.0431014
0
ARC
8
DEFAULT_255_1_234
10
4.2924163
20
163.7069841
40
0.2777492
50
344.5986631
51
357.9269593
0
ARC
8
DEFAULT_255_1_234
10
4.2028489
20
163.7131276
40
0.3674917
50
357.4748886
51
0.0231117
0
ARC
8
DEFAULT_255_1_234
10
4.3051599
20
163.7155679
40
0.2651907
50
359.5047933
51
13.4239635
0
ARC
8
DEFAULT_255_1_234
10
4.3918242
20
163.7377478
40
0.1757509
50
12.9498199
51
48.7551375
0
ARC
8
DEFAULT_255_1_234
10
4.3735976
20
163.71284
40
0.2065134
50
49.5088623
51
72.1836453
0
ARC
8
DEFAULT_255_1_234
10
4.3378129
20
163.6066291
40
0.3185836
50
71.9010081
51
84.3554254
0
ARC
8
DEFAULT_255_1_234
10
4.3216761
20
163.4705326
40
0.4556151
50
84.0193428
51
89.333121
0
LINE
8
DEFAULT_255_1_234
10
4.7655119
20
171.4491792
11
4.7655119
21
171.3279
0
LINE
8
DEFAULT_255_1_234
10
4.7655119
20
171.3279
11
3.999284
21
171.3279
0
LINE
8
DEFAULT_255_1_234
10
3.999284
20
171.3279
11
3.999284
21
171.4347221
0
LINE
8
DEFAULT_255_1_234
10
3.999284
20
171.4347221
11
4.4040836
21
171.8844995
0
LINE
8
DEFAULT_255_1_234
10
4.1253823
20
172.1527595
11
3.9767952
21
172.1527595
0
LINE
8
DEFAULT_255_1_234
10
4.4916296
20
171.7889218
11
4.1783918
21
171.4491792
0
LINE
8
DEFAULT_255_1_234
10
4.1783918
20
171.4491792
11
4.7655119
21
171.4491792
0
ARC
8
DEFAULT_255_1_234
10
3.055067
20
173.0774527
40
1.8008286
50
318.5132453
51
320.7828378
0
ARC
8
DEFAULT_255_1_234
10
3.5837644
20
172.6471426
40
1.1191493
50
320.7372736
51
323.9737074
0
ARC
8
DEFAULT_255_1_234
10
3.9757501
20
172.3631361
40
0.6350923
50
323.8961724
51
328.6421089
0
ARC
8
DEFAULT_255_1_234
10
4.1804096
20
172.2369031
40
0.3946393
50
328.8299013
51
331.789948
0
ARC
8
DEFAULT_255_1_234
10
4.2801274
20
172.1854509
40
0.2824501
50
331.4255242
51
352.9364833
0
ARC
8
DEFAULT_255_1_234
10
4.2937775
20
172.1823976
40
0.2685315
50
353.2248685
51
0.0169286
0
ARC
8
DEFAULT_255_1_234
10
4.3147652
20
172.184695
40
0.2475536
50
359.4866256
51
15.9339782
0
ARC
8
DEFAULT_255_1_234
10
4.3654637
20
172.1983286
40
0.1950618
50
16.1714718
51
43.5284424
0
ARC
8
DEFAULT_255_1_234
10
4.3731946
20
172.2060573
40
0.184134
50
43.4415429
51
83.1661404
0
ARC
8
DEFAULT_255_1_234
10
4.3597864
20
172.1323771
40
0.258926
50
82.160215
51
90.1505798
0
ARC
8
DEFAULT_255_1_234
10
4.3566291
20
172.0786865
40
0.3126255
50
89.5460705
51
102.5418777
0
ARC
8
DEFAULT_255_1_234
10
4.3323377
20
172.1817665
40
0.2067346
50
102.1739365
51
129.2061916
0
ARC
8
DEFAULT_255_1_234
10
4.3244449
20
172.1942094
40
0.1921118
50
129.7279328
51
135.7542026
0
ARC
8
DEFAULT_255_1_234
10
4.3365977
20
172.1845045
40
0.2075944
50
136.175737
51
166.3674722
0
ARC
8
DEFAULT_255_1_234
10
4.4372896
20
172.1575182
40
0.3118201
50
165.9092917
51
178.8683903
0
ARC
8
DEFAULT_255_1_234
10
4.5237757
20
172.1528179
40
0.3983935
50
178.438168
51
180.0083905
0
ARC
8
DEFAULT_255_1_234
10
4.3836359
20
172.1567231
40
0.4068601
50
163.2878735
51
180.5581814
0
ARC
8
DEFAULT_255_1_234
10
4.3034621
20
172.178784
40
0.3237344
50
133.454115
51
162.9470031
0
ARC
8
DEFAULT_255_1_234
10
4.3213162
20
172.1598
40
0.349795
50
100.7869394
51
133.4384016
0
ARC
8
DEFAULT_255_1_234
10
4.3560934
20
172.0049319
40
0.5084616
50
89.6605301
51
101.3704185
0
ARC
8
DEFAULT_255_1_234
10
4.3627273
20
172.0110496
40
0.502348
50
78.2171172
51
90.4130393
0
ARC
8
DEFAULT_255_1_234
10
4.3982351
20
172.1734637
40
0.3361092
50
55.9268222
51
78.4888551
0
ARC
8
DEFAULT_255_1_234
10
4.4178791
20
172.2073324
40
0.2970617
50
47.9292255
51
55.4054003
0
ARC
8
DEFAULT_255_1_234
10
4.4280352
20
172.2176502
40
0.2825983
50
4.3347696
51
48.0560701
0
ARC
8
DEFAULT_255_1_234
10
4.3184745
20
172.2006601
40
0.393225
50
359.925209
51
5.5967654
0
ARC
8
DEFAULT_255_1_234
10
4.3613637
20
172.2062816
40
0.3503892
50
337.8914096
51
358.9967724
0
ARC
8
DEFAULT_255_1_234
10
4.0900049
20
172.3109706
40
0.6412172
50
326.9135351
51
338.3505194
0
ARC
8
DEFAULT_255_1_234
10
3.6914353
20
172.5664284
40
1.1146189
50
319.6472867
51
327.095818
0
ARC
8
DEFAULT_255_1_234
10
3.3081356
20
172.8826
40
1.6114559
50
317.2586784
51
319.9046139
0
LINE
8
DEFAULT_255_1_234
10
4.4793137
20
180.4404433
11
4.4793137
21
179.2654
0
LINE
8
DEFAULT_255_1_234
10
4.4793137
20
179.2654
11
4.3299234
21
179.2654
0
LINE
8
DEFAULT_255_1_234
10
4.3299234
20
179.2654
11
4.3299234
21
180.2557133
0
LINE
8
DEFAULT_255_1_234
10
4.3299234
20
180.2557133
11
4.0303396
21
180.1456785
0
LINE
8
DEFAULT_255_1_234
10
4.0303396
20
180.1456785
11
4.0303396
21
180.2806117
0
LINE
8
DEFAULT_255_1_234
10
4.0303396
20
180.2806117
11
4.4560217
21
180.4404433
0
LINE
8
DEFAULT_255_1_234
10
4.4560217
20
180.4404433
11
4.4793137
21
180.4404433
0
LINE
8
DEFAULT_255_1_234
10
4.7325817
20
187.8944327
11
4.7325817
21
187.7016709
0
LINE
8
DEFAULT_255_1_234
10
3.994465
20
187.6815916
11
3.994465
21
187.8799755
0
LINE
8
DEFAULT_255_1_234
10
4.5839946
20
187.6615123
11
4.5839946
21
187.9048739
0
LINE
8
DEFAULT_255_1_234
10
4.1430521
20
187.9161184
11
4.1430521
21
187.6783789
0
ARC
8
DEFAULT_255_1_234
10
3.5078707
20
187.6967805
40
1.2247208
50
353.8441951
51
0.2287902
0
ARC
8
DEFAULT_255_1_234
10
3.9718211
20
187.6449806
40
0.7578929
50
344.4934747
51
353.9765454
0
ARC
8
DEFAULT_255_1_234
10
4.2710801
20
187.5598981
40
0.4467846
50
329.2803592
51
344.7472793
0
ARC
8
DEFAULT_255_1_234
10
4.3703626
20
187.5054018
40
0.3336173
50
324.9352394
51
328.6160465
0
ARC
8
DEFAULT_255_1_234
10
4.4080734
20
187.4790427
40
0.2876076
50
280.580143
51
324.9173126
0
ARC
8
DEFAULT_255_1_234
10
4.3679527
20
187.6461099
40
0.4592847
50
269.5977311
51
281.6734359
0
ARC
8
DEFAULT_255_1_234
10
4.3607433
20
187.6341173
40
0.4472986
50
256.6228859
51
270.51044
0
ARC
8
DEFAULT_255_1_234
10
4.320541
20
187.4792877
40
0.2873874
50
215.8618325
51
257.2788573
0
ARC
8
DEFAULT_255_1_234
10
4.4226442
20
187.5477977
40
0.4102928
50
197.9693508
51
215.2623606
0
ARC
8
DEFAULT_255_1_234
10
4.6711558
20
187.6316709
40
0.6725652
50
187.8816417
51
198.2346507
0
ARC
8
DEFAULT_255_1_234
10
5.0669766
20
187.6888079
40
1.0724845
50
180.8976217
51
188.0055519
0
ARC
8
DEFAULT_255_1_234
10
5.3469954
20
187.6991777
40
1.3526448
50
180.7449369
51
181.1510016
0
ARC
8
DEFAULT_255_1_234
10
5.1892683
20
187.8848042
40
1.1948131
50
173.7675579
51
180.231553
0
ARC
8
DEFAULT_255_1_234
10
4.737483
20
187.9358666
40
0.7401564
50
164.3058563
51
173.9002247
0
ARC
8
DEFAULT_255_1_234
10
4.4462899
20
188.0197656
40
0.4371288
50
148.7922025
51
164.568378
0
ARC
8
DEFAULT_255_1_234
10
4.3511351
20
188.0728929
40
0.3282386
50
144.5883898
51
148.1176286
0
ARC
8
DEFAULT_255_1_234
10
4.3168249
20
188.0968315
40
0.2864044
50
101.6440918
51
144.514236
0
ARC
8
DEFAULT_255_1_234
10
4.3593315
20
187.9279069
40
0.4604934
50
89.5284041
51
102.5819763
0
ARC
8
DEFAULT_255_1_234
10
4.3672403
20
187.9240018
40
0.464401
50
77.0437873
51
90.5081339
0
ARC
8
DEFAULT_255_1_234
10
4.4074405
20
188.0882615
40
0.2953195
50
48.2778575
51
77.4994676
0
ARC
8
DEFAULT_255_1_234
10
4.4147036
20
188.1011746
40
0.2808655
50
36.3142134
51
47.6305865
0
ARC
8
DEFAULT_255_1_234
10
4.3278343
20
188.0426515
40
0.3855453
50
18.2931786
51
35.6769206
0
ARC
8
DEFAULT_255_1_234
10
4.0735102
20
187.9553593
40
0.654423
50
8.024666
51
18.5605216
0
ARC
8
DEFAULT_255_1_234
10
3.6572022
20
187.8938792
40
1.0752407
50
1.1274072
51
8.1718305
0
ARC
8
DEFAULT_255_1_234
10
3.3336213
20
187.8811885
40
1.3990231
50
0.5424119
51
1.3863029
0
ARC
8
DEFAULT_255_1_234
10
3.515759
20
187.9084342
40
1.0682415
50
359.8090433
51
4.9407866
0
ARC
8
DEFAULT_255_1_234
10
3.9367604
20
187.9460113
40
0.6455691
50
4.8362157
51
12.2904523
0
ARC
8
DEFAULT_255_1_234
10
4.2122719
20
188.0073965
40
0.3633074
50
12.0805627
51
23.8173984
0
ARC
8
DEFAULT_255_1_234
10
4.3296425
20
188.0570919
40
0.2358723
50
24.2871213
51
31.3935614
0
ARC
8
DEFAULT_255_1_234
10
4.3821122
20
188.0914233
40
0.1732111
50
30.7407893
51
82.4657128
0
ARC
8
DEFAULT_255_1_234
10
4.3641256
20
188.0030691
40
0.263235
50
81.1060089
51
90.2184952
0
ARC
8
DEFAULT_255_1_234
10
4.3605555
20
188.0288924
40
0.2374236
50
89.3806855
51
105.6762551
0
ARC
8
DEFAULT_255_1_234
10
4.3422186
20
188.0955567
40
0.1682847
50
105.7981136
51
149.7388061
0
ARC
8
DEFAULT_255_1_234
10
4.4486264
20
188.031595
40
0.2924306
50
149.4208916
51
163.6286378
0
ARC
8
DEFAULT_255_1_234
10
4.6577152
20
187.967825
40
0.5110213
50
163.3763315
51
172.1410975
0
ARC
8
DEFAULT_255_1_234
10
4.9877871
20
187.9205518
40
0.8444586
50
172.0259487
51
178.0703232
0
ARC
8
DEFAULT_255_1_234
10
5.290796
20
187.9061906
40
1.1477868
50
177.8631668
51
179.5044149
0
ARC
8
DEFAULT_255_1_234
10
5.1835365
20
187.6747389
40
1.0404907
50
179.7995573
51
185.2460446
0
ARC
8
DEFAULT_255_1_234
10
4.7792404
20
187.6364513
40
0.6343885
50
185.1411642
51
193.0079639
0
ARC
8
DEFAULT_255_1_234
10
4.5148877
20
187.5739641
40
0.3627568
50
192.7897626
51
205.2507664
0
ARC
8
DEFAULT_255_1_234
10
4.4102424
20
187.5272415
40
0.2481908
50
205.8005384
51
211.2537509
0
ARC
8
DEFAULT_255_1_234
10
4.3578864
20
187.492158
40
0.1852521
50
210.3789793
51
238.4008143
0
ARC
8
DEFAULT_255_1_234
10
4.3559386
20
187.4968376
40
0.1882621
50
239.6520629
51
265.9793761
0
ARC
8
DEFAULT_255_1_234
10
4.3644586
20
187.5640427
40
0.2559272
50
265.1315437
51
270.060332
0
ARC
8
DEFAULT_255_1_234
10
4.3673365
20
187.5316534
40
0.2235528
50
269.3314664
51
287.2178029
0
ARC
8
DEFAULT_255_1_234
10
4.3811217
20
187.4813279
40
0.1714108
50
287.7958004
51
329.080874
0
ARC
8
DEFAULT_255_1_234
10
4.2853674
20
187.541093
40
0.2842745
50
328.6634704
51
343.3325132
0
ARC
8
DEFAULT_255_1_234
10
4.0680694
20
187.6087863
40
0.5118644
50
343.0499468
51
351.9393422
0
ARC
8
DEFAULT_255_1_234
10
3.7213994
20
187.6598949
40
0.8622784
50
351.8069023
51
357.7959224
0
ARC
8
DEFAULT_255_1_234
10
3.397855
20
187.6766721
40
1.1862365
50
357.5871873
51
359.2677531
0
LINE
8
DEFAULT_255_1_234
10
21.8620482
20
195.722701
11
21.8620482
21
195.2938062
0
LINE
8
DEFAULT_255_1_234
10
20.9608872
20
195.6688884
11
20.9608872
21
195.7708915
0
LINE
8
DEFAULT_255_1_234
10
21.8620482
20
195.9668659
11
21.7078389
21
195.9668659
0
LINE
8
DEFAULT_255_1_234
10
21.1158998
20
195.7749073
11
21.1158998
21
195.6793296
0
LINE
8
DEFAULT_255_1_234
10
21.708642
20
195.3347681
11
21.708642
21
195.5974059
0
LINE
8
DEFAULT_255_1_234
10
21.708642
20
195.5974059
11
21.4379725
21
195.5974059
0
LINE
8
DEFAULT_255_1_234
10
21.4379725
20
195.5974059
11
21.4379725
21
195.722701
0
LINE
8
DEFAULT_255_1_234
10
21.4379725
20
195.722701
11
21.8620482
21
195.722701
0
ARC
8
DEFAULT_255_1_234
10
21.5788989
20
195.4931396
40
0.3462765
50
295.8437914
51
324.8549609
0
ARC
8
DEFAULT_255_1_234
10
21.5372956
20
195.5684567
40
0.4322211
50
291.5695085
51
296.4549398
0
ARC
8
DEFAULT_255_1_234
10
21.4862207
20
195.7049275
40
0.5779178
50
278.6622409
51
291.3045483
0
ARC
8
DEFAULT_255_1_234
10
21.4522699
20
195.9197408
40
0.7953952
50
270.020006
51
278.7494541
0
ARC
8
DEFAULT_255_1_234
10
21.4484623
20
196.0514036
40
0.927067
50
269.9969998
51
270.2524872
0
ARC
8
DEFAULT_255_1_234
10
21.4446336
20
195.6430589
40
0.5187361
50
253.5786322
51
270.4175299
0
ARC
8
DEFAULT_255_1_234
10
21.4272992
20
195.5759236
40
0.4494451
50
238.8203306
51
253.2788235
0
ARC
8
DEFAULT_255_1_234
10
21.4253365
20
195.5708231
40
0.4440665
50
206.7883783
51
238.6962764
0
ARC
8
DEFAULT_255_1_234
10
21.5027275
20
195.6172405
40
0.5341121
50
206.1129412
51
207.4916643
0
ARC
8
DEFAULT_255_1_234
10
21.562419
20
195.6426488
40
0.5989041
50
188.6921119
51
205.7821245
0
ARC
8
DEFAULT_255_1_234
10
21.7480552
20
195.674223
40
0.7871862
50
180.3882829
51
188.9219216
0
ARC
8
DEFAULT_255_1_234
10
21.8708366
20
195.7765464
40
0.909967
50
170.2024264
51
180.3560651
0
ARC
8
DEFAULT_255_1_234
10
21.5544884
20
195.8331237
40
0.5886083
50
154.2857445
51
170.3893044
0
ARC
8
DEFAULT_255_1_234
10
21.4263087
20
195.891795
40
0.4476743
50
139.8401567
51
153.9332699
0
ARC
8
DEFAULT_255_1_234
10
21.3903823
20
195.9205577
40
0.4016697
50
98.4190291
51
139.6707122
0
ARC
8
DEFAULT_255_1_234
10
21.4283341
20
195.7360328
40
0.5898566
50
89.7659205
51
99.4415478
0
ARC
8
DEFAULT_255_1_234
10
21.434859
20
195.7425844
40
0.5833147
50
78.0551672
51
90.4042112
0
ARC
8
DEFAULT_255_1_234
10
21.47531
20
195.9244644
40
0.3970055
50
54.6380464
51
78.3339173
0
ARC
8
DEFAULT_255_1_234
10
21.4943156
20
195.9564795
40
0.3599102
50
50.031736
51
54.1558201
0
ARC
8
DEFAULT_255_1_234
10
21.4835944
20
195.9468766
40
0.3741624
50
18.1092409
51
49.7180913
0
ARC
8
DEFAULT_255_1_234
10
21.3379144
20
195.8935089
40
0.5292424
50
7.9672797
51
18.6984571
0
ARC
8
DEFAULT_255_1_234
10
21.3529622
20
195.9058504
40
0.3600838
50
9.7557294
51
27.3215714
0
ARC
8
DEFAULT_255_1_234
10
21.4657094
20
195.9621912
40
0.2340608
50
27.7361077
51
84.5257964
0
ARC
8
DEFAULT_255_1_234
10
21.4329481
20
195.797864
40
0.4011215
50
82.106034
51
90.2001166
0
ARC
8
DEFAULT_255_1_234
10
21.4279698
20
195.8486215
40
0.3503799
50
89.4150119
51
105.5823402
0
ARC
8
DEFAULT_255_1_234
10
21.4022696
20
195.9421867
40
0.2533503
50
105.6678618
51
144.2648758
0
ARC
8
DEFAULT_255_1_234
10
21.4915951
20
195.8786289
40
0.3629787
50
144.3561283
51
162.8564086
0
ARC
8
DEFAULT_255_1_234
10
21.699986
20
195.8117017
40
0.5818441
50
162.6076014
51
173.6780284
0
ARC
8
DEFAULT_255_1_234
10
22.0061004
20
195.774489
40
0.8902007
50
173.4670142
51
179.9730753
0
ARC
8
DEFAULT_255_1_234
10
21.8152675
20
195.675126
40
0.6993804
50
179.6556203
51
190.0080463
0
ARC
8
DEFAULT_255_1_234
10
21.5836504
20
195.6326375
40
0.4639066
50
189.8116607
51
206.6796816
0
ARC
8
DEFAULT_255_1_234
10
21.4991656
20
195.5932503
40
0.3707421
50
207.1031645
51
217.7074368
0
ARC
8
DEFAULT_255_1_234
10
21.4357345
20
195.5380559
40
0.2868417
50
216.7345547
51
265.6812148
0
ARC
8
DEFAULT_255_1_234
10
21.4488136
20
195.6284855
40
0.3780509
50
264.7366618
51
270.0611241
0
ARC
8
DEFAULT_255_1_234
10
21.4511399
20
195.9125111
40
0.662079
50
269.8335834
51
276.0539546
0
ARC
8
DEFAULT_255_1_234
10
21.4718404
20
195.722356
40
0.4708016
50
275.9894168
51
284.4615085
0
ARC
8
DEFAULT_255_1_234
10
21.4916411
20
195.6390663
40
0.3852094
50
284.7034461
51
286.4953897
0
ARC
8
DEFAULT_255_1_234
10
21.5323424
20
195.5079965
40
0.2479842
50
286.0770838
51
304.2625829
0
ARC
8
DEFAULT_255_1_234
10
21.5456838
20
195.4861594
40
0.2224291
50
304.5891602
51
317.1073298
0
LINE
8
DEFAULT_255_1_234
10
23.0178154
20
196.3098211
11
23.0178154
21
195.1404
0
LINE
8
DEFAULT_255_1_234
10
23.0178154
20
195.1404
11
22.8628028
21
195.1404
0
LINE
8
DEFAULT_255_1_234
10
22.8628028
20
195.1404
11
22.2740764
21
196.041561
0
LINE
8
DEFAULT_255_1_234
10
22.2740764
20
196.041561
11
22.2740764
21
195.1404
0
LINE
8
DEFAULT_255_1_234
10
22.2740764
20
195.1404
11
22.1190639
21
195.1404
0
LINE
8
DEFAULT_255_1_234
10
22.1190639
20
195.1404
11
22.1190639
21
196.3098211
0
LINE
8
DEFAULT_255_1_234
10
22.1190639
20
196.3098211
11
22.2740764
21
196.3098211
0
LINE
8
DEFAULT_255_1_234
10
22.2740764
20
196.3098211
11
22.8644092
21
195.4046442
0
LINE
8
DEFAULT_255_1_234
10
22.8644092
20
195.4046442
11
22.8644092
21
196.3098211
0
LINE
8
DEFAULT_255_1_234
10
22.8644092
20
196.3098211
11
23.0178154
21
196.3098211
0
LINE
8
DEFAULT_255_1_234
10
23.6153767
20
195.1404
11
23.2916977
21
195.1404
0
LINE
8
DEFAULT_255_1_234
10
23.2916977
20
195.1404
11
23.2916977
21
196.3098211
0
LINE
8
DEFAULT_255_1_234
10
23.2916977
20
196.3098211
11
23.6218021
21
196.3098211
0
LINE
8
DEFAULT_255_1_234
10
24.1374397
20
195.7644661
11
24.1374397
21
195.6897709
0
LINE
8
DEFAULT_255_1_234
10
23.625818
20
196.1829196
11
23.445907
21
196.1829196
0
LINE
8
DEFAULT_255_1_234
10
23.445907
20
196.1829196
11
23.445907
21
195.2664983
0
LINE
8
DEFAULT_255_1_234
10
23.445907
20
195.2664983
11
23.6081481
21
195.2664983
0
LINE
8
DEFAULT_255_1_234
10
23.9848367
20
195.6929836
11
23.9848367
21
195.7612534
0
ARC
8
DEFAULT_255_1_234
10
23.6256963
20
195.7232894
40
0.5865446
50
75.4101064
51
90.3804066
0
ARC
8
DEFAULT_255_1_234
10
23.6486477
20
195.8189492
40
0.4881916
50
60.145586
51
75.1888407
0
ARC
8
DEFAULT_255_1_234
10
23.6645252
20
195.8466199
40
0.4562893
50
26.5253612
51
60.1450928
0
ARC
8
DEFAULT_255_1_234
10
23.5525002
20
195.7872158
40
0.5830602
50
7.4030428
51
26.8320788
0
ARC
8
DEFAULT_255_1_234
10
23.3930758
20
195.7623804
40
0.7443669
50
0.1605367
51
7.7176192
0
ARC
8
DEFAULT_255_1_234
10
23.4094663
20
195.6859434
40
0.7279835
50
348.7289388
51
0.3012466
0
ARC
8
DEFAULT_255_1_234
10
23.5751093
20
195.6530386
40
0.559104
50
333.0706509
51
348.7181832
0
ARC
8
DEFAULT_255_1_234
10
23.6717851
20
195.6005319
40
0.4491417
50
299.2531685
51
333.4571258
0
ARC
8
DEFAULT_255_1_234
10
23.6356991
20
195.6690828
40
0.5265881
50
278.107187
51
299.0339503
0
ARC
8
DEFAULT_255_1_234
10
23.610107
20
195.8198216
40
0.679442
50
270.4443897
51
278.4511052
0
ARC
8
DEFAULT_255_1_234
10
23.61219
20
195.7269213
40
0.4604407
50
269.4970433
51
284.0205042
0
ARC
8
DEFAULT_255_1_234
10
23.6477201
20
195.5903978
40
0.3193797
50
283.7700273
51
318.1555492
0
ARC
8
DEFAULT_255_1_234
10
23.6139959
20
195.6156367
40
0.3613588
50
318.7415601
51
343.6873628
0
ARC
8
DEFAULT_255_1_234
10
23.4335982
20
195.6719832
40
0.5503313
50
343.3325091
51
355.8548958
0
ARC
8
DEFAULT_255_1_234
10
23.2237666
20
195.6919319
40
0.7610708
50
355.4988528
51
0.0791727
0
ARC
8
DEFAULT_255_1_234
10
23.3020289
20
195.765478
40
0.6828208
50
359.6455037
51
9.8607896
0
ARC
8
DEFAULT_255_1_234
10
23.5380987
20
195.8081099
40
0.4429406
50
9.6571907
51
26.1932807
0
ARC
8
DEFAULT_255_1_234
10
23.6308975
20
195.8512118
40
0.3406537
50
26.5777228
51
40.1532208
0
ARC
8
DEFAULT_255_1_234
10
23.6564702
20
195.8711619
40
0.308246
50
40.3840491
51
80.1431104
0
ARC
8
DEFAULT_255_1_234
10
23.623782
20
195.7262333
40
0.4566909
50
79.2152159
51
89.7445637
0
LINE
8
DEFAULT_255_1_234
10
23.0891137
20
69.3154433
11
23.0891137
21
68.1404
0
LINE
8
DEFAULT_255_1_234
10
23.0891137
20
68.1404
11
22.9397234
21
68.1404
0
LINE
8
DEFAULT_255_1_234
10
22.9397234
20
68.1404
11
22.9397234
21
69.1307133
0
LINE
8
DEFAULT_255_1_234
10
22.9397234
20
69.1307133
11
22.6401396
21
69.0206785
0
LINE
8
DEFAULT_255_1_234
10
22.6401396
20
69.0206785
11
22.6401396
21
69.1556117
0
LINE
8
DEFAULT_255_1_234
10
22.6401396
20
69.1556117
11
23.0658217
21
69.3154433
0
LINE
8
DEFAULT_255_1_234
10
23.0658217
20
69.3154433
11
23.0891137
21
69.3154433
0
LINE
8
DEFAULT_255_1_234
10
23.7115734
20
68.6961963
11
23.5927037
21
68.7267169
0
LINE
8
DEFAULT_255_1_234
10
23.5927037
20
68.7267169
11
23.6521386
21
69.3098211
0
LINE
8
DEFAULT_255_1_234
10
23.6521386
20
69.3098211
11
24.2513063
21
69.3098211
0
LINE
8
DEFAULT_255_1_234
10
24.2513063
20
69.3098211
11
24.2513063
21
69.1724784
0
LINE
8
DEFAULT_255_1_234
10
24.2513063
20
69.1724784
11
23.7782369
21
69.1724784
0
LINE
8
DEFAULT_255_1_234
10
23.7782369
20
69.1724784
11
23.7428972
21
68.8536184
0
LINE
8
DEFAULT_255_1_234
10
23.5509387
20
68.4480156
11
23.6914941
21
68.4480156
0
LINE
8
DEFAULT_255_1_234
10
23.750929
20
68.7283232
11
23.7115734
21
68.6961963
0
ARC
8
DEFAULT_255_1_234
10
23.9283756
20
68.535623
40
0.3681349
50
93.7182161
51
120.2538958
0
ARC
8
DEFAULT_255_1_234
10
23.9378019
20
68.4548394
40
0.449379
50
89.9660152
51
94.2496022
0
ARC
8
DEFAULT_255_1_234
10
23.9418753
20
68.5137549
40
0.390482
50
73.8043271
51
90.5585896
0
ARC
8
DEFAULT_255_1_234
10
23.965365
20
68.5995602
40
0.3015334
50
41.3071453
51
73.5430202
0
ARC
8
DEFAULT_255_1_234
10
23.9237477
20
68.5637324
40
0.3564457
50
13.5075983
51
41.2174222
0
ARC
8
DEFAULT_255_1_234
10
23.7595681
20
68.5207486
40
0.5261351
50
1.1331335
51
13.8829381
0
ARC
8
DEFAULT_255_1_234
10
23.618405
20
68.5131665
40
0.6674378
50
359.9919444
51
1.544251
0
ARC
8
DEFAULT_255_1_234
10
23.7460876
20
68.509028
40
0.5397702
50
347.8572367
51
0.4293338
0
ARC
8
DEFAULT_255_1_234
10
23.9211194
20
68.4693736
40
0.3603188
50
323.673004
51
348.1672506
0
ARC
8
DEFAULT_255_1_234
10
23.9505702
20
68.4514168
40
0.3259678
50
316.8171152
51
323.1492751
0
ARC
8
DEFAULT_255_1_234
10
23.9566891
20
68.447746
40
0.3189975
50
281.8396411
51
316.5457803
0
ARC
8
DEFAULT_255_1_234
10
23.9191155
20
68.6032762
40
0.4789527
50
269.5770101
51
282.4214771
0
ARC
8
DEFAULT_255_1_234
10
23.9119966
20
68.5819125
40
0.45759
50
256.2427136
51
270.4486331
0
ARC
8
DEFAULT_255_1_234
10
23.8820869
20
68.4619229
40
0.3339303
50
228.9023911
51
256.3314342
0
ARC
8
DEFAULT_255_1_234
10
23.8747101
20
68.4502746
40
0.32031
50
193.753695
51
228.5271154
0
ARC
8
DEFAULT_255_1_234
10
23.9985055
20
68.48658
40
0.4492253
50
184.924711
51
194.497588
0
ARC
8
DEFAULT_255_1_234
10
24.0177622
20
68.4901591
40
0.3289787
50
187.3600538
51
198.6732863
0
ARC
8
DEFAULT_255_1_234
10
23.9127916
20
68.4537674
40
0.217884
50
198.4451669
51
217.794479
0
ARC
8
DEFAULT_255_1_234
10
23.8832091
20
68.4328085
40
0.1816698
50
218.2887171
51
228.5612368
0
ARC
8
DEFAULT_255_1_234
10
23.8929878
20
68.4459963
40
0.1980329
50
228.9654866
51
258.1234728
0
ARC
8
DEFAULT_255_1_234
10
23.9135588
20
68.5340833
40
0.2884748
50
257.7258293
51
270.401361
0
ARC
8
DEFAULT_255_1_234
10
23.9180474
20
68.4895821
40
0.2439788
50
269.4204404
51
286.4209037
0
ARC
8
DEFAULT_255_1_234
10
23.9328962
20
68.4356657
40
0.1880666
50
286.7251356
51
320.600362
0
ARC
8
DEFAULT_255_1_234
10
23.8945787
20
68.4667595
40
0.2374121
50
320.6712579
51
344.5441685
0
ARC
8
DEFAULT_255_1_234
10
23.7789113
20
68.5007045
40
0.3579479
50
344.2412205
51
356.7357071
0
ARC
8
DEFAULT_255_1_234
10
23.6540262
20
68.5110444
40
0.4832297
50
356.3548756
51
0.0500261
0
ARC
8
DEFAULT_255_1_234
10
23.7876771
20
68.514165
40
0.3495889
50
359.5576869
51
12.953486
0
ARC
8
DEFAULT_255_1_234
10
23.8931668
20
68.5397434
40
0.2410532
50
12.6490276
51
41.6081334
0
ARC
8
DEFAULT_255_1_234
10
23.9162039
20
68.5593321
40
0.2108218
50
41.7850273
51
85.9892764
0
ARC
8
DEFAULT_255_1_234
10
23.9038776
20
68.4780462
40
0.2928454
50
84.6957577
51
90.0676183
0
ARC
8
DEFAULT_255_1_234
10
23.901526
20
68.4111716
40
0.3597255
50
89.6804936
51
99.1614436
0
ARC
8
DEFAULT_255_1_234
10
23.8809891
20
68.5339131
40
0.235281
50
98.9830931
51
113.8908934
0
ARC
8
DEFAULT_255_1_234
10
23.8580301
20
68.5880587
40
0.176479
50
114.1950727
51
127.3641004
0
LINE
8
DEFAULT_255_1_234
10
22.9833137
20
77.2529433
11
22.9833137
21
76.0779
0
LINE
8
DEFAULT_255_1_234
10
22.9833137
20
76.0779
11
22.8339234
21
76.0779
0
LINE
8
DEFAULT_255_1_234
10
22.8339234
20
76.0779
11
22.8339234
21
77.0682133
0
LINE
8
DEFAULT_255_1_234
10
22.8339234
20
77.0682133
11
22.5343396
21
76.9581785
0
LINE
8
DEFAULT_255_1_234
10
22.5343396
20
76.9581785
11
22.5343396
21
77.0931117
0
LINE
8
DEFAULT_255_1_234
10
22.5343396
20
77.0931117
11
22.9600217
21
77.2529433
0
LINE
8
DEFAULT_255_1_234
10
22.9600217
20
77.2529433
11
22.9833137
21
77.2529433
0
LINE
8
DEFAULT_255_1_234
10
24.0459127
20
77.2473211
11
24.0459127
21
76.470652
0
LINE
8
DEFAULT_255_1_234
10
24.0459127
20
76.470652
11
24.2081538
21
76.470652
0
LINE
8
DEFAULT_255_1_234
10
24.2081538
20
76.470652
11
24.2081538
21
76.3493728
0
LINE
8
DEFAULT_255_1_234
10
24.2081538
20
76.3493728
11
24.0459127
21
76.3493728
0
LINE
8
DEFAULT_255_1_234
10
24.0459127
20
76.3493728
11
24.0459127
21
76.0779
0
LINE
8
DEFAULT_255_1_234
10
24.0459127
20
76.0779
11
23.8965224
21
76.0779
0
LINE
8
DEFAULT_255_1_234
10
23.8965224
20
76.0779
11
23.8965224
21
76.3493728
0
LINE
8
DEFAULT_255_1_234
10
23.8965224
20
76.3493728
11
23.3640181
21
76.3493728
0
LINE
8
DEFAULT_255_1_234
10
23.3640181
20
76.3493728
11
23.3640181
21
76.4369187
0
LINE
8
DEFAULT_255_1_234
10
23.3640181
20
76.4369187
11
23.8876875
21
77.2473211
0
LINE
8
DEFAULT_255_1_234
10
23.8876875
20
77.2473211
11
24.0459127
21
77.2473211
0
LINE
8
DEFAULT_255_1_234
10
23.8788525
20
77.0119912
11
23.5326846
21
76.470652
0
LINE
8
DEFAULT_255_1_234
10
23.5326846
20
76.470652
11
23.8965224
21
76.470652
0
LINE
8
DEFAULT_255_1_234
10
23.8965224
20
76.470652
11
23.8965224
21
77.0441181
0
LINE
8
DEFAULT_255_1_234
10
23.8965224
20
77.0441181
11
23.8788525
21
77.0119912
0
LINE
8
DEFAULT_255_1_234
10
23.0891137
20
85.1904433
11
23.0891137
21
84.0154
0
LINE
8
DEFAULT_255_1_234
10
23.0891137
20
84.0154
11
22.9397234
21
84.0154
0
LINE
8
DEFAULT_255_1_234
10
22.9397234
20
84.0154
11
22.9397234
21
85.0057133
0
LINE
8
DEFAULT_255_1_234
10
22.9397234
20
85.0057133
11
22.6401396
21
84.8956785
0
LINE
8
DEFAULT_255_1_234
10
22.6401396
20
84.8956785
11
22.6401396
21
85.0306117
0
LINE
8
DEFAULT_255_1_234
10
22.6401396
20
85.0306117
11
23.0658217
21
85.1904433
0
LINE
8
DEFAULT_255_1_234
10
23.0658217
20
85.1904433
11
23.0891137
21
85.1904433
0
LINE
8
DEFAULT_255_1_234
10
23.7404877
20
84.5511169
11
23.7404877
21
84.6723962
0
LINE
8
DEFAULT_255_1_234
10
23.7404877
20
84.6723962
11
23.8521289
21
84.6723962
0
LINE
8
DEFAULT_255_1_234
10
23.6617767
20
84.8780087
11
23.5131895
21
84.8780087
0
LINE
8
DEFAULT_255_1_234
10
23.5027482
20
84.3238188
11
23.6521386
21
84.3238188
0
LINE
8
DEFAULT_255_1_234
10
23.8521289
20
84.5511169
11
23.7404877
21
84.5511169
0
ARC
8
DEFAULT_255_1_234
10
23.8492155
20
85.0116713
40
0.3392876
50
270.4919872
51
281.8951556
0
ARC
8
DEFAULT_255_1_234
10
23.8733417
20
84.9014702
40
0.2264817
50
281.6691735
51
301.2943132
0
ARC
8
DEFAULT_255_1_234
10
23.8903627
20
84.8703304
40
0.1910381
50
301.7833094
51
311.7545298
0
ARC
8
DEFAULT_255_1_234
10
23.8995203
20
84.8601748
40
0.1773635
50
311.7323931
51
354.2802411
0
ARC
8
DEFAULT_255_1_234
10
23.8268828
20
84.8726722
40
0.2509385
50
353.0937916
51
0.1181479
0
ARC
8
DEFAULT_255_1_234
10
23.7807613
20
84.8774386
40
0.2970898
50
359.1805295
51
15.0453146
0
ARC
8
DEFAULT_255_1_234
10
23.915345
20
84.9166992
40
0.1569564
50
13.9577229
51
77.6713066
0
ARC
8
DEFAULT_255_1_234
10
23.8766979
20
84.7781949
40
0.3006298
50
76.1116566
51
90.7026153
0
ARC
8
DEFAULT_255_1_234
10
23.8707817
20
84.8055545
40
0.2732568
50
89.5324876
51
103.531937
0
ARC
8
DEFAULT_255_1_234
10
23.8507261
20
84.8854884
40
0.1908508
50
103.2931773
51
133.5619022
0
ARC
8
DEFAULT_255_1_234
10
23.846275
20
84.8914375
40
0.1834746
50
133.8349307
51
173.5344437
0
ARC
8
DEFAULT_255_1_234
10
23.9185793
20
84.8786213
40
0.2568033
50
172.5096846
51
180.1366907
0
ARC
8
DEFAULT_255_1_234
10
23.8234687
20
84.8820622
40
0.3103056
50
155.3484492
51
180.7484736
0
ARC
8
DEFAULT_255_1_234
10
23.8185776
20
84.8791846
40
0.3070957
50
131.5744599
51
154.4798489
0
ARC
8
DEFAULT_255_1_234
10
23.8498923
20
84.847531
40
0.3515643
50
96.9875458
51
131.9690667
0
ARC
8
DEFAULT_255_1_234
10
23.8718403
20
84.7229636
40
0.4779224
50
89.8596053
51
97.7825159
0
ARC
8
DEFAULT_255_1_234
10
23.8766466
20
84.6967616
40
0.5041361
50
78.3655447
51
90.4131539
0
ARC
8
DEFAULT_255_1_234
10
23.9124384
20
84.8626887
40
0.3344039
50
56.6229102
51
78.638727
0
ARC
8
DEFAULT_255_1_234
10
23.9339328
20
84.9002805
40
0.2912001
50
47.0253525
51
56.0854072
0
ARC
8
DEFAULT_255_1_234
10
23.9359108
20
84.9042223
40
0.2869704
50
10.9208013
51
46.7778124
0
ARC
8
DEFAULT_255_1_234
10
23.7995174
20
84.8726857
40
0.426899
50
359.6364486
51
11.6087304
0
ARC
8
DEFAULT_255_1_234
10
23.9830018
20
84.8711752
40
0.243409
50
332.3549906
51
359.7179418
0
ARC
8
DEFAULT_255_1_234
10
23.917962
20
84.9020142
40
0.3153459
50
325.2333722
51
332.8745602
0
ARC
8
DEFAULT_255_1_234
10
23.9332244
20
84.8913828
40
0.2967456
50
292.9802137
51
325.2392345
0
ARC
8
DEFAULT_255_1_234
10
23.9057617
20
84.9447863
40
0.3566604
50
292.5402179
51
293.6924929
0
ARC
8
DEFAULT_255_1_234
10
23.9450213
20
84.2993091
40
0.3307468
50
57.6435486
51
72.8625112
0
ARC
8
DEFAULT_255_1_234
10
23.9804713
20
84.3567549
40
0.2632492
50
36.7248896
51
57.4697979
0
ARC
8
DEFAULT_255_1_234
10
23.9793346
20
84.358022
40
0.2634081
50
8.0545065
51
36.356114
0
ARC
8
DEFAULT_255_1_234
10
23.8930531
20
84.3425174
40
0.3510261
50
359.8320645
51
8.5869982
0
ARC
8
DEFAULT_255_1_234
10
23.8555307
20
84.3377101
40
0.3885653
50
343.9829931
51
0.5571613
0
ARC
8
DEFAULT_255_1_234
10
23.9441504
20
84.3134438
40
0.2966924
50
311.6359546
51
343.7651759
0
ARC
8
DEFAULT_255_1_234
10
23.9063074
20
84.3561102
40
0.3537231
50
279.7829875
51
311.6255694
0
ARC
8
DEFAULT_255_1_234
10
23.876185
20
84.499828
40
0.5004971
50
269.7286406
51
280.3856417
0
ARC
8
DEFAULT_255_1_234
10
23.8699922
20
84.4956996
40
0.4963778
50
256.6828919
51
270.4412052
0
ARC
8
DEFAULT_255_1_234
10
23.8361218
20
84.3572394
40
0.3538406
50
229.4223008
51
256.8556159
0
ARC
8
DEFAULT_255_1_234
10
23.7946611
20
84.3105736
40
0.2914296
50
181.818294
51
229.6455059
0
ARC
8
DEFAULT_255_1_234
10
23.8986567
20
84.3236496
40
0.3959084
50
179.9755256
51
183.2323064
0
ARC
8
DEFAULT_255_1_234
10
23.8814313
20
84.3216037
40
0.2293034
50
179.4465117
51
196.2869258
0
ARC
8
DEFAULT_255_1_234
10
23.8326721
20
84.3082651
40
0.1787621
50
196.5661473
51
227.705904
0
ARC
8
DEFAULT_255_1_234
10
23.8490816
20
84.3266155
40
0.2033784
50
227.7652068
51
257.8762805
0
ARC
8
DEFAULT_255_1_234
10
23.8715786
20
84.4209156
40
0.3003081
50
257.4584385
51
270.426602
0
ARC
8
DEFAULT_255_1_234
10
23.8761352
20
84.4498996
40
0.329292
50
269.5962073
51
280.8789248
0
ARC
8
DEFAULT_255_1_234
10
23.8990881
20
84.3352685
40
0.2123908
50
280.6346389
51
299.8595945
0
ARC
8
DEFAULT_255_1_234
10
23.9181788
20
84.2990212
40
0.171457
50
300.3576302
51
314.5517981
0
ARC
8
DEFAULT_255_1_234
10
23.9098848
20
84.3050919
40
0.1816095
50
315.0728369
51
345.0431014
0
ARC
8
DEFAULT_255_1_234
10
23.8175662
20
84.3319841
40
0.2777492
50
344.5986631
51
357.9269593
0
ARC
8
DEFAULT_255_1_234
10
23.7279989
20
84.3381276
40
0.3674917
50
357.4748886
51
0.0231117
0
ARC
8
DEFAULT_255_1_234
10
23.8303098
20
84.3405679
40
0.2651907
50
359.5047933
51
13.4239635
0
ARC
8
DEFAULT_255_1_234
10
23.9169741
20
84.3627478
40
0.1757509
50
12.9498199
51
48.7551375
0
ARC
8
DEFAULT_255_1_234
10
23.8987475
20
84.33784
40
0.2065134
50
49.5088623
51
72.1836453
0
ARC
8
DEFAULT_255_1_234
10
23.8629628
20
84.2316291
40
0.3185836
50
71.9010081
51
84.3554254
0
ARC
8
DEFAULT_255_1_234
10
23.846826
20
84.0955326
40
0.4556151
50
84.0193428
51
89.333121
0
LINE
8
DEFAULT_255_1_234
10
23.0891137
20
93.1279433
11
23.0891137
21
91.9529
0
LINE
8
DEFAULT_255_1_234
10
23.0891137
20
91.9529
11
22.9397234
21
91.9529
0
LINE
8
DEFAULT_255_1_234
10
22.9397234
20
91.9529
11
22.9397234
21
92.9432133
0
LINE
8
DEFAULT_255_1_234
10
22.9397234
20
92.9432133
11
22.6401396
21
92.8331785
0
LINE
8
DEFAULT_255_1_234
10
22.6401396
20
92.8331785
11
22.6401396
21
92.9681117
0
LINE
8
DEFAULT_255_1_234
10
22.6401396
20
92.9681117
11
23.0658217
21
93.1279433
0
LINE
8
DEFAULT_255_1_234
10
23.0658217
20
93.1279433
11
23.0891137
21
93.1279433
0
LINE
8
DEFAULT_255_1_234
10
24.2906618
20
92.0741792
11
24.2906618
21
91.9529
0
LINE
8
DEFAULT_255_1_234
10
24.2906618
20
91.9529
11
23.5244339
21
91.9529
0
LINE
8
DEFAULT_255_1_234
10
23.5244339
20
91.9529
11
23.5244339
21
92.0597221
0
LINE
8
DEFAULT_255_1_234
10
23.5244339
20
92.0597221
11
23.9292335
21
92.5094995
0
LINE
8
DEFAULT_255_1_234
10
23.6505322
20
92.7777595
11
23.5019451
21
92.7777595
0
LINE
8
DEFAULT_255_1_234
10
24.0167795
20
92.4139218
11
23.7035417
21
92.0741792
0
LINE
8
DEFAULT_255_1_234
10
23.7035417
20
92.0741792
11
24.2906618
21
92.0741792
0
ARC
8
DEFAULT_255_1_234
10
22.5802169
20
93.7024527
40
1.8008286
50
318.5132453
51
320.7828378
0
ARC
8
DEFAULT_255_1_234
10
23.1089143
20
93.2721426
40
1.1191493
50
320.7372736
51
323.9737074
0
ARC
8
DEFAULT_255_1_234
10
23.5009
20
92.9881361
40
0.6350923
50
323.8961724
51
328.6421089
0
ARC
8
DEFAULT_255_1_234
10
23.7055595
20
92.8619031
40
0.3946393
50
328.8299013
51
331.789948
0
ARC
8
DEFAULT_255_1_234
10
23.8052774
20
92.8104509
40
0.2824501
50
331.4255242
51
352.9364833
0
ARC
8
DEFAULT_255_1_234
10
23.8189274
20
92.8073976
40
0.2685315
50
353.2248685
51
0.0169286
0
ARC
8
DEFAULT_255_1_234
10
23.8399151
20
92.809695
40
0.2475536
50
359.4866256
51
15.9339782
0
ARC
8
DEFAULT_255_1_234
10
23.8906136
20
92.8233286
40
0.1950618
50
16.1714718
51
43.5284424
0
ARC
8
DEFAULT_255_1_234
10
23.8983445
20
92.8310573
40
0.184134
50
43.4415429
51
83.1661404
0
ARC
8
DEFAULT_255_1_234
10
23.8849363
20
92.7573771
40
0.258926
50
82.160215
51
90.1505798
0
ARC
8
DEFAULT_255_1_234
10
23.881779
20
92.7036865
40
0.3126255
50
89.5460705
51
102.5418777
0
ARC
8
DEFAULT_255_1_234
10
23.8574876
20
92.8067665
40
0.2067346
50
102.1739365
51
129.2061916
0
ARC
8
DEFAULT_255_1_234
10
23.8495948
20
92.8192094
40
0.1921118
50
129.7279328
51
135.7542026
0
ARC
8
DEFAULT_255_1_234
10
23.8617476
20
92.8095045
40
0.2075944
50
136.175737
51
166.3674722
0
ARC
8
DEFAULT_255_1_234
10
23.9624395
20
92.7825182
40
0.3118201
50
165.9092917
51
178.8683903
0
ARC
8
DEFAULT_255_1_234
10
24.0489256
20
92.7778179
40
0.3983935
50
178.438168
51
180.0083905
0
ARC
8
DEFAULT_255_1_234
10
23.9087859
20
92.7817231
40
0.4068601
50
163.2878735
51
180.5581814
0
ARC
8
DEFAULT_255_1_234
10
23.828612
20
92.803784
40
0.3237344
50
133.454115
51
162.9470031
0
ARC
8
DEFAULT_255_1_234
10
23.8464661
20
92.7848
40
0.349795
50
100.7869394
51
133.4384016
0
ARC
8
DEFAULT_255_1_234
10
23.8812433
20
92.6299319
40
0.5084616
50
89.6605301
51
101.3704185
0
ARC
8
DEFAULT_255_1_234
10
23.8878772
20
92.6360496
40
0.502348
50
78.2171172
51
90.4130393
0
ARC
8
DEFAULT_255_1_234
10
23.923385
20
92.7984637
40
0.3361092
50
55.9268222
51
78.4888551
0
ARC
8
DEFAULT_255_1_234
10
23.943029
20
92.8323324
40
0.2970617
50
47.9292255
51
55.4054003
0
ARC
8
DEFAULT_255_1_234
10
23.9531851
20
92.8426502
40
0.2825983
50
4.3347696
51
48.0560701
0
ARC
8
DEFAULT_255_1_234
10
23.8436244
20
92.8256601
40
0.393225
50
359.925209
51
5.5967654
0
ARC
8
DEFAULT_255_1_234
10
23.8865136
20
92.8312816
40
0.3503892
50
337.8914096
51
358.9967724
0
ARC
8
DEFAULT_255_1_234
10
23.6151548
20
92.9359706
40
0.6412172
50
326.9135351
51
338.3505194
0
ARC
8
DEFAULT_255_1_234
10
23.2165852
20
93.1914284
40
1.1146189
50
319.6472867
51
327.095818
0
ARC
8
DEFAULT_255_1_234
10
22.8332855
20
93.5076
40
1.6114559
50
317.2586784
51
319.9046139
0
LINE
8
DEFAULT_255_1_234
10
23.0982137
20
101.0654433
11
23.0982137
21
99.8904
0
LINE
8
DEFAULT_255_1_234
10
23.0982137
20
99.8904
11
22.9488234
21
99.8904
0
LINE
8
DEFAULT_255_1_234
10
22.9488234
20
99.8904
11
22.9488234
21
100.8807133
0
LINE
8
DEFAULT_255_1_234
10
22.9488234
20
100.8807133
11
22.6492396
21
100.7706785
0
LINE
8
DEFAULT_255_1_234
10
22.6492396
20
100.7706785
11
22.6492396
21
100.9056117
0
LINE
8
DEFAULT_255_1_234
10
22.6492396
20
100.9056117
11
23.0749217
21
101.0654433
0
LINE
8
DEFAULT_255_1_234
10
23.0749217
20
101.0654433
11
23.0982137
21
101.0654433
0
LINE
8
DEFAULT_255_1_234
10
24.0218636
20
101.0654433
11
24.0218636
21
99.8904
0
LINE
8
DEFAULT_255_1_234
10
24.0218636
20
99.8904
11
23.8724733
21
99.8904
0
LINE
8
DEFAULT_255_1_234
10
23.8724733
20
99.8904
11
23.8724733
21
100.8807133
0
LINE
8
DEFAULT_255_1_234
10
23.8724733
20
100.8807133
11
23.5728895
21
100.7706785
0
LINE
8
DEFAULT_255_1_234
10
23.5728895
20
100.7706785
11
23.5728895
21
100.9056117
0
LINE
8
DEFAULT_255_1_234
10
23.5728895
20
100.9056117
11
23.9985716
21
101.0654433
0
LINE
8
DEFAULT_255_1_234
10
23.9985716
20
101.0654433
11
24.0218636
21
101.0654433
0
LINE
8
DEFAULT_255_1_234
10
23.0891137
20
109.0029433
11
23.0891137
21
107.8279
0
LINE
8
DEFAULT_255_1_234
10
23.0891137
20
107.8279
11
22.9397234
21
107.8279
0
LINE
8
DEFAULT_255_1_234
10
22.9397234
20
107.8279
11
22.9397234
21
108.8182133
0
LINE
8
DEFAULT_255_1_234
10
22.9397234
20
108.8182133
11
22.6401396
21
108.7081785
0
LINE
8
DEFAULT_255_1_234
10
22.6401396
20
108.7081785
11
22.6401396
21
108.8431117
0
LINE
8
DEFAULT_255_1_234
10
22.6401396
20
108.8431117
11
23.0658217
21
109.0029433
0
LINE
8
DEFAULT_255_1_234
10
23.0658217
20
109.0029433
11
23.0891137
21
109.0029433
0
LINE
8
DEFAULT_255_1_234
10
24.2577316
20
108.5194327
11
24.2577316
21
108.3266709
0
LINE
8
DEFAULT_255_1_234
10
23.5196149
20
108.3065916
11
23.5196149
21
108.5049755
0
LINE
8
DEFAULT_255_1_234
10
24.1091445
20
108.2865123
11
24.1091445
21
108.5298739
0
LINE
8
DEFAULT_255_1_234
10
23.6682021
20
108.5411184
11
23.6682021
21
108.3033789
0
ARC
8
DEFAULT_255_1_234
10
23.0330206
20
108.3217805
40
1.2247208
50
353.8441951
51
0.2287902
0
ARC
8
DEFAULT_255_1_234
10
23.496971
20
108.2699806
40
0.7578929
50
344.4934747
51
353.9765454
0
ARC
8
DEFAULT_255_1_234
10
23.79623
20
108.1848981
40
0.4467846
50
329.2803592
51
344.7472793
0
ARC
8
DEFAULT_255_1_234
10
23.8955125
20
108.1304018
40
0.3336173
50
324.9352394
51
328.6160465
0
ARC
8
DEFAULT_255_1_234
10
23.9332233
20
108.1040427
40
0.2876076
50
280.580143
51
324.9173126
0
ARC
8
DEFAULT_255_1_234
10
23.8931026
20
108.2711099
40
0.4592847
50
269.5977311
51
281.6734359
0
ARC
8
DEFAULT_255_1_234
10
23.8858932
20
108.2591173
40
0.4472986
50
256.6228859
51
270.51044
0
ARC
8
DEFAULT_255_1_234
10
23.8456909
20
108.1042877
40
0.2873874
50
215.8618325
51
257.2788573
0
ARC
8
DEFAULT_255_1_234
10
23.9477941
20
108.1727977
40
0.4102928
50
197.9693508
51
215.2623606
0
ARC
8
DEFAULT_255_1_234
10
24.1963057
20
108.2566709
40
0.6725652
50
187.8816417
51
198.2346507
0
ARC
8
DEFAULT_255_1_234
10
24.5921265
20
108.3138079
40
1.0724845
50
180.8976217
51
188.0055519
0
ARC
8
DEFAULT_255_1_234
10
24.8721453
20
108.3241777
40
1.3526448
50
180.7449369
51
181.1510016
0
ARC
8
DEFAULT_255_1_234
10
24.7144182
20
108.5098042
40
1.1948131
50
173.7675579
51
180.231553
0
ARC
8
DEFAULT_255_1_234
10
24.2626329
20
108.5608666
40
0.7401564
50
164.3058563
51
173.9002247
0
ARC
8
DEFAULT_255_1_234
10
23.9714398
20
108.6447656
40
0.4371288
50
148.7922025
51
164.568378
0
ARC
8
DEFAULT_255_1_234
10
23.876285
20
108.6978929
40
0.3282386
50
144.5883898
51
148.1176286
0
ARC
8
DEFAULT_255_1_234
10
23.8419748
20
108.7218315
40
0.2864044
50
101.6440918
51
144.514236
0
ARC
8
DEFAULT_255_1_234
10
23.8844814
20
108.5529069
40
0.4604934
50
89.5284041
51
102.5819763
0
ARC
8
DEFAULT_255_1_234
10
23.8923902
20
108.5490018
40
0.464401
50
77.0437873
51
90.5081339
0
ARC
8
DEFAULT_255_1_234
10
23.9325904
20
108.7132615
40
0.2953195
50
48.2778575
51
77.4994676
0
ARC
8
DEFAULT_255_1_234
10
23.9398535
20
108.7261746
40
0.2808655
50
36.3142134
51
47.6305865
0
ARC
8
DEFAULT_255_1_234
10
23.8529842
20
108.6676515
40
0.3855453
50
18.2931786
51
35.6769206
0
ARC
8
DEFAULT_255_1_234
10
23.5986601
20
108.5803593
40
0.654423
50
8.024666
51
18.5605216
0
ARC
8
DEFAULT_255_1_234
10
23.1823521
20
108.5188792
40
1.0752407
50
1.1274072
51
8.1718305
0
ARC
8
DEFAULT_255_1_234
10
22.8587712
20
108.5061885
40
1.3990231
50
0.5424119
51
1.3863029
0
ARC
8
DEFAULT_255_1_234
10
23.0409089
20
108.5334342
40
1.0682415
50
359.8090433
51
4.9407866
0
ARC
8
DEFAULT_255_1_234
10
23.4619103
20
108.5710113
40
0.6455691
50
4.8362157
51
12.2904523
0
ARC
8
DEFAULT_255_1_234
10
23.7374218
20
108.6323965
40
0.3633074
50
12.0805627
51
23.8173984
0
ARC
8
DEFAULT_255_1_234
10
23.8547924
20
108.6820919
40
0.2358723
50
24.2871213
51
31.3935614
0
ARC
8
DEFAULT_255_1_234
10
23.9072621
20
108.7164233
40
0.1732111
50
30.7407893
51
82.4657128
0
ARC
8
DEFAULT_255_1_234
10
23.8892755
20
108.6280691
40
0.263235
50
81.1060089
51
90.2184952
0
ARC
8
DEFAULT_255_1_234
10
23.8857054
20
108.6538924
40
0.2374236
50
89.3806855
51
105.6762551
0
ARC
8
DEFAULT_255_1_234
10
23.8673685
20
108.7205567
40
0.1682847
50
105.7981136
51
149.7388061
0
ARC
8
DEFAULT_255_1_234
10
23.9737763
20
108.656595
40
0.2924306
50
149.4208916
51
163.6286378
0
ARC
8
DEFAULT_255_1_234
10
24.1828651
20
108.592825
40
0.5110213
50
163.3763315
51
172.1410975
0
ARC
8
DEFAULT_255_1_234
10
24.512937
20
108.5455518
40
0.8444586
50
172.0259487
51
178.0703232
0
ARC
8
DEFAULT_255_1_234
10
24.815946
20
108.5311906
40
1.1477868
50
177.8631668
51
179.5044149
0
ARC
8
DEFAULT_255_1_234
10
24.7086864
20
108.2997389
40
1.0404907
50
179.7995573
51
185.2460446
0
ARC
8
DEFAULT_255_1_234
10
24.3043903
20
108.2614513
40
0.6343885
50
185.1411642
51
193.0079639
0
ARC
8
DEFAULT_255_1_234
10
24.0400376
20
108.1989641
40
0.3627568
50
192.7897626
51
205.2507664
0
ARC
8
DEFAULT_255_1_234
10
23.9353923
20
108.1522415
40
0.2481908
50
205.8005384
51
211.2537509
0
ARC
8
DEFAULT_255_1_234
10
23.8830363
20
108.117158
40
0.1852521
50
210.3789793
51
238.4008143
0
ARC
8
DEFAULT_255_1_234
10
23.8810885
20
108.1218376
40
0.1882621
50
239.6520629
51
265.9793761
0
ARC
8
DEFAULT_255_1_234
10
23.8896085
20
108.1890427
40
0.2559272
50
265.1315437
51
270.060332
0
ARC
8
DEFAULT_255_1_234
10
23.8924864
20
108.1566534
40
0.2235528
50
269.3314664
51
287.2178029
0
ARC
8
DEFAULT_255_1_234
10
23.9062716
20
108.1063279
40
0.1714108
50
287.7958004
51
329.080874
0
ARC
8
DEFAULT_255_1_234
10
23.8105173
20
108.166093
40
0.2842745
50
328.6634704
51
343.3325132
0
ARC
8
DEFAULT_255_1_234
10
23.5932193
20
108.2337863
40
0.5118644
50
343.0499468
51
351.9393422
0
ARC
8
DEFAULT_255_1_234
10
23.2465493
20
108.2848949
40
0.8622784
50
351.8069023
51
357.7959224
0
ARC
8
DEFAULT_255_1_234
10
22.9230049
20
108.3016721
40
1.1862365
50
357.5871873
51
359.2677531
0
LINE
8
DEFAULT_255_1_234
10
24.2994246
20
116.4673739
11
24.2994246
21
116.4240025
0
LINE
8
DEFAULT_255_1_234
10
23.7572823
20
115.7645968
11
23.728368
21
115.7645968
0
LINE
8
DEFAULT_255_1_234
10
23.728368
20
115.7645968
11
23.728368
21
115.8898919
0
LINE
8
DEFAULT_255_1_234
10
23.728368
20
115.8898919
11
23.7596918
21
115.8898919
0
LINE
8
DEFAULT_255_1_234
10
24.1508375
20
116.4384597
11
24.1508375
21
116.4978945
0
ARC
8
DEFAULT_255_1_234
10
23.8714644
20
116.5130403
40
0.3635579
50
297.4037347
51
320.016758
0
ARC
8
DEFAULT_255_1_234
10
23.9004593
20
116.457324
40
0.3007486
50
270.2633101
51
297.3851877
0
ARC
8
DEFAULT_255_1_234
10
23.8970549
20
116.5036904
40
0.3471448
50
269.9966443
51
270.7900392
0
ARC
8
DEFAULT_255_1_234
10
23.894503
20
116.5035143
40
0.3469779
50
254.5999133
51
270.4180344
0
ARC
8
DEFAULT_255_1_234
10
23.8802389
20
116.4470647
40
0.2887697
50
236.4717942
51
254.3541279
0
ARC
8
DEFAULT_255_1_234
10
23.8958607
20
116.4680711
40
0.3149125
50
208.4727207
51
236.2134933
0
ARC
8
DEFAULT_255_1_234
10
23.9597382
20
116.5071455
40
0.3897115
50
204.3447514
51
209.0453999
0
ARC
8
DEFAULT_255_1_234
10
24.0276958
20
116.5359656
40
0.4635101
50
183.9375985
51
204.1276318
0
ARC
8
DEFAULT_255_1_234
10
24.1185209
20
116.5457482
40
0.5548037
50
179.9652252
51
184.3013875
0
ARC
8
DEFAULT_255_1_234
10
24.0945255
20
116.5490507
40
0.5308164
50
166.7585989
51
180.3201225
0
ARC
8
DEFAULT_255_1_234
10
24.0098869
20
116.5674488
40
0.4442163
50
154.6955053
51
166.5679793
0
ARC
8
DEFAULT_255_1_234
10
23.9245739
20
116.610421
40
0.3487299
50
136.3324195
51
155.0871442
0
ARC
8
DEFAULT_255_1_234
10
23.8964812
20
116.6344954
40
0.3117924
50
121.236733
51
135.9680508
0
ARC
8
DEFAULT_255_1_234
10
23.910531
20
116.6084743
40
0.3413302
50
96.845628
51
120.9881519
0
ARC
8
DEFAULT_255_1_234
10
23.9250892
20
116.5149515
40
0.4359341
50
89.8870174
51
97.2802754
0
ARC
8
DEFAULT_255_1_234
10
23.930333
20
116.5787095
40
0.3722009
50
70.6505584
51
90.6749113
0
ARC
8
DEFAULT_255_1_234
10
23.9434609
20
116.6300361
40
0.3194571
50
36.7492984
51
69.8219918
0
ARC
8
DEFAULT_255_1_234
10
23.8435774
20
116.5521993
40
0.4460685
50
15.39587
51
37.0840084
0
ARC
8
DEFAULT_255_1_234
10
23.6306207
20
116.4901242
40
0.6678714
50
3.9488873
51
15.6798563
0
ARC
8
DEFAULT_255_1_234
10
23.3904835
20
116.4684964
40
0.9089418
50
359.929245
51
4.2665314
0
ARC
8
DEFAULT_255_1_234
10
22.9299272
20
116.4173513
40
1.3695135
50
352.8366322
51
0.2782669
0
ARC
8
DEFAULT_255_1_234
10
23.4586951
20
116.3486629
40
0.8363105
50
341.8359505
51
352.9884176
0
ARC
8
DEFAULT_255_1_234
10
23.780567
20
116.24017
40
0.4966642
50
322.8578092
51
342.1527901
0
ARC
8
DEFAULT_255_1_234
10
23.8669626
20
116.1812384
40
0.3922466
50
319.334325
51
322.0998941
0
ARC
8
DEFAULT_255_1_234
10
23.8359963
20
116.2123209
40
0.4360033
50
285.9541367
51
318.8878087
0
ARC
8
DEFAULT_255_1_234
10
23.7633224
20
116.44336
40
0.678149
50
272.9281676
51
286.4922826
0
ARC
8
DEFAULT_255_1_234
10
23.7443342
20
116.6684587
40
0.9039547
50
270.8207226
51
273.4012994
0
ARC
8
DEFAULT_255_1_234
10
23.7532193
20
116.4865666
40
0.5967098
50
270.6214993
51
281.4062806
0
ARC
8
DEFAULT_255_1_234
10
23.7962174
20
116.2809833
40
0.3866861
50
281.1852553
51
299.0621114
0
ARC
8
DEFAULT_255_1_234
10
23.8335745
20
116.2088798
40
0.3055236
50
299.5067782
51
313.1200873
0
ARC
8
DEFAULT_255_1_234
10
23.8357712
20
116.2009554
40
0.2982623
50
313.8526205
51
338.5989322
0
ARC
8
DEFAULT_255_1_234
10
23.6733786
20
116.2676781
40
0.4738131
50
338.2523585
51
351.2430902
0
ARC
8
DEFAULT_255_1_234
10
23.4323082
20
116.3086447
40
0.7183203
50
350.9409515
51
357.6691871
0
ARC
8
DEFAULT_255_1_234
10
23.9213512
20
116.5088764
40
0.2294452
50
269.9447023
51
306.8248917
0
ARC
8
DEFAULT_255_1_234
10
23.8976427
20
116.5511898
40
0.2775994
50
305.5072438
51
327.0773448
0
ARC
8
DEFAULT_255_1_234
10
23.9094868
20
116.5417025
40
0.2625056
50
327.4104943
51
336.840169
0
ARC
8
DEFAULT_255_1_234
10
23.6000933
20
116.5011302
40
0.5507537
50
359.6633817
51
10.117533
0
ARC
8
DEFAULT_255_1_234
10
23.7754731
20
116.5335777
40
0.372403
50
9.9430141
51
26.7700076
0
ARC
8
DEFAULT_255_1_234
10
23.8351943
20
116.5611187
40
0.3066865
50
27.2015464
51
34.6829435
0
ARC
8
DEFAULT_255_1_234
10
23.8841423
20
116.5978977
40
0.245519
50
34.1250343
51
50.3070065
0
ARC
8
DEFAULT_255_1_234
10
23.9288103
20
116.6513385
40
0.1758693
50
50.3851167
51
90.6705993
0
ARC
8
DEFAULT_255_1_234
10
23.9241336
20
116.6208799
40
0.2063326
50
89.272901
51
111.9140407
0
ARC
8
DEFAULT_255_1_234
10
23.9221864
20
116.634944
40
0.1925887
50
112.9382311
51
142.5320782
0
ARC
8
DEFAULT_255_1_234
10
23.9768044
20
116.5905969
40
0.2629232
50
142.1021256
51
166.3835592
0
ARC
8
DEFAULT_255_1_234
10
24.0949349
20
116.5600915
40
0.3849193
50
166.1100289
51
178.665427
0
ARC
8
DEFAULT_255_1_234
10
24.1996938
20
116.5542117
40
0.4897989
50
178.2632126
51
180.0111093
0
ARC
8
DEFAULT_255_1_234
10
24.1195059
20
116.5513728
40
0.40962
50
179.6161962
51
191.8787166
0
ARC
8
DEFAULT_255_1_234
10
23.9974898
20
116.5243896
40
0.2846655
50
191.6191692
51
215.2972286
0
ARC
8
DEFAULT_255_1_234
10
23.9778089
20
116.5128918
40
0.2619665
50
215.7320102
51
216.5355409
0
ARC
8
DEFAULT_255_1_234
10
23.9239175
20
116.4696647
40
0.1929497
50
215.7486685
51
239.9727502
0
ARC
8
DEFAULT_255_1_234
10
23.9169091
20
116.4645894
40
0.1850822
50
241.0650169
51
269.2810483
0
ARC
8
DEFAULT_255_1_234
10
23.9211006
20
116.5136371
40
0.2342059
50
268.4062526
51
270.0071348
0
ARC
8
DEFAULT_255_1_234
10
24.0075624
20
124.5645703
40
0.2822356
50
338.8763615
51
0.5166041
0
ARC
8
DEFAULT_255_1_234
10
24.0244278
20
124.5600208
40
0.2648703
50
325.8412414
51
338.4795939
0
ARC
8
DEFAULT_255_1_234
10
23.9853646
20
124.5871042
40
0.3124019
50
296.7586019
51
325.753654
0
ARC
8
DEFAULT_255_1_234
10
23.9565754
20
124.6355789
40
0.368668
50
296.0902311
51
297.3618122
0
ARC
8
DEFAULT_255_1_234
10
23.9823212
20
123.9801041
40
0.3518806
50
47.9009248
51
67.1946869
0
ARC
8
DEFAULT_255_1_234
10
24.0019454
20
124.0047395
40
0.320451
50
35.236241
51
47.551371
0
ARC
8
DEFAULT_255_1_234
10
24.0281072
20
124.0221993
40
0.2890103
50
359.2759738
51
35.4014081
0
ARC
8
DEFAULT_255_1_234
10
23.9536103
20
124.0148826
40
0.3635026
50
343.1294516
51
0.5776525
0
ARC
8
DEFAULT_255_1_234
10
24.0260648
20
123.994933
40
0.2883832
50
310.8497458
51
342.744803
0
ARC
8
DEFAULT_255_1_234
10
23.9842761
20
124.0426294
40
0.3517954
50
281.5473923
51
310.9169905
0
ARC
8
DEFAULT_255_1_234
10
23.948621
20
124.1979084
40
0.5110832
50
269.6192722
51
281.9789957
0
ARC
8
DEFAULT_255_1_234
10
23.9414
20
124.1979828
40
0.5111606
50
257.4584469
51
270.4287458
0
ARC
8
DEFAULT_255_1_234
10
23.9033143
20
124.0376344
40
0.3463762
50
228.7553743
51
257.8484423
0
ARC
8
DEFAULT_255_1_234
10
23.8723341
20
124.0003442
40
0.297916
50
184.0104442
51
228.5071787
0
ARC
8
DEFAULT_255_1_234
10
23.9886285
20
124.0180512
40
0.4152734
50
179.9315461
51
185.3254504
0
ARC
8
DEFAULT_255_1_234
10
23.8709931
20
124.0217992
40
0.2976554
50
145.6795913
51
180.6259649
0
ARC
8
DEFAULT_255_1_234
10
23.887328
20
124.0103929
40
0.3175776
50
115.5537925
51
145.6416199
0
ARC
8
DEFAULT_255_1_234
10
23.921421
20
123.9493028
40
0.3874232
50
113.2437915
51
116.2054627
0
ARC
8
DEFAULT_255_1_234
10
23.9061423
20
124.589158
40
0.3154751
50
222.9548379
51
244.1372485
0
ARC
8
DEFAULT_255_1_234
10
23.8939498
20
124.5754834
40
0.2972382
50
213.3439227
51
222.6271327
0
ARC
8
DEFAULT_255_1_234
10
23.8747433
20
124.5624308
40
0.274019
50
180.4316517
51
213.2713999
0
ARC
8
DEFAULT_255_1_234
10
23.9322434
20
124.567111
40
0.33158
50
179.9992944
51
181.1655061
0
ARC
8
DEFAULT_255_1_234
10
23.9731851
20
124.5705561
40
0.3725376
50
164.6186108
51
180.5292368
0
ARC
8
DEFAULT_255_1_234
10
23.8833714
20
124.5947101
40
0.2795349
50
132.2454369
51
164.5092287
0
ARC
8
DEFAULT_255_1_234
10
23.9120818
20
124.5622028
40
0.3229019
50
100.7052766
51
132.1387266
0
ARC
8
DEFAULT_255_1_234
10
23.942579
20
124.4244086
40
0.4639835
50
89.6732617
51
101.2449487
0
ARC
8
DEFAULT_255_1_234
10
23.9487988
20
124.441899
40
0.4464999
50
76.2876631
51
90.4586123
0
ARC
8
DEFAULT_255_1_234
10
23.979422
20
124.564122
40
0.3205023
50
47.8240157
51
76.4266918
0
ARC
8
DEFAULT_255_1_234
10
24.001677
20
124.590159
40
0.2862661
50
6.9168658
51
47.6261438
0
ARC
8
DEFAULT_255_1_234
10
23.8830173
20
124.568237
40
0.4067708
50
359.8419705
51
7.9694496
0
ARC
8
DEFAULT_255_1_234
10
23.917207
20
124.0241925
40
0.2513121
50
359.4454068
51
16.9256425
0
ARC
8
DEFAULT_255_1_234
10
23.9640881
20
124.0371033
40
0.2027071
50
17.292259
51
45.462717
0
ARC
8
DEFAULT_255_1_234
10
23.9586817
20
124.0324434
40
0.2098212
50
45.3028762
51
83.1921472
0
ARC
8
DEFAULT_255_1_234
10
23.9443501
20
123.9522895
40
0.2911472
50
82.2614531
51
90.143954
0
ARC
8
DEFAULT_255_1_234
10
23.9412621
20
123.975595
40
0.2678513
50
89.4959189
51
104.8579811
0
ARC
8
DEFAULT_255_1_234
10
23.923588
20
124.042589
40
0.1985654
50
104.8855873
51
135.2448349
0
ARC
8
DEFAULT_255_1_234
10
23.9285653
20
124.0381336
40
0.2052373
50
135.3398955
51
172.104394
0
ARC
8
DEFAULT_255_1_234
10
24.0092711
20
124.0226925
40
0.2873299
50
171.2651929
51
180.1859362
0
ARC
8
DEFAULT_255_1_234
10
23.9923412
20
124.0194733
40
0.2704083
50
179.515471
51
193.6466734
0
ARC
8
DEFAULT_255_1_234
10
23.9107181
20
123.9986777
40
0.1861855
50
193.3540587
51
225.8256931
0
ARC
8
DEFAULT_255_1_234
10
23.9147938
20
124.0057524
40
0.1941102
50
226.418029
51
255.8553723
0
ARC
8
DEFAULT_255_1_234
10
23.9404371
20
124.0993998
40
0.2911917
50
255.4655572
51
268.7985967
0
ARC
8
DEFAULT_255_1_234
10
23.9451563
20
124.1832491
40
0.3751331
50
268.3464808
51
270.0104874
0
ARC
8
DEFAULT_255_1_234
10
23.9474951
20
124.1148138
40
0.3067064
50
269.575914
51
282.0823146
0
ARC
8
DEFAULT_255_1_234
10
23.969986
20
124.0153803
40
0.2047712
50
281.7522535
51
306.6056425
0
ARC
8
DEFAULT_255_1_234
10
23.9798286
20
123.9992487
40
0.1859604
50
307.1350025
51
314.0277951
0
ARC
8
DEFAULT_255_1_234
10
23.976237
20
124.0018766
40
0.1903475
50
314.2553419
51
350.169324
0
ARC
8
DEFAULT_255_1_234
10
23.8910839
20
124.0203409
40
0.2774269
50
349.4145679
51
0.2930737
0
ARC
8
DEFAULT_255_1_234
10
23.9431272
20
124.5362353
40
0.2300764
50
89.477591
51
105.729794
0
ARC
8
DEFAULT_255_1_234
10
23.9295185
20
124.5867637
40
0.1777519
50
105.922966
51
135.1662921
0
ARC
8
DEFAULT_255_1_234
10
23.9315688
20
124.5853419
40
0.1802087
50
135.3053131
51
168.9882338
0
ARC
8
DEFAULT_255_1_234
10
24.014326
20
124.5663721
40
0.2650806
50
168.3802067
51
180.3602358
0
ARC
8
DEFAULT_255_1_234
10
23.991484
20
124.5626041
40
0.2422425
50
179.5029707
51
194.9126783
0
ARC
8
DEFAULT_255_1_234
10
23.9329501
20
124.547211
40
0.1817188
50
194.9722181
51
224.1943972
0
ARC
8
DEFAULT_255_1_234
10
23.9301368
20
124.5449169
40
0.1781027
50
224.2961434
51
262.0157375
0
ARC
8
DEFAULT_255_1_234
10
23.9443611
20
124.6180661
40
0.2525492
50
261.1250369
51
270.1959853
0
ARC
8
DEFAULT_255_1_234
10
23.9473366
20
124.5993339
40
0.233825
50
269.4825617
51
285.0988277
0
ARC
8
DEFAULT_255_1_234
10
23.9627525
20
124.541499
40
0.1739712
50
285.1585659
51
315.9484648
0
ARC
8
DEFAULT_255_1_234
10
23.9538537
20
124.5496886
40
0.1860616
50
316.0412958
51
351.9162715
0
ARC
8
DEFAULT_255_1_234
10
23.8805492
20
124.5638245
40
0.2606517
50
351.1056823
51
0.1936567
0
ARC
8
DEFAULT_255_1_234
10
23.9068321
20
124.5668369
40
0.234377
50
359.4789506
51
16.0679113
0
ARC
8
DEFAULT_255_1_234
10
23.954428
20
124.579681
40
0.1850875
50
16.3251951
51
44.791304
0
ARC
8
DEFAULT_255_1_234
10
23.9526561
20
124.5797339
40
0.186312
50
44.3958661
51
88.2498933
0
ARC
8
DEFAULT_255_1_234
10
23.9453115
20
124.5186154
40
0.2476868
50
86.9833827
51
90.0200148
0
LINE
8
DEFAULT_255_1_234
10
24.3355674
20
132.8098211
11
24.3355674
21
132.726291
0
LINE
8
DEFAULT_255_1_234
10
24.3355674
20
132.726291
11
23.8512536
21
131.6404
0
LINE
8
DEFAULT_255_1_234
10
23.8512536
20
131.6404
11
23.6954379
21
131.6404
0
LINE
8
DEFAULT_255_1_234
10
23.6954379
20
131.6404
11
24.1781454
21
132.6877387
0
LINE
8
DEFAULT_255_1_234
10
24.1781454
20
132.6877387
11
23.5452444
21
132.6877387
0
LINE
8
DEFAULT_255_1_234
10
23.5452444
20
132.6877387
11
23.5452444
21
132.8098211
0
LINE
8
DEFAULT_255_1_234
10
23.5452444
20
132.8098211
11
24.3355674
21
132.8098211
0
LINE
8
DEFAULT_255_1_234
10
24.1371835
20
140.7481243
11
24.1636882
21
140.7481243
0
LINE
8
DEFAULT_255_1_234
10
24.1636882
20
140.7481243
11
24.1636882
21
140.622026
0
LINE
8
DEFAULT_255_1_234
10
24.1636882
20
140.622026
11
24.1363803
21
140.622026
0
LINE
8
DEFAULT_255_1_234
10
23.5894189
20
140.0228583
11
23.5894189
21
140.0798836
0
LINE
8
DEFAULT_255_1_234
10
23.7388093
20
140.0606075
11
23.7388093
21
140.0059917
0
ARC
8
DEFAULT_255_1_234
10
24.1416151
20
140.1222455
40
0.4998079
50
90.6001036
51
104.514704
0
ARC
8
DEFAULT_255_1_234
10
24.1027667
20
140.2667131
40
0.3502176
50
104.2855254
51
133.862935
0
ARC
8
DEFAULT_255_1_234
10
24.1191424
20
140.255883
40
0.3693984
50
134.5302688
51
161.6210873
0
ARC
8
DEFAULT_255_1_234
10
24.2844613
20
140.1975895
40
0.5446739
50
161.2849839
51
174.2076652
0
ARC
8
DEFAULT_255_1_234
10
24.425155
20
140.1781787
40
0.6866274
50
173.7810589
51
174.9254635
0
ARC
8
DEFAULT_255_1_234
10
23.9701382
20
140.0398839
40
0.3033419
50
95.8330959
51
138.9954921
0
ARC
8
DEFAULT_255_1_234
10
23.9924738
20
139.9120375
40
0.4328947
50
89.8753725
51
97.0544009
0
ARC
8
DEFAULT_255_1_234
10
23.9972204
20
139.9955748
40
0.3493769
50
71.6407809
51
90.6240094
0
ARC
8
DEFAULT_255_1_234
10
24.0122777
20
140.0510082
40
0.2920396
50
39.6367836
51
71.019018
0
ARC
8
DEFAULT_255_1_234
10
23.948625
20
139.9959998
40
0.3761538
50
10.658731
51
39.9043955
0
ARC
8
DEFAULT_255_1_234
10
23.7938333
20
139.9623686
40
0.5345136
50
359.682601
51
11.132623
0
ARC
8
DEFAULT_255_1_234
10
23.7898464
20
139.955301
40
0.5385081
50
347.2486944
51
0.4369317
0
ARC
8
DEFAULT_255_1_234
10
23.9565941
20
139.9151807
40
0.3670249
50
318.1409698
51
347.6118597
0
ARC
8
DEFAULT_255_1_234
10
23.9890934
20
139.8884702
40
0.3250007
50
275.6342139
51
317.8248465
0
ARC
8
DEFAULT_255_1_234
10
23.9670045
20
140.0184219
40
0.4565864
50
269.8874292
51
276.7917694
0
ARC
8
DEFAULT_255_1_234
10
23.9615116
20
139.9158743
40
0.3540676
50
246.9140195
51
270.7437342
0
ARC
8
DEFAULT_255_1_234
10
23.9621506
20
139.9016384
40
0.3412781
50
218.1665114
51
245.878116
0
ARC
8
DEFAULT_255_1_234
10
24.0500967
20
139.9752279
40
0.455911
50
191.4115814
51
218.6077802
0
ARC
8
DEFAULT_255_1_234
10
24.2439056
20
140.0186833
40
0.6545001
50
179.6345085
51
191.7836486
0
ARC
8
DEFAULT_255_1_234
10
24.8021393
20
140.0865697
40
1.2127388
50
171.4525249
51
180.3158839
0
ARC
8
DEFAULT_255_1_234
10
24.3626269
20
140.1549608
40
0.7679464
50
157.9802646
51
171.6246686
0
ARC
8
DEFAULT_255_1_234
10
24.141229
20
140.2432421
40
0.5296008
50
141.4298019
51
157.854097
0
ARC
8
DEFAULT_255_1_234
10
24.077061
20
140.2886381
40
0.4511509
50
102.8715806
51
140.8564722
0
ARC
8
DEFAULT_255_1_234
10
24.1418226
20
140.0446552
40
0.7034845
50
90.3778349
51
103.5869322
0
ARC
8
DEFAULT_255_1_234
10
23.9680002
20
139.984173
40
0.2370698
50
89.8751008
51
126.2071704
0
ARC
8
DEFAULT_255_1_234
10
23.9725792
20
139.9687303
40
0.2522934
50
124.9745049
51
144.895901
0
ARC
8
DEFAULT_255_1_234
10
23.9549982
20
139.983056
40
0.2296779
50
145.2974905
51
160.2660252
0
ARC
8
DEFAULT_255_1_234
10
24.2622521
20
140.0028071
40
0.5234525
50
179.6514266
51
190.2855912
0
ARC
8
DEFAULT_255_1_234
10
24.0928658
20
139.9708786
40
0.3510893
50
190.0945431
51
207.5098196
0
ARC
8
DEFAULT_255_1_234
10
24.0362928
20
139.9439623
40
0.288489
50
207.9583163
51
216.3251085
0
ARC
8
DEFAULT_255_1_234
10
24.0023036
20
139.9160105
40
0.2445587
50
215.7661442
51
232.5456785
0
ARC
8
DEFAULT_255_1_234
10
23.9640019
20
139.8673482
40
0.1826382
50
232.8005391
51
270.6605633
0
ARC
8
DEFAULT_255_1_234
10
23.968572
20
139.9037612
40
0.2190529
50
269.35537
51
288.4744281
0
ARC
8
DEFAULT_255_1_234
10
23.9778617
20
139.8688118
40
0.1829749
50
289.1833337
51
322.9683818
0
ARC
8
DEFAULT_255_1_234
10
23.9167139
20
139.9170391
40
0.2608399
50
322.6007884
51
346.5182367
0
ARC
8
DEFAULT_255_1_234
10
23.8009735
20
139.9465616
40
0.3802777
50
346.2582162
51
358.7741648
0
ARC
8
DEFAULT_255_1_234
10
23.6991404
20
139.9520965
40
0.4822176
50
358.3755224
51
0.0098023
0
ARC
8
DEFAULT_255_1_234
10
23.7747591
20
139.9548657
40
0.4066078
50
359.6214041
51
11.2839074
0
ARC
8
DEFAULT_255_1_234
10
23.9024738
20
139.9815066
40
0.2761514
50
11.0482309
51
31.8146458
0
ARC
8
DEFAULT_255_1_234
10
23.9333781
20
139.9982584
40
0.2410679
50
32.3035391
51
38.082671
0
ARC
8
DEFAULT_255_1_234
10
23.9754441
20
140.0363662
40
0.1844966
50
36.825067
51
85.7415724
0
ARC
8
DEFAULT_255_1_234
10
23.9687274
20
139.9863301
40
0.2349122
50
85.0140713
51
90.0513278
0
LINE
8
DEFAULT_255_1_234
10
23.7677235
20
148.0711963
11
23.6488538
21
148.1017169
0
LINE
8
DEFAULT_255_1_234
10
23.6488538
20
148.1017169
11
23.7082887
21
148.6848211
0
LINE
8
DEFAULT_255_1_234
10
23.7082887
20
148.6848211
11
24.3074563
21
148.6848211
0
LINE
8
DEFAULT_255_1_234
10
24.3074563
20
148.6848211
11
24.3074563
21
148.5474784
0
LINE
8
DEFAULT_255_1_234
10
24.3074563
20
148.5474784
11
23.834387
21
148.5474784
0
LINE
8
DEFAULT_255_1_234
10
23.834387
20
148.5474784
11
23.7990473
21
148.2286184
0
LINE
8
DEFAULT_255_1_234
10
23.6070888
20
147.8230156
11
23.7476442
21
147.8230156
0
LINE
8
DEFAULT_255_1_234
10
23.8070791
20
148.1033232
11
23.7677235
21
148.0711963
0
ARC
8
DEFAULT_255_1_234
10
23.9845257
20
147.910623
40
0.3681349
50
93.7182161
51
120.2538958
0
ARC
8
DEFAULT_255_1_234
10
23.993952
20
147.8298394
40
0.449379
50
89.9660152
51
94.2496022
0
ARC
8
DEFAULT_255_1_234
10
23.9980254
20
147.8887549
40
0.390482
50
73.8043271
51
90.5585896
0
ARC
8
DEFAULT_255_1_234
10
24.0215151
20
147.9745602
40
0.3015334
50
41.3071453
51
73.5430202
0
ARC
8
DEFAULT_255_1_234
10
23.9798978
20
147.9387324
40
0.3564457
50
13.5075983
51
41.2174222
0
ARC
8
DEFAULT_255_1_234
10
23.8157182
20
147.8957486
40
0.5261351
50
1.1331335
51
13.8829381
0
ARC
8
DEFAULT_255_1_234
10
23.6745551
20
147.8881665
40
0.6674378
50
359.9919444
51
1.544251
0
ARC
8
DEFAULT_255_1_234
10
23.8022377
20
147.884028
40
0.5397702
50
347.8572367
51
0.4293338
0
ARC
8
DEFAULT_255_1_234
10
23.9772695
20
147.8443736
40
0.3603188
50
323.673004
51
348.1672506
0
ARC
8
DEFAULT_255_1_234
10
24.0067203
20
147.8264168
40
0.3259678
50
316.8171152
51
323.1492751
0
ARC
8
DEFAULT_255_1_234
10
24.0128392
20
147.822746
40
0.3189975
50
281.8396411
51
316.5457803
0
ARC
8
DEFAULT_255_1_234
10
23.9752656
20
147.9782762
40
0.4789527
50
269.5770101
51
282.4214771
0
ARC
8
DEFAULT_255_1_234
10
23.9681467
20
147.9569125
40
0.45759
50
256.2427136
51
270.4486331
0
ARC
8
DEFAULT_255_1_234
10
23.938237
20
147.8369229
40
0.3339303
50
228.9023911
51
256.3314342
0
ARC
8
DEFAULT_255_1_234
10
23.9308602
20
147.8252746
40
0.32031
50
193.753695
51
228.5271154
0
ARC
8
DEFAULT_255_1_234
10
24.0546556
20
147.86158
40
0.4492253
50
184.924711
51
194.497588
0
ARC
8
DEFAULT_255_1_234
10
24.0739123
20
147.8651591
40
0.3289787
50
187.3600538
51
198.6732863
0
ARC
8
DEFAULT_255_1_234
10
23.9689417
20
147.8287674
40
0.217884
50
198.4451669
51
217.794479
0
ARC
8
DEFAULT_255_1_234
10
23.9393592
20
147.8078085
40
0.1816698
50
218.2887171
51
228.5612368
0
ARC
8
DEFAULT_255_1_234
10
23.9491379
20
147.8209963
40
0.1980329
50
228.9654866
51
258.1234728
0
ARC
8
DEFAULT_255_1_234
10
23.9697089
20
147.9090833
40
0.2884748
50
257.7258293
51
270.401361
0
ARC
8
DEFAULT_255_1_234
10
23.9741975
20
147.8645821
40
0.2439788
50
269.4204404
51
286.4209037
0
ARC
8
DEFAULT_255_1_234
10
23.9890463
20
147.8106657
40
0.1880666
50
286.7251356
51
320.600362
0
ARC
8
DEFAULT_255_1_234
10
23.9507288
20
147.8417595
40
0.2374121
50
320.6712579
51
344.5441685
0
ARC
8
DEFAULT_255_1_234
10
23.8350614
20
147.8757045
40
0.3579479
50
344.2412205
51
356.7357071
0
ARC
8
DEFAULT_255_1_234
10
23.7101763
20
147.8860444
40
0.4832297
50
356.3548756
51
0.0500261
0
ARC
8
DEFAULT_255_1_234
10
23.8438272
20
147.889165
40
0.3495889
50
359.5576869
51
12.953486
0
ARC
8
DEFAULT_255_1_234
10
23.9493169
20
147.9147434
40
0.2410532
50
12.6490276
51
41.6081334
0
ARC
8
DEFAULT_255_1_234
10
23.972354
20
147.9343321
40
0.2108218
50
41.7850273
51
85.9892764
0
ARC
8
DEFAULT_255_1_234
10
23.9600277
20
147.8530462
40
0.2928454
50
84.6957577
51
90.0676183
0
ARC
8
DEFAULT_255_1_234
10
23.9576761
20
147.7861716
40
0.3597255
50
89.6804936
51
99.1614436
0
ARC
8
DEFAULT_255_1_234
10
23.9371392
20
147.9089131
40
0.235281
50
98.9830931
51
113.8908934
0
ARC
8
DEFAULT_255_1_234
10
23.9141802
20
147.9630587
40
0.176479
50
114.1950727
51
127.3641004
0
LINE
8
DEFAULT_255_1_234
10
23.9961628
20
156.6223211
11
23.9961628
21
155.845652
0
LINE
8
DEFAULT_255_1_234
10
23.9961628
20
155.845652
11
24.1584039
21
155.845652
0
LINE
8
DEFAULT_255_1_234
10
24.1584039
20
155.845652
11
24.1584039
21
155.7243728
0
LINE
8
DEFAULT_255_1_234
10
24.1584039
20
155.7243728
11
23.9961628
21
155.7243728
0
LINE
8
DEFAULT_255_1_234
10
23.9961628
20
155.7243728
11
23.9961628
21
155.4529
0
LINE
8
DEFAULT_255_1_234
10
23.9961628
20
155.4529
11
23.8467725
21
155.4529
0
LINE
8
DEFAULT_255_1_234
10
23.8467725
20
155.4529
11
23.8467725
21
155.7243728
0
LINE
8
DEFAULT_255_1_234
10
23.8467725
20
155.7243728
11
23.3142682
21
155.7243728
0
LINE
8
DEFAULT_255_1_234
10
23.3142682
20
155.7243728
11
23.3142682
21
155.8119187
0
LINE
8
DEFAULT_255_1_234
10
23.3142682
20
155.8119187
11
23.8379375
21
156.6223211
0
LINE
8
DEFAULT_255_1_234
10
23.8379375
20
156.6223211
11
23.9961628
21
156.6223211
0
LINE
8
DEFAULT_255_1_234
10
23.8291026
20
156.3869912
11
23.4829347
21
155.845652
0
LINE
8
DEFAULT_255_1_234
10
23.4829347
20
155.845652
11
23.8467725
21
155.845652
0
LINE
8
DEFAULT_255_1_234
10
23.8467725
20
155.845652
11
23.8467725
21
156.4191181
0
LINE
8
DEFAULT_255_1_234
10
23.8467725
20
156.4191181
11
23.8291026
21
156.3869912
0
LINE
8
DEFAULT_255_1_234
10
23.7966378
20
163.9261169
11
23.7966378
21
164.0473962
0
LINE
8
DEFAULT_255_1_234
10
23.7966378
20
164.0473962
11
23.908279
21
164.0473962
0
LINE
8
DEFAULT_255_1_234
10
23.7179268
20
164.2530087
11
23.5693396
21
164.2530087
0
LINE
8
DEFAULT_255_1_234
10
23.5588983
20
163.6988188
11
23.7082887
21
163.6988188
0
LINE
8
DEFAULT_255_1_234
10
23.908279
20
163.9261169
11
23.7966378
21
163.9261169
0
ARC
8
DEFAULT_255_1_234
10
23.9053656
20
164.3866713
40
0.3392876
50
270.4919872
51
281.8951556
0
ARC
8
DEFAULT_255_1_234
10
23.9294918
20
164.2764702
40
0.2264817
50
281.6691735
51
301.2943132
0
ARC
8
DEFAULT_255_1_234
10
23.9465128
20
164.2453304
40
0.1910381
50
301.7833094
51
311.7545298
0
ARC
8
DEFAULT_255_1_234
10
23.9556704
20
164.2351748
40
0.1773635
50
311.7323931
51
354.2802411
0
ARC
8
DEFAULT_255_1_234
10
23.8830329
20
164.2476722
40
0.2509385
50
353.0937916
51
0.1181479
0
ARC
8
DEFAULT_255_1_234
10
23.8369114
20
164.2524386
40
0.2970898
50
359.1805295
51
15.0453146
0
ARC
8
DEFAULT_255_1_234
10
23.9714951
20
164.2916992
40
0.1569564
50
13.9577229
51
77.6713066
0
ARC
8
DEFAULT_255_1_234
10
23.932848
20
164.1531949
40
0.3006298
50
76.1116566
51
90.7026153
0
ARC
8
DEFAULT_255_1_234
10
23.9269318
20
164.1805545
40
0.2732568
50
89.5324876
51
103.531937
0
ARC
8
DEFAULT_255_1_234
10
23.9068762
20
164.2604884
40
0.1908508
50
103.2931773
51
133.5619022
0
ARC
8
DEFAULT_255_1_234
10
23.9024251
20
164.2664375
40
0.1834746
50
133.8349307
51
173.5344437
0
ARC
8
DEFAULT_255_1_234
10
23.9747294
20
164.2536213
40
0.2568033
50
172.5096846
51
180.1366907
0
ARC
8
DEFAULT_255_1_234
10
23.8796188
20
164.2570622
40
0.3103056
50
155.3484492
51
180.7484736
0
ARC
8
DEFAULT_255_1_234
10
23.8747277
20
164.2541846
40
0.3070957
50
131.5744599
51
154.4798489
0
ARC
8
DEFAULT_255_1_234
10
23.9060424
20
164.222531
40
0.3515643
50
96.9875458
51
131.9690667
0
ARC
8
DEFAULT_255_1_234
10
23.9279904
20
164.0979636
40
0.4779224
50
89.8596053
51
97.7825159
0
ARC
8
DEFAULT_255_1_234
10
23.9327967
20
164.0717616
40
0.5041361
50
78.3655447
51
90.4131539
0
ARC
8
DEFAULT_255_1_234
10
23.9685885
20
164.2376887
40
0.3344039
50
56.6229102
51
78.638727
0
ARC
8
DEFAULT_255_1_234
10
23.9900829
20
164.2752805
40
0.2912001
50
47.0253525
51
56.0854072
0
ARC
8
DEFAULT_255_1_234
10
23.9920609
20
164.2792223
40
0.2869704
50
10.9208013
51
46.7778124
0
ARC
8
DEFAULT_255_1_234
10
23.8556675
20
164.2476857
40
0.426899
50
359.6364486
51
11.6087304
0
ARC
8
DEFAULT_255_1_234
10
24.0391519
20
164.2461752
40
0.243409
50
332.3549906
51
359.7179418
0
ARC
8
DEFAULT_255_1_234
10
23.9741121
20
164.2770142
40
0.3153459
50
325.2333722
51
332.8745602
0
ARC
8
DEFAULT_255_1_234
10
23.9893744
20
164.2663828
40
0.2967456
50
292.9802137
51
325.2392345
0
ARC
8
DEFAULT_255_1_234
10
23.9619118
20
164.3197863
40
0.3566604
50
292.5402179
51
293.6924929
0
ARC
8
DEFAULT_255_1_234
10
24.0011714
20
163.6743091
40
0.3307468
50
57.6435486
51
72.8625112
0
ARC
8
DEFAULT_255_1_234
10
24.0366214
20
163.7317549
40
0.2632492
50
36.7248896
51
57.4697979
0
ARC
8
DEFAULT_255_1_234
10
24.0354847
20
163.733022
40
0.2634081
50
8.0545065
51
36.356114
0
ARC
8
DEFAULT_255_1_234
10
23.9492032
20
163.7175174
40
0.3510261
50
359.8320645
51
8.5869982
0
ARC
8
DEFAULT_255_1_234
10
23.9116808
20
163.7127101
40
0.3885653
50
343.9829931
51
0.5571613
0
ARC
8
DEFAULT_255_1_234
10
24.0003005
20
163.6884438
40
0.2966924
50
311.6359546
51
343.7651759
0
ARC
8
DEFAULT_255_1_234
10
23.9624574
20
163.7311102
40
0.3537231
50
279.7829875
51
311.6255694
0
ARC
8
DEFAULT_255_1_234
10
23.9323351
20
163.874828
40
0.5004971
50
269.7286406
51
280.3856417
0
ARC
8
DEFAULT_255_1_234
10
23.9261423
20
163.8706996
40
0.4963778
50
256.6828919
51
270.4412052
0
ARC
8
DEFAULT_255_1_234
10
23.8922719
20
163.7322394
40
0.3538406
50
229.4223008
51
256.8556159
0
ARC
8
DEFAULT_255_1_234
10
23.8508112
20
163.6855736
40
0.2914296
50
181.818294
51
229.6455059
0
ARC
8
DEFAULT_255_1_234
10
23.9548068
20
163.6986496
40
0.3959084
50
179.9755256
51
183.2323064
0
ARC
8
DEFAULT_255_1_234
10
23.9375814
20
163.6966037
40
0.2293034
50
179.4465117
51
196.2869258
0
ARC
8
DEFAULT_255_1_234
10
23.8888222
20
163.6832651
40
0.1787621
50
196.5661473
51
227.705904
0
ARC
8
DEFAULT_255_1_234
10
23.9052317
20
163.7016155
40
0.2033784
50
227.7652068
51
257.8762805
0
ARC
8
DEFAULT_255_1_234
10
23.9277287
20
163.7959156
40
0.3003081
50
257.4584385
51
270.426602
0
ARC
8
DEFAULT_255_1_234
10
23.9322853
20
163.8248996
40
0.329292
50
269.5962073
51
280.8789248
0
ARC
8
DEFAULT_255_1_234
10
23.9552382
20
163.7102685
40
0.2123908
50
280.6346389
51
299.8595945
0
ARC
8
DEFAULT_255_1_234
10
23.9743289
20
163.6740212
40
0.171457
50
300.3576302
51
314.5517981
0
ARC
8
DEFAULT_255_1_234
10
23.9660349
20
163.6800919
40
0.1816095
50
315.0728369
51
345.0431014
0
ARC
8
DEFAULT_255_1_234
10
23.8737163
20
163.7069841
40
0.2777492
50
344.5986631
51
357.9269593
0
ARC
8
DEFAULT_255_1_234
10
23.7841489
20
163.7131276
40
0.3674917
50
357.4748886
51
0.0231117
0
ARC
8
DEFAULT_255_1_234
10
23.8864599
20
163.7155679
40
0.2651907
50
359.5047933
51
13.4239635
0
ARC
8
DEFAULT_255_1_234
10
23.9731242
20
163.7377478
40
0.1757509
50
12.9498199
51
48.7551375
0
ARC
8
DEFAULT_255_1_234
10
23.9548976
20
163.71284
40
0.2065134
50
49.5088623
51
72.1836453
0
ARC
8
DEFAULT_255_1_234
10
23.9191129
20
163.6066291
40
0.3185836
50
71.9010081
51
84.3554254
0
ARC
8
DEFAULT_255_1_234
10
23.9029761
20
163.4705326
40
0.4556151
50
84.0193428
51
89.333121
0
LINE
8
DEFAULT_255_1_234
10
24.3468119
20
171.4491792
11
24.3468119
21
171.3279
0
LINE
8
DEFAULT_255_1_234
10
24.3468119
20
171.3279
11
23.580584
21
171.3279
0
LINE
8
DEFAULT_255_1_234
10
23.580584
20
171.3279
11
23.580584
21
171.4347221
0
LINE
8
DEFAULT_255_1_234
10
23.580584
20
171.4347221
11
23.9853836
21
171.8844995
0
LINE
8
DEFAULT_255_1_234
10
23.7066823
20
172.1527595
11
23.5580952
21
172.1527595
0
LINE
8
DEFAULT_255_1_234
10
24.0729296
20
171.7889218
11
23.7596918
21
171.4491792
0
LINE
8
DEFAULT_255_1_234
10
23.7596918
20
171.4491792
11
24.3468119
21
171.4491792
0
ARC
8
DEFAULT_255_1_234
10
22.636367
20
173.0774527
40
1.8008286
50
318.5132453
51
320.7828378
0
ARC
8
DEFAULT_255_1_234
10
23.1650644
20
172.6471426
40
1.1191493
50
320.7372736
51
323.9737074
0
ARC
8
DEFAULT_255_1_234
10
23.5570501
20
172.3631361
40
0.6350923
50
323.8961724
51
328.6421089
0
ARC
8
DEFAULT_255_1_234
10
23.7617096
20
172.2369031
40
0.3946393
50
328.8299013
51
331.789948
0
ARC
8
DEFAULT_255_1_234
10
23.8614274
20
172.1854509
40
0.2824501
50
331.4255242
51
352.9364833
0
ARC
8
DEFAULT_255_1_234
10
23.8750775
20
172.1823976
40
0.2685315
50
353.2248685
51
0.0169286
0
ARC
8
DEFAULT_255_1_234
10
23.8960652
20
172.184695
40
0.2475536
50
359.4866256
51
15.9339782
0
ARC
8
DEFAULT_255_1_234
10
23.9467637
20
172.1983286
40
0.1950618
50
16.1714718
51
43.5284424
0
ARC
8
DEFAULT_255_1_234
10
23.9544946
20
172.2060573
40
0.184134
50
43.4415429
51
83.1661404
0
ARC
8
DEFAULT_255_1_234
10
23.9410864
20
172.1323771
40
0.258926
50
82.160215
51
90.1505798
0
ARC
8
DEFAULT_255_1_234
10
23.9379291
20
172.0786865
40
0.3126255
50
89.5460705
51
102.5418777
0
ARC
8
DEFAULT_255_1_234
10
23.9136377
20
172.1817665
40
0.2067346
50
102.1739365
51
129.2061916
0
ARC
8
DEFAULT_255_1_234
10
23.9057449
20
172.1942094
40
0.1921118
50
129.7279328
51
135.7542026
0
ARC
8
DEFAULT_255_1_234
10
23.9178977
20
172.1845045
40
0.2075944
50
136.175737
51
166.3674722
0
ARC
8
DEFAULT_255_1_234
10
24.0185896
20
172.1575182
40
0.3118201
50
165.9092917
51
178.8683903
0
ARC
8
DEFAULT_255_1_234
10
24.1050757
20
172.1528179
40
0.3983935
50
178.438168
51
180.0083905
0
ARC
8
DEFAULT_255_1_234
10
23.9649359
20
172.1567231
40
0.4068601
50
163.2878735
51
180.5581814
0
ARC
8
DEFAULT_255_1_234
10
23.8847621
20
172.178784
40
0.3237344
50
133.454115
51
162.9470031
0
ARC
8
DEFAULT_255_1_234
10
23.9026162
20
172.1598
40
0.349795
50
100.7869394
51
133.4384016
0
ARC
8
DEFAULT_255_1_234
10
23.9373934
20
172.0049319
40
0.5084616
50
89.6605301
51
101.3704185
0
ARC
8
DEFAULT_255_1_234
10
23.9440273
20
172.0110496
40
0.502348
50
78.2171172
51
90.4130393
0
ARC
8
DEFAULT_255_1_234
10
23.9795351
20
172.1734637
40
0.3361092
50
55.9268222
51
78.4888551
0
ARC
8
DEFAULT_255_1_234
10
23.9991791
20
172.2073324
40
0.2970617
50
47.9292255
51
55.4054003
0
ARC
8
DEFAULT_255_1_234
10
24.0093352
20
172.2176502
40
0.2825983
50
4.3347696
51
48.0560701
0
ARC
8
DEFAULT_255_1_234
10
23.8997745
20
172.2006601
40
0.393225
50
359.925209
51
5.5967654
0
ARC
8
DEFAULT_255_1_234
10
23.9426637
20
172.2062816
40
0.3503892
50
337.8914096
51
358.9967724
0
ARC
8
DEFAULT_255_1_234
10
23.6713049
20
172.3109706
40
0.6412172
50
326.9135351
51
338.3505194
0
ARC
8
DEFAULT_255_1_234
10
23.2727353
20
172.5664284
40
1.1146189
50
319.6472867
51
327.095818
0
ARC
8
DEFAULT_255_1_234
10
22.8894356
20
172.8826
40
1.6114559
50
317.2586784
51
319.9046139
0
LINE
8
DEFAULT_255_1_234
10
24.0771137
20
180.4404433
11
24.0771137
21
179.2654
0
LINE
8
DEFAULT_255_1_234
10
24.0771137
20
179.2654
11
23.9277234
21
179.2654
0
LINE
8
DEFAULT_255_1_234
10
23.9277234
20
179.2654
11
23.9277234
21
180.2557133
0
LINE
8
DEFAULT_255_1_234
10
23.9277234
20
180.2557133
11
23.6281396
21
180.1456785
0
LINE
8
DEFAULT_255_1_234
10
23.6281396
20
180.1456785
11
23.6281396
21
180.2806117
0
LINE
8
DEFAULT_255_1_234
10
23.6281396
20
180.2806117
11
24.0538217
21
180.4404433
0
LINE
8
DEFAULT_255_1_234
10
24.0538217
20
180.4404433
11
24.0771137
21
180.4404433
0
LINE
8
DEFAULT_255_1_234
10
24.3138817
20
187.8944327
11
24.3138817
21
187.7016709
0
LINE
8
DEFAULT_255_1_234
10
23.575765
20
187.6815916
11
23.575765
21
187.8799755
0
LINE
8
DEFAULT_255_1_234
10
24.1652946
20
187.6615123
11
24.1652946
21
187.9048739
0
LINE
8
DEFAULT_255_1_234
10
23.7243521
20
187.9161184
11
23.7243521
21
187.6783789
0
ARC
8
DEFAULT_255_1_234
10
23.0891707
20
187.6967805
40
1.2247208
50
353.8441951
51
0.2287902
0
ARC
8
DEFAULT_255_1_234
10
23.5531211
20
187.6449806
40
0.7578929
50
344.4934747
51
353.9765454
0
ARC
8
DEFAULT_255_1_234
10
23.8523801
20
187.5598981
40
0.4467846
50
329.2803592
51
344.7472793
0
ARC
8
DEFAULT_255_1_234
10
23.9516626
20
187.5054018
40
0.3336173
50
324.9352394
51
328.6160465
0
ARC
8
DEFAULT_255_1_234
10
23.9893734
20
187.4790427
40
0.2876076
50
280.580143
51
324.9173126
0
ARC
8
DEFAULT_255_1_234
10
23.9492527
20
187.6461099
40
0.4592847
50
269.5977311
51
281.6734359
0
ARC
8
DEFAULT_255_1_234
10
23.9420433
20
187.6341173
40
0.4472986
50
256.6228859
51
270.51044
0
ARC
8
DEFAULT_255_1_234
10
23.901841
20
187.4792877
40
0.2873874
50
215.8618325
51
257.2788573
0
ARC
8
DEFAULT_255_1_234
10
24.0039442
20
187.5477977
40
0.4102928
50
197.9693508
51
215.2623606
0
ARC
8
DEFAULT_255_1_234
10
24.2524558
20
187.6316709
40
0.6725652
50
187.8816417
51
198.2346507
0
ARC
8
DEFAULT_255_1_234
10
24.6482766
20
187.6888079
40
1.0724845
50
180.8976217
51
188.0055519
0
ARC
8
DEFAULT_255_1_234
10
24.9282954
20
187.6991777
40
1.3526448
50
180.7449369
51
181.1510016
0
ARC
8
DEFAULT_255_1_234
10
24.7705683
20
187.8848042
40
1.1948131
50
173.7675579
51
180.231553
0
ARC
8
DEFAULT_255_1_234
10
24.318783
20
187.9358666
40
0.7401564
50
164.3058563
51
173.9002247
0
ARC
8
DEFAULT_255_1_234
10
24.0275899
20
188.0197656
40
0.4371288
50
148.7922025
51
164.568378
0
ARC
8
DEFAULT_255_1_234
10
23.9324351
20
188.0728929
40
0.3282386
50
144.5883898
51
148.1176286
0
ARC
8
DEFAULT_255_1_234
10
23.8981249
20
188.0968315
40
0.2864044
50
101.6440918
51
144.514236
0
ARC
8
DEFAULT_255_1_234
10
23.9406315
20
187.9279069
40
0.4604934
50
89.5284041
51
102.5819763
0
ARC
8
DEFAULT_255_1_234
10
23.9485403
20
187.9240018
40
0.464401
50
77.0437873
51
90.5081339
0
ARC
8
DEFAULT_255_1_234
10
23.9887405
20
188.0882615
40
0.2953195
50
48.2778575
51
77.4994676
0
ARC
8
DEFAULT_255_1_234
10
23.9960036
20
188.1011746
40
0.2808655
50
36.3142134
51
47.6305865
0
ARC
8
DEFAULT_255_1_234
10
23.9091343
20
188.0426515
40
0.3855453
50
18.2931786
51
35.6769206
0
ARC
8
DEFAULT_255_1_234
10
23.6548102
20
187.9553593
40
0.654423
50
8.024666
51
18.5605216
0
ARC
8
DEFAULT_255_1_234
10
23.2385022
20
187.8938792
40
1.0752407
50
1.1274072
51
8.1718305
0
ARC
8
DEFAULT_255_1_234
10
22.9149213
20
187.8811885
40
1.3990231
50
0.5424119
51
1.3863029
0
ARC
8
DEFAULT_255_1_234
10
23.097059
20
187.9084342
40
1.0682415
50
359.8090433
51
4.9407866
0
ARC
8
DEFAULT_255_1_234
10
23.5180604
20
187.9460113
40
0.6455691
50
4.8362157
51
12.2904523
0
ARC
8
DEFAULT_255_1_234
10
23.7935719
20
188.0073965
40
0.3633074
50
12.0805627
51
23.8173984
0
ARC
8
DEFAULT_255_1_234
10
23.9109425
20
188.0570919
40
0.2358723
50
24.2871213
51
31.3935614
0
ARC
8
DEFAULT_255_1_234
10
23.9634122
20
188.0914233
40
0.1732111
50
30.7407893
51
82.4657128
0
ARC
8
DEFAULT_255_1_234
10
23.9454256
20
188.0030691
40
0.263235
50
81.1060089
51
90.2184952
0
ARC
8
DEFAULT_255_1_234
10
23.9418555
20
188.0288924
40
0.2374236
50
89.3806855
51
105.6762551
0
ARC
8
DEFAULT_255_1_234
10
23.9235186
20
188.0955567
40
0.1682847
50
105.7981136
51
149.7388061
0
ARC
8
DEFAULT_255_1_234
10
24.0299264
20
188.031595
40
0.2924306
50
149.4208916
51
163.6286378
0
ARC
8
DEFAULT_255_1_234
10
24.2390152
20
187.967825
40
0.5110213
50
163.3763315
51
172.1410975
0
ARC
8
DEFAULT_255_1_234
10
24.5690871
20
187.9205518
40
0.8444586
50
172.0259487
51
178.0703232
0
ARC
8
DEFAULT_255_1_234
10
24.872096
20
187.9061906
40
1.1477868
50
177.8631668
51
179.5044149
0
ARC
8
DEFAULT_255_1_234
10
24.7648365
20
187.6747389
40
1.0404907
50
179.7995573
51
185.2460446
0
ARC
8
DEFAULT_255_1_234
10
24.3605404
20
187.6364513
40
0.6343885
50
185.1411642
51
193.0079639
0
ARC
8
DEFAULT_255_1_234
10
24.0961877
20
187.5739641
40
0.3627568
50
192.7897626
51
205.2507664
0
ARC
8
DEFAULT_255_1_234
10
23.9915424
20
187.5272415
40
0.2481908
50
205.8005384
51
211.2537509
0
ARC
8
DEFAULT_255_1_234
10
23.9391864
20
187.492158
40
0.1852521
50
210.3789793
51
238.4008143
0
ARC
8
DEFAULT_255_1_234
10
23.9372386
20
187.4968376
40
0.1882621
50
239.6520629
51
265.9793761
0
ARC
8
DEFAULT_255_1_234
10
23.9457586
20
187.5640427
40
0.2559272
50
265.1315437
51
270.060332
0
ARC
8
DEFAULT_255_1_234
10
23.9486365
20
187.5316534
40
0.2235528
50
269.3314664
51
287.2178029
0
ARC
8
DEFAULT_255_1_234
10
23.9624217
20
187.4813279
40
0.1714108
50
287.7958004
51
329.080874
0
ARC
8
DEFAULT_255_1_234
10
23.8666674
20
187.541093
40
0.2842745
50
328.6634704
51
343.3325132
0
ARC
8
DEFAULT_255_1_234
10
23.6493694
20
187.6087863
40
0.5118644
50
343.0499468
51
351.9393422
0
ARC
8
DEFAULT_255_1_234
10
23.3026994
20
187.6598949
40
0.8622784
50
351.8069023
51
357.7959224
0
ARC
8
DEFAULT_255_1_234
10
22.979155
20
187.6766721
40
1.1862365
50
357.5871873
51
359.2677531
0
ENDSEC
0
EOF