0
SECTION
2
HEADER
9
$MEASUREMENT
70
1
0
ENDSEC
0
SECTION
2
TABLES
0
TABLE
2
LTYPE
0
LTYPE
72
65
70
64
2
CONTINUOUS
3
______
73
0
40
0
0
ENDTAB
0
TABLE
2
LAYER
0
LAYER
2
DEFAULT_255_2_778
70
0
62
255
6
CONTINUOUS
0
ENDTAB
0
ENDSEC
0
SECTION
2
ENTITIES
0
ARC
8
DEFAULT_255_2_778
10
81.2472363
20
4.8310019
40
5.012115
50
346.3113713
51
0.0391979
0
ARC
8
DEFAULT_255_2_778
10
81.283481
20
4.8257136
40
4.9756495
50
325.3796246
51
346.2717703
0
ARC
8
DEFAULT_255_2_778
10
81.249708
20
4.8444299
40
5.0140772
50
289.625083
51
325.4228799
0
ARC
8
DEFAULT_255_2_778
10
81.2686168
20
4.8105809
40
4.9758479
50
274.293225
51
289.5509081
0
ARC
8
DEFAULT_255_2_778
10
81.259731
20
4.9045118
40
5.0701808
50
269.9945665
51
274.3138957
0
ARC
8
DEFAULT_255_2_778
10
81.2558179
20
4.846488
40
5.0121582
50
256.3111509
51
270.0392352
0
ARC
8
DEFAULT_255_2_778
10
81.2505023
20
4.8101352
40
4.9755814
50
235.3788979
51
256.271558
0
ARC
8
DEFAULT_255_2_778
10
81.2692828
20
4.8439871
40
5.0141106
50
199.6246393
51
235.4220682
0
ARC
8
DEFAULT_255_2_778
10
81.2354185
20
4.8250794
40
4.9758672
50
184.2932373
51
199.5505316
0
ARC
8
DEFAULT_255_2_778
10
81.3292921
20
4.833956
40
5.0701421
50
179.9946329
51
184.3138515
0
LINE
8
DEFAULT_255_2_778
10
1.0333502
20
39.3213309
11
22.7593502
21
39.3213309
0
LINE
8
DEFAULT_255_2_778
10
22.7593502
20
39.3213309
11
22.7593502
21
71.5213309
0
LINE
8
DEFAULT_255_2_778
10
22.7593502
20
71.5213309
11
1.0333502
21
71.5213309
0
LINE
8
DEFAULT_255_2_778
10
30.3595502
20
51.6342309
11
28.1594502
21
51.6342309
0
LINE
8
DEFAULT_255_2_778
10
28.1594502
20
51.6342309
11
28.1594502
21
49.8342309
0
LINE
8
DEFAULT_255_2_778
10
28.1594502
20
49.8342309
11
30.3595502
21
49.8342309
0
LINE
8
DEFAULT_255_2_778
10
30.3595502
20
49.8342309
11
30.3595502
21
51.6342309
0
LINE
8
DEFAULT_255_2_778
10
0.2594502
20
39.1482309
11
23.9023502
21
39.1482309
0
LINE
8
DEFAULT_255_2_778
10
23.9023502
20
39.1482309
11
23.9023502
21
71.8214309
0
LINE
8
DEFAULT_255_2_778
10
23.9023502
20
71.8214309
11
0.2594502
21
71.8214309
0
LINE
8
DEFAULT_255_2_778
10
0.2594502
20
99.8344309
11
86.2593502
21
99.8344309
0
LINE
8
DEFAULT_255_2_778
10
86.2593502
20
99.8344309
11
86.2593502
21
4.8344309
0
LINE
8
DEFAULT_255_2_778
10
76.2591502
20
4.8344309
11
76.2591502
21
9.8345309
0
LINE
8
DEFAULT_255_2_778
10
24.4754502
20
74.0344309
11
24.4754502
21
38.9845309
0
LINE
8
DEFAULT_255_2_778
10
24.4754502
20
38.9845309
11
33.6755502
21
38.9845309
0
LINE
8
DEFAULT_255_2_778
10
33.6755502
20
38.9845309
11
33.6755502
21
74.0344309
0
LINE
8
DEFAULT_255_2_778
10
2.6594502
20
45.4213309
11
0.6594502
21
45.4213309
0
LINE
8
DEFAULT_255_2_778
10
0.6594502
20
45.4213309
11
0.6594502
21
39.1482309
0
LINE
8
DEFAULT_255_2_778
10
13.7594884
20
39.3212913
11
13.7594884
21
39.1482913
0
LINE
8
DEFAULT_255_2_778
10
21.3024884
20
39.1482913
11
21.3024884
21
39.3212913
0
LINE
8
DEFAULT_255_2_778
10
81.3202884
20
10.6340913
11
81.3202884
21
28.5341913
0
LINE
8
DEFAULT_255_2_778
10
81.3202884
20
28.5341913
11
60.2102884
21
28.5341913
0
LINE
8
DEFAULT_255_2_778
10
60.2102884
20
28.5341913
11
60.2102884
21
25.5340913
0
LINE
8
DEFAULT_255_2_778
10
60.2102884
20
25.5340913
11
58.2102884
21
25.5340913
0
LINE
8
DEFAULT_255_2_778
10
58.2102884
20
25.5340913
11
58.2102884
21
28.5341913
0
LINE
8
DEFAULT_255_2_778
10
58.2102884
20
28.5341913
11
25.9202884
21
28.5341913
0
LINE
8
DEFAULT_255_2_778
10
25.9202884
20
28.5341913
11
25.9202884
21
10.6340913
0
ARC
8
DEFAULT_255_2_778
10
5.2464286
20
104.8376683
40
5.0129228
50
359.9607121
51
13.6866607
0
ARC
8
DEFAULT_255_2_778
10
5.2833697
20
104.8431403
40
4.975737
50
13.7260889
51
34.6176036
0
ARC
8
DEFAULT_255_2_778
10
5.2501724
20
104.8248206
40
5.0134659
50
34.5743715
51
70.3748441
0
ARC
8
DEFAULT_255_2_778
10
5.2689525
20
104.8582902
40
4.9756371
50
70.4490934
51
85.707027
0
ARC
8
DEFAULT_255_2_778
10
5.2600267
20
104.763944
40
5.0703871
50
85.6862526
51
90.0053845
0
ARC
8
DEFAULT_255_2_778
10
5.2561154
20
104.8219963
40
5.0123358
50
89.9607375
51
103.6883257
0
ARC
8
DEFAULT_255_2_778
10
5.2507564
20
104.858516
40
4.9755863
50
103.7278838
51
124.6204207
0
ARC
8
DEFAULT_255_2_778
10
5.2694565
20
104.8247901
40
5.0139661
50
124.5773176
51
160.3756931
0
ARC
8
DEFAULT_255_2_778
10
5.2358434
20
104.8436034
40
4.975991
50
160.4497488
51
175.7069664
0
ARC
8
DEFAULT_255_2_778
10
5.3299127
20
104.8347064
40
5.0704627
50
175.6862845
51
180.0053733
0
LINE
8
DEFAULT_255_2_778
10
10.2593502
20
99.8344309
11
10.2593502
21
104.8342309
0
LINE
8
DEFAULT_255_2_778
10
0.2594502
20
104.8342309
11
0.2594502
21
9.8342309
0
LINE
8
DEFAULT_255_2_778
10
0.2594502
20
9.8342309
11
86.2593502
21
9.8342309
0
LINE
8
DEFAULT_255_2_778
10
83.4704144
20
29.7844434
11
23.6584144
21
29.7844434
0
LINE
8
DEFAULT_255_2_778
10
83.4704144
20
9.8343434
11
83.4704144
21
35.9344434
0
LINE
8
DEFAULT_255_2_778
10
83.4704144
20
35.9344434
11
23.6584144
21
35.9344434
0
LINE
8
DEFAULT_255_2_778
10
23.6584144
20
35.9344434
11
23.6584144
21
9.8343434
0
LINE
8
DEFAULT_255_2_778
10
25.7595144
20
16.7344434
11
25.7595144
21
29.6844434
0
LINE
8
DEFAULT_255_2_778
10
25.7595144
20
29.6844434
11
23.6584144
21
29.6844434
0
LINE
8
DEFAULT_255_2_778
10
25.7595144
20
10.6344434
11
25.7595144
21
9.9343434
0
LINE
8
DEFAULT_255_2_778
10
23.7595144
20
9.9343434
11
23.7595144
21
16.7344434
0
LINE
8
DEFAULT_255_2_778
10
23.7595144
20
16.7344434
11
25.9206144
21
16.7344434
0
LINE
8
DEFAULT_255_2_778
10
83.4704144
20
9.9343434
11
23.6584144
21
9.9343434
0
LINE
8
DEFAULT_255_2_778
10
23.9202925
20
16.7343634
11
23.9202925
21
10.6343634
0
LINE
8
DEFAULT_255_2_778
10
23.9202925
20
10.6343634
11
83.3202925
21
10.6343634
0
LINE
8
DEFAULT_255_2_778
10
83.3202925
20
10.6343634
11
83.3202925
21
16.7343634
0
LINE
8
DEFAULT_255_2_778
10
50.7593925
20
9.8342634
11
50.7593925
21
9.1341634
0
LINE
8
DEFAULT_255_2_778
10
50.7593925
20
9.1341634
11
48.7593925
21
9.1341634
0
LINE
8
DEFAULT_255_2_778
10
48.7593925
20
9.1341634
11
48.7593925
21
7.3342634
0
LINE
8
DEFAULT_255_2_778
10
48.7593925
20
7.3342634
11
45.7592925
21
5.1342634
0
LINE
8
DEFAULT_255_2_778
10
45.7592925
20
5.1342634
11
40.7591925
21
5.1342634
0
LINE
8
DEFAULT_255_2_778
10
40.7591925
20
5.1342634
11
37.7590925
21
7.3342634
0
LINE
8
DEFAULT_255_2_778
10
37.7590925
20
7.3342634
11
37.7590925
21
9.1341634
0
LINE
8
DEFAULT_255_2_778
10
37.7590925
20
9.1341634
11
35.7590925
21
9.1341634
0
LINE
8
DEFAULT_255_2_778
10
35.7590925
20
9.1341634
11
35.7590925
21
9.8342634
0
LINE
8
DEFAULT_255_2_778
10
42.1342521
20
35.1342927
11
38.7343521
21
35.1342927
0
LINE
8
DEFAULT_255_2_778
10
38.7343521
20
35.1342927
11
38.7343521
21
33.1342927
0
LINE
8
DEFAULT_255_2_778
10
38.7343521
20
33.1342927
11
42.1342521
21
33.1342927
0
LINE
8
DEFAULT_255_2_778
10
42.1342521
20
33.1342927
11
42.1342521
21
35.1342927
0
LINE
8
DEFAULT_255_2_778
10
30.3594948
20
44.5343802
11
30.3594948
21
46.3343802
0
LINE
8
DEFAULT_255_2_778
10
30.3594948
20
46.3343802
11
28.1594948
21
46.3343802
0
LINE
8
DEFAULT_255_2_778
10
28.1594948
20
46.3343802
11
28.1594948
21
44.5343802
0
LINE
8
DEFAULT_255_2_778
10
28.1594948
20
44.5343802
11
30.3594948
21
44.5343802
0
LINE
8
DEFAULT_255_2_778
10
64.9344521
20
35.1342927
11
61.5345521
21
35.1342927
0
LINE
8
DEFAULT_255_2_778
10
61.5345521
20
35.1342927
11
61.5345521
21
33.1342927
0
LINE
8
DEFAULT_255_2_778
10
61.5345521
20
33.1342927
11
64.9344521
21
33.1342927
0
LINE
8
DEFAULT_255_2_778
10
64.9344521
20
33.1342927
11
64.9344521
21
35.1342927
0
LINE
8
DEFAULT_255_2_778
10
57.3342521
20
35.1342927
11
53.9343521
21
35.1342927
0
LINE
8
DEFAULT_255_2_778
10
53.9343521
20
35.1342927
11
53.9343521
21
33.1342927
0
LINE
8
DEFAULT_255_2_778
10
53.9343521
20
33.1342927
11
57.3342521
21
33.1342927
0
LINE
8
DEFAULT_255_2_778
10
57.3342521
20
33.1342927
11
57.3342521
21
35.1342927
0
LINE
8
DEFAULT_255_2_778
10
49.7343521
20
35.1342927
11
46.3344521
21
35.1342927
0
LINE
8
DEFAULT_255_2_778
10
46.3344521
20
35.1342927
11
46.3344521
21
33.1342927
0
LINE
8
DEFAULT_255_2_778
10
46.3344521
20
33.1342927
11
49.7343521
21
33.1342927
0
LINE
8
DEFAULT_255_2_778
10
49.7343521
20
33.1342927
11
49.7343521
21
35.1342927
0
LINE
8
DEFAULT_255_2_778
10
60.7343972
20
30.5344612
11
60.7343972
21
32.5344612
0
LINE
8
DEFAULT_255_2_778
10
60.7343972
20
32.5344612
11
57.3344972
21
32.5344612
0
LINE
8
DEFAULT_255_2_778
10
57.3344972
20
32.5344612
11
57.3344972
21
30.5344612
0
LINE
8
DEFAULT_255_2_778
10
57.3344972
20
30.5344612
11
60.7343972
21
30.5344612
0
LINE
8
DEFAULT_255_2_778
10
58.6703972
20
25.9344612
11
59.8702972
21
25.9344612
0
LINE
8
DEFAULT_255_2_778
10
81.4702972
20
16.7343612
11
81.4702972
21
29.6843612
0
LINE
8
DEFAULT_255_2_778
10
81.4702972
20
29.6843612
11
83.4702972
21
29.6843612
0
LINE
8
DEFAULT_255_2_778
10
83.4702972
20
16.7343612
11
81.3202972
21
16.7343612
0
LINE
8
DEFAULT_255_2_778
10
72.5343521
20
35.1342927
11
69.1344521
21
35.1342927
0
LINE
8
DEFAULT_255_2_778
10
69.1344521
20
35.1342927
11
69.1344521
21
33.1342927
0
LINE
8
DEFAULT_255_2_778
10
69.1344521
20
33.1342927
11
72.5343521
21
33.1342927
0
LINE
8
DEFAULT_255_2_778
10
72.5343521
20
33.1342927
11
72.5343521
21
35.1342927
0
LINE
8
DEFAULT_255_2_778
10
80.1342521
20
35.1342927
11
76.7343521
21
35.1342927
0
LINE
8
DEFAULT_255_2_778
10
76.7343521
20
35.1342927
11
76.7343521
21
33.1342927
0
LINE
8
DEFAULT_255_2_778
10
76.7343521
20
33.1342927
11
80.1342521
21
33.1342927
0
LINE
8
DEFAULT_255_2_778
10
80.1342521
20
33.1342927
11
80.1342521
21
35.1342927
0
LINE
8
DEFAULT_255_2_778
10
75.9342541
20
30.5345523
11
75.9342541
21
32.5345523
0
LINE
8
DEFAULT_255_2_778
10
75.9342541
20
32.5345523
11
72.5343541
21
32.5345523
0
LINE
8
DEFAULT_255_2_778
10
72.5343541
20
32.5345523
11
72.5343541
21
30.5345523
0
LINE
8
DEFAULT_255_2_778
10
72.5343541
20
30.5345523
11
75.9342541
21
30.5345523
0
LINE
8
DEFAULT_255_2_778
10
12.3535541
20
80.2344523
11
83.3854541
21
80.2344523
0
LINE
8
DEFAULT_255_2_778
10
14.3535541
20
93.2844523
11
14.3535541
21
80.3344523
0
LINE
8
DEFAULT_255_2_778
10
14.3535541
20
80.3344523
11
12.3535541
21
80.3344523
0
LINE
8
DEFAULT_255_2_778
10
83.3853272
20
99.8344151
11
83.3853272
21
74.0344151
0
LINE
8
DEFAULT_255_2_778
10
83.3853272
20
74.0344151
11
12.3535272
21
74.0344151
0
LINE
8
DEFAULT_255_2_778
10
12.3535272
20
74.0344151
11
12.3535272
21
99.8344151
0
LINE
8
DEFAULT_255_2_778
10
0.6594272
20
71.8214151
11
0.6594272
21
65.4214151
0
LINE
8
DEFAULT_255_2_778
10
0.6594272
20
65.4214151
11
2.6594272
21
65.4214151
0
LINE
8
DEFAULT_255_2_778
10
2.2593949
20
71.5214246
11
2.2593949
21
71.8214246
0
LINE
8
DEFAULT_255_2_778
10
8.4823949
20
71.8214246
11
8.4823949
21
71.5214246
0
LINE
8
DEFAULT_255_2_778
10
21.3024949
20
71.5214246
11
21.3024949
21
71.8214246
0
LINE
8
DEFAULT_255_2_778
10
14.3534949
20
99.3844246
11
14.3555949
21
99.7344246
0
LINE
8
DEFAULT_255_2_778
10
14.3555949
20
99.7344246
11
14.3555949
21
99.3844246
0
LINE
8
DEFAULT_255_2_778
10
83.3853949
20
99.7344246
11
12.3534949
21
99.7344246
0
LINE
8
DEFAULT_255_2_778
10
14.3534949
20
93.0344246
11
12.3534949
21
93.0344246
0
LINE
8
DEFAULT_255_2_778
10
45.8613949
20
74.2344246
11
45.8613949
21
76.5344246
0
LINE
8
DEFAULT_255_2_778
10
45.8613949
20
76.5344246
11
42.4614949
21
76.5344246
0
LINE
8
DEFAULT_255_2_778
10
42.4614949
20
76.5344246
11
42.4614949
21
74.2344246
0
LINE
8
DEFAULT_255_2_778
10
42.4614949
20
74.2344246
11
45.8613949
21
74.2344246
0
LINE
8
DEFAULT_255_2_778
10
30.3594948
20
55.1343802
11
30.3594948
21
56.9343802
0
LINE
8
DEFAULT_255_2_778
10
30.3594948
20
56.9343802
11
28.1594948
21
56.9343802
0
LINE
8
DEFAULT_255_2_778
10
28.1594948
20
56.9343802
11
28.1594948
21
55.1343802
0
LINE
8
DEFAULT_255_2_778
10
28.1594948
20
55.1343802
11
30.3594948
21
55.1343802
0
LINE
8
DEFAULT_255_2_778
10
30.3594948
20
65.7343802
11
30.3594948
21
67.5343802
0
LINE
8
DEFAULT_255_2_778
10
30.3594948
20
67.5343802
11
28.1594948
21
67.5343802
0
LINE
8
DEFAULT_255_2_778
10
28.1594948
20
67.5343802
11
28.1594948
21
65.7343802
0
LINE
8
DEFAULT_255_2_778
10
28.1594948
20
65.7343802
11
30.3594948
21
65.7343802
0
LINE
8
DEFAULT_255_2_778
10
30.3594948
20
60.4342802
11
30.3594948
21
62.2342802
0
LINE
8
DEFAULT_255_2_778
10
30.3594948
20
62.2342802
11
28.1594948
21
62.2342802
0
LINE
8
DEFAULT_255_2_778
10
28.1594948
20
62.2342802
11
28.1594948
21
60.4342802
0
LINE
8
DEFAULT_255_2_778
10
28.1594948
20
60.4342802
11
30.3594948
21
60.4342802
0
LINE
8
DEFAULT_255_2_778
10
24.4754543
20
73.6343
11
33.6755543
21
73.6343
0
LINE
8
DEFAULT_255_2_778
10
30.3594948
20
71.0342802
11
30.3594948
21
72.8342802
0
LINE
8
DEFAULT_255_2_778
10
30.3594948
20
72.8342802
11
28.1594948
21
72.8342802
0
LINE
8
DEFAULT_255_2_778
10
28.1594948
20
72.8342802
11
28.1594948
21
71.0342802
0
LINE
8
DEFAULT_255_2_778
10
28.1594948
20
71.0342802
11
30.3594948
21
71.0342802
0
LINE
8
DEFAULT_255_2_778
10
38.2612521
20
76.5344114
11
34.8613521
21
76.5344114
0
LINE
8
DEFAULT_255_2_778
10
34.8613521
20
76.5344114
11
34.8613521
21
74.2344114
0
LINE
8
DEFAULT_255_2_778
10
34.8613521
20
74.2344114
11
38.2612521
21
74.2344114
0
LINE
8
DEFAULT_255_2_778
10
38.2612521
20
74.2344114
11
38.2612521
21
76.5344114
0
LINE
8
DEFAULT_255_2_778
10
39.7554521
20
83.7343155
11
40.9552521
21
83.7343155
0
LINE
8
DEFAULT_255_2_778
10
42.0612521
20
77.1343155
11
42.0612521
21
79.4343155
0
LINE
8
DEFAULT_255_2_778
10
42.0612521
20
79.4343155
11
38.6613521
21
79.4343155
0
LINE
8
DEFAULT_255_2_778
10
38.6613521
20
79.4343155
11
38.6613521
21
77.1343155
0
LINE
8
DEFAULT_255_2_778
10
38.6613521
20
77.1343155
11
42.0612521
21
77.1343155
0
LINE
8
DEFAULT_255_2_778
10
53.4613521
20
76.5344114
11
50.0614521
21
76.5344114
0
LINE
8
DEFAULT_255_2_778
10
50.0614521
20
76.5344114
11
50.0614521
21
74.2344114
0
LINE
8
DEFAULT_255_2_778
10
50.0614521
20
74.2344114
11
53.4613521
21
74.2344114
0
LINE
8
DEFAULT_255_2_778
10
53.4613521
20
74.2344114
11
53.4613521
21
76.5344114
0
LINE
8
DEFAULT_255_2_778
10
46.2614521
20
79.4343114
11
46.2614521
21
77.1343114
0
LINE
8
DEFAULT_255_2_778
10
46.2614521
20
77.1343114
11
49.6613521
21
77.1343114
0
LINE
8
DEFAULT_255_2_778
10
49.6613521
20
77.1343114
11
49.6613521
21
79.4343114
0
LINE
8
DEFAULT_255_2_778
10
49.6613521
20
79.4343114
11
46.2614521
21
79.4343114
0
LINE
8
DEFAULT_255_2_778
10
57.2612521
20
79.4343114
11
53.8613521
21
79.4343114
0
LINE
8
DEFAULT_255_2_778
10
53.8613521
20
79.4343114
11
53.8613521
21
77.1343114
0
LINE
8
DEFAULT_255_2_778
10
53.8613521
20
77.1343114
11
57.2612521
21
77.1343114
0
LINE
8
DEFAULT_255_2_778
10
57.2612521
20
77.1343114
11
57.2612521
21
79.4343114
0
LINE
8
DEFAULT_255_2_778
10
61.0614521
20
76.5344114
11
57.6615521
21
76.5344114
0
LINE
8
DEFAULT_255_2_778
10
57.6615521
20
76.5344114
11
57.6615521
21
74.2344114
0
LINE
8
DEFAULT_255_2_778
10
57.6615521
20
74.2344114
11
61.0614521
21
74.2344114
0
LINE
8
DEFAULT_255_2_778
10
61.0614521
20
74.2344114
11
61.0614521
21
76.5344114
0
LINE
8
DEFAULT_255_2_778
10
68.6613521
20
76.5344114
11
65.2614521
21
76.5344114
0
LINE
8
DEFAULT_255_2_778
10
65.2614521
20
76.5344114
11
65.2614521
21
74.2344114
0
LINE
8
DEFAULT_255_2_778
10
65.2614521
20
74.2344114
11
68.6613521
21
74.2344114
0
LINE
8
DEFAULT_255_2_778
10
68.6613521
20
74.2344114
11
68.6613521
21
76.5344114
0
LINE
8
DEFAULT_255_2_778
10
64.8614159
20
77.1341831
11
64.8614159
21
79.4342831
0
LINE
8
DEFAULT_255_2_778
10
64.8614159
20
79.4342831
11
61.4615159
21
79.4342831
0
LINE
8
DEFAULT_255_2_778
10
61.4615159
20
79.4342831
11
61.4615159
21
77.1341831
0
LINE
8
DEFAULT_255_2_778
10
61.4615159
20
77.1341831
11
64.8614159
21
77.1341831
0
LINE
8
DEFAULT_255_2_778
10
83.3857159
20
80.3343831
11
81.5555159
21
80.3343831
0
LINE
8
DEFAULT_255_2_778
10
81.5555159
20
80.3343831
11
81.5555159
21
93.2843831
0
LINE
8
DEFAULT_255_2_778
10
76.2612521
20
76.5344114
11
72.8613521
21
76.5344114
0
LINE
8
DEFAULT_255_2_778
10
72.8613521
20
76.5344114
11
72.8613521
21
74.2344114
0
LINE
8
DEFAULT_255_2_778
10
72.8613521
20
74.2344114
11
76.2612521
21
74.2344114
0
LINE
8
DEFAULT_255_2_778
10
76.2612521
20
74.2344114
11
76.2612521
21
76.5344114
0
LINE
8
DEFAULT_255_2_778
10
69.0614521
20
79.4343114
11
69.0614521
21
77.1343114
0
LINE
8
DEFAULT_255_2_778
10
69.0614521
20
77.1343114
11
72.4613521
21
77.1343114
0
LINE
8
DEFAULT_255_2_778
10
72.4613521
20
77.1343114
11
72.4613521
21
79.4343114
0
LINE
8
DEFAULT_255_2_778
10
72.4613521
20
79.4343114
11
69.0614521
21
79.4343114
0
LINE
8
DEFAULT_255_2_778
10
76.6615521
20
79.4343114
11
76.6615521
21
77.1343114
0
LINE
8
DEFAULT_255_2_778
10
76.6615521
20
77.1343114
11
80.0614521
21
77.1343114
0
LINE
8
DEFAULT_255_2_778
10
80.0614521
20
77.1343114
11
80.0614521
21
79.4343114
0
LINE
8
DEFAULT_255_2_778
10
80.0614521
20
79.4343114
11
76.6615521
21
79.4343114
0
LINE
8
DEFAULT_255_2_778
10
81.555553
20
99.3844019
11
81.555553
21
99.7344019
0
LINE
8
DEFAULT_255_2_778
10
83.385653
20
93.0344019
11
81.555553
21
93.0344019
0
LINE
8
DEFAULT_255_2_778
10
66.838053
20
11.2670019
11
66.838053
21
19.4016019
0
LINE
8
DEFAULT_255_2_778
10
59.359353
20
11.2670019
11
59.359353
21
19.4016019
0
LINE
8
DEFAULT_255_2_778
10
44.159353
20
11.2670019
11
44.159353
21
19.4016019
0
LINE
8
DEFAULT_255_2_778
10
36.559453
20
11.2670019
11
36.559453
21
19.4016019
0
LINE
8
DEFAULT_255_2_778
10
40.270453
20
20.0670019
11
40.270453
21
28.2017019
0
LINE
8
DEFAULT_255_2_778
10
47.870353
20
20.0670019
11
47.870353
21
28.2017019
0
LINE
8
DEFAULT_255_2_778
10
63.070453
20
20.0670019
11
63.070453
21
28.2017019
0
LINE
8
DEFAULT_255_2_778
10
70.670253
20
20.0670019
11
70.670253
21
28.2017019
0
LINE
8
DEFAULT_255_2_778
10
40.355353
20
90.2671019
11
40.355353
21
98.4017019
0
LINE
8
DEFAULT_255_2_778
10
55.555453
20
90.2671019
11
55.555453
21
98.4017019
0
LINE
8
DEFAULT_255_2_778
10
47.955253
20
90.2671019
11
47.955253
21
98.4017019
0
LINE
8
DEFAULT_255_2_778
10
14.555353
20
99.3844019
11
14.555353
21
81.4842019
0
LINE
8
DEFAULT_255_2_778
10
14.555353
20
81.4842019
11
39.505253
21
81.4842019
0
LINE
8
DEFAULT_255_2_778
10
39.505253
20
81.4842019
11
39.505253
21
84.4843019
0
LINE
8
DEFAULT_255_2_778
10
39.505253
20
84.4843019
11
41.505253
21
84.4843019
0
LINE
8
DEFAULT_255_2_778
10
41.505253
20
84.4843019
11
41.505253
21
81.4842019
0
LINE
8
DEFAULT_255_2_778
10
41.505253
20
81.4842019
11
81.355253
21
81.4842019
0
LINE
8
DEFAULT_255_2_778
10
81.355253
20
81.4842019
11
81.355253
21
99.3844019
0
LINE
8
DEFAULT_255_2_778
10
70.7555626
20
90.2670873
11
70.7555626
21
98.4016873
0
LINE
8
DEFAULT_255_2_778
10
63.1554626
20
90.2670873
11
63.1554626
21
98.4016873
0
LINE
8
DEFAULT_255_2_778
10
32.7555626
20
90.2670873
11
32.7555626
21
98.4016873
0
LINE
8
DEFAULT_255_2_778
10
36.5555626
20
81.2669873
11
36.5555626
21
89.4015873
0
LINE
8
DEFAULT_255_2_778
10
66.9553626
20
81.2669873
11
66.9553626
21
89.4015873
0
LINE
8
DEFAULT_255_2_778
10
59.3554626
20
81.2669873
11
59.3554626
21
89.4015873
0
LINE
8
DEFAULT_255_2_778
10
28.9553626
20
81.2669873
11
28.9553626
21
89.4015873
0
LINE
8
DEFAULT_255_2_778
10
25.1554626
20
90.2670873
11
25.1554626
21
98.4016873
0
LINE
8
DEFAULT_255_2_778
10
79.4680626
20
72.7844873
11
81.2095626
21
71.0429873
0
LINE
8
DEFAULT_255_2_778
10
81.2095626
20
71.0429873
11
81.2095626
21
36.8844873
0
LINE
8
DEFAULT_255_2_778
10
81.2095626
20
36.8844873
11
45.3095626
21
36.8844873
0
LINE
8
DEFAULT_255_2_778
10
45.3095626
20
36.8844873
11
45.3095626
21
72.7844873
0
LINE
8
DEFAULT_255_2_778
10
45.3095626
20
72.7844873
11
79.4680626
21
72.7844873
0
LINE
8
DEFAULT_255_2_778
10
81.3095626
20
71.0842873
11
79.5095626
21
72.8841873
0
LINE
8
DEFAULT_255_2_778
10
79.5095626
20
72.8841873
11
45.2095626
21
72.8841873
0
LINE
8
DEFAULT_255_2_778
10
45.2095626
20
72.8841873
11
45.2095626
21
36.7841873
0
LINE
8
DEFAULT_255_2_778
10
45.2095626
20
36.7841873
11
81.3095626
21
36.7841873
0
LINE
8
DEFAULT_255_2_778
10
81.3095626
20
36.7841873
11
81.3095626
21
71.0842873
0
LINE
8
DEFAULT_255_2_778
10
0.8595626
20
65.4213873
11
0.8595626
21
45.4212873
0
LINE
8
DEFAULT_255_2_778
10
2.6594626
20
39.3212873
11
2.6594626
21
71.5213873
0
LINE
8
DEFAULT_255_2_778
10
1.9789626
20
45.4212873
11
1.9789626
21
65.4213873
0
LINE
8
DEFAULT_255_2_778
10
0.2594626
20
12.0302873
11
20.9593626
21
12.0302873
0
LINE
8
DEFAULT_255_2_778
10
20.9593626
20
12.0302873
11
20.9593626
21
36.0303873
0
LINE
8
DEFAULT_255_2_778
10
20.9593626
20
36.0303873
11
0.2594626
21
36.0303873
0
LINE
8
DEFAULT_255_2_778
10
2.6594259
20
29.8304027
11
0.6594259
21
29.8304027
0
LINE
8
DEFAULT_255_2_778
10
0.6594259
20
29.8304027
11
0.6594259
21
35.9304027
0
LINE
8
DEFAULT_255_2_778
10
0.6594259
20
35.9304027
11
20.8593259
21
35.9304027
0
LINE
8
DEFAULT_255_2_778
10
20.8593259
20
35.9304027
11
20.8593259
21
12.1303027
0
LINE
8
DEFAULT_255_2_778
10
20.8593259
20
12.1303027
11
0.6594259
21
12.1303027
0
LINE
8
DEFAULT_255_2_778
10
0.6594259
20
12.1303027
11
0.6594259
21
18.2303027
0
LINE
8
DEFAULT_255_2_778
10
0.6594259
20
18.2303027
11
2.6594259
21
18.2303027
0
LINE
8
DEFAULT_255_2_778
10
2.6594259
20
12.1303027
11
2.6594259
21
35.9304027
0
LINE
8
DEFAULT_255_2_778
10
0.8594259
20
29.8304027
11
0.8594259
21
18.2303027
0
LINE
8
DEFAULT_255_2_778
10
1.9789259
20
18.2303027
11
1.9789259
21
29.8304027
0
LINE
8
DEFAULT_255_2_778
10
0.6843259
20
12.1303027
11
0.6843259
21
12.0303027
0
LINE
8
DEFAULT_255_2_778
10
2.2345259
20
12.0303027
11
2.2345259
21
12.1303027
0
LINE
8
DEFAULT_255_2_778
10
2.2593259
20
39.1483027
11
2.2593259
21
39.3213027
0
LINE
8
DEFAULT_255_2_778
10
2.3593259
20
39.3213027
11
2.3593259
21
39.1483027
0
LINE
8
DEFAULT_255_2_778
10
0.6843259
20
36.0304027
11
0.6843259
21
35.9304027
0
LINE
8
DEFAULT_255_2_778
10
2.2345259
20
35.9304027
11
2.2345259
21
36.0304027
0
LINE
8
DEFAULT_255_2_778
10
32.1594259
20
9.9343027
11
32.1594259
21
10.6344027
0
LINE
8
DEFAULT_255_2_778
10
33.3593259
20
10.6344027
11
33.3593259
21
9.9343027
0
LINE
8
DEFAULT_255_2_778
10
39.7593259
20
9.9343027
11
39.7593259
21
10.6344027
0
LINE
8
DEFAULT_255_2_778
10
40.9594259
20
10.6344027
11
40.9594259
21
9.9343027
0
LINE
8
DEFAULT_255_2_778
10
47.3594259
20
9.9343027
11
47.3594259
21
10.6344027
0
LINE
8
DEFAULT_255_2_778
10
48.5593259
20
10.6344027
11
48.5593259
21
9.9343027
0
LINE
8
DEFAULT_255_2_778
10
54.9593259
20
9.9343027
11
54.9593259
21
10.6344027
0
LINE
8
DEFAULT_255_2_778
10
56.1595259
20
10.6344027
11
56.1595259
21
9.9343027
0
LINE
8
DEFAULT_255_2_778
10
62.5595259
20
9.9343027
11
62.5595259
21
10.6344027
0
LINE
8
DEFAULT_255_2_778
10
63.7593259
20
10.6344027
11
63.7593259
21
9.9343027
0
LINE
8
DEFAULT_255_2_778
10
25.9205259
20
18.9344027
11
25.7596259
21
18.9344027
0
LINE
8
DEFAULT_255_2_778
10
25.7594259
20
20.2343027
11
25.9202259
21
20.2343027
0
LINE
8
DEFAULT_255_2_778
10
25.9205259
20
18.5343027
11
25.7596259
21
18.5343027
0
LINE
8
DEFAULT_255_2_778
10
25.9205259
20
28.4842027
11
25.7594259
21
28.4842027
0
LINE
8
DEFAULT_255_2_778
10
25.7593739
20
26.984355
11
25.9202739
21
26.984355
0
LINE
8
DEFAULT_255_2_778
10
60.2102739
20
27.334355
11
59.8702739
21
27.334355
0
LINE
8
DEFAULT_255_2_778
10
59.8702739
20
27.334355
11
59.8702739
21
25.534455
0
LINE
8
DEFAULT_255_2_778
10
58.6703739
20
25.534455
11
58.6703739
21
27.334355
0
LINE
8
DEFAULT_255_2_778
10
58.6703739
20
27.334355
11
58.2102739
21
27.334355
0
LINE
8
DEFAULT_255_2_778
10
70.1593739
20
9.934355
11
70.1593739
21
10.634455
0
LINE
8
DEFAULT_255_2_778
10
71.3592739
20
10.634455
11
71.3592739
21
9.934355
0
LINE
8
DEFAULT_255_2_778
10
81.4703739
20
9.934355
11
81.4703739
21
10.634455
0
LINE
8
DEFAULT_255_2_778
10
77.7592739
20
9.934355
11
77.7592739
21
10.634455
0
LINE
8
DEFAULT_255_2_778
10
81.3202739
20
20.934355
11
81.4703739
21
20.934355
0
LINE
8
DEFAULT_255_2_778
10
81.3202739
20
19.734555
11
81.4703739
21
19.734555
0
LINE
8
DEFAULT_255_2_778
10
81.4703739
20
18.934455
11
81.3202739
21
18.934455
0
LINE
8
DEFAULT_255_2_778
10
81.3202739
20
26.984355
11
81.4703739
21
26.984355
0
LINE
8
DEFAULT_255_2_778
10
81.4703739
20
28.484255
11
81.3202739
21
28.484255
0
LINE
8
DEFAULT_255_2_778
10
14.5553739
20
82.934455
11
14.3534739
21
82.934455
0
LINE
8
DEFAULT_255_2_778
10
14.3534739
20
81.634355
11
14.5553739
21
81.634355
0
LINE
8
DEFAULT_255_2_778
10
14.3553739
20
90.734355
11
14.5553739
21
90.734355
0
LINE
8
DEFAULT_255_2_778
10
14.3553739
20
91.134455
11
14.5553739
21
91.134455
0
LINE
8
DEFAULT_255_2_778
10
20.7553739
20
99.734455
11
20.7553739
21
99.384455
0
LINE
8
DEFAULT_255_2_778
10
21.9554739
20
99.384455
11
21.9554739
21
99.734455
0
LINE
8
DEFAULT_255_2_778
10
40.9554739
20
84.484355
11
40.9554739
21
82.134355
0
LINE
8
DEFAULT_255_2_778
10
40.9554739
20
82.134355
11
41.5055739
21
82.134355
0
LINE
8
DEFAULT_255_2_778
10
39.5052739
20
82.134355
11
39.7553739
21
82.134355
0
LINE
8
DEFAULT_255_2_778
10
39.7553739
20
82.134355
11
39.7553739
21
84.484355
0
LINE
8
DEFAULT_255_2_778
10
29.5553739
20
99.384455
11
29.5553739
21
99.734455
0
LINE
8
DEFAULT_255_2_778
10
28.3554739
20
99.734455
11
28.3554739
21
99.384455
0
LINE
8
DEFAULT_255_2_778
10
37.1552739
20
99.384455
11
37.1552739
21
99.734455
0
LINE
8
DEFAULT_255_2_778
10
35.9553739
20
99.734455
11
35.9553739
21
99.384455
0
LINE
8
DEFAULT_255_2_778
10
44.7553739
20
99.384455
11
44.7553739
21
99.734455
0
LINE
8
DEFAULT_255_2_778
10
43.5552739
20
99.734455
11
43.5552739
21
99.384455
0
LINE
8
DEFAULT_255_2_778
10
52.3552739
20
99.384455
11
52.3552739
21
99.734455
0
LINE
8
DEFAULT_255_2_778
10
51.1554739
20
99.734455
11
51.1554739
21
99.384455
0
ARC
8
DEFAULT_255_2_778
10
5.2638747
20
104.8378378
40
2.2543868
50
158.2386051
51
180.0898428
0
ARC
8
DEFAULT_255_2_778
10
5.2545526
20
104.8388198
40
2.2453665
50
100.4545112
51
158.173688
0
ARC
8
DEFAULT_255_2_778
10
5.258302
20
104.8047909
40
2.2795122
50
89.9701221
51
100.3919857
0
ARC
8
DEFAULT_255_2_778
10
5.2549706
20
104.8378441
40
2.2545229
50
359.9100005
51
21.7598393
0
ARC
8
DEFAULT_255_2_778
10
5.2645245
20
104.8389253
40
2.2452504
50
21.8245969
51
79.53818
0
ARC
8
DEFAULT_255_2_778
10
5.2606821
20
104.8045364
40
2.2797667
50
79.6001523
51
90.0299435
0
ARC
8
DEFAULT_255_2_778
10
5.2548259
20
104.8307478
40
2.2546676
50
338.2408662
51
0.0903398
0
ARC
8
DEFAULT_255_2_778
10
5.264614
20
104.8295911
40
2.2451496
50
280.4535565
51
338.1756829
0
ARC
8
DEFAULT_255_2_778
10
5.260684
20
104.8642547
40
2.2799523
50
269.9700133
51
280.3926283
0
ARC
8
DEFAULT_255_2_778
10
5.2640194
20
104.8307542
40
2.2545315
50
179.9098168
51
201.7606893
0
ARC
8
DEFAULT_255_2_778
10
5.2544641
20
104.8296973
40
2.2452669
50
201.8260389
51
259.547316
0
ARC
8
DEFAULT_255_2_778
10
5.2583031
20
104.864031
40
2.2797285
50
259.6089824
51
270.0298467
0
LINE
8
DEFAULT_255_2_778
10
59.9554907
20
99.3844028
11
59.9554907
21
99.7344028
0
LINE
8
DEFAULT_255_2_778
10
58.7553907
20
99.7344028
11
58.7553907
21
99.3844028
0
LINE
8
DEFAULT_255_2_778
10
67.5553907
20
99.3844028
11
67.5553907
21
99.7344028
0
LINE
8
DEFAULT_255_2_778
10
66.3554907
20
99.7344028
11
66.3554907
21
99.3844028
0
LINE
8
DEFAULT_255_2_778
10
81.3554907
20
81.6343028
11
81.5555907
21
81.6343028
0
LINE
8
DEFAULT_255_2_778
10
81.5555907
20
82.9345028
11
81.3554907
21
82.9345028
0
LINE
8
DEFAULT_255_2_778
10
75.1555907
20
99.7344028
11
75.1555907
21
99.3844028
0
LINE
8
DEFAULT_255_2_778
10
73.9553907
20
99.7344028
11
73.9553907
21
99.3844028
0
LINE
8
DEFAULT_255_2_778
10
81.3554907
20
90.7344028
11
81.5555907
21
90.7344028
0
LINE
8
DEFAULT_255_2_778
10
81.3554907
20
91.1344028
11
81.5555907
21
91.1344028
0
LINE
8
DEFAULT_255_2_778
10
14.5553907
20
93.2842028
11
12.5553907
21
93.2842028
0
LINE
8
DEFAULT_255_2_778
10
12.5553907
20
93.2842028
11
12.5553907
21
94.3340028
0
LINE
8
DEFAULT_255_2_778
10
83.3554907
20
94.3343028
11
83.3554907
21
99.3844028
0
LINE
8
DEFAULT_255_2_778
10
83.3554907
20
99.3844028
11
12.5553907
21
99.3844028
0
LINE
8
DEFAULT_255_2_778
10
12.5553907
20
99.3844028
11
12.5553907
21
94.3343028
0
LINE
8
DEFAULT_255_2_778
10
81.3554907
20
93.2842028
11
83.3554907
21
93.2842028
0
LINE
8
DEFAULT_255_2_778
10
83.3554907
20
93.2842028
11
83.3554907
21
94.3343028
0
LINE
8
DEFAULT_255_2_778
10
79.4160907
20
93.2736028
11
78.3553907
21
94.3343028
0
LINE
8
DEFAULT_255_2_778
10
77.2946907
20
95.3950028
11
78.3553907
21
94.3343028
0
LINE
8
DEFAULT_255_2_778
10
79.4160854
20
95.3950146
11
78.3553854
21
94.3343146
0
LINE
8
DEFAULT_255_2_778
10
77.2946854
20
93.2736146
11
78.3553854
21
94.3343146
0
ARC
8
DEFAULT_255_2_778
10
78.3523746
20
94.3300583
40
2.7956069
50
250.6252326
51
270.062487
0
ARC
8
DEFAULT_255_2_778
10
78.3591855
20
94.3374864
40
2.8048766
50
191.7961906
51
250.5443211
0
ARC
8
DEFAULT_255_2_778
10
78.3673529
20
94.3328462
40
2.8119298
50
179.9692966
51
191.6696183
0
ARC
8
DEFAULT_255_2_778
10
78.3510022
20
94.3374042
40
2.7955804
50
160.6250898
51
180.0625339
0
ARC
8
DEFAULT_255_2_778
10
78.3584637
20
94.3305633
40
2.8048915
50
101.7948804
51
160.5438283
0
ARC
8
DEFAULT_255_2_778
10
78.3539146
20
94.3221172
40
2.8122362
50
89.9692581
51
101.6689794
0
ARC
8
DEFAULT_255_2_778
10
78.3584724
20
94.3300583
40
2.7956069
50
269.937513
51
289.3747674
0
ARC
8
DEFAULT_255_2_778
10
78.3516615
20
94.3374864
40
2.8048766
50
289.4556789
51
348.2038094
0
ARC
8
DEFAULT_255_2_778
10
78.343494
20
94.3328462
40
2.8119298
50
348.3303817
51
0.0307034
0
ARC
8
DEFAULT_255_2_778
10
78.3598447
20
94.3374042
40
2.7955804
50
359.9374661
51
19.3749102
0
ARC
8
DEFAULT_255_2_778
10
78.3523832
20
94.3305633
40
2.8048915
50
19.4561717
51
78.2051196
0
ARC
8
DEFAULT_255_2_778
10
78.3569324
20
94.3221172
40
2.8122362
50
78.3310206
51
90.0307419
0
LINE
8
DEFAULT_255_2_778
10
44.1553952
20
81.2673749
11
44.1553952
21
85.3344749
0
LINE
8
DEFAULT_255_2_778
10
44.1553952
20
89.4016749
11
44.1553952
21
85.3344749
0
LINE
8
DEFAULT_255_2_778
10
51.7554952
20
81.2673749
11
51.7554952
21
85.3344749
0
LINE
8
DEFAULT_255_2_778
10
51.7554952
20
89.4016749
11
51.7554952
21
85.3344749
0
LINE
8
DEFAULT_255_2_778
10
22.4160952
20
84.2737749
11
21.3553952
21
85.3344749
0
LINE
8
DEFAULT_255_2_778
10
20.2946952
20
86.3949749
11
21.3553952
21
85.3342749
0
LINE
8
DEFAULT_255_2_778
10
22.4160854
20
86.3949823
11
21.3553854
21
85.3342823
0
LINE
8
DEFAULT_255_2_778
10
20.2946854
20
84.2737823
11
21.3553854
21
85.3345823
0
ARC
8
DEFAULT_255_2_778
10
21.3524746
20
85.3300583
40
2.7956069
50
250.6252326
51
270.062487
0
ARC
8
DEFAULT_255_2_778
10
21.3592855
20
85.3374864
40
2.8048766
50
191.7961906
51
250.5443211
0
ARC
8
DEFAULT_255_2_778
10
21.3674529
20
85.3328462
40
2.8119298
50
179.9692966
51
191.6696183
0
ARC
8
DEFAULT_255_2_778
10
21.3511022
20
85.3374042
40
2.7955804
50
160.6250898
51
180.0625339
0
ARC
8
DEFAULT_255_2_778
10
21.3585637
20
85.3305633
40
2.8048915
50
101.7948804
51
160.5438283
0
ARC
8
DEFAULT_255_2_778
10
21.3540146
20
85.3221172
40
2.8122362
50
89.9692581
51
101.6689794
0
ARC
8
DEFAULT_255_2_778
10
21.3584724
20
85.3300583
40
2.7956069
50
269.937513
51
289.3747674
0
ARC
8
DEFAULT_255_2_778
10
21.3516615
20
85.3374864
40
2.8048766
50
289.4556789
51
348.2038094
0
ARC
8
DEFAULT_255_2_778
10
21.343494
20
85.3328462
40
2.8119298
50
348.3303817
51
0.0307034
0
ARC
8
DEFAULT_255_2_778
10
21.3598447
20
85.3374042
40
2.7955804
50
359.9374661
51
19.3749102
0
ARC
8
DEFAULT_255_2_778
10
21.3523832
20
85.3305633
40
2.8048915
50
19.4561717
51
78.2051196
0
ARC
8
DEFAULT_255_2_778
10
21.3569324
20
85.3221172
40
2.8122362
50
78.3310206
51
90.0307419
0
LINE
8
DEFAULT_255_2_778
10
18.6161854
20
93.2736146
11
17.5554854
21
94.3343146
0
LINE
8
DEFAULT_255_2_778
10
16.4947854
20
95.3950146
11
17.5554854
21
94.3343146
0
LINE
8
DEFAULT_255_2_778
10
18.6161854
20
95.3950146
11
17.5554854
21
94.3343146
0
LINE
8
DEFAULT_255_2_778
10
16.4947854
20
93.2736146
11
17.5554854
21
94.3343146
0
ARC
8
DEFAULT_255_2_778
10
17.5524746
20
94.3300583
40
2.7956069
50
250.6252326
51
270.062487
0
ARC
8
DEFAULT_255_2_778
10
17.5592855
20
94.3374864
40
2.8048766
50
191.7961906
51
250.5443211
0
ARC
8
DEFAULT_255_2_778
10
17.5674529
20
94.3328462
40
2.8119298
50
179.9692966
51
191.6696183
0
ARC
8
DEFAULT_255_2_778
10
17.5511022
20
94.3374042
40
2.7955804
50
160.6250898
51
180.0625339
0
ARC
8
DEFAULT_255_2_778
10
17.5585637
20
94.3305633
40
2.8048915
50
101.7948804
51
160.5438283
0
ARC
8
DEFAULT_255_2_778
10
17.5540146
20
94.3221172
40
2.8122362
50
89.9692581
51
101.6689794
0
ARC
8
DEFAULT_255_2_778
10
17.5585724
20
94.3300583
40
2.7956069
50
269.937513
51
289.3747674
0
ARC
8
DEFAULT_255_2_778
10
17.5517615
20
94.3374864
40
2.8048766
50
289.4556789
51
348.2038094
0
ARC
8
DEFAULT_255_2_778
10
17.543594
20
94.3328462
40
2.8119298
50
348.3303817
51
0.0307034
0
ARC
8
DEFAULT_255_2_778
10
17.5599447
20
94.3374042
40
2.7955804
50
359.9374661
51
19.3749102
0
ARC
8
DEFAULT_255_2_778
10
17.5524832
20
94.3305633
40
2.8048915
50
19.4561717
51
78.2051196
0
ARC
8
DEFAULT_255_2_778
10
17.5570324
20
94.3221172
40
2.8122362
50
78.3310206
51
90.0307419
0
LINE
8
DEFAULT_255_2_778
10
75.6161987
20
84.2737823
11
74.5554987
21
85.3345823
0
LINE
8
DEFAULT_255_2_778
10
73.4947987
20
86.3949823
11
74.5554987
21
85.3342823
0
LINE
8
DEFAULT_255_2_778
10
75.6161987
20
86.3949823
11
74.5554987
21
85.3342823
0
LINE
8
DEFAULT_255_2_778
10
73.4947987
20
84.2737823
11
74.5554987
21
85.3345823
0
ARC
8
DEFAULT_255_2_778
10
74.5524746
20
85.3300583
40
2.7956069
50
250.6252326
51
270.062487
0
ARC
8
DEFAULT_255_2_778
10
74.5592855
20
85.3374864
40
2.8048766
50
191.7961906
51
250.5443211
0
ARC
8
DEFAULT_255_2_778
10
74.5674529
20
85.3328462
40
2.8119298
50
179.9692966
51
191.6696183
0
ARC
8
DEFAULT_255_2_778
10
74.5511022
20
85.3374042
40
2.7955804
50
160.6250898
51
180.0625339
0
ARC
8
DEFAULT_255_2_778
10
74.5585637
20
85.3305633
40
2.8048915
50
101.7948804
51
160.5438283
0
ARC
8
DEFAULT_255_2_778
10
74.5540146
20
85.3221172
40
2.8122362
50
89.9692581
51
101.6689794
0
ARC
8
DEFAULT_255_2_778
10
74.5584724
20
85.3300583
40
2.7956069
50
269.937513
51
289.3747674
0
ARC
8
DEFAULT_255_2_778
10
74.5516615
20
85.3374864
40
2.8048766
50
289.4556789
51
348.2038094
0
ARC
8
DEFAULT_255_2_778
10
74.543494
20
85.3328462
40
2.8119298
50
348.3303817
51
0.0307034
0
ARC
8
DEFAULT_255_2_778
10
74.5598447
20
85.3374042
40
2.7955804
50
359.9374661
51
19.3749102
0
ARC
8
DEFAULT_255_2_778
10
74.5523832
20
85.3305633
40
2.8048915
50
19.4561717
51
78.2051196
0
ARC
8
DEFAULT_255_2_778
10
74.5569324
20
85.3221172
40
2.8122362
50
78.3310206
51
90.0307419
0
ARC
8
DEFAULT_255_2_778
10
81.7634642
20
4.8281592
40
2.2436706
50
269.9271976
51
292.19754
0
ARC
8
DEFAULT_255_2_778
10
81.7579553
20
4.8363474
40
2.2533342
50
292.248575
51
349.7568595
0
ARC
8
DEFAULT_255_2_778
10
81.7467356
20
4.833523
40
2.2638779
50
349.8776982
51
0.0244846
0
ARC
8
DEFAULT_255_2_778
10
81.7634656
20
4.8409463
40
2.2436459
50
67.8022412
51
90.0728393
0
ARC
8
DEFAULT_255_2_778
10
81.7579195
20
4.8327193
40
2.2533595
50
10.2415647
51
67.7507056
0
ARC
8
DEFAULT_255_2_778
10
81.7464226
20
4.8354595
40
2.2641909
50
359.9754772
51
10.1216009
0
ARC
8
DEFAULT_255_2_778
10
80.7552466
20
4.8408071
40
2.2437852
50
89.9267988
51
112.1970627
0
ARC
8
DEFAULT_255_2_778
10
80.760719
20
4.8328075
40
2.2532603
50
112.2490552
51
169.7602599
0
ARC
8
DEFAULT_255_2_778
10
80.7724563
20
4.8354639
40
2.2643433
50
169.8792012
51
180.0246333
0
ARC
8
DEFAULT_255_2_778
10
80.755248
20
4.8282984
40
2.2438099
50
247.803156
51
270.0731644
0
ARC
8
DEFAULT_255_2_778
10
80.7606833
20
4.8362592
40
2.253235
50
190.2413159
51
247.7516644
0
ARC
8
DEFAULT_255_2_778
10
80.7721433
20
4.8335185
40
2.2640302
50
179.975405
51
190.1214997
0
LINE
8
DEFAULT_255_2_778
10
81.2594133
20
2.5844904
11
81.7606133
21
2.5844904
0
LINE
8
DEFAULT_255_2_778
10
81.2594133
20
7.0845904
11
81.7606133
21
7.0845904
0
LINE
8
DEFAULT_255_2_778
10
81.2592133
20
7.0845904
11
80.7581133
21
7.0845904
0
LINE
8
DEFAULT_255_2_778
10
81.2592133
20
2.5844904
11
80.7581133
21
2.5844904
0
LINE
8
DEFAULT_255_2_778
10
51.7595133
20
11.2673904
11
51.7595133
21
15.3344904
0
LINE
8
DEFAULT_255_2_778
10
51.7595133
20
19.4016904
11
51.7595133
21
15.3344904
0
LINE
8
DEFAULT_255_2_778
10
30.0200133
20
14.2737904
11
28.9592133
21
15.3344904
0
LINE
8
DEFAULT_255_2_778
10
27.8988133
20
16.3949904
11
28.9595133
21
15.3342904
0
LINE
8
DEFAULT_255_2_778
10
30.0200177
20
16.3948823
11
28.9592177
21
15.3341823
0
LINE
8
DEFAULT_255_2_778
10
27.8988177
20
14.2736823
11
28.9595177
21
15.3344823
0
ARC
8
DEFAULT_255_2_778
10
28.9565746
20
15.3299583
40
2.7956069
50
250.6252326
51
270.062487
0
ARC
8
DEFAULT_255_2_778
10
28.9633855
20
15.3373864
40
2.8048766
50
191.7961906
51
250.5443211
0
ARC
8
DEFAULT_255_2_778
10
28.9715529
20
15.3327462
40
2.8119298
50
179.9692966
51
191.6696183
0
ARC
8
DEFAULT_255_2_778
10
28.9552022
20
15.3373042
40
2.7955804
50
160.6250898
51
180.0625339
0
ARC
8
DEFAULT_255_2_778
10
28.9626637
20
15.3304633
40
2.8048915
50
101.7948804
51
160.5438283
0
ARC
8
DEFAULT_255_2_778
10
28.9581146
20
15.3220172
40
2.8122362
50
89.9692581
51
101.6689794
0
ARC
8
DEFAULT_255_2_778
10
28.9623724
20
15.3299583
40
2.7956069
50
269.937513
51
289.3747674
0
ARC
8
DEFAULT_255_2_778
10
28.9555615
20
15.3373864
40
2.8048766
50
289.4556789
51
348.2038094
0
ARC
8
DEFAULT_255_2_778
10
28.947394
20
15.3327462
40
2.8119298
50
348.3303817
51
0.0307034
0
ARC
8
DEFAULT_255_2_778
10
28.9637447
20
15.3373042
40
2.7955804
50
359.9374661
51
19.3749102
0
ARC
8
DEFAULT_255_2_778
10
28.9562832
20
15.3304633
40
2.8048915
50
19.4561717
51
78.2051196
0
ARC
8
DEFAULT_255_2_778
10
28.9608324
20
15.3220172
40
2.8122362
50
78.3310206
51
90.0307419
0
LINE
8
DEFAULT_255_2_778
10
33.7310854
20
23.0737823
11
32.6703854
21
24.1345823
0
LINE
8
DEFAULT_255_2_778
10
31.6096854
20
25.1949823
11
32.6703854
21
24.1342823
0
LINE
8
DEFAULT_255_2_778
10
33.7310854
20
25.1949823
11
32.6703854
21
24.1342823
0
LINE
8
DEFAULT_255_2_778
10
31.6096854
20
23.0737823
11
32.6703854
21
24.1345823
0
ARC
8
DEFAULT_255_2_778
10
32.6676746
20
24.1300583
40
2.7956069
50
250.6252326
51
270.062487
0
ARC
8
DEFAULT_255_2_778
10
32.6744855
20
24.1374864
40
2.8048766
50
191.7961906
51
250.5443211
0
ARC
8
DEFAULT_255_2_778
10
32.6826529
20
24.1328462
40
2.8119298
50
179.9692966
51
191.6696183
0
ARC
8
DEFAULT_255_2_778
10
32.6663022
20
24.1374042
40
2.7955804
50
160.6250898
51
180.0625339
0
ARC
8
DEFAULT_255_2_778
10
32.6737637
20
24.1305633
40
2.8048915
50
101.7948804
51
160.5438283
0
ARC
8
DEFAULT_255_2_778
10
32.6692146
20
24.1221172
40
2.8122362
50
89.9692581
51
101.6689794
0
ARC
8
DEFAULT_255_2_778
10
32.6733724
20
24.1300583
40
2.7956069
50
269.937513
51
289.3747674
0
ARC
8
DEFAULT_255_2_778
10
32.6665615
20
24.1374864
40
2.8048766
50
289.4556789
51
348.2038094
0
ARC
8
DEFAULT_255_2_778
10
32.658394
20
24.1328462
40
2.8119298
50
348.3303817
51
0.0307034
0
ARC
8
DEFAULT_255_2_778
10
32.6747447
20
24.1374042
40
2.7955804
50
359.9374661
51
19.3749102
0
ARC
8
DEFAULT_255_2_778
10
32.6672832
20
24.1305633
40
2.8048915
50
19.4561717
51
78.2051196
0
ARC
8
DEFAULT_255_2_778
10
32.6718324
20
24.1221172
40
2.8122362
50
78.3310206
51
90.0307419
0
LINE
8
DEFAULT_255_2_778
10
55.470341
20
20.0671072
11
55.470341
21
24.1343072
0
LINE
8
DEFAULT_255_2_778
10
55.470341
20
28.2017072
11
55.470341
21
24.1345072
0
LINE
8
DEFAULT_255_2_778
10
79.331241
20
23.0738072
11
78.270541
21
24.1345072
0
LINE
8
DEFAULT_255_2_778
10
77.209841
20
25.1950072
11
78.270541
21
24.1343072
0
LINE
8
DEFAULT_255_2_778
10
79.3311854
20
25.1949823
11
78.2704854
21
24.1342823
0
LINE
8
DEFAULT_255_2_778
10
77.2097854
20
23.0737823
11
78.2704854
21
24.1345823
0
ARC
8
DEFAULT_255_2_778
10
78.2674746
20
24.1300583
40
2.7956069
50
250.6252326
51
270.062487
0
ARC
8
DEFAULT_255_2_778
10
78.2742855
20
24.1374864
40
2.8048766
50
191.7961906
51
250.5443211
0
ARC
8
DEFAULT_255_2_778
10
78.2824529
20
24.1328462
40
2.8119298
50
179.9692966
51
191.6696183
0
ARC
8
DEFAULT_255_2_778
10
78.2661022
20
24.1374042
40
2.7955804
50
160.6250898
51
180.0625339
0
ARC
8
DEFAULT_255_2_778
10
78.2735637
20
24.1305633
40
2.8048915
50
101.7948804
51
160.5438283
0
ARC
8
DEFAULT_255_2_778
10
78.2690146
20
24.1221172
40
2.8122362
50
89.9692581
51
101.6689794
0
ARC
8
DEFAULT_255_2_778
10
78.2735724
20
24.1300583
40
2.7956069
50
269.937513
51
289.3747674
0
ARC
8
DEFAULT_255_2_778
10
78.2667615
20
24.1374864
40
2.8048766
50
289.4556789
51
348.2038094
0
ARC
8
DEFAULT_255_2_778
10
78.258594
20
24.1328462
40
2.8119298
50
348.3303817
51
0.0307034
0
ARC
8
DEFAULT_255_2_778
10
78.2749447
20
24.1374042
40
2.7955804
50
359.9374661
51
19.3749102
0
ARC
8
DEFAULT_255_2_778
10
78.2674832
20
24.1305633
40
2.8048915
50
19.4561717
51
78.2051196
0
ARC
8
DEFAULT_255_2_778
10
78.2720324
20
24.1221172
40
2.8122362
50
78.3310206
51
90.0307419
0
LINE
8
DEFAULT_255_2_778
10
75.6200854
20
14.2736823
11
74.5593854
21
15.3344823
0
LINE
8
DEFAULT_255_2_778
10
73.4986854
20
16.3948823
11
74.5593854
21
15.3341823
0
LINE
8
DEFAULT_255_2_778
10
75.6200854
20
16.3948823
11
74.5593854
21
15.3341823
0
LINE
8
DEFAULT_255_2_778
10
73.4986854
20
14.2736823
11
74.5593854
21
15.3344823
0
ARC
8
DEFAULT_255_2_778
10
74.5564746
20
15.3299583
40
2.7956069
50
250.6252326
51
270.062487
0
ARC
8
DEFAULT_255_2_778
10
74.5632855
20
15.3373864
40
2.8048766
50
191.7961906
51
250.5443211
0
ARC
8
DEFAULT_255_2_778
10
74.5714529
20
15.3327462
40
2.8119298
50
179.9692966
51
191.6696183
0
ARC
8
DEFAULT_255_2_778
10
74.5551022
20
15.3373042
40
2.7955804
50
160.6250898
51
180.0625339
0
ARC
8
DEFAULT_255_2_778
10
74.5625637
20
15.3304633
40
2.8048915
50
101.7948804
51
160.5438283
0
ARC
8
DEFAULT_255_2_778
10
74.5580146
20
15.3220172
40
2.8122362
50
89.9692581
51
101.6689794
0
ARC
8
DEFAULT_255_2_778
10
74.5624724
20
15.3299583
40
2.7956069
50
269.937513
51
289.3747674
0
ARC
8
DEFAULT_255_2_778
10
74.5556615
20
15.3373864
40
2.8048766
50
289.4556789
51
348.2038094
0
ARC
8
DEFAULT_255_2_778
10
74.547494
20
15.3327462
40
2.8119298
50
348.3303817
51
0.0307034
0
ARC
8
DEFAULT_255_2_778
10
74.5638447
20
15.3373042
40
2.7955804
50
359.9374661
51
19.3749102
0
ARC
8
DEFAULT_255_2_778
10
74.5563832
20
15.3304633
40
2.8048915
50
19.4561717
51
78.2051196
0
ARC
8
DEFAULT_255_2_778
10
74.5609324
20
15.3220172
40
2.8122362
50
78.3310206
51
90.0307419
0
ENDSEC
0
EOF