0
SECTION
2
HEADER
9
$MEASUREMENT
70
1
0
ENDSEC
0
SECTION
2
TABLES
0
TABLE
2
LTYPE
0
LTYPE
72
65
70
64
2
CONTINUOUS
3
______
73
0
40
0
0
ENDTAB
0
TABLE
2
LAYER
0
LAYER
2
DEFAULT_255_2_778
70
0
62
255
6
CONTINUOUS
0
LAYER
2
DEFAULT_255_1_234
70
0
62
255
6
CONTINUOUS
0
ENDTAB
0
ENDSEC
0
SECTION
2
ENTITIES
0
ARC
8
DEFAULT_255_2_778
10
3.7023693
20
163.1176518
40
0.7914215
50
129.1312896
51
180.1450914
0
ARC
8
DEFAULT_255_2_778
10
3.7026345
20
163.1181389
40
0.7912112
50
89.854026
51
129.1684493
0
ARC
8
DEFAULT_255_2_778
10
25.9316937
20
163.1178255
40
0.7915249
50
39.4792447
51
90.147911
0
ARC
8
DEFAULT_255_2_778
10
25.9322935
20
163.1176721
40
0.7911595
50
359.8533901
51
39.5154338
0
ARC
8
DEFAULT_255_2_778
10
25.9319693
20
-1.9864004
40
0.7914836
50
309.4761667
51
0.1482649
0
ARC
8
DEFAULT_255_2_778
10
25.931698
20
-1.9868315
40
0.7913235
50
269.8517415
51
309.511178
0
ARC
8
DEFAULT_255_2_778
10
3.702642
20
-1.9867734
40
0.7913815
50
219.1282118
51
270.1454017
0
ARC
8
DEFAULT_255_2_778
10
3.7023247
20
-1.9863909
40
0.7913769
50
179.8524075
51
219.1641908
0
LINE
8
DEFAULT_255_2_778
10
3.7046503
20
163.9093477
11
25.9296503
21
163.9093477
0
LINE
8
DEFAULT_255_2_778
10
26.7234503
20
163.1156477
11
26.7234503
21
-1.9843523
0
LINE
8
DEFAULT_255_2_778
10
25.9296503
20
-2.7781523
11
3.7046503
21
-2.7781523
0
LINE
8
DEFAULT_255_2_778
10
2.9109503
20
-1.9843523
11
2.9109503
21
163.1156477
0
LINE
8
DEFAULT_255_1_234
10
9.233723
20
-0.2802337
11
9.3887355
21
-0.2802337
0
LINE
8
DEFAULT_255_1_234
10
8.4883777
20
-0.1212053
11
8.4883777
21
-0.0087609
0
LINE
8
DEFAULT_255_1_234
10
9.3887355
20
0.1422357
11
9.233723
21
0.1422357
0
LINE
8
DEFAULT_255_1_234
10
8.6433902
20
-0.0127768
11
8.6433902
21
-0.1260243
0
ARC
8
DEFAULT_255_1_234
10
8.8406742
20
-0.2205154
40
0.5513052
50
340.1774281
51
353.7814284
0
ARC
8
DEFAULT_255_1_234
10
8.9978095
20
-0.2790418
40
0.3836379
50
311.4558989
51
340.4421614
0
ARC
8
DEFAULT_255_1_234
10
8.9944763
20
-0.2679472
40
0.3941894
50
282.4333181
51
310.7513653
0
ARC
8
DEFAULT_255_1_234
10
8.9505502
20
-0.0864321
40
0.5809175
50
269.9358511
51
282.809604
0
ARC
8
DEFAULT_255_1_234
10
8.9453568
20
0.0593212
40
0.7266847
50
270.0021091
51
270.3581957
0
ARC
8
DEFAULT_255_1_234
10
8.9400985
20
-0.2007415
40
0.4666519
50
250.7884749
51
270.6489167
0
ARC
8
DEFAULT_255_1_234
10
8.923282
20
-0.2644681
40
0.4009729
50
219.3627325
51
250.0611886
0
ARC
8
DEFAULT_255_1_234
10
9.0062031
20
-0.1939958
40
0.5097822
50
193.5479632
51
219.5756669
0
ARC
8
DEFAULT_255_1_234
10
9.2433652
20
-0.1324081
40
0.7547848
50
181.1218675
51
193.87563
0
ARC
8
DEFAULT_255_1_234
10
9.4503833
20
-0.121342
40
0.9620055
50
179.9918545
51
181.5394234
0
ARC
8
DEFAULT_255_1_234
10
9.2652935
20
-0.0050212
40
0.7769248
50
169.5837241
51
180.2757934
0
ARC
8
DEFAULT_255_1_234
10
9.0815873
20
0.0289229
40
0.590109
50
155.0365899
51
169.6003176
0
ARC
8
DEFAULT_255_1_234
10
8.9680337
20
0.0836677
40
0.4640625
50
136.783148
51
155.2472683
0
ARC
8
DEFAULT_255_1_234
10
8.9290814
20
0.1167562
40
0.4130255
50
121.7633186
51
136.428115
0
ARC
8
DEFAULT_255_1_234
10
8.9425776
20
0.0918227
40
0.4413323
50
95.6459699
51
121.5490577
0
ARC
8
DEFAULT_255_1_234
10
8.9583058
20
-0.0190051
40
0.55319
50
89.924208
51
96.1377933
0
ARC
8
DEFAULT_255_1_234
10
8.9633491
20
-0.0071458
40
0.5413475
50
76.6779277
51
90.4563316
0
ARC
8
DEFAULT_255_1_234
10
9.0027114
20
0.1519114
40
0.3775041
50
47.485847
51
76.9287264
0
ARC
8
DEFAULT_255_1_234
10
8.9880087
20
0.1419159
40
0.3948286
50
16.5424086
51
46.8933463
0
ARC
8
DEFAULT_255_1_234
10
8.8272244
20
0.0890861
40
0.564021
50
5.4072051
51
17.0365086
0
ARC
8
DEFAULT_255_1_234
10
8.6833261
20
0.0659679
40
0.5556559
50
7.8891745
51
15.9239216
0
ARC
8
DEFAULT_255_1_234
10
8.8820274
20
0.1236631
40
0.3487515
50
15.7653144
51
27.9410532
0
ARC
8
DEFAULT_255_1_234
10
8.9924492
20
0.182779
40
0.2235026
50
27.8166557
51
46.4008329
0
ARC
8
DEFAULT_255_1_234
10
8.9974135
20
0.1822082
40
0.2205286
50
47.4371857
51
75.0698205
0
ARC
8
DEFAULT_255_1_234
10
8.9665529
20
0.0747765
40
0.3322915
50
74.7008593
51
87.8124495
0
ARC
8
DEFAULT_255_1_234
10
8.9592217
20
-0.0308156
40
0.4380987
50
87.3814673
51
90.0240855
0
ARC
8
DEFAULT_255_1_234
10
8.955376
20
0.0869291
40
0.3203749
50
89.3451631
51
108.5745436
0
ARC
8
DEFAULT_255_1_234
10
8.9416865
20
0.1382908
40
0.2673494
50
109.2998449
51
143.3037509
0
ARC
8
DEFAULT_255_1_234
10
9.0178938
20
0.0796881
40
0.3634757
50
143.0753173
51
163.1916937
0
ARC
8
DEFAULT_255_1_234
10
9.2130666
20
0.0180967
40
0.5681262
50
162.9373603
51
174.6208611
0
ARC
8
DEFAULT_255_1_234
10
9.4756708
20
-0.010699
40
0.8322832
50
174.3419979
51
180.1430411
0
ARC
8
DEFAULT_255_1_234
10
9.3825864
20
-0.1301302
40
0.7392076
50
179.6817502
51
189.150529
0
ARC
8
DEFAULT_255_1_234
10
9.1325112
20
-0.171781
40
0.4856932
50
188.9910863
51
203.5773039
0
ARC
8
DEFAULT_255_1_234
10
9.0245445
20
-0.2165789
40
0.3688271
50
203.9077269
51
215.1312379
0
ARC
8
DEFAULT_255_1_234
10
8.9322539
20
-0.2881059
40
0.2522457
50
213.9071664
51
263.8849284
0
ARC
8
DEFAULT_255_1_234
10
8.9447868
20
-0.2096482
40
0.3316174
50
263.1758525
51
270.1031083
0
ARC
8
DEFAULT_255_1_234
10
8.947996
20
-0.0849635
40
0.4563091
50
269.6719807
51
279.0609165
0
ARC
8
DEFAULT_255_1_234
10
8.9746728
20
-0.2462093
40
0.2928759
50
278.8750225
51
293.6346586
0
ARC
8
DEFAULT_255_1_234
10
9.0066936
20
-0.32141
40
0.2111472
50
293.8553404
51
310.0518804
0
ARC
8
DEFAULT_255_1_234
10
9.007179
20
-0.3276484
40
0.2060917
50
311.0646779
51
332.0108348
0
ARC
8
DEFAULT_255_1_234
10
8.8879517
20
-0.2619022
40
0.3422352
50
331.6588543
51
343.2878891
0
ARC
8
DEFAULT_255_1_234
10
8.6817032
20
-0.1985202
40
0.5580003
50
343.1446044
51
351.010618
0
ARC
8
DEFAULT_255_1_234
10
8.5275678
20
-0.1704129
40
0.7146438
50
350.7157277
51
351.1602153
0
LINE
8
DEFAULT_255_1_234
10
10.0288651
20
-0.1934909
11
9.7533765
21
-0.1934909
0
LINE
8
DEFAULT_255_1_234
10
9.7533765
20
-0.1934909
11
9.7533765
21
-0.6513
0
LINE
8
DEFAULT_255_1_234
10
9.7533765
20
-0.6513
11
9.5991671
21
-0.6513
0
LINE
8
DEFAULT_255_1_234
10
9.5991671
20
-0.6513
11
9.5991671
21
0.5181211
0
LINE
8
DEFAULT_255_1_234
10
9.5991671
20
0.5181211
11
10.0304714
21
0.5181211
0
LINE
8
DEFAULT_255_1_234
10
9.7533765
20
0.3912196
11
9.7533765
21
-0.0673926
0
LINE
8
DEFAULT_255_1_234
10
9.7533765
20
-0.0673926
11
10.0304714
21
-0.0673926
0
LINE
8
DEFAULT_255_1_234
10
10.0393063
20
0.3912196
11
9.7533765
21
0.3912196
0
ARC
8
DEFAULT_255_1_234
10
10.0346841
20
-0.0877805
40
0.6059162
50
78.8378113
51
90.3983573
0
ARC
8
DEFAULT_255_1_234
10
10.0762855
20
0.1142879
40
0.3996205
50
58.9632738
51
79.0810598
0
ARC
8
DEFAULT_255_1_234
10
10.1064397
20
0.1702721
40
0.3361177
50
48.0197965
51
58.447194
0
ARC
8
DEFAULT_255_1_234
10
10.1153258
20
0.1788225
40
0.3238191
50
3.3375044
51
48.1766626
0
ARC
8
DEFAULT_255_1_234
10
9.9923098
20
0.1611171
40
0.4477806
50
359.9477528
51
4.6829065
0
ARC
8
DEFAULT_255_1_234
10
10.0046414
20
0.1568628
40
0.4354656
50
346.1877825
51
0.5060252
0
ARC
8
DEFAULT_255_1_234
10
10.1405282
20
0.1215731
40
0.295089
50
310.8831995
51
346.5426355
0
ARC
8
DEFAULT_255_1_234
10
10.1096702
20
0.1632695
40
0.3468331
50
286.6925341
51
310.2288297
0
ARC
8
DEFAULT_255_1_234
10
10.0527533
20
0.3422882
40
0.5346654
50
274.6850312
51
287.0245141
0
ARC
8
DEFAULT_255_1_234
10
10.0302256
20
0.5631932
40
0.7566852
50
269.8969846
51
275.018904
0
ARC
8
DEFAULT_255_1_234
10
10.0329847
20
0.3552707
40
0.4226708
50
269.6593078
51
279.4153575
0
ARC
8
DEFAULT_255_1_234
10
10.0587122
20
0.2062133
40
0.2714146
50
279.2049762
51
294.9900808
0
ARC
8
DEFAULT_255_1_234
10
10.0877448
20
0.1414508
40
0.2004525
50
295.2888114
51
311.2911209
0
ARC
8
DEFAULT_255_1_234
10
10.0948342
20
0.130922
40
0.1878703
50
311.7854996
51
347.2861051
0
ARC
8
DEFAULT_255_1_234
10
9.9964501
20
0.1562092
40
0.2894234
50
346.6893224
51
0.1059443
0
ARC
8
DEFAULT_255_1_234
10
9.9209396
20
0.1590685
40
0.3649409
50
359.6350983
51
0.0053152
0
ARC
8
DEFAULT_255_1_234
10
10.0179724
20
0.1615937
40
0.2679199
50
359.4672059
51
15.5933957
0
ARC
8
DEFAULT_255_1_234
10
10.0804613
20
0.1784779
40
0.2031932
50
15.7442113
51
46.6203375
0
ARC
8
DEFAULT_255_1_234
10
10.0656834
20
0.1614484
40
0.2257226
50
46.8628658
51
75.6676503
0
ARC
8
DEFAULT_255_1_234
10
10.0362654
20
0.0555718
40
0.3355939
50
75.276167
51
88.2915297
0
ARC
8
DEFAULT_255_1_234
10
10.0304361
20
-0.0322476
40
0.4235602
50
87.8575022
51
88.8000139
0
LINE
8
DEFAULT_255_1_234
10
11.086645
20
0.5237433
11
11.086645
21
-0.6513
0
LINE
8
DEFAULT_255_1_234
10
11.086645
20
-0.6513
11
10.9372547
21
-0.6513
0
LINE
8
DEFAULT_255_1_234
10
10.9372547
20
-0.6513
11
10.9372547
21
0.3390133
0
LINE
8
DEFAULT_255_1_234
10
10.9372547
20
0.3390133
11
10.6376708
21
0.2289785
0
LINE
8
DEFAULT_255_1_234
10
10.6376708
20
0.2289785
11
10.6376708
21
0.3639117
0
LINE
8
DEFAULT_255_1_234
10
10.6376708
20
0.3639117
11
11.063353
21
0.5237433
0
LINE
8
DEFAULT_255_1_234
10
11.063353
20
0.5237433
11
11.086645
21
0.5237433
0
LINE
8
DEFAULT_255_1_234
10
12.2215296
20
0.0153343
11
12.2215296
21
-0.110764
0
LINE
8
DEFAULT_255_1_234
10
12.2215296
20
-0.110764
11
11.714727
21
-0.110764
0
LINE
8
DEFAULT_255_1_234
10
11.714727
20
-0.110764
11
11.714727
21
-0.5252017
0
LINE
8
DEFAULT_255_1_234
10
11.714727
20
-0.5252017
11
12.3034534
21
-0.5252017
0
LINE
8
DEFAULT_255_1_234
10
12.3034534
20
-0.5252017
11
12.3034534
21
-0.6513
0
LINE
8
DEFAULT_255_1_234
10
12.3034534
20
-0.6513
11
11.5605176
21
-0.6513
0
LINE
8
DEFAULT_255_1_234
10
11.5605176
20
-0.6513
11
11.5605176
21
0.5181211
0
LINE
8
DEFAULT_255_1_234
10
11.5605176
20
0.5181211
11
12.2954216
21
0.5181211
0
LINE
8
DEFAULT_255_1_234
10
12.2954216
20
0.5181211
11
12.2954216
21
0.3912196
0
LINE
8
DEFAULT_255_1_234
10
12.2954216
20
0.3912196
11
11.714727
21
0.3912196
0
LINE
8
DEFAULT_255_1_234
10
11.714727
20
0.3912196
11
11.714727
21
0.0153343
0
LINE
8
DEFAULT_255_1_234
10
11.714727
20
0.0153343
11
12.2215296
21
0.0153343
0
LINE
8
DEFAULT_255_1_234
10
12.7813418
20
-0.0938974
11
12.7813418
21
-0.2151766
0
LINE
8
DEFAULT_255_1_234
10
12.7813418
20
-0.2151766
11
12.389393
21
-0.2151766
0
LINE
8
DEFAULT_255_1_234
10
12.389393
20
-0.2151766
11
12.389393
21
-0.0938974
0
LINE
8
DEFAULT_255_1_234
10
12.389393
20
-0.0938974
11
12.7813418
21
-0.0938974
0
LINE
8
DEFAULT_255_1_234
10
13.6102172
20
0.0153343
11
13.6102172
21
-0.110764
0
LINE
8
DEFAULT_255_1_234
10
13.6102172
20
-0.110764
11
13.1034145
21
-0.110764
0
LINE
8
DEFAULT_255_1_234
10
13.1034145
20
-0.110764
11
13.1034145
21
-0.5252017
0
LINE
8
DEFAULT_255_1_234
10
13.1034145
20
-0.5252017
11
13.6921409
21
-0.5252017
0
LINE
8
DEFAULT_255_1_234
10
13.6921409
20
-0.5252017
11
13.6921409
21
-0.6513
0
LINE
8
DEFAULT_255_1_234
10
13.6921409
20
-0.6513
11
12.9492051
21
-0.6513
0
LINE
8
DEFAULT_255_1_234
10
12.9492051
20
-0.6513
11
12.9492051
21
0.5181211
0
LINE
8
DEFAULT_255_1_234
10
12.9492051
20
0.5181211
11
13.6841092
21
0.5181211
0
LINE
8
DEFAULT_255_1_234
10
13.6841092
20
0.5181211
11
13.6841092
21
0.3912196
0
LINE
8
DEFAULT_255_1_234
10
13.6841092
20
0.3912196
11
13.1034145
21
0.3912196
0
LINE
8
DEFAULT_255_1_234
10
13.1034145
20
0.3912196
11
13.1034145
21
0.0153343
0
LINE
8
DEFAULT_255_1_234
10
13.1034145
20
0.0153343
11
13.6102172
21
0.0153343
0
LINE
8
DEFAULT_255_1_234
10
14.0616009
20
-0.1155831
11
14.0616009
21
0.0056962
0
LINE
8
DEFAULT_255_1_234
10
14.0616009
20
0.0056962
11
14.173242
21
0.0056962
0
LINE
8
DEFAULT_255_1_234
10
13.9828898
20
0.2113087
11
13.8343027
21
0.2113087
0
LINE
8
DEFAULT_255_1_234
10
13.8238614
20
-0.3428812
11
13.9732518
21
-0.3428812
0
LINE
8
DEFAULT_255_1_234
10
14.173242
20
-0.1155831
11
14.0616009
21
-0.1155831
0
ARC
8
DEFAULT_255_1_234
10
14.1703287
20
0.3449713
40
0.3392876
50
270.4919872
51
281.8951556
0
ARC
8
DEFAULT_255_1_234
10
14.1944548
20
0.2347702
40
0.2264817
50
281.6691735
51
301.2943132
0
ARC
8
DEFAULT_255_1_234
10
14.2114759
20
0.2036304
40
0.1910381
50
301.7833094
51
311.7545298
0
ARC
8
DEFAULT_255_1_234
10
14.2206334
20
0.1934748
40
0.1773635
50
311.7323931
51
354.2802411
0
ARC
8
DEFAULT_255_1_234
10
14.147996
20
0.2059722
40
0.2509385
50
353.0937916
51
0.1181479
0
ARC
8
DEFAULT_255_1_234
10
14.1018745
20
0.2107386
40
0.2970898
50
359.1805295
51
15.0453146
0
ARC
8
DEFAULT_255_1_234
10
14.2364582
20
0.2499992
40
0.1569564
50
13.9577229
51
77.6713066
0
ARC
8
DEFAULT_255_1_234
10
14.1978111
20
0.1114949
40
0.3006298
50
76.1116566
51
90.7026153
0
ARC
8
DEFAULT_255_1_234
10
14.1918949
20
0.1388545
40
0.2732568
50
89.5324876
51
103.531937
0
ARC
8
DEFAULT_255_1_234
10
14.1718393
20
0.2187884
40
0.1908508
50
103.2931773
51
133.5619022
0
ARC
8
DEFAULT_255_1_234
10
14.1673881
20
0.2247375
40
0.1834746
50
133.8349307
51
173.5344437
0
ARC
8
DEFAULT_255_1_234
10
14.2396925
20
0.2119213
40
0.2568033
50
172.5096846
51
180.1366907
0
ARC
8
DEFAULT_255_1_234
10
14.1445818
20
0.2153622
40
0.3103056
50
155.3484492
51
180.7484736
0
ARC
8
DEFAULT_255_1_234
10
14.1396908
20
0.2124846
40
0.3070957
50
131.5744599
51
154.4798489
0
ARC
8
DEFAULT_255_1_234
10
14.1710055
20
0.180831
40
0.3515643
50
96.9875458
51
131.9690667
0
ARC
8
DEFAULT_255_1_234
10
14.1929535
20
0.0562636
40
0.4779224
50
89.8596053
51
97.7825159
0
ARC
8
DEFAULT_255_1_234
10
14.1977598
20
0.0300616
40
0.5041361
50
78.3655447
51
90.4131539
0
ARC
8
DEFAULT_255_1_234
10
14.2335516
20
0.1959887
40
0.3344039
50
56.6229102
51
78.638727
0
ARC
8
DEFAULT_255_1_234
10
14.2550459
20
0.2335805
40
0.2912001
50
47.0253525
51
56.0854072
0
ARC
8
DEFAULT_255_1_234
10
14.2570239
20
0.2375223
40
0.2869704
50
10.9208013
51
46.7778124
0
ARC
8
DEFAULT_255_1_234
10
14.1206306
20
0.2059857
40
0.426899
50
359.6364486
51
11.6087304
0
ARC
8
DEFAULT_255_1_234
10
14.304115
20
0.2044752
40
0.243409
50
332.3549906
51
359.7179418
0
ARC
8
DEFAULT_255_1_234
10
14.2390751
20
0.2353142
40
0.3153459
50
325.2333722
51
332.8745602
0
ARC
8
DEFAULT_255_1_234
10
14.2543375
20
0.2246828
40
0.2967456
50
292.9802137
51
325.2392345
0
ARC
8
DEFAULT_255_1_234
10
14.2268749
20
0.2780863
40
0.3566604
50
292.5402179
51
293.6924929
0
ARC
8
DEFAULT_255_1_234
10
14.2661345
20
-0.3673909
40
0.3307468
50
57.6435486
51
72.8625112
0
ARC
8
DEFAULT_255_1_234
10
14.3015845
20
-0.3099451
40
0.2632492
50
36.7248896
51
57.4697979
0
ARC
8
DEFAULT_255_1_234
10
14.3004477
20
-0.308678
40
0.2634081
50
8.0545065
51
36.356114
0
ARC
8
DEFAULT_255_1_234
10
14.2141663
20
-0.3241826
40
0.3510261
50
359.8320645
51
8.5869982
0
ARC
8
DEFAULT_255_1_234
10
14.1766439
20
-0.3289899
40
0.3885653
50
343.9829931
51
0.5571613
0
ARC
8
DEFAULT_255_1_234
10
14.2652636
20
-0.3532562
40
0.2966924
50
311.6359546
51
343.7651759
0
ARC
8
DEFAULT_255_1_234
10
14.2274205
20
-0.3105898
40
0.3537231
50
279.7829875
51
311.6255694
0
ARC
8
DEFAULT_255_1_234
10
14.1972981
20
-0.166872
40
0.5004971
50
269.7286406
51
280.3856417
0
ARC
8
DEFAULT_255_1_234
10
14.1911054
20
-0.1710004
40
0.4963778
50
256.6828919
51
270.4412052
0
ARC
8
DEFAULT_255_1_234
10
14.157235
20
-0.3094606
40
0.3538406
50
229.4223008
51
256.8556159
0
ARC
8
DEFAULT_255_1_234
10
14.1157743
20
-0.3561264
40
0.2914296
50
181.818294
51
229.6455059
0
ARC
8
DEFAULT_255_1_234
10
14.2197699
20
-0.3430504
40
0.3959084
50
179.9755256
51
183.2323064
0
ARC
8
DEFAULT_255_1_234
10
14.2025445
20
-0.3450963
40
0.2293034
50
179.4465117
51
196.2869258
0
ARC
8
DEFAULT_255_1_234
10
14.1537853
20
-0.3584349
40
0.1787621
50
196.5661473
51
227.705904
0
ARC
8
DEFAULT_255_1_234
10
14.1701948
20
-0.3400845
40
0.2033784
50
227.7652068
51
257.8762805
0
ARC
8
DEFAULT_255_1_234
10
14.1926918
20
-0.2457844
40
0.3003081
50
257.4584385
51
270.426602
0
ARC
8
DEFAULT_255_1_234
10
14.1972484
20
-0.2168004
40
0.329292
50
269.5962073
51
280.8789248
0
ARC
8
DEFAULT_255_1_234
10
14.2202013
20
-0.3314315
40
0.2123908
50
280.6346389
51
299.8595945
0
ARC
8
DEFAULT_255_1_234
10
14.2392919
20
-0.3676788
40
0.171457
50
300.3576302
51
314.5517981
0
ARC
8
DEFAULT_255_1_234
10
14.2309979
20
-0.3616081
40
0.1816095
50
315.0728369
51
345.0431014
0
ARC
8
DEFAULT_255_1_234
10
14.1386794
20
-0.3347159
40
0.2777492
50
344.5986631
51
357.9269593
0
ARC
8
DEFAULT_255_1_234
10
14.049112
20
-0.3285724
40
0.3674917
50
357.4748886
51
0.0231117
0
ARC
8
DEFAULT_255_1_234
10
14.1514229
20
-0.3261321
40
0.2651907
50
359.5047933
51
13.4239635
0
ARC
8
DEFAULT_255_1_234
10
14.2380873
20
-0.3039522
40
0.1757509
50
12.9498199
51
48.7551375
0
ARC
8
DEFAULT_255_1_234
10
14.2198607
20
-0.32886
40
0.2065134
50
49.5088623
51
72.1836453
0
ARC
8
DEFAULT_255_1_234
10
14.184076
20
-0.4350709
40
0.3185836
50
71.9010081
51
84.3554254
0
ARC
8
DEFAULT_255_1_234
10
14.1679391
20
-0.5711674
40
0.4556151
50
84.0193428
51
89.333121
0
LINE
8
DEFAULT_255_1_234
10
15.5024947
20
0.0402327
11
15.5024947
21
-0.1525291
0
LINE
8
DEFAULT_255_1_234
10
14.764378
20
-0.1726084
11
14.764378
21
0.0257755
0
LINE
8
DEFAULT_255_1_234
10
15.3539076
20
-0.1926877
11
15.3539076
21
0.0506739
0
LINE
8
DEFAULT_255_1_234
10
14.9129651
20
0.0619184
11
14.9129651
21
-0.1758211
0
ARC
8
DEFAULT_255_1_234
10
14.2777837
20
-0.1574195
40
1.2247208
50
353.8441951
51
0.2287902
0
ARC
8
DEFAULT_255_1_234
10
14.741734
20
-0.2092194
40
0.7578929
50
344.4934747
51
353.9765454
0
ARC
8
DEFAULT_255_1_234
10
15.0409931
20
-0.2943019
40
0.4467846
50
329.2803592
51
344.7472793
0
ARC
8
DEFAULT_255_1_234
10
15.1402756
20
-0.3487982
40
0.3336173
50
324.9352394
51
328.6160465
0
ARC
8
DEFAULT_255_1_234
10
15.1779864
20
-0.3751573
40
0.2876076
50
280.580143
51
324.9173126
0
ARC
8
DEFAULT_255_1_234
10
15.1378657
20
-0.2080901
40
0.4592847
50
269.5977311
51
281.6734359
0
ARC
8
DEFAULT_255_1_234
10
15.1306562
20
-0.2200827
40
0.4472986
50
256.6228859
51
270.51044
0
ARC
8
DEFAULT_255_1_234
10
15.090454
20
-0.3749123
40
0.2873874
50
215.8618325
51
257.2788573
0
ARC
8
DEFAULT_255_1_234
10
15.1925572
20
-0.3064023
40
0.4102928
50
197.9693508
51
215.2623606
0
ARC
8
DEFAULT_255_1_234
10
15.4410688
20
-0.2225291
40
0.6725652
50
187.8816417
51
198.2346507
0
ARC
8
DEFAULT_255_1_234
10
15.8368896
20
-0.1653921
40
1.0724845
50
180.8976217
51
188.0055519
0
ARC
8
DEFAULT_255_1_234
10
16.1169084
20
-0.1550223
40
1.3526448
50
180.7449369
51
181.1510016
0
ARC
8
DEFAULT_255_1_234
10
15.9591813
20
0.0306042
40
1.1948131
50
173.7675579
51
180.231553
0
ARC
8
DEFAULT_255_1_234
10
15.507396
20
0.0816666
40
0.7401564
50
164.3058563
51
173.9002247
0
ARC
8
DEFAULT_255_1_234
10
15.2162028
20
0.1655656
40
0.4371288
50
148.7922025
51
164.568378
0
ARC
8
DEFAULT_255_1_234
10
15.1210481
20
0.2186929
40
0.3282386
50
144.5883898
51
148.1176286
0
ARC
8
DEFAULT_255_1_234
10
15.0867379
20
0.2426315
40
0.2864044
50
101.6440918
51
144.514236
0
ARC
8
DEFAULT_255_1_234
10
15.1292445
20
0.0737069
40
0.4604934
50
89.5284041
51
102.5819763
0
ARC
8
DEFAULT_255_1_234
10
15.1371533
20
0.0698018
40
0.464401
50
77.0437873
51
90.5081339
0
ARC
8
DEFAULT_255_1_234
10
15.1773535
20
0.2340615
40
0.2953195
50
48.2778575
51
77.4994676
0
ARC
8
DEFAULT_255_1_234
10
15.1846166
20
0.2469746
40
0.2808655
50
36.3142134
51
47.6305865
0
ARC
8
DEFAULT_255_1_234
10
15.0977473
20
0.1884515
40
0.3855453
50
18.2931786
51
35.6769206
0
ARC
8
DEFAULT_255_1_234
10
14.8434232
20
0.1011593
40
0.654423
50
8.024666
51
18.5605216
0
ARC
8
DEFAULT_255_1_234
10
14.4271152
20
0.0396792
40
1.0752407
50
1.1274072
51
8.1718305
0
ARC
8
DEFAULT_255_1_234
10
14.1035342
20
0.0269885
40
1.3990231
50
0.5424119
51
1.3863029
0
ARC
8
DEFAULT_255_1_234
10
14.285672
20
0.0542342
40
1.0682415
50
359.8090433
51
4.9407866
0
ARC
8
DEFAULT_255_1_234
10
14.7066734
20
0.0918113
40
0.6455691
50
4.8362157
51
12.2904523
0
ARC
8
DEFAULT_255_1_234
10
14.9821849
20
0.1531965
40
0.3633074
50
12.0805627
51
23.8173984
0
ARC
8
DEFAULT_255_1_234
10
15.0995554
20
0.2028919
40
0.2358723
50
24.2871213
51
31.3935614
0
ARC
8
DEFAULT_255_1_234
10
15.1520252
20
0.2372233
40
0.1732111
50
30.7407893
51
82.4657128
0
ARC
8
DEFAULT_255_1_234
10
15.1340386
20
0.1488691
40
0.263235
50
81.1060089
51
90.2184952
0
ARC
8
DEFAULT_255_1_234
10
15.1304685
20
0.1746924
40
0.2374236
50
89.3806855
51
105.6762551
0
ARC
8
DEFAULT_255_1_234
10
15.1121316
20
0.2413567
40
0.1682847
50
105.7981136
51
149.7388061
0
ARC
8
DEFAULT_255_1_234
10
15.2185394
20
0.177395
40
0.2924306
50
149.4208916
51
163.6286378
0
ARC
8
DEFAULT_255_1_234
10
15.4276282
20
0.113625
40
0.5110213
50
163.3763315
51
172.1410975
0
ARC
8
DEFAULT_255_1_234
10
15.7577001
20
0.0663518
40
0.8444586
50
172.0259487
51
178.0703232
0
ARC
8
DEFAULT_255_1_234
10
16.060709
20
0.0519906
40
1.1477868
50
177.8631668
51
179.5044149
0
ARC
8
DEFAULT_255_1_234
10
15.9534495
20
-0.1794611
40
1.0404907
50
179.7995573
51
185.2460446
0
ARC
8
DEFAULT_255_1_234
10
15.5491534
20
-0.2177487
40
0.6343885
50
185.1411642
51
193.0079639
0
ARC
8
DEFAULT_255_1_234
10
15.2848007
20
-0.2802359
40
0.3627568
50
192.7897626
51
205.2507664
0
ARC
8
DEFAULT_255_1_234
10
15.1801554
20
-0.3269585
40
0.2481908
50
205.8005384
51
211.2537509
0
ARC
8
DEFAULT_255_1_234
10
15.1277994
20
-0.362042
40
0.1852521
50
210.3789793
51
238.4008143
0
ARC
8
DEFAULT_255_1_234
10
15.1258516
20
-0.3573624
40
0.1882621
50
239.6520629
51
265.9793761
0
ARC
8
DEFAULT_255_1_234
10
15.1343716
20
-0.2901573
40
0.2559272
50
265.1315437
51
270.060332
0
ARC
8
DEFAULT_255_1_234
10
15.1372495
20
-0.3225466
40
0.2235528
50
269.3314664
51
287.2178029
0
ARC
8
DEFAULT_255_1_234
10
15.1510347
20
-0.3728721
40
0.1714108
50
287.7958004
51
329.080874
0
ARC
8
DEFAULT_255_1_234
10
15.0552804
20
-0.313107
40
0.2842745
50
328.6634704
51
343.3325132
0
ARC
8
DEFAULT_255_1_234
10
14.8379824
20
-0.2454137
40
0.5118644
50
343.0499468
51
351.9393422
0
ARC
8
DEFAULT_255_1_234
10
14.4913124
20
-0.1943051
40
0.8622784
50
351.8069023
51
357.7959224
0
ARC
8
DEFAULT_255_1_234
10
14.167768
20
-0.1775279
40
1.1862365
50
357.5871873
51
359.2677531
0
LINE
8
DEFAULT_255_1_234
10
16.5072652
20
0.1799849
11
16.3522526
21
0.1799849
0
LINE
8
DEFAULT_255_1_234
10
15.6599168
20
-0.3123606
11
15.8149293
21
-0.3123606
0
ARC
8
DEFAULT_255_1_234
10
16.4181339
20
1.0746768
40
1.252368
50
248.9199003
51
254.1439814
0
ARC
8
DEFAULT_255_1_234
10
16.2500834
20
0.6420234
40
0.788226
50
241.633709
51
249.0064503
0
ARC
8
DEFAULT_255_1_234
10
16.0972228
20
0.3619317
40
0.4691427
50
230.498225
51
241.8087113
0
ARC
8
DEFAULT_255_1_234
10
16.0187803
20
0.2619906
40
0.3421437
50
227.4064532
51
229.9881192
0
ARC
8
DEFAULT_255_1_234
10
15.9700323
20
0.2144088
40
0.2741476
50
200.6781896
51
228.1763934
0
ARC
8
DEFAULT_255_1_234
10
15.9772634
20
0.2129077
40
0.2804109
50
179.5061581
51
199.8694617
0
ARC
8
DEFAULT_255_1_234
10
15.9763386
20
0.220321
40
0.2795204
50
132.4834203
51
181.0242172
0
ARC
8
DEFAULT_255_1_234
10
16.0358968
20
0.1640704
40
0.3612768
50
129.2532479
51
133.4242687
0
ARC
8
DEFAULT_255_1_234
10
16.0505418
20
0.1420965
40
0.3875675
50
101.98776
51
128.8742646
0
ARC
8
DEFAULT_255_1_234
10
16.0904028
20
-0.0300259
40
0.5642249
50
89.5906553
51
102.3169264
0
ARC
8
DEFAULT_255_1_234
10
16.097452
20
0.0018148
40
0.5323783
50
77.2360837
51
90.3248275
0
ARC
8
DEFAULT_255_1_234
10
16.1181599
20
0.09854
40
0.4334697
50
63.837784
51
77.0809408
0
ARC
8
DEFAULT_255_1_234
10
16.1459361
20
0.1502911
40
0.3747796
50
45.9864267
51
64.1607727
0
ARC
8
DEFAULT_255_1_234
10
16.1720242
20
0.1800866
40
0.3352302
50
32.2747395
51
45.6547121
0
ARC
8
DEFAULT_255_1_234
10
16.1786683
20
0.181988
40
0.328603
50
359.6507365
51
32.6130309
0
ARC
8
DEFAULT_255_1_234
10
16.0843778
20
0.182466
40
0.2678863
50
359.469343
51
14.9832209
0
ARC
8
DEFAULT_255_1_234
10
16.1548841
20
0.2013539
40
0.1948938
50
14.9781179
51
48.2004265
0
ARC
8
DEFAULT_255_1_234
10
16.1384485
20
0.1806983
40
0.2212521
50
48.5927837
51
74.1241538
0
ARC
8
DEFAULT_255_1_234
10
16.1050975
20
0.0706248
40
0.3362561
50
73.7888341
51
86.6652678
0
ARC
8
DEFAULT_255_1_234
10
16.094854
20
-0.0501119
40
0.4573953
50
86.2640471
51
90.0526343
0
ARC
8
DEFAULT_255_1_234
10
16.0920253
20
-0.0105808
40
0.4178709
50
89.6697524
51
99.2309573
0
ARC
8
DEFAULT_255_1_234
10
16.0677704
20
0.1338964
40
0.2713749
50
99.069534
51
113.7658566
0
ARC
8
DEFAULT_255_1_234
10
16.0403895
20
0.1984677
40
0.2012469
50
114.0401004
51
127.9850673
0
ARC
8
DEFAULT_255_1_234
10
16.0163459
20
0.228073
40
0.1631167
50
127.7287463
51
176.7105154
0
ARC
8
DEFAULT_255_1_234
10
16.0842176
20
0.2179693
40
0.2315392
50
175.1779447
51
180.0581938
0
ARC
8
DEFAULT_255_1_234
10
15.9999023
20
0.2167428
40
0.1472271
50
179.6142195
51
228.1246017
0
ARC
8
DEFAULT_255_1_234
10
16.0440692
20
0.2576308
40
0.2072299
50
226.5779593
51
230.8800004
0
ARC
8
DEFAULT_255_1_234
10
16.091177
20
0.3201636
40
0.2854818
50
231.4635071
51
241.9260842
0
ARC
8
DEFAULT_255_1_234
10
16.2108948
20
0.54048
40
0.53622
50
241.7178533
51
248.3259551
0
ARC
8
DEFAULT_255_1_234
10
16.349432
20
0.8837064
40
0.9063478
50
248.2007737
51
252.4528373
0
ARC
8
DEFAULT_255_1_234
10
16.4698045
20
1.2558441
40
1.2974635
50
252.3391078
51
254.3469452
0
ARC
8
DEFAULT_255_1_234
10
15.7155748
20
-1.4418852
40
1.5037162
50
71.0197183
51
74.4087047
0
ARC
8
DEFAULT_255_1_234
10
15.8850433
20
-0.9526889
40
0.9859993
50
66.1847285
51
71.086374
0
ARC
8
DEFAULT_255_1_234
10
16.0406745
20
-0.60228
40
0.6025855
50
59.3536294
51
66.2691831
0
ARC
8
DEFAULT_255_1_234
10
16.1295398
20
-0.4519391
40
0.4279449
50
49.1020879
51
59.3293958
0
ARC
8
DEFAULT_255_1_234
10
16.2114138
20
-0.3586166
40
0.3038015
50
32.7919921
51
49.2505539
0
ARC
8
DEFAULT_255_1_234
10
16.2435227
20
-0.3357809
40
0.264448
50
31.1181161
51
32.4005348
0
ARC
8
DEFAULT_255_1_234
10
16.2346765
20
-0.3393221
40
0.2738556
50
8.1116974
51
30.7958831
0
ARC
8
DEFAULT_255_1_234
10
16.1536433
20
-0.3531247
40
0.3560327
50
359.8389159
51
8.4706516
0
ARC
8
DEFAULT_255_1_234
10
16.2162225
20
-0.3579863
40
0.2934776
50
337.4731098
51
0.7537279
0
ARC
8
DEFAULT_255_1_234
10
16.234092
20
-0.3599613
40
0.2762607
50
307.5917067
51
336.4315538
0
ARC
8
DEFAULT_255_1_234
10
16.1880748
20
-0.3086898
40
0.3449979
50
307.6551545
51
308.4529766
0
ARC
8
DEFAULT_255_1_234
10
16.1650466
20
-0.273175
40
0.3871988
50
284.3734338
51
307.1424381
0
ARC
8
DEFAULT_255_1_234
10
16.1155297
20
-0.0910068
40
0.5759636
50
272.4382747
51
284.646547
0
ARC
8
DEFAULT_255_1_234
10
16.1028505
20
0.0889893
40
0.7563528
50
269.9708387
51
272.8178037
0
ARC
8
DEFAULT_255_1_234
10
16.0985545
20
-0.1148284
40
0.5525489
50
248.2707594
51
270.4055579
0
ARC
8
DEFAULT_255_1_234
10
16.0931286
20
-0.1338808
40
0.5328452
50
246.1383403
51
248.0542782
0
ARC
8
DEFAULT_255_1_234
10
16.0512665
20
-0.2218157
40
0.4355005
50
233.1670131
51
246.4950969
0
ARC
8
DEFAULT_255_1_234
10
15.995857
20
-0.2966188
40
0.3424126
50
215.3403242
51
233.0843104
0
ARC
8
DEFAULT_255_1_234
10
15.9686001
20
-0.3164451
40
0.3087104
50
179.2419209
51
215.2648451
0
ARC
8
DEFAULT_255_1_234
10
16.0453595
20
-0.3150334
40
0.2304457
50
179.335461
51
199.1045811
0
ARC
8
DEFAULT_255_1_234
10
16.0121272
20
-0.3237234
40
0.1962176
50
199.8828939
51
232.7063202
0
ARC
8
DEFAULT_255_1_234
10
16.059354
20
-0.2643212
40
0.2720938
50
232.3738199
51
255.5136649
0
ARC
8
DEFAULT_255_1_234
10
16.0934407
20
-0.1399165
40
0.4010747
50
255.2446292
51
267.5320849
0
ARC
8
DEFAULT_255_1_234
10
16.102203
20
-0.0166298
40
0.5246356
50
267.1557994
51
270.0286766
0
ARC
8
DEFAULT_255_1_234
10
16.1049802
20
-0.061005
40
0.4802668
50
269.7000017
51
278.1660162
0
ARC
8
DEFAULT_255_1_234
10
16.1305807
20
-0.2340485
40
0.3053425
50
278.0231263
51
290.625471
0
ARC
8
DEFAULT_255_1_234
10
16.1653494
20
-0.3267975
40
0.206291
50
290.6619762
51
307.0370976
0
ARC
8
DEFAULT_255_1_234
10
16.1953883
20
-0.3636496
40
0.1587906
50
306.3943566
51
355.3030547
0
ARC
8
DEFAULT_255_1_234
10
16.1441815
20
-0.3559887
40
0.2104809
50
354.3660432
51
0.0698737
0
ARC
8
DEFAULT_255_1_234
10
16.158416
20
-0.3537383
40
0.1962563
50
359.417946
51
16.1971788
0
ARC
8
DEFAULT_255_1_234
10
16.203947
20
-0.3412582
40
0.149053
50
16.4723299
51
52.6262157
0
ARC
8
DEFAULT_255_1_234
10
16.1218524
20
-0.4496567
40
0.2850296
50
52.7386432
51
62.4979148
0
ARC
8
DEFAULT_255_1_234
10
15.9833601
20
-0.7102717
40
0.5801521
50
62.2515216
51
68.1220564
0
ARC
8
DEFAULT_255_1_234
10
15.8113512
20
-1.1330128
40
1.0365451
50
68.0062803
51
71.8053402
0
ARC
8
DEFAULT_255_1_234
10
15.6317884
20
-1.6715242
40
1.6042013
50
71.7183119
51
73.9258742
0
LINE
8
DEFAULT_255_1_234
10
17.0309345
20
-0.6513
11
16.7072555
21
-0.6513
0
LINE
8
DEFAULT_255_1_234
10
16.7072555
20
-0.6513
11
16.7072555
21
0.5181211
0
LINE
8
DEFAULT_255_1_234
10
16.7072555
20
0.5181211
11
17.0373599
21
0.5181211
0
LINE
8
DEFAULT_255_1_234
10
17.5529975
20
-0.0272339
11
17.5529975
21
-0.1019291
0
LINE
8
DEFAULT_255_1_234
10
17.0413758
20
0.3912196
11
16.8614648
21
0.3912196
0
LINE
8
DEFAULT_255_1_234
10
16.8614648
20
0.3912196
11
16.8614648
21
-0.5252017
0
LINE
8
DEFAULT_255_1_234
10
16.8614648
20
-0.5252017
11
17.023706
21
-0.5252017
0
LINE
8
DEFAULT_255_1_234
10
17.4003945
20
-0.0987164
11
17.4003945
21
-0.0304466
0
ARC
8
DEFAULT_255_1_234
10
17.0412542
20
-0.0684106
40
0.5865446
50
75.4101064
51
90.3804066
0
ARC
8
DEFAULT_255_1_234
10
17.0642055
20
0.0272492
40
0.4881916
50
60.145586
51
75.1888407
0
ARC
8
DEFAULT_255_1_234
10
17.0800831
20
0.0549199
40
0.4562893
50
26.5253612
51
60.1450928
0
ARC
8
DEFAULT_255_1_234
10
16.968058
20
-0.0044842
40
0.5830602
50
7.4030428
51
26.8320788
0
ARC
8
DEFAULT_255_1_234
10
16.8086337
20
-0.0293196
40
0.7443669
50
0.1605367
51
7.7176192
0
ARC
8
DEFAULT_255_1_234
10
16.8250241
20
-0.1057566
40
0.7279835
50
348.7289388
51
0.3012466
0
ARC
8
DEFAULT_255_1_234
10
16.9906672
20
-0.1386614
40
0.559104
50
333.0706509
51
348.7181832
0
ARC
8
DEFAULT_255_1_234
10
17.0873429
20
-0.1911681
40
0.4491417
50
299.2531685
51
333.4571258
0
ARC
8
DEFAULT_255_1_234
10
17.0512569
20
-0.1226172
40
0.5265881
50
278.107187
51
299.0339503
0
ARC
8
DEFAULT_255_1_234
10
17.0256648
20
0.0281216
40
0.679442
50
270.4443897
51
278.4511052
0
ARC
8
DEFAULT_255_1_234
10
17.0277478
20
-0.0647787
40
0.4604407
50
269.4970433
51
284.0205042
0
ARC
8
DEFAULT_255_1_234
10
17.0632779
20
-0.2013022
40
0.3193797
50
283.7700273
51
318.1555492
0
ARC
8
DEFAULT_255_1_234
10
17.0295537
20
-0.1760633
40
0.3613588
50
318.7415601
51
343.6873628
0
ARC
8
DEFAULT_255_1_234
10
16.849156
20
-0.1197168
40
0.5503313
50
343.3325091
51
355.8548958
0
ARC
8
DEFAULT_255_1_234
10
16.6393244
20
-0.0997681
40
0.7610708
50
355.4988528
51
0.0791727
0
ARC
8
DEFAULT_255_1_234
10
16.7175867
20
-0.026222
40
0.6828208
50
359.6455037
51
9.8607896
0
ARC
8
DEFAULT_255_1_234
10
16.9536565
20
0.0164099
40
0.4429406
50
9.6571907
51
26.1932807
0
ARC
8
DEFAULT_255_1_234
10
17.0464554
20
0.0595118
40
0.3406537
50
26.5777228
51
40.1532208
0
ARC
8
DEFAULT_255_1_234
10
17.072028
20
0.0794619
40
0.308246
50
40.3840491
51
80.1431104
0
ARC
8
DEFAULT_255_1_234
10
17.0393398
20
-0.0654667
40
0.4566909
50
79.2152159
51
89.7445637
0
LINE
8
DEFAULT_255_1_234
10
18.4686157
20
-0.6513
11
18.2148127
21
-0.1782306
0
LINE
8
DEFAULT_255_1_234
10
18.2148127
20
-0.1782306
11
17.9401273
21
-0.1782306
0
LINE
8
DEFAULT_255_1_234
10
17.9401273
20
-0.1782306
11
17.9401273
21
-0.6513
0
LINE
8
DEFAULT_255_1_234
10
17.9401273
20
-0.6513
11
17.7851147
21
-0.6513
0
LINE
8
DEFAULT_255_1_234
10
17.7851147
20
-0.6513
11
17.7851147
21
0.5181211
0
LINE
8
DEFAULT_255_1_234
10
17.7851147
20
0.5181211
11
18.1722445
21
0.5181211
0
LINE
8
DEFAULT_255_1_234
10
18.359384
20
-0.1453005
11
18.6340695
21
-0.6416619
0
LINE
8
DEFAULT_255_1_234
10
18.6340695
20
-0.6416619
11
18.6340695
21
-0.6513
0
LINE
8
DEFAULT_255_1_234
10
18.6340695
20
-0.6513
11
18.4686157
21
-0.6513
0
LINE
8
DEFAULT_255_1_234
10
17.9401273
20
0.3912196
11
17.9401273
21
-0.0521323
0
LINE
8
DEFAULT_255_1_234
10
17.9401273
20
-0.0521323
11
18.1770636
21
-0.0521323
0
LINE
8
DEFAULT_255_1_234
10
18.1762604
20
0.3912196
11
17.9401273
21
0.3912196
0
ARC
8
DEFAULT_255_1_234
10
18.1764085
20
-0.1780239
40
0.6961575
50
80.653586
51
90.3427061
0
ARC
8
DEFAULT_255_1_234
10
18.2183559
20
0.0682348
40
0.4463577
50
65.6987447
51
80.8329603
0
ARC
8
DEFAULT_255_1_234
10
18.26612
20
0.1777322
40
0.3269094
50
50.0017161
51
65.4305835
0
ARC
8
DEFAULT_255_1_234
10
18.2879665
20
0.2072482
40
0.2902647
50
11.628416
51
49.5603263
0
ARC
8
DEFAULT_255_1_234
10
18.1344001
20
0.1697299
40
0.4482792
50
359.5655735
51
12.3691
0
ARC
8
DEFAULT_255_1_234
10
18.242086
20
0.1634644
40
0.3405924
50
341.9983148
51
0.4822259
0
ARC
8
DEFAULT_255_1_234
10
18.28157
20
0.1527471
40
0.2997359
50
323.8609373
51
341.61416
0
ARC
8
DEFAULT_255_1_234
10
18.2513944
20
0.1760484
40
0.3378487
50
296.7018614
51
323.6876402
0
ARC
8
DEFAULT_255_1_234
10
18.207284
20
0.2549235
40
0.4281516
50
290.8086567
51
297.2323311
0
ARC
8
DEFAULT_255_1_234
10
18.1796369
20
0.3072351
40
0.3593766
50
269.589728
51
281.8058135
0
ARC
8
DEFAULT_255_1_234
10
18.2047268
20
0.1924743
40
0.2419125
50
281.5501019
51
303.9357432
0
ARC
8
DEFAULT_255_1_234
10
18.2184456
20
0.1686936
40
0.2145323
50
304.4415616
51
311.2106213
0
ARC
8
DEFAULT_255_1_234
10
18.2316561
20
0.1547632
40
0.1953505
50
310.9875673
51
356.2715578
0
ARC
8
DEFAULT_255_1_234
10
18.156021
20
0.1660422
40
0.2716331
50
354.9348262
51
0.0609027
0
ARC
8
DEFAULT_255_1_234
10
18.1373084
20
0.1687435
40
0.2903554
50
359.5239371
51
12.8808918
0
ARC
8
DEFAULT_255_1_234
10
18.235064
20
0.1926728
40
0.1897315
50
12.4173452
51
43.1022135
0
ARC
8
DEFAULT_255_1_234
10
18.2412244
20
0.1963724
40
0.1827118
50
43.5751728
51
48.203944
0
ARC
8
DEFAULT_255_1_234
10
18.2242736
20
0.1742302
40
0.2105272
50
48.7809703
51
72.6969569
0
ARC
8
DEFAULT_255_1_234
10
18.1888361
20
0.066682
40
0.3237537
50
72.3702241
51
84.8791103
0
ARC
8
DEFAULT_255_1_234
10
18.1740837
20
-0.0675231
40
0.4587478
50
84.5400526
51
89.7281406
0
LINE
8
DEFAULT_255_1_234
10
19.08465
20
-0.0938974
11
19.08465
21
-0.2151766
0
LINE
8
DEFAULT_255_1_234
10
19.08465
20
-0.2151766
11
18.6927012
21
-0.2151766
0
LINE
8
DEFAULT_255_1_234
10
18.6927012
20
-0.2151766
11
18.6927012
21
-0.0938974
0
LINE
8
DEFAULT_255_1_234
10
18.6927012
20
-0.0938974
11
19.08465
21
-0.0938974
0
LINE
8
DEFAULT_255_1_234
10
20.0099062
20
-0.6513
11
19.8982651
21
-0.3460939
0
LINE
8
DEFAULT_255_1_234
10
19.8982651
20
-0.3460939
11
19.4083291
21
-0.3460939
0
LINE
8
DEFAULT_255_1_234
10
19.4083291
20
-0.3460939
11
19.2982942
21
-0.6513
0
LINE
8
DEFAULT_255_1_234
10
19.2982942
20
-0.6513
11
19.1392658
21
-0.6513
0
LINE
8
DEFAULT_255_1_234
10
19.1392658
20
-0.6513
11
19.5858305
21
0.5181211
0
LINE
8
DEFAULT_255_1_234
10
19.5858305
20
0.5181211
11
19.7207637
21
0.5181211
0
LINE
8
DEFAULT_255_1_234
10
19.7207637
20
0.5181211
11
20.1681315
21
-0.6513
0
LINE
8
DEFAULT_255_1_234
10
20.1681315
20
-0.6513
11
20.0099062
21
-0.6513
0
LINE
8
DEFAULT_255_1_234
10
19.6532971
20
0.3277689
11
19.4549131
21
-0.2191925
0
LINE
8
DEFAULT_255_1_234
10
19.4549131
20
-0.2191925
11
19.8524842
21
-0.2191925
0
LINE
8
DEFAULT_255_1_234
10
19.8524842
20
-0.2191925
11
19.6532971
21
0.3277689
0
ARC
8
DEFAULT_255_2_778
10
15.4041323
20
161.674189
40
0.3782009
50
0.4397807
51
91.3045231
0
ARC
8
DEFAULT_255_2_778
10
15.4019879
20
161.6719064
40
0.3803695
50
269.0259909
51
0.7811192
0
ARC
8
DEFAULT_255_2_778
10
15.5611293
20
161.6594643
40
0.7639615
50
290.7362057
51
357.8000295
0
ARC
8
DEFAULT_255_2_778
10
15.4759031
20
161.6770235
40
0.8499188
50
356.8376875
51
0.0046095
0
ARC
8
DEFAULT_255_2_778
10
15.4745443
20
161.6770748
40
0.8512778
50
0.0011515
51
85.3589632
0
ARC
8
DEFAULT_255_2_778
10
15.4745371
20
161.6580092
40
0.8702827
50
85.4600549
51
90.0075769
0
ARC
8
DEFAULT_255_2_778
10
20.305685
20
161.6677426
40
0.3845507
50
1.3931151
51
90.158378
0
ARC
8
DEFAULT_255_2_778
10
20.3652096
20
161.6613635
40
0.8684198
50
359.7643557
51
42.1181505
0
ARC
8
DEFAULT_255_2_778
10
20.3676156
20
161.6617931
40
0.866348
50
42.2037872
51
87.9292218
0
ARC
8
DEFAULT_255_2_778
10
20.3628626
20
161.6205097
40
0.9077821
50
87.7235759
51
90.0025578
0
ARC
8
DEFAULT_255_2_778
10
13.0587947
20
161.6746344
40
0.3777354
50
0.3727528
51
91.1638813
0
ARC
8
DEFAULT_255_2_778
10
13.1128692
20
161.6613595
40
0.8684602
50
359.7646302
51
42.1161032
0
ARC
8
DEFAULT_255_2_778
10
13.1153774
20
161.6619127
40
0.8662296
50
42.2002176
51
87.9268901
0
ARC
8
DEFAULT_255_2_778
10
13.1106626
20
161.6208749
40
0.9074169
50
87.7231194
51
90.002558
0
ARC
8
DEFAULT_255_2_778
10
17.691342
20
161.2695858
40
1.2841942
50
233.3100129
51
270.0348017
0
ARC
8
DEFAULT_255_2_778
10
17.7034133
20
161.2899622
40
1.3077482
50
187.7860459
51
233.4193197
0
ARC
8
DEFAULT_255_2_778
10
17.7216588
20
161.2915185
40
1.3260368
50
179.9838663
51
187.7458681
0
ARC
8
DEFAULT_255_2_778
10
17.6801523
20
161.2921375
40
1.2845303
50
143.7084173
51
180.0109545
0
ARC
8
DEFAULT_255_2_778
10
17.6952238
20
161.2870899
40
1.2996747
50
94.9692901
51
143.9223324
0
ARC
8
DEFAULT_255_2_778
10
17.6920032
20
161.2877347
40
1.2987573
50
89.9947559
51
94.8302073
0
ARC
8
DEFAULT_255_2_778
10
17.6942339
20
161.2819304
40
1.3045632
50
58.1407344
51
90.0927508
0
ARC
8
DEFAULT_255_2_778
10
17.7023831
20
161.2875662
40
1.2954809
50
3.5056409
51
58.315291
0
ARC
8
DEFAULT_255_2_778
10
17.7034163
20
161.2916563
40
1.2942058
50
359.9971467
51
3.3277024
0
ARC
8
DEFAULT_255_2_778
10
17.5149088
20
161.2895483
40
1.4827147
50
0.006083
51
0.0789681
0
ARC
8
DEFAULT_255_2_778
10
17.6927187
20
161.2897022
40
1.3049047
50
315.0308293
51
0.0001529
0
ARC
8
DEFAULT_255_2_778
10
17.6932377
20
161.2894521
40
1.3043608
50
270.000667
51
315.0224921
0
LINE
8
DEFAULT_255_2_778
10
17.6932529
20
159.9850914
11
17.6921221
21
159.9850919
0
ARC
8
DEFAULT_255_2_778
10
17.6963812
20
161.2879112
40
0.7580313
50
269.6780691
51
315.5292436
0
ARC
8
DEFAULT_255_2_778
10
17.6933107
20
161.2871878
40
0.7597205
50
315.7303962
51
0.2857903
0
ARC
8
DEFAULT_255_2_778
10
17.9810376
20
161.2914382
40
0.4719845
50
359.944048
51
0.0186519
0
ARC
8
DEFAULT_255_2_778
10
17.7010772
20
161.2904605
40
0.7519457
50
0.086204
51
85.4319233
0
ARC
8
DEFAULT_255_2_778
10
17.6922609
20
161.2480338
40
0.7949581
50
85.0420495
51
90.0100075
0
ARC
8
DEFAULT_255_2_778
10
17.6902396
20
161.3047519
40
0.7382424
50
89.8538973
51
89.9999976
0
ARC
8
DEFAULT_255_2_778
10
17.690377
20
161.2918044
40
0.7511899
50
90.01048
51
134.9443097
0
ARC
8
DEFAULT_255_2_778
10
17.6905947
20
161.2916222
40
0.7514726
50
134.9462486
51
180.0023145
0
ARC
8
DEFAULT_255_2_778
10
17.7031624
20
161.2876875
40
0.7640503
50
179.7072119
51
222.5790813
0
ARC
8
DEFAULT_255_2_778
10
17.6902296
20
161.2766475
40
0.7470579
50
222.6267201
51
270.1451401
0
ARC
8
DEFAULT_255_2_778
10
9.696742
20
161.2695858
40
1.2841942
50
233.3100129
51
270.0348017
0
ARC
8
DEFAULT_255_2_778
10
9.7088133
20
161.2899622
40
1.3077482
50
187.7860459
51
233.4193197
0
ARC
8
DEFAULT_255_2_778
10
9.7270588
20
161.2915185
40
1.3260368
50
179.9838663
51
187.7458681
0
ARC
8
DEFAULT_255_2_778
10
9.6858129
20
161.2919961
40
1.2847909
50
143.1940819
51
180.0046489
0
ARC
8
DEFAULT_255_2_778
10
9.7006078
20
161.2873006
40
1.2994598
50
94.9233187
51
143.4191345
0
ARC
8
DEFAULT_255_2_778
10
9.6974008
20
161.288012
40
1.2984798
50
89.9946509
51
94.7850278
0
ARC
8
DEFAULT_255_2_778
10
9.6996902
20
161.2818441
40
1.3046496
50
58.1428905
51
90.0952196
0
ARC
8
DEFAULT_255_2_778
10
9.7081177
20
161.2879453
40
1.2950254
50
3.2656058
51
58.3171105
0
ARC
8
DEFAULT_255_2_778
10
9.7086693
20
161.2919485
40
1.2942527
50
359.997494
51
3.0900664
0
ARC
8
DEFAULT_255_2_778
10
9.7259718
20
161.2897448
40
1.276952
50
359.9949307
51
0.0963391
0
ARC
8
DEFAULT_255_2_778
10
9.6986093
20
161.2897585
40
1.3043147
50
315.0200668
51
359.994431
0
ARC
8
DEFAULT_255_2_778
10
9.6986338
20
161.28952
40
1.3041287
50
270.0008363
51
315.026719
0
LINE
8
DEFAULT_255_2_778
10
9.6986529
20
159.9853914
11
9.6975221
21
159.9853919
0
ARC
8
DEFAULT_255_2_778
10
9.7017412
20
161.2879135
40
0.7580334
50
269.6810953
51
315.6152252
0
ARC
8
DEFAULT_255_2_778
10
9.6986839
20
161.2872381
40
0.7597504
50
315.8129036
51
0.3254485
0
ARC
8
DEFAULT_255_2_778
10
9.7061176
20
161.2901565
40
0.7523058
50
0.1093155
51
85.7820321
0
ARC
8
DEFAULT_255_2_778
10
9.6976381
20
161.2486263
40
0.7943655
50
85.3923987
51
90.0083732
0
ARC
8
DEFAULT_255_2_778
10
9.6956385
20
161.3038348
40
0.7391595
50
89.8539942
51
89.9999859
0
ARC
8
DEFAULT_255_2_778
10
9.695705
20
161.2919783
40
0.7510159
50
90.0050654
51
134.9497993
0
ARC
8
DEFAULT_255_2_778
10
9.6955746
20
161.2917963
40
0.7510526
50
134.9329452
51
180.0155944
0
ARC
8
DEFAULT_255_2_778
10
9.7085945
20
161.2876612
40
0.7640826
50
179.7052536
51
222.5741919
0
ARC
8
DEFAULT_255_2_778
10
9.6955805
20
161.2766163
40
0.7470269
50
222.6256588
51
270.1489141
0
LINE
8
DEFAULT_255_2_778
10
14.2091221
20
162.5076919
11
14.2091221
21
160.0448919
0
LINE
8
DEFAULT_255_2_778
10
14.2091221
20
160.0448919
11
14.7526221
21
160.0448919
0
LINE
8
DEFAULT_255_2_778
10
14.7526221
20
160.0448919
11
14.7526221
21
162.0522919
0
LINE
8
DEFAULT_255_2_778
10
14.7526221
20
162.0522919
11
15.3955221
21
162.0522919
0
LINE
8
DEFAULT_255_2_778
10
15.3955221
20
161.2915919
11
14.9309221
21
161.2915919
0
LINE
8
DEFAULT_255_2_778
10
14.9309221
20
161.2915919
11
15.7720221
21
160.0445919
0
LINE
8
DEFAULT_255_2_778
10
15.7720221
20
160.0445919
11
16.4449221
21
160.0445919
0
LINE
8
DEFAULT_255_2_778
10
16.4449221
20
160.0445919
11
15.8316221
21
160.9449919
0
LINE
8
DEFAULT_255_2_778
10
15.4744221
20
162.5282919
11
14.7523221
21
162.5282919
0
LINE
8
DEFAULT_255_2_778
10
14.7523221
20
162.5282919
11
14.2089221
21
162.5076919
0
LINE
8
DEFAULT_255_2_778
10
14.2089221
20
162.5076919
11
14.2091221
21
162.5076919
0
LINE
8
DEFAULT_255_2_778
10
19.1465221
20
162.5076919
11
19.1465221
21
160.0448919
0
LINE
8
DEFAULT_255_2_778
10
19.1465221
20
160.0448919
11
19.6900221
21
160.0448919
0
LINE
8
DEFAULT_255_2_778
10
19.6900221
20
160.0448919
11
19.6900221
21
162.0522919
0
LINE
8
DEFAULT_255_2_778
10
19.6900221
20
162.0522919
11
20.3046221
21
162.0522919
0
LINE
8
DEFAULT_255_2_778
10
20.6901221
20
161.6770919
11
20.6901221
21
160.0448919
0
LINE
8
DEFAULT_255_2_778
10
20.6901221
20
160.0448919
11
21.2336221
21
160.0448919
0
LINE
8
DEFAULT_255_2_778
10
21.2336221
20
160.0448919
11
21.2336221
21
161.6577919
0
LINE
8
DEFAULT_255_2_778
10
20.3628221
20
162.5282919
11
19.6900221
21
162.5282919
0
LINE
8
DEFAULT_255_2_778
10
19.6900221
20
162.5282919
11
19.1465221
21
162.5076919
0
LINE
8
DEFAULT_255_2_778
10
19.1465221
20
162.5076919
11
19.1465221
21
162.5076919
0
LINE
8
DEFAULT_255_2_778
10
11.1519221
20
162.5076919
11
11.1519221
21
160.0448919
0
LINE
8
DEFAULT_255_2_778
10
11.1519221
20
160.0448919
11
11.6951221
21
160.0448919
0
LINE
8
DEFAULT_255_2_778
10
11.6951221
20
160.0448919
11
11.6951221
21
162.0522919
0
LINE
8
DEFAULT_255_2_778
10
11.6951221
20
162.0522919
11
12.2994221
21
162.0522919
0
LINE
8
DEFAULT_255_2_778
10
12.2994221
20
162.0522919
11
12.2994221
21
160.0448919
0
LINE
8
DEFAULT_255_2_778
10
12.2994221
20
160.0448919
11
12.8428221
21
160.0448919
0
LINE
8
DEFAULT_255_2_778
10
12.8428221
20
160.0448919
11
12.8428221
21
162.0522919
0
LINE
8
DEFAULT_255_2_778
10
12.8428221
20
162.0522919
11
13.0511221
21
162.0522919
0
LINE
8
DEFAULT_255_2_778
10
13.4365221
20
161.6770919
11
13.4365221
21
160.0448919
0
LINE
8
DEFAULT_255_2_778
10
13.4365221
20
160.0448919
11
13.9813221
21
160.0448919
0
LINE
8
DEFAULT_255_2_778
10
13.9813221
20
160.0448919
11
13.9813221
21
161.6577919
0
LINE
8
DEFAULT_255_2_778
10
13.1106221
20
162.5282919
11
11.7054221
21
162.5282919
0
LINE
8
DEFAULT_255_2_778
10
11.7054221
20
162.5282919
11
11.1516221
21
162.5076919
0
LINE
8
DEFAULT_255_2_778
10
11.1516221
20
162.5076919
11
11.1519221
21
162.5076919
0
LINE
8
DEFAULT_255_2_778
10
17.6921221
20
159.9850919
11
17.6921221
21
159.9853919
0
LINE
8
DEFAULT_255_2_778
10
9.6975221
20
159.9853919
11
9.6975221
21
159.9853919
0
LINE
8
DEFAULT_255_1_234
10
11.587423
20
157.8082663
11
11.7424355
21
157.8082663
0
LINE
8
DEFAULT_255_1_234
10
10.8420777
20
157.9672947
11
10.8420777
21
158.0797391
0
LINE
8
DEFAULT_255_1_234
10
11.7424355
20
158.2307357
11
11.587423
21
158.2307357
0
LINE
8
DEFAULT_255_1_234
10
10.9970902
20
158.0757232
11
10.9970902
21
157.9624757
0
ARC
8
DEFAULT_255_1_234
10
11.1943742
20
157.8679846
40
0.5513052
50
340.1774281
51
353.7814284
0
ARC
8
DEFAULT_255_1_234
10
11.3515095
20
157.8094582
40
0.3836379
50
311.4558989
51
340.4421614
0
ARC
8
DEFAULT_255_1_234
10
11.3481763
20
157.8205528
40
0.3941894
50
282.4333181
51
310.7513653
0
ARC
8
DEFAULT_255_1_234
10
11.3042502
20
158.0020679
40
0.5809175
50
269.9358511
51
282.809604
0
ARC
8
DEFAULT_255_1_234
10
11.2990568
20
158.1478212
40
0.7266847
50
270.0021091
51
270.3581957
0
ARC
8
DEFAULT_255_1_234
10
11.2937985
20
157.8877585
40
0.4666519
50
250.7884749
51
270.6489167
0
ARC
8
DEFAULT_255_1_234
10
11.276982
20
157.8240319
40
0.4009729
50
219.3627325
51
250.0611886
0
ARC
8
DEFAULT_255_1_234
10
11.3599031
20
157.8945042
40
0.5097822
50
193.5479632
51
219.5756669
0
ARC
8
DEFAULT_255_1_234
10
11.5970652
20
157.9560919
40
0.7547848
50
181.1218675
51
193.87563
0
ARC
8
DEFAULT_255_1_234
10
11.8040833
20
157.967158
40
0.9620055
50
179.9918545
51
181.5394234
0
ARC
8
DEFAULT_255_1_234
10
11.6189935
20
158.0834788
40
0.7769248
50
169.5837241
51
180.2757934
0
ARC
8
DEFAULT_255_1_234
10
11.4352873
20
158.1174229
40
0.590109
50
155.0365899
51
169.6003176
0
ARC
8
DEFAULT_255_1_234
10
11.3217337
20
158.1721677
40
0.4640625
50
136.783148
51
155.2472683
0
ARC
8
DEFAULT_255_1_234
10
11.2827814
20
158.2052562
40
0.4130255
50
121.7633186
51
136.428115
0
ARC
8
DEFAULT_255_1_234
10
11.2962776
20
158.1803227
40
0.4413323
50
95.6459699
51
121.5490577
0
ARC
8
DEFAULT_255_1_234
10
11.3120058
20
158.0694949
40
0.55319
50
89.924208
51
96.1377933
0
ARC
8
DEFAULT_255_1_234
10
11.3170491
20
158.0813542
40
0.5413475
50
76.6779277
51
90.4563316
0
ARC
8
DEFAULT_255_1_234
10
11.3564114
20
158.2404114
40
0.3775041
50
47.485847
51
76.9287264
0
ARC
8
DEFAULT_255_1_234
10
11.3417087
20
158.2304159
40
0.3948286
50
16.5424086
51
46.8933463
0
ARC
8
DEFAULT_255_1_234
10
11.1809244
20
158.1775861
40
0.564021
50
5.4072051
51
17.0365086
0
ARC
8
DEFAULT_255_1_234
10
11.0370261
20
158.1544679
40
0.5556559
50
7.8891745
51
15.9239216
0
ARC
8
DEFAULT_255_1_234
10
11.2357274
20
158.2121631
40
0.3487515
50
15.7653144
51
27.9410532
0
ARC
8
DEFAULT_255_1_234
10
11.3461492
20
158.271279
40
0.2235026
50
27.8166557
51
46.4008329
0
ARC
8
DEFAULT_255_1_234
10
11.3511135
20
158.2707082
40
0.2205286
50
47.4371857
51
75.0698205
0
ARC
8
DEFAULT_255_1_234
10
11.3202529
20
158.1632765
40
0.3322915
50
74.7008593
51
87.8124495
0
ARC
8
DEFAULT_255_1_234
10
11.3129217
20
158.0576844
40
0.4380987
50
87.3814673
51
90.0240855
0
ARC
8
DEFAULT_255_1_234
10
11.309076
20
158.1754291
40
0.3203749
50
89.3451631
51
108.5745436
0
ARC
8
DEFAULT_255_1_234
10
11.2953865
20
158.2267908
40
0.2673494
50
109.2998449
51
143.3037509
0
ARC
8
DEFAULT_255_1_234
10
11.3715938
20
158.1681881
40
0.3634757
50
143.0753173
51
163.1916937
0
ARC
8
DEFAULT_255_1_234
10
11.5667666
20
158.1065967
40
0.5681262
50
162.9373603
51
174.6208611
0
ARC
8
DEFAULT_255_1_234
10
11.8293708
20
158.077801
40
0.8322832
50
174.3419979
51
180.1430411
0
ARC
8
DEFAULT_255_1_234
10
11.7362864
20
157.9583698
40
0.7392076
50
179.6817502
51
189.150529
0
ARC
8
DEFAULT_255_1_234
10
11.4862112
20
157.916719
40
0.4856932
50
188.9910863
51
203.5773039
0
ARC
8
DEFAULT_255_1_234
10
11.3782445
20
157.8719211
40
0.3688271
50
203.9077269
51
215.1312379
0
ARC
8
DEFAULT_255_1_234
10
11.2859539
20
157.8003941
40
0.2522457
50
213.9071664
51
263.8849284
0
ARC
8
DEFAULT_255_1_234
10
11.2984868
20
157.8788518
40
0.3316174
50
263.1758525
51
270.1031083
0
ARC
8
DEFAULT_255_1_234
10
11.301696
20
158.0035365
40
0.4563091
50
269.6719807
51
279.0609165
0
ARC
8
DEFAULT_255_1_234
10
11.3283728
20
157.8422907
40
0.2928759
50
278.8750225
51
293.6346586
0
ARC
8
DEFAULT_255_1_234
10
11.3603936
20
157.76709
40
0.2111472
50
293.8553404
51
310.0518804
0
ARC
8
DEFAULT_255_1_234
10
11.360879
20
157.7608516
40
0.2060917
50
311.0646779
51
332.0108348
0
ARC
8
DEFAULT_255_1_234
10
11.2416517
20
157.8265978
40
0.3422352
50
331.6588543
51
343.2878891
0
ARC
8
DEFAULT_255_1_234
10
11.0354032
20
157.8899798
40
0.5580003
50
343.1446044
51
351.010618
0
ARC
8
DEFAULT_255_1_234
10
10.8812678
20
157.9180871
40
0.7146438
50
350.7157277
51
351.1602153
0
LINE
8
DEFAULT_255_1_234
10
12.3825651
20
157.8950091
11
12.1070765
21
157.8950091
0
LINE
8
DEFAULT_255_1_234
10
12.1070765
20
157.8950091
11
12.1070765
21
157.4372
0
LINE
8
DEFAULT_255_1_234
10
12.1070765
20
157.4372
11
11.9528671
21
157.4372
0
LINE
8
DEFAULT_255_1_234
10
11.9528671
20
157.4372
11
11.9528671
21
158.6066211
0
LINE
8
DEFAULT_255_1_234
10
11.9528671
20
158.6066211
11
12.3841714
21
158.6066211
0
LINE
8
DEFAULT_255_1_234
10
12.1070765
20
158.4797196
11
12.1070765
21
158.0211074
0
LINE
8
DEFAULT_255_1_234
10
12.1070765
20
158.0211074
11
12.3841714
21
158.0211074
0
LINE
8
DEFAULT_255_1_234
10
12.3930063
20
158.4797196
11
12.1070765
21
158.4797196
0
ARC
8
DEFAULT_255_1_234
10
12.3883841
20
158.0007195
40
0.6059162
50
78.8378113
51
90.3983573
0
ARC
8
DEFAULT_255_1_234
10
12.4299855
20
158.2027879
40
0.3996205
50
58.9632738
51
79.0810598
0
ARC
8
DEFAULT_255_1_234
10
12.4601397
20
158.2587721
40
0.3361177
50
48.0197965
51
58.447194
0
ARC
8
DEFAULT_255_1_234
10
12.4690258
20
158.2673225
40
0.3238191
50
3.3375044
51
48.1766626
0
ARC
8
DEFAULT_255_1_234
10
12.3460098
20
158.2496171
40
0.4477806
50
359.9477528
51
4.6829065
0
ARC
8
DEFAULT_255_1_234
10
12.3583414
20
158.2453628
40
0.4354656
50
346.1877825
51
0.5060252
0
ARC
8
DEFAULT_255_1_234
10
12.4942282
20
158.2100731
40
0.295089
50
310.8831995
51
346.5426355
0
ARC
8
DEFAULT_255_1_234
10
12.4633702
20
158.2517695
40
0.3468331
50
286.6925341
51
310.2288297
0
ARC
8
DEFAULT_255_1_234
10
12.4064533
20
158.4307882
40
0.5346654
50
274.6850312
51
287.0245141
0
ARC
8
DEFAULT_255_1_234
10
12.3839256
20
158.6516932
40
0.7566852
50
269.8969846
51
275.018904
0
ARC
8
DEFAULT_255_1_234
10
12.3866847
20
158.4437707
40
0.4226708
50
269.6593078
51
279.4153575
0
ARC
8
DEFAULT_255_1_234
10
12.4124122
20
158.2947133
40
0.2714146
50
279.2049762
51
294.9900808
0
ARC
8
DEFAULT_255_1_234
10
12.4414448
20
158.2299508
40
0.2004525
50
295.2888114
51
311.2911209
0
ARC
8
DEFAULT_255_1_234
10
12.4485342
20
158.219422
40
0.1878703
50
311.7854996
51
347.2861051
0
ARC
8
DEFAULT_255_1_234
10
12.3501501
20
158.2447092
40
0.2894234
50
346.6893224
51
0.1059443
0
ARC
8
DEFAULT_255_1_234
10
12.2746396
20
158.2475685
40
0.3649409
50
359.6350983
51
0.0053152
0
ARC
8
DEFAULT_255_1_234
10
12.3716724
20
158.2500937
40
0.2679199
50
359.4672059
51
15.5933957
0
ARC
8
DEFAULT_255_1_234
10
12.4341613
20
158.2669779
40
0.2031932
50
15.7442113
51
46.6203375
0
ARC
8
DEFAULT_255_1_234
10
12.4193834
20
158.2499484
40
0.2257226
50
46.8628658
51
75.6676503
0
ARC
8
DEFAULT_255_1_234
10
12.3899654
20
158.1440718
40
0.3355939
50
75.276167
51
88.2915297
0
ARC
8
DEFAULT_255_1_234
10
12.3841361
20
158.0562524
40
0.4235602
50
87.8575022
51
88.8000139
0
LINE
8
DEFAULT_255_1_234
10
13.2764976
20
157.9946026
11
13.2764976
21
157.8733234
0
LINE
8
DEFAULT_255_1_234
10
13.2764976
20
157.8733234
11
12.8845487
21
157.8733234
0
LINE
8
DEFAULT_255_1_234
10
12.8845487
20
157.8733234
11
12.8845487
21
157.9946026
0
LINE
8
DEFAULT_255_1_234
10
12.8845487
20
157.9946026
11
13.2764976
21
157.9946026
0
LINE
8
DEFAULT_255_1_234
10
14.2202268
20
158.2684849
11
14.0652143
21
158.2684849
0
LINE
8
DEFAULT_255_1_234
10
13.3728784
20
157.7761394
11
13.527891
21
157.7761394
0
ARC
8
DEFAULT_255_1_234
10
14.1310955
20
159.1631768
40
1.252368
50
248.9199003
51
254.1439814
0
ARC
8
DEFAULT_255_1_234
10
13.963045
20
158.7305234
40
0.788226
50
241.633709
51
249.0064503
0
ARC
8
DEFAULT_255_1_234
10
13.8101845
20
158.4504317
40
0.4691427
50
230.498225
51
241.8087113
0
ARC
8
DEFAULT_255_1_234
10
13.7317419
20
158.3504906
40
0.3421437
50
227.4064532
51
229.9881192
0
ARC
8
DEFAULT_255_1_234
10
13.682994
20
158.3029088
40
0.2741476
50
200.6781896
51
228.1763934
0
ARC
8
DEFAULT_255_1_234
10
13.690225
20
158.3014077
40
0.2804109
50
179.5061581
51
199.8694617
0
ARC
8
DEFAULT_255_1_234
10
13.6893002
20
158.308821
40
0.2795204
50
132.4834203
51
181.0242172
0
ARC
8
DEFAULT_255_1_234
10
13.7488584
20
158.2525704
40
0.3612768
50
129.2532479
51
133.4242687
0
ARC
8
DEFAULT_255_1_234
10
13.7635034
20
158.2305965
40
0.3875675
50
101.98776
51
128.8742646
0
ARC
8
DEFAULT_255_1_234
10
13.8033644
20
158.0584741
40
0.5642249
50
89.5906553
51
102.3169264
0
ARC
8
DEFAULT_255_1_234
10
13.8104137
20
158.0903148
40
0.5323783
50
77.2360837
51
90.3248275
0
ARC
8
DEFAULT_255_1_234
10
13.8311216
20
158.18704
40
0.4334697
50
63.837784
51
77.0809408
0
ARC
8
DEFAULT_255_1_234
10
13.8588977
20
158.2387911
40
0.3747796
50
45.9864267
51
64.1607727
0
ARC
8
DEFAULT_255_1_234
10
13.8849859
20
158.2685866
40
0.3352302
50
32.2747395
51
45.6547121
0
ARC
8
DEFAULT_255_1_234
10
13.8916299
20
158.270488
40
0.328603
50
359.6507365
51
32.6130309
0
ARC
8
DEFAULT_255_1_234
10
13.7973395
20
158.270966
40
0.2678863
50
359.469343
51
14.9832209
0
ARC
8
DEFAULT_255_1_234
10
13.8678457
20
158.2898539
40
0.1948938
50
14.9781179
51
48.2004265
0
ARC
8
DEFAULT_255_1_234
10
13.8514101
20
158.2691983
40
0.2212521
50
48.5927837
51
74.1241538
0
ARC
8
DEFAULT_255_1_234
10
13.8180591
20
158.1591248
40
0.3362561
50
73.7888341
51
86.6652678
0
ARC
8
DEFAULT_255_1_234
10
13.8078156
20
158.0383881
40
0.4573953
50
86.2640471
51
90.0526343
0
ARC
8
DEFAULT_255_1_234
10
13.8049869
20
158.0779192
40
0.4178709
50
89.6697524
51
99.2309573
0
ARC
8
DEFAULT_255_1_234
10
13.780732
20
158.2223964
40
0.2713749
50
99.069534
51
113.7658566
0
ARC
8
DEFAULT_255_1_234
10
13.7533511
20
158.2869677
40
0.2012469
50
114.0401004
51
127.9850673
0
ARC
8
DEFAULT_255_1_234
10
13.7293075
20
158.316573
40
0.1631167
50
127.7287463
51
176.7105154
0
ARC
8
DEFAULT_255_1_234
10
13.7971792
20
158.3064693
40
0.2315392
50
175.1779447
51
180.0581938
0
ARC
8
DEFAULT_255_1_234
10
13.7128639
20
158.3052428
40
0.1472271
50
179.6142195
51
228.1246017
0
ARC
8
DEFAULT_255_1_234
10
13.7570308
20
158.3461308
40
0.2072299
50
226.5779593
51
230.8800004
0
ARC
8
DEFAULT_255_1_234
10
13.8041386
20
158.4086636
40
0.2854818
50
231.4635071
51
241.9260842
0
ARC
8
DEFAULT_255_1_234
10
13.9238564
20
158.62898
40
0.53622
50
241.7178533
51
248.3259551
0
ARC
8
DEFAULT_255_1_234
10
14.0623936
20
158.9722064
40
0.9063478
50
248.2007737
51
252.4528373
0
ARC
8
DEFAULT_255_1_234
10
14.1827661
20
159.3443441
40
1.2974635
50
252.3391078
51
254.3469452
0
ARC
8
DEFAULT_255_1_234
10
13.4285364
20
156.6466148
40
1.5037162
50
71.0197183
51
74.4087047
0
ARC
8
DEFAULT_255_1_234
10
13.5980049
20
157.1358111
40
0.9859993
50
66.1847285
51
71.086374
0
ARC
8
DEFAULT_255_1_234
10
13.7536361
20
157.48622
40
0.6025855
50
59.3536294
51
66.2691831
0
ARC
8
DEFAULT_255_1_234
10
13.8425014
20
157.6365609
40
0.4279449
50
49.1020879
51
59.3293958
0
ARC
8
DEFAULT_255_1_234
10
13.9243754
20
157.7298834
40
0.3038015
50
32.7919921
51
49.2505539
0
ARC
8
DEFAULT_255_1_234
10
13.9564844
20
157.7527191
40
0.264448
50
31.1181161
51
32.4005348
0
ARC
8
DEFAULT_255_1_234
10
13.9476381
20
157.7491779
40
0.2738556
50
8.1116974
51
30.7958831
0
ARC
8
DEFAULT_255_1_234
10
13.8666049
20
157.7353753
40
0.3560327
50
359.8389159
51
8.4706516
0
ARC
8
DEFAULT_255_1_234
10
13.9291841
20
157.7305137
40
0.2934776
50
337.4731098
51
0.7537279
0
ARC
8
DEFAULT_255_1_234
10
13.9470536
20
157.7285387
40
0.2762607
50
307.5917067
51
336.4315538
0
ARC
8
DEFAULT_255_1_234
10
13.9010364
20
157.7798102
40
0.3449979
50
307.6551545
51
308.4529766
0
ARC
8
DEFAULT_255_1_234
10
13.8780083
20
157.815325
40
0.3871988
50
284.3734338
51
307.1424381
0
ARC
8
DEFAULT_255_1_234
10
13.8284913
20
157.9974932
40
0.5759636
50
272.4382747
51
284.646547
0
ARC
8
DEFAULT_255_1_234
10
13.8158122
20
158.1774893
40
0.7563528
50
269.9708387
51
272.8178037
0
ARC
8
DEFAULT_255_1_234
10
13.8115161
20
157.9736716
40
0.5525489
50
248.2707594
51
270.4055579
0
ARC
8
DEFAULT_255_1_234
10
13.8060902
20
157.9546192
40
0.5328452
50
246.1383403
51
248.0542782
0
ARC
8
DEFAULT_255_1_234
10
13.7642281
20
157.8666843
40
0.4355005
50
233.1670131
51
246.4950969
0
ARC
8
DEFAULT_255_1_234
10
13.7088186
20
157.7918812
40
0.3424126
50
215.3403242
51
233.0843104
0
ARC
8
DEFAULT_255_1_234
10
13.6815617
20
157.7720549
40
0.3087104
50
179.2419209
51
215.2648451
0
ARC
8
DEFAULT_255_1_234
10
13.7583211
20
157.7734666
40
0.2304457
50
179.335461
51
199.1045811
0
ARC
8
DEFAULT_255_1_234
10
13.7250888
20
157.7647766
40
0.1962176
50
199.8828939
51
232.7063202
0
ARC
8
DEFAULT_255_1_234
10
13.7723156
20
157.8241788
40
0.2720938
50
232.3738199
51
255.5136649
0
ARC
8
DEFAULT_255_1_234
10
13.8064023
20
157.9485835
40
0.4010747
50
255.2446292
51
267.5320849
0
ARC
8
DEFAULT_255_1_234
10
13.8151646
20
158.0718702
40
0.5246356
50
267.1557994
51
270.0286766
0
ARC
8
DEFAULT_255_1_234
10
13.8179418
20
158.027495
40
0.4802668
50
269.7000017
51
278.1660162
0
ARC
8
DEFAULT_255_1_234
10
13.8435423
20
157.8544515
40
0.3053425
50
278.0231263
51
290.625471
0
ARC
8
DEFAULT_255_1_234
10
13.878311
20
157.7617025
40
0.206291
50
290.6619762
51
307.0370976
0
ARC
8
DEFAULT_255_1_234
10
13.90835
20
157.7248504
40
0.1587906
50
306.3943566
51
355.3030547
0
ARC
8
DEFAULT_255_1_234
10
13.8571431
20
157.7325113
40
0.2104809
50
354.3660432
51
0.0698737
0
ARC
8
DEFAULT_255_1_234
10
13.8713776
20
157.7347617
40
0.1962563
50
359.417946
51
16.1971788
0
ARC
8
DEFAULT_255_1_234
10
13.9169087
20
157.7472418
40
0.149053
50
16.4723299
51
52.6262157
0
ARC
8
DEFAULT_255_1_234
10
13.834814
20
157.6388433
40
0.2850296
50
52.7386432
51
62.4979148
0
ARC
8
DEFAULT_255_1_234
10
13.6963217
20
157.3782283
40
0.5801521
50
62.2515216
51
68.1220564
0
ARC
8
DEFAULT_255_1_234
10
13.5243128
20
156.9554872
40
1.0365451
50
68.0062803
51
71.8053402
0
ARC
8
DEFAULT_255_1_234
10
13.34475
20
156.4169758
40
1.6042013
50
71.7183119
51
73.9258742
0
LINE
8
DEFAULT_255_1_234
10
14.3591759
20
157.8476218
11
14.3591759
21
157.8749297
0
LINE
8
DEFAULT_255_1_234
10
15.0964895
20
157.8909932
11
15.0964895
21
157.8291488
0
LINE
8
DEFAULT_255_1_234
10
15.0964895
20
157.8291488
11
14.507763
21
157.8291488
0
LINE
8
DEFAULT_255_1_234
10
14.9944864
20
157.6596792
11
15.085245
21
157.5889999
0
LINE
8
DEFAULT_255_1_234
10
14.5125821
20
157.9512313
11
14.9479023
21
157.9512313
0
LINE
8
DEFAULT_255_1_234
10
14.9479023
20
157.9512313
11
14.9479023
21
157.9624757
0
ARC
8
DEFAULT_255_1_234
10
14.7531124
20
157.8587332
40
0.4376191
50
252.3266134
51
270.5810217
0
ARC
8
DEFAULT_255_1_234
10
14.7326213
20
157.7846644
40
0.3608374
50
223.3000567
51
251.8561855
0
ARC
8
DEFAULT_255_1_234
10
14.7537574
20
157.8051937
40
0.3902993
50
190.9374509
51
223.3654032
0
ARC
8
DEFAULT_255_1_234
10
14.9262546
20
157.8441885
40
0.5670891
50
179.6531105
51
191.4989439
0
ARC
8
DEFAULT_255_1_234
10
14.9384558
20
157.8781417
40
0.5792888
50
167.4007466
51
180.3176909
0
ARC
8
DEFAULT_255_1_234
10
14.833262
20
157.9003885
40
0.471777
50
154.1835823
51
167.250763
0
ARC
8
DEFAULT_255_1_234
10
14.7701087
20
157.9336417
40
0.4004528
50
134.3149965
51
154.5315275
0
ARC
8
DEFAULT_255_1_234
10
14.7483582
20
157.9527228
40
0.371612
50
122.8616532
51
133.9707695
0
ARC
8
DEFAULT_255_1_234
10
14.7380156
20
157.9749703
40
0.3473289
50
89.8249009
51
123.4199222
0
ARC
8
DEFAULT_255_1_234
10
14.7430197
20
157.9102967
40
0.4120197
50
74.7876118
51
90.5482747
0
ARC
8
DEFAULT_255_1_234
10
14.7723941
20
158.018803
40
0.2996077
50
39.8178249
51
74.7633718
0
ARC
8
DEFAULT_255_1_234
10
14.7211261
20
157.9788351
40
0.3645855
50
16.8990863
51
39.4829761
0
ARC
8
DEFAULT_255_1_234
10
14.5316557
20
157.9181526
40
0.5635218
50
4.9636328
51
17.2026414
0
ARC
8
DEFAULT_255_1_234
10
14.2898627
20
157.892634
40
0.8066286
50
359.8834553
51
5.2834307
0
ARC
8
DEFAULT_255_1_234
10
14.8936152
20
157.8357803
40
0.3859091
50
180.9846213
51
194.9401313
0
ARC
8
DEFAULT_255_1_234
10
14.788643
20
157.8070849
40
0.2770883
50
194.80314
51
222.0412631
0
ARC
8
DEFAULT_255_1_234
10
14.7582312
20
157.7769116
40
0.2343055
50
221.5417084
51
268.8614402
0
ARC
8
DEFAULT_255_1_234
10
14.7655306
20
157.8445686
40
0.3021528
50
267.732405
51
270.0097136
0
ARC
8
DEFAULT_255_1_234
10
14.7673116
20
157.8647105
40
0.3222994
50
269.6924892
51
280.4117579
0
ARC
8
DEFAULT_255_1_234
10
14.7849523
20
157.7728193
40
0.2287344
50
280.2255091
51
298.6338936
0
ARC
8
DEFAULT_255_1_234
10
14.7966315
20
157.7484223
40
0.2017294
50
299.0430333
51
300.4643464
0
ARC
8
DEFAULT_255_1_234
10
14.728632
20
157.8618038
40
0.3339357
50
300.6577328
51
322.0378878
0
ARC
8
DEFAULT_255_1_234
10
14.693586
20
157.8922021
40
0.3802736
50
321.6750233
51
322.3046845
0
ARC
8
DEFAULT_255_1_234
10
14.7866821
20
157.775537
40
0.3520454
50
276.9728461
51
328.0035423
0
ARC
8
DEFAULT_255_1_234
10
14.7589874
20
157.9235841
40
0.5024498
50
269.8361028
51
278.0581756
0
ARC
8
DEFAULT_255_1_234
10
14.7362611
20
157.9980757
40
0.202159
50
89.2018686
51
117.2851756
0
ARC
8
DEFAULT_255_1_234
10
14.741578
20
157.9938752
40
0.2083484
50
118.0551165
51
137.4540413
0
ARC
8
DEFAULT_255_1_234
10
14.779052
20
157.9598304
40
0.2589774
50
137.5109581
51
158.8516286
0
ARC
8
DEFAULT_255_1_234
10
14.8928356
20
157.9139074
40
0.38167
50
158.5845963
51
170.1721436
0
ARC
8
DEFAULT_255_1_234
10
15.0097745
20
157.8906823
40
0.5008657
50
169.8376422
51
173.0566086
0
ARC
8
DEFAULT_255_1_234
10
14.5400819
20
157.9417509
40
0.4083467
50
2.9091802
51
12.8847116
0
ARC
8
DEFAULT_255_1_234
10
14.6771495
20
157.9740101
40
0.2675383
50
12.6957781
51
28.6404489
0
ARC
8
DEFAULT_255_1_234
10
14.7313166
20
158.0020458
40
0.2065654
50
29.0169854
51
41.1487595
0
ARC
8
DEFAULT_255_1_234
10
14.7515951
20
158.0197003
40
0.1796786
50
41.1646065
51
85.0013516
0
ARC
8
DEFAULT_255_1_234
10
14.7395048
20
157.9462431
40
0.2539726
50
83.7280015
51
90.0964893
0
LINE
8
DEFAULT_255_1_234
10
15.6884286
20
158.3110531
11
15.6884286
21
158.1729072
0
LINE
8
DEFAULT_255_1_234
10
15.4169558
20
158.0540375
11
15.4169558
21
157.4372
0
LINE
8
DEFAULT_255_1_234
10
15.4169558
20
157.4372
11
15.2683687
21
157.4372
0
LINE
8
DEFAULT_255_1_234
10
15.2683687
20
157.4372
11
15.2683687
21
158.3062341
0
LINE
8
DEFAULT_255_1_234
10
15.2683687
20
158.3062341
11
15.4129399
21
158.3062341
0
LINE
8
DEFAULT_255_1_234
10
15.4129399
20
158.3062341
11
15.4153495
21
158.2058374
0
ARC
8
DEFAULT_255_1_234
10
15.6217691
20
157.7669342
40
0.4114092
50
80.6754243
51
86.8932892
0
ARC
8
DEFAULT_255_1_234
10
15.6157225
20
157.67017
40
0.5083596
50
86.8038578
51
90.0431435
0
ARC
8
DEFAULT_255_1_234
10
15.6120206
20
157.9158866
40
0.2626638
50
89.2759698
51
106.6213787
0
ARC
8
DEFAULT_255_1_234
10
15.591577
20
157.990183
40
0.1856317
50
107.1346045
51
157.6458115
0
ARC
8
DEFAULT_255_1_234
10
15.6607372
20
157.9518311
40
0.2643398
50
155.6586782
51
157.2539184
0
ARC
8
DEFAULT_255_1_234
10
15.6402574
20
158.0687157
40
0.2634121
50
127.8165941
51
148.6302098
0
ARC
8
DEFAULT_255_1_234
10
15.6149043
20
158.0947218
40
0.2273596
50
91.3329982
51
126.7875809
0
ARC
8
DEFAULT_255_1_234
10
15.6224983
20
158.0232195
40
0.299078
50
89.986594
51
92.4688449
0
ARC
8
DEFAULT_255_1_234
10
15.6233378
20
158.0507078
40
0.2715908
50
85.3589899
51
90.1623399
0
ARC
8
DEFAULT_255_1_234
10
15.6317894
20
158.1511164
40
0.1708278
50
78.401942
51
85.4594656
0
ARC
8
DEFAULT_255_1_234
10
15.6462778
20
158.2202236
40
0.1002194
50
67.7858312
51
78.5728455
0
ARC
8
DEFAULT_255_1_234
10
15.6570631
20
158.2481887
40
0.0702548
50
63.4835954
51
67.3062642
0
LINE
8
DEFAULT_255_1_234
10
15.9864061
20
158.3062341
11
15.9864061
21
157.4372
0
LINE
8
DEFAULT_255_1_234
10
15.9864061
20
157.4372
11
15.8378189
21
157.4372
0
LINE
8
DEFAULT_255_1_234
10
15.8378189
20
157.4372
11
15.8378189
21
158.3062341
0
LINE
8
DEFAULT_255_1_234
10
15.8378189
20
158.3062341
11
15.9864061
21
158.3062341
0
ARC
8
DEFAULT_255_1_234
10
15.9236338
20
158.5376889
40
0.097867
50
161.415052
51
180.5526306
0
ARC
8
DEFAULT_255_1_234
10
15.9112116
20
158.5411077
40
0.0850062
50
138.1827368
51
160.9307106
0
ARC
8
DEFAULT_255_1_234
10
15.9002061
20
158.5506588
40
0.0704362
50
104.6368899
51
138.0039868
0
ARC
8
DEFAULT_255_1_234
10
15.9109216
20
158.5139963
40
0.1086221
50
92.0600725
51
105.2189128
0
ARC
8
DEFAULT_255_1_234
10
15.9132564
20
158.4797117
40
0.1429728
50
89.9756393
51
92.5012496
0
ARC
8
DEFAULT_255_1_234
10
15.9142584
20
158.5022731
40
0.1204151
50
78.0235316
51
90.4478182
0
ARC
8
DEFAULT_255_1_234
10
15.9234676
20
158.5436295
40
0.0780493
50
55.051506
51
78.3369085
0
ARC
8
DEFAULT_255_1_234
10
15.928495
20
158.5520711
40
0.0682538
50
42.0501187
51
54.4513741
0
ARC
8
DEFAULT_255_1_234
10
15.9149817
20
158.5396798
40
0.0865878
50
1.7497075
51
42.1496013
0
ARC
8
DEFAULT_255_1_234
10
15.889515
20
158.5367738
40
0.1121515
50
359.9852656
51
2.8364544
0
ARC
8
DEFAULT_255_1_234
10
15.9061142
20
158.5358229
40
0.0955566
50
342.1070653
51
0.552888
0
ARC
8
DEFAULT_255_1_234
10
15.920384
20
158.5318904
40
0.0807713
50
316.7107116
51
341.6516965
0
ARC
8
DEFAULT_255_1_234
10
15.9270877
20
158.5258823
40
0.0717724
50
285.4397031
51
316.5324284
0
ARC
8
DEFAULT_255_1_234
10
15.9160794
20
158.5624554
40
0.1099597
50
272.3547054
51
285.8953117
0
ARC
8
DEFAULT_255_1_234
10
15.9133952
20
158.5990048
40
0.1465932
50
269.9695369
51
272.8160237
0
ARC
8
DEFAULT_255_1_234
10
15.9124133
20
158.5770863
40
0.1246779
50
258.8431134
51
270.4153935
0
ARC
8
DEFAULT_255_1_234
10
15.9034175
20
158.5335414
40
0.0802162
50
238.5431189
51
259.1288175
0
ARC
8
DEFAULT_255_1_234
10
15.896606
20
158.5211856
40
0.0661247
50
222.5062634
51
237.9906969
0
ARC
8
DEFAULT_255_1_234
10
15.9093648
20
158.5327889
40
0.0833707
50
184.1069131
51
222.460413
0
ARC
8
DEFAULT_255_1_234
10
15.9362889
20
158.5366349
40
0.1105176
50
179.9429482
51
185.0960898
0
LINE
8
DEFAULT_255_1_234
10
16.1863963
20
157.8476218
11
16.1863963
21
157.8749297
0
LINE
8
DEFAULT_255_1_234
10
16.9237099
20
157.8909932
11
16.9237099
21
157.8291488
0
LINE
8
DEFAULT_255_1_234
10
16.9237099
20
157.8291488
11
16.3349835
21
157.8291488
0
LINE
8
DEFAULT_255_1_234
10
16.8217068
20
157.6596792
11
16.9124655
21
157.5889999
0
LINE
8
DEFAULT_255_1_234
10
16.3398025
20
157.9512313
11
16.7751228
21
157.9512313
0
LINE
8
DEFAULT_255_1_234
10
16.7751228
20
157.9512313
11
16.7751228
21
157.9624757
0
ARC
8
DEFAULT_255_1_234
10
16.5803329
20
157.8587332
40
0.4376191
50
252.3266134
51
270.5810217
0
ARC
8
DEFAULT_255_1_234
10
16.5598418
20
157.7846644
40
0.3608374
50
223.3000567
51
251.8561855
0
ARC
8
DEFAULT_255_1_234
10
16.5809778
20
157.8051937
40
0.3902993
50
190.9374509
51
223.3654032
0
ARC
8
DEFAULT_255_1_234
10
16.753475
20
157.8441885
40
0.5670891
50
179.6531105
51
191.4989439
0
ARC
8
DEFAULT_255_1_234
10
16.7656763
20
157.8781417
40
0.5792888
50
167.4007466
51
180.3176909
0
ARC
8
DEFAULT_255_1_234
10
16.6604824
20
157.9003885
40
0.471777
50
154.1835823
51
167.250763
0
ARC
8
DEFAULT_255_1_234
10
16.5973292
20
157.9336417
40
0.4004528
50
134.3149965
51
154.5315275
0
ARC
8
DEFAULT_255_1_234
10
16.5755787
20
157.9527228
40
0.371612
50
122.8616532
51
133.9707695
0
ARC
8
DEFAULT_255_1_234
10
16.5652361
20
157.9749703
40
0.3473289
50
89.8249009
51
123.4199222
0
ARC
8
DEFAULT_255_1_234
10
16.5702402
20
157.9102967
40
0.4120197
50
74.7876118
51
90.5482747
0
ARC
8
DEFAULT_255_1_234
10
16.5996145
20
158.018803
40
0.2996077
50
39.8178249
51
74.7633718
0
ARC
8
DEFAULT_255_1_234
10
16.5483465
20
157.9788351
40
0.3645855
50
16.8990863
51
39.4829761
0
ARC
8
DEFAULT_255_1_234
10
16.3588762
20
157.9181526
40
0.5635218
50
4.9636328
51
17.2026414
0
ARC
8
DEFAULT_255_1_234
10
16.1170832
20
157.892634
40
0.8066286
50
359.8834553
51
5.2834307
0
ARC
8
DEFAULT_255_1_234
10
16.7208357
20
157.8357803
40
0.3859091
50
180.9846213
51
194.9401313
0
ARC
8
DEFAULT_255_1_234
10
16.6158634
20
157.8070849
40
0.2770883
50
194.80314
51
222.0412631
0
ARC
8
DEFAULT_255_1_234
10
16.5854516
20
157.7769116
40
0.2343055
50
221.5417084
51
268.8614402
0
ARC
8
DEFAULT_255_1_234
10
16.5927511
20
157.8445686
40
0.3021528
50
267.732405
51
270.0097136
0
ARC
8
DEFAULT_255_1_234
10
16.5945321
20
157.8647105
40
0.3222994
50
269.6924892
51
280.4117579
0
ARC
8
DEFAULT_255_1_234
10
16.6121728
20
157.7728193
40
0.2287344
50
280.2255091
51
298.6338936
0
ARC
8
DEFAULT_255_1_234
10
16.623852
20
157.7484223
40
0.2017294
50
299.0430333
51
300.4643464
0
ARC
8
DEFAULT_255_1_234
10
16.5558525
20
157.8618038
40
0.3339357
50
300.6577328
51
322.0378878
0
ARC
8
DEFAULT_255_1_234
10
16.5208064
20
157.8922021
40
0.3802736
50
321.6750233
51
322.3046845
0
ARC
8
DEFAULT_255_1_234
10
16.6139026
20
157.775537
40
0.3520454
50
276.9728461
51
328.0035423
0
ARC
8
DEFAULT_255_1_234
10
16.5862078
20
157.9235841
40
0.5024498
50
269.8361028
51
278.0581756
0
ARC
8
DEFAULT_255_1_234
10
16.5634816
20
157.9980757
40
0.202159
50
89.2018686
51
117.2851756
0
ARC
8
DEFAULT_255_1_234
10
16.5687985
20
157.9938752
40
0.2083484
50
118.0551165
51
137.4540413
0
ARC
8
DEFAULT_255_1_234
10
16.6062725
20
157.9598304
40
0.2589774
50
137.5109581
51
158.8516286
0
ARC
8
DEFAULT_255_1_234
10
16.720056
20
157.9139074
40
0.38167
50
158.5845963
51
170.1721436
0
ARC
8
DEFAULT_255_1_234
10
16.836995
20
157.8906823
40
0.5008657
50
169.8376422
51
173.0566086
0
ARC
8
DEFAULT_255_1_234
10
16.3673023
20
157.9417509
40
0.4083467
50
2.9091802
51
12.8847116
0
ARC
8
DEFAULT_255_1_234
10
16.50437
20
157.9740101
40
0.2675383
50
12.6957781
51
28.6404489
0
ARC
8
DEFAULT_255_1_234
10
16.5585371
20
158.0020458
40
0.2065654
50
29.0169854
51
41.1487595
0
ARC
8
DEFAULT_255_1_234
10
16.5788156
20
158.0197003
40
0.1796786
50
41.1646065
51
85.0013516
0
ARC
8
DEFAULT_255_1_234
10
16.5667253
20
157.9462431
40
0.2539726
50
83.7280015
51
90.0964893
0
LINE
8
DEFAULT_255_1_234
10
17.742144
20
158.0508248
11
17.5927537
21
158.0508248
0
LINE
8
DEFAULT_255_1_234
10
17.0594463
20
157.7046569
11
17.2080334
21
157.7046569
0
ARC
8
DEFAULT_255_1_234
10
17.4739356
20
157.6691959
40
0.1276617
50
359.3334982
51
18.5871358
0
ARC
8
DEFAULT_255_1_234
10
17.4947993
20
157.6747133
40
0.1061371
50
19.3540742
51
54.6485071
0
ARC
8
DEFAULT_255_1_234
10
17.4443895
20
157.6051919
40
0.1920087
50
54.3827097
51
65.0622807
0
ARC
8
DEFAULT_255_1_234
10
17.3675291
20
157.44349
40
0.3710447
50
64.8282493
51
71.4200025
0
ARC
8
DEFAULT_255_1_234
10
17.2773167
20
157.1788107
40
0.6506741
50
71.3164301
51
75.8006402
0
ARC
8
DEFAULT_255_1_234
10
17.1931987
20
156.8547561
40
0.9854641
50
75.6809531
51
78.0061883
0
ARC
8
DEFAULT_255_1_234
10
17.638052
20
158.952677
40
1.1591028
50
254.6901892
51
258.0466452
0
ARC
8
DEFAULT_255_1_234
10
17.5342428
20
158.5767781
40
0.7691345
50
249.9010773
51
254.755261
0
ARC
8
DEFAULT_255_1_234
10
17.433877
20
158.3041982
40
0.478665
50
243.3097214
51
249.9709442
0
ARC
8
DEFAULT_255_1_234
10
17.3709792
20
158.1787778
40
0.3383568
50
234.4047477
51
243.2862168
0
ARC
8
DEFAULT_255_1_234
10
17.3087315
20
158.0928232
40
0.2322322
50
220.8667099
51
234.5493881
0
ARC
8
DEFAULT_255_1_234
10
17.2745256
20
158.0616817
40
0.1859923
50
214.3062465
51
220.5065136
0
ARC
8
DEFAULT_255_1_234
10
17.2719335
20
158.058588
40
0.1821108
50
186.912965
51
213.9618616
0
ARC
8
DEFAULT_255_1_234
10
17.325143
20
158.0672009
40
0.2359799
50
179.8808832
51
187.4339886
0
ARC
8
DEFAULT_255_1_234
10
17.3096563
20
158.0692088
40
0.2204978
50
132.005434
51
180.3942919
0
ARC
8
DEFAULT_255_1_234
10
17.3753177
20
158.0086083
40
0.3095791
50
129.2319861
51
133.5302299
0
ARC
8
DEFAULT_255_1_234
10
17.3806685
20
157.9991928
40
0.3202615
50
100.4410011
51
128.9081242
0
ARC
8
DEFAULT_255_1_234
10
17.4080569
20
157.8706455
40
0.4516583
50
89.6985377
51
100.9026564
0
ARC
8
DEFAULT_255_1_234
10
17.4137611
20
157.8546166
40
0.4676928
50
77.6965325
51
90.4076836
0
ARC
8
DEFAULT_255_1_234
10
17.4468595
20
157.9973413
40
0.3211988
50
50.7276602
51
78.0399361
0
ARC
8
DEFAULT_255_1_234
10
17.4913053
20
158.0491296
40
0.2529778
50
25.7545084
51
51.0957453
0
ARC
8
DEFAULT_255_1_234
10
17.4914278
20
158.0541206
40
0.250738
50
359.2468627
51
24.7394243
0
ARC
8
DEFAULT_255_1_234
10
17.462973
20
158.0512664
40
0.1297815
50
359.8050318
51
45.1544908
0
ARC
8
DEFAULT_255_1_234
10
17.4222872
20
158.0164794
40
0.1831883
50
43.8047702
51
49.6271585
0
ARC
8
DEFAULT_255_1_234
10
17.4230773
20
158.0165678
40
0.18261
50
49.7980766
51
82.1218353
0
ARC
8
DEFAULT_255_1_234
10
17.4111745
20
157.9518998
40
0.2483163
50
81.4465357
51
90.1710293
0
ARC
8
DEFAULT_255_1_234
10
17.4087348
20
157.899288
40
0.300932
50
89.6766211
51
99.1264602
0
ARC
8
DEFAULT_255_1_234
10
17.391581
20
158.0026537
40
0.1961547
50
98.968313
51
113.4570237
0
ARC
8
DEFAULT_255_1_234
10
17.3719895
20
158.0494965
40
0.1453859
50
113.722589
51
127.4763106
0
ARC
8
DEFAULT_255_1_234
10
17.3551541
20
158.0695124
40
0.1192639
50
126.9083309
51
150.3165862
0
ARC
8
DEFAULT_255_1_234
10
17.3503874
20
158.0745981
40
0.112623
50
151.3635175
51
180.0701457
0
ARC
8
DEFAULT_255_1_234
10
17.3812658
20
158.072499
40
0.1435149
50
179.2169974
51
179.9954013
0
ARC
8
DEFAULT_255_1_234
10
17.3451716
20
158.0712056
40
0.1074286
50
179.3040112
51
198.4225446
0
ARC
8
DEFAULT_255_1_234
10
17.3259849
20
158.0662127
40
0.0876573
50
199.2895851
51
238.6034594
0
ARC
8
DEFAULT_255_1_234
10
17.3862696
20
158.160845
40
0.1998512
50
237.9846301
51
246.8744712
0
ARC
8
DEFAULT_255_1_234
10
17.4720641
20
158.3571205
40
0.4140547
50
246.6234531
51
251.8168941
0
ARC
8
DEFAULT_255_1_234
10
17.5751184
20
158.6665905
40
0.7402308
50
251.713434
51
255.0778414
0
ARC
8
DEFAULT_255_1_234
10
17.6950447
20
159.1132563
40
1.2027155
50
255.0367487
51
257.4705983
0
ARC
8
DEFAULT_255_1_234
10
17.1842457
20
156.8118863
40
1.1546601
50
73.6837552
51
77.5016755
0
ARC
8
DEFAULT_255_1_234
10
17.2931232
20
157.1818581
40
0.7690009
50
68.7044154
51
73.7249639
0
ARC
8
DEFAULT_255_1_234
10
17.3834252
20
157.4145654
40
0.5193873
50
63.590599
51
68.6626804
0
ARC
8
DEFAULT_255_1_234
10
17.4605271
20
157.5683123
40
0.3473927
50
54.7106439
51
63.7013633
0
ARC
8
DEFAULT_255_1_234
10
17.5229726
20
157.65554
40
0.2401192
50
41.0622434
51
54.8487496
0
ARC
8
DEFAULT_255_1_234
10
17.5571112
20
157.6868592
40
0.1938094
50
34.4950568
51
40.7105546
0
ARC
8
DEFAULT_255_1_234
10
17.5617919
20
157.6917078
40
0.1872106
50
9.3763373
51
34.0833615
0
ARC
8
DEFAULT_255_1_234
10
17.496479
20
157.6791728
40
0.2536988
50
359.7694872
51
9.7663171
0
ARC
8
DEFAULT_255_1_234
10
17.5162291
20
157.6748764
40
0.2339696
50
335.8654732
51
0.8022045
0
ARC
8
DEFAULT_255_1_234
10
17.5237335
20
157.6762197
40
0.2277108
50
307.7357725
51
334.7849066
0
ARC
8
DEFAULT_255_1_234
10
17.4836511
20
157.7212645
40
0.2878951
50
307.0241536
51
308.5578354
0
ARC
8
DEFAULT_255_1_234
10
17.4578842
20
157.7598801
40
0.3342515
50
282.9362969
51
306.5646424
0
ARC
8
DEFAULT_255_1_234
10
17.421714
20
157.9066108
40
0.4853615
50
271.1026298
51
283.2200835
0
ARC
8
DEFAULT_255_1_234
10
17.4153384
20
158.0307418
40
0.6096052
50
269.9919117
51
271.4772449
0
ARC
8
DEFAULT_255_1_234
10
17.4127139
20
157.9229436
40
0.5018135
50
259.0723564
51
270.289833
0
ARC
8
DEFAULT_255_1_234
10
17.3914871
20
157.8112271
40
0.388099
50
245.4963068
51
259.0227342
0
ARC
8
DEFAULT_255_1_234
10
17.3636827
20
157.7530615
40
0.3236422
50
228.9684658
51
245.7044727
0
ARC
8
DEFAULT_255_1_234
10
17.3371271
20
157.7203575
40
0.2815426
50
214.4011705
51
228.6759915
0
ARC
8
DEFAULT_255_1_234
10
17.3082011
20
157.704529
40
0.2487548
50
179.9705531
51
215.1572795
0
ARC
8
DEFAULT_255_1_234
10
17.3782611
20
157.7118806
40
0.1703809
50
182.4299387
51
203.0329699
0
ARC
8
DEFAULT_255_1_234
10
17.3598269
20
157.7062396
40
0.1512226
50
203.798802
51
232.548466
0
ARC
8
DEFAULT_255_1_234
10
17.387479
20
157.7413826
40
0.1959374
50
232.3782728
51
256.3934612
0
ARC
8
DEFAULT_255_1_234
10
17.4105152
20
157.8303842
40
0.2878639
50
256.104506
51
268.4626716
0
ARC
8
DEFAULT_255_1_234
10
17.4151636
20
157.9100487
40
0.3676329
50
268.0715632
51
270.0138206
0
ARC
8
DEFAULT_255_1_234
10
17.4170161
20
157.8828083
40
0.3403971
50
269.7031147
51
278.8341955
0
ARC
8
DEFAULT_255_1_234
10
17.4352254
20
157.7697876
40
0.2259217
50
278.6728789
51
292.8232582
0
ARC
8
DEFAULT_255_1_234
10
17.4552792
20
157.7196449
40
0.171929
50
293.1452328
51
303.6655899
0
ARC
8
DEFAULT_255_1_234
10
17.4817671
20
157.6820204
40
0.1259367
50
303.1248165
51
321.742847
0
ARC
8
DEFAULT_255_1_234
10
17.5003551
20
157.6657156
40
0.1012531
50
322.4748573
51
1.1291126
0
LINE
8
DEFAULT_255_2_778
10
9.5254834
20
75.2739333
11
12.1712834
21
75.2739333
0
LINE
8
DEFAULT_255_2_778
10
12.1712834
20
75.2739333
11
12.1712834
21
69.9822333
0
LINE
8
DEFAULT_255_2_778
10
12.1712834
20
69.9822333
11
9.5254834
21
69.9822333
0
LINE
8
DEFAULT_255_2_778
10
9.5254834
20
69.9822333
11
9.5254834
21
75.2739333
0
LINE
8
DEFAULT_255_2_778
10
10.3193
20
74.4801833
11
10.3193
21
70.7759833
0
ARC
8
DEFAULT_255_2_778
10
11.2444335
20
74.0841666
40
0.3960095
50
89.8710075
51
180.1289967
0
ARC
8
DEFAULT_255_2_778
10
11.246138
20
74.0841878
40
0.395988
50
359.8679252
51
90.1176342
0
ARC
8
DEFAULT_255_2_778
10
11.2461595
20
74.0824405
40
0.3959664
50
269.8792548
51
0.1207452
0
ARC
8
DEFAULT_255_2_778
10
11.2444123
20
74.0824621
40
0.3959881
50
179.8823802
51
270.1320647
0
LINE
8
DEFAULT_255_2_778
10
10.848425
20
74.083275
11
10.848425
21
74.083275
0
ARC
8
DEFAULT_255_2_778
10
11.2444335
20
71.1737666
40
0.3960095
50
89.8710075
51
180.1289967
0
ARC
8
DEFAULT_255_2_778
10
11.246138
20
71.1737878
40
0.395988
50
359.8679252
51
90.1176342
0
ARC
8
DEFAULT_255_2_778
10
11.2461595
20
71.1720405
40
0.3959664
50
269.8792548
51
0.1207452
0
ARC
8
DEFAULT_255_2_778
10
11.2444123
20
71.1720621
40
0.3959881
50
179.8823802
51
270.1320647
0
LINE
8
DEFAULT_255_2_778
10
10.848425
20
71.172875
11
10.848425
21
71.172875
0
LINE
8
DEFAULT_255_2_778
10
9.5255417
20
140.0968481
11
10.8484417
21
140.0968481
0
LINE
8
DEFAULT_255_2_778
10
10.8484417
20
140.0968481
11
10.8484417
21
75.2739481
0
LINE
8
DEFAULT_255_2_778
10
10.8484417
20
69.9822481
11
10.8484417
21
5.1593481
0
LINE
8
DEFAULT_255_2_778
10
10.8484417
20
5.1593481
11
9.5255417
21
5.1593481
0
LINE
8
DEFAULT_255_2_778
10
17.4629834
20
107.0239333
11
20.1087834
21
107.0239333
0
LINE
8
DEFAULT_255_2_778
10
20.1087834
20
107.0239333
11
20.1087834
21
101.7322333
0
LINE
8
DEFAULT_255_2_778
10
20.1087834
20
101.7322333
11
17.4629834
21
101.7322333
0
LINE
8
DEFAULT_255_2_778
10
17.4629834
20
101.7322333
11
17.4629834
21
107.0239333
0
LINE
8
DEFAULT_255_2_778
10
18.2568
20
106.2301833
11
18.2568
21
102.5259833
0
ARC
8
DEFAULT_255_2_778
10
19.1819335
20
105.8341666
40
0.3960095
50
89.8710075
51
180.1289967
0
ARC
8
DEFAULT_255_2_778
10
19.183638
20
105.8341878
40
0.395988
50
359.8679252
51
90.1176342
0
ARC
8
DEFAULT_255_2_778
10
19.1836595
20
105.8324405
40
0.3959664
50
269.8792548
51
0.1207452
0
ARC
8
DEFAULT_255_2_778
10
19.1819123
20
105.8324621
40
0.3959881
50
179.8823802
51
270.1320647
0
LINE
8
DEFAULT_255_2_778
10
18.785925
20
105.833275
11
18.785925
21
105.833275
0
ARC
8
DEFAULT_255_2_778
10
19.1819335
20
102.9237666
40
0.3960095
50
89.8710075
51
180.1289967
0
ARC
8
DEFAULT_255_2_778
10
19.183638
20
102.9237878
40
0.395988
50
359.8679252
51
90.1176342
0
ARC
8
DEFAULT_255_2_778
10
19.1836595
20
102.9220405
40
0.3959664
50
269.8792548
51
0.1207452
0
ARC
8
DEFAULT_255_2_778
10
19.1819123
20
102.9220621
40
0.3959881
50
179.8823802
51
270.1320647
0
LINE
8
DEFAULT_255_2_778
10
18.785925
20
102.922875
11
18.785925
21
102.922875
0
LINE
8
DEFAULT_255_2_778
10
20.1088417
20
148.0343488
11
18.7859417
21
148.0343488
0
LINE
8
DEFAULT_255_2_778
10
18.7859417
20
148.0343488
11
18.7859417
21
107.0239488
0
LINE
8
DEFAULT_255_2_778
10
18.7859417
20
101.7322488
11
18.7859417
21
60.7218488
0
LINE
8
DEFAULT_255_2_778
10
18.7859417
20
60.7218488
11
20.1088417
21
60.7218488
0
LINE
8
DEFAULT_255_1_234
10
4.3736489
20
156.6223211
11
4.3736489
21
155.5789983
0
LINE
8
DEFAULT_255_1_234
10
4.3736489
20
155.5789983
11
4.9278389
21
155.5789983
0
LINE
8
DEFAULT_255_1_234
10
4.9278389
20
155.5789983
11
4.9278389
21
155.4529
0
LINE
8
DEFAULT_255_1_234
10
4.9278389
20
155.4529
11
4.2186364
21
155.4529
0
LINE
8
DEFAULT_255_1_234
10
4.2186364
20
155.4529
11
4.2186364
21
156.6223211
0
LINE
8
DEFAULT_255_1_234
10
4.2186364
20
156.6223211
11
4.3736489
21
156.6223211
0
LINE
8
DEFAULT_255_1_234
10
5.5535113
20
156.6279433
11
5.5535113
21
155.4529
0
LINE
8
DEFAULT_255_1_234
10
5.5535113
20
155.4529
11
5.4041209
21
155.4529
0
LINE
8
DEFAULT_255_1_234
10
5.4041209
20
155.4529
11
5.4041209
21
156.4432133
0
LINE
8
DEFAULT_255_1_234
10
5.4041209
20
156.4432133
11
5.1045371
21
156.3331785
0
LINE
8
DEFAULT_255_1_234
10
5.1045371
20
156.3331785
11
5.1045371
21
156.4681117
0
LINE
8
DEFAULT_255_1_234
10
5.1045371
20
156.4681117
11
5.5302192
21
156.6279433
0
LINE
8
DEFAULT_255_1_234
10
5.5302192
20
156.6279433
11
5.5535113
21
156.6279433
0
LINE
8
DEFAULT_255_1_234
10
4.6796137
20
5.8154433
11
4.6796137
21
4.6404
0
LINE
8
DEFAULT_255_1_234
10
4.6796137
20
4.6404
11
4.5302234
21
4.6404
0
LINE
8
DEFAULT_255_1_234
10
4.5302234
20
4.6404
11
4.5302234
21
5.6307133
0
LINE
8
DEFAULT_255_1_234
10
4.5302234
20
5.6307133
11
4.2306396
21
5.5206785
0
LINE
8
DEFAULT_255_1_234
10
4.2306396
20
5.5206785
11
4.2306396
21
5.6556117
0
LINE
8
DEFAULT_255_1_234
10
4.2306396
20
5.6556117
11
4.6563217
21
5.8154433
0
LINE
8
DEFAULT_255_1_234
10
4.6563217
20
5.8154433
11
4.6796137
21
5.8154433
0
LINE
8
DEFAULT_255_1_234
10
5.8699173
20
5.8098211
11
5.8699173
21
5.726291
0
LINE
8
DEFAULT_255_1_234
10
5.8699173
20
5.726291
11
5.3856035
21
4.6404
0
LINE
8
DEFAULT_255_1_234
10
5.3856035
20
4.6404
11
5.2297878
21
4.6404
0
LINE
8
DEFAULT_255_1_234
10
5.2297878
20
4.6404
11
5.7124953
21
5.6877387
0
LINE
8
DEFAULT_255_1_234
10
5.7124953
20
5.6877387
11
5.0795943
21
5.6877387
0
LINE
8
DEFAULT_255_1_234
10
5.0795943
20
5.6877387
11
5.0795943
21
5.8098211
0
LINE
8
DEFAULT_255_1_234
10
5.0795943
20
5.8098211
11
5.8699173
21
5.8098211
0
LINE
8
DEFAULT_255_1_234
10
4.6796137
20
13.7529433
11
4.6796137
21
12.5779
0
LINE
8
DEFAULT_255_1_234
10
4.6796137
20
12.5779
11
4.5302234
21
12.5779
0
LINE
8
DEFAULT_255_1_234
10
4.5302234
20
12.5779
11
4.5302234
21
13.5682133
0
LINE
8
DEFAULT_255_1_234
10
4.5302234
20
13.5682133
11
4.2306396
21
13.4581785
0
LINE
8
DEFAULT_255_1_234
10
4.2306396
20
13.4581785
11
4.2306396
21
13.5931117
0
LINE
8
DEFAULT_255_1_234
10
4.2306396
20
13.5931117
11
4.6563217
21
13.7529433
0
LINE
8
DEFAULT_255_1_234
10
4.6563217
20
13.7529433
11
4.6796137
21
13.7529433
0
LINE
8
DEFAULT_255_1_234
10
5.6715334
20
13.7481243
11
5.6980381
21
13.7481243
0
LINE
8
DEFAULT_255_1_234
10
5.6980381
20
13.7481243
11
5.6980381
21
13.622026
0
LINE
8
DEFAULT_255_1_234
10
5.6980381
20
13.622026
11
5.6707302
21
13.622026
0
LINE
8
DEFAULT_255_1_234
10
5.1237688
20
13.0228583
11
5.1237688
21
13.0798836
0
LINE
8
DEFAULT_255_1_234
10
5.2731592
20
13.0606075
11
5.2731592
21
13.0059917
0
ARC
8
DEFAULT_255_1_234
10
5.675965
20
13.1222455
40
0.4998079
50
90.6001036
51
104.514704
0
ARC
8
DEFAULT_255_1_234
10
5.6371166
20
13.2667131
40
0.3502176
50
104.2855254
51
133.862935
0
ARC
8
DEFAULT_255_1_234
10
5.6534923
20
13.255883
40
0.3693984
50
134.5302688
51
161.6210873
0
ARC
8
DEFAULT_255_1_234
10
5.8188112
20
13.1975895
40
0.5446739
50
161.2849839
51
174.2076652
0
ARC
8
DEFAULT_255_1_234
10
5.9595049
20
13.1781787
40
0.6866274
50
173.7810589
51
174.9254635
0
ARC
8
DEFAULT_255_1_234
10
5.5044881
20
13.0398839
40
0.3033419
50
95.8330959
51
138.9954921
0
ARC
8
DEFAULT_255_1_234
10
5.5268237
20
12.9120375
40
0.4328947
50
89.8753725
51
97.0544009
0
ARC
8
DEFAULT_255_1_234
10
5.5315703
20
12.9955748
40
0.3493769
50
71.6407809
51
90.6240094
0
ARC
8
DEFAULT_255_1_234
10
5.5466276
20
13.0510082
40
0.2920396
50
39.6367836
51
71.019018
0
ARC
8
DEFAULT_255_1_234
10
5.4829749
20
12.9959998
40
0.3761538
50
10.658731
51
39.9043955
0
ARC
8
DEFAULT_255_1_234
10
5.3281832
20
12.9623686
40
0.5345136
50
359.682601
51
11.132623
0
ARC
8
DEFAULT_255_1_234
10
5.3241963
20
12.955301
40
0.5385081
50
347.2486944
51
0.4369317
0
ARC
8
DEFAULT_255_1_234
10
5.490944
20
12.9151807
40
0.3670249
50
318.1409698
51
347.6118597
0
ARC
8
DEFAULT_255_1_234
10
5.5234433
20
12.8884702
40
0.3250007
50
275.6342139
51
317.8248465
0
ARC
8
DEFAULT_255_1_234
10
5.5013544
20
13.0184219
40
0.4565864
50
269.8874292
51
276.7917694
0
ARC
8
DEFAULT_255_1_234
10
5.4958615
20
12.9158743
40
0.3540676
50
246.9140195
51
270.7437342
0
ARC
8
DEFAULT_255_1_234
10
5.4965005
20
12.9016384
40
0.3412781
50
218.1665114
51
245.878116
0
ARC
8
DEFAULT_255_1_234
10
5.5844466
20
12.9752279
40
0.455911
50
191.4115814
51
218.6077802
0
ARC
8
DEFAULT_255_1_234
10
5.7782555
20
13.0186833
40
0.6545001
50
179.6345085
51
191.7836486
0
ARC
8
DEFAULT_255_1_234
10
6.3364892
20
13.0865697
40
1.2127388
50
171.4525249
51
180.3158839
0
ARC
8
DEFAULT_255_1_234
10
5.8969768
20
13.1549608
40
0.7679464
50
157.9802646
51
171.6246686
0
ARC
8
DEFAULT_255_1_234
10
5.6755789
20
13.2432421
40
0.5296008
50
141.4298019
51
157.854097
0
ARC
8
DEFAULT_255_1_234
10
5.6114109
20
13.2886381
40
0.4511509
50
102.8715806
51
140.8564722
0
ARC
8
DEFAULT_255_1_234
10
5.6761725
20
13.0446552
40
0.7034845
50
90.3778349
51
103.5869322
0
ARC
8
DEFAULT_255_1_234
10
5.5023501
20
12.984173
40
0.2370698
50
89.8751008
51
126.2071704
0
ARC
8
DEFAULT_255_1_234
10
5.5069291
20
12.9687303
40
0.2522934
50
124.9745049
51
144.895901
0
ARC
8
DEFAULT_255_1_234
10
5.4893481
20
12.983056
40
0.2296779
50
145.2974905
51
160.2660252
0
ARC
8
DEFAULT_255_1_234
10
5.796602
20
13.0028071
40
0.5234525
50
179.6514266
51
190.2855912
0
ARC
8
DEFAULT_255_1_234
10
5.6272157
20
12.9708786
40
0.3510893
50
190.0945431
51
207.5098196
0
ARC
8
DEFAULT_255_1_234
10
5.5706427
20
12.9439623
40
0.288489
50
207.9583163
51
216.3251085
0
ARC
8
DEFAULT_255_1_234
10
5.5366535
20
12.9160105
40
0.2445587
50
215.7661442
51
232.5456785
0
ARC
8
DEFAULT_255_1_234
10
5.4983518
20
12.8673482
40
0.1826382
50
232.8005391
51
270.6605633
0
ARC
8
DEFAULT_255_1_234
10
5.5029219
20
12.9037612
40
0.2190529
50
269.35537
51
288.4744281
0
ARC
8
DEFAULT_255_1_234
10
5.5122116
20
12.8688118
40
0.1829749
50
289.1833337
51
322.9683818
0
ARC
8
DEFAULT_255_1_234
10
5.4510638
20
12.9170391
40
0.2608399
50
322.6007884
51
346.5182367
0
ARC
8
DEFAULT_255_1_234
10
5.3353234
20
12.9465616
40
0.3802777
50
346.2582162
51
358.7741648
0
ARC
8
DEFAULT_255_1_234
10
5.2334903
20
12.9520965
40
0.4822176
50
358.3755224
51
0.0098023
0
ARC
8
DEFAULT_255_1_234
10
5.309109
20
12.9548657
40
0.4066078
50
359.6214041
51
11.2839074
0
ARC
8
DEFAULT_255_1_234
10
5.4368237
20
12.9815066
40
0.2761514
50
11.0482309
51
31.8146458
0
ARC
8
DEFAULT_255_1_234
10
5.467728
20
12.9982584
40
0.2410679
50
32.3035391
51
38.082671
0
ARC
8
DEFAULT_255_1_234
10
5.509794
20
13.0363662
40
0.1844966
50
36.825067
51
85.7415724
0
ARC
8
DEFAULT_255_1_234
10
5.5030773
20
12.9863301
40
0.2349122
50
85.0140713
51
90.0513278
0
LINE
8
DEFAULT_255_1_234
10
4.6796137
20
21.6904433
11
4.6796137
21
20.5154
0
LINE
8
DEFAULT_255_1_234
10
4.6796137
20
20.5154
11
4.5302234
21
20.5154
0
LINE
8
DEFAULT_255_1_234
10
4.5302234
20
20.5154
11
4.5302234
21
21.5057133
0
LINE
8
DEFAULT_255_1_234
10
4.5302234
20
21.5057133
11
4.2306396
21
21.3956785
0
LINE
8
DEFAULT_255_1_234
10
4.2306396
20
21.3956785
11
4.2306396
21
21.5306117
0
LINE
8
DEFAULT_255_1_234
10
4.2306396
20
21.5306117
11
4.6563217
21
21.6904433
0
LINE
8
DEFAULT_255_1_234
10
4.6563217
20
21.6904433
11
4.6796137
21
21.6904433
0
LINE
8
DEFAULT_255_1_234
10
5.3020734
20
21.0711963
11
5.1832037
21
21.1017169
0
LINE
8
DEFAULT_255_1_234
10
5.1832037
20
21.1017169
11
5.2426386
21
21.6848211
0
LINE
8
DEFAULT_255_1_234
10
5.2426386
20
21.6848211
11
5.8418063
21
21.6848211
0
LINE
8
DEFAULT_255_1_234
10
5.8418063
20
21.6848211
11
5.8418063
21
21.5474784
0
LINE
8
DEFAULT_255_1_234
10
5.8418063
20
21.5474784
11
5.3687369
21
21.5474784
0
LINE
8
DEFAULT_255_1_234
10
5.3687369
20
21.5474784
11
5.3333972
21
21.2286184
0
LINE
8
DEFAULT_255_1_234
10
5.1414387
20
20.8230156
11
5.2819941
21
20.8230156
0
LINE
8
DEFAULT_255_1_234
10
5.341429
20
21.1033232
11
5.3020734
21
21.0711963
0
ARC
8
DEFAULT_255_1_234
10
5.5188756
20
20.910623
40
0.3681349
50
93.7182161
51
120.2538958
0
ARC
8
DEFAULT_255_1_234
10
5.5283019
20
20.8298394
40
0.449379
50
89.9660152
51
94.2496022
0
ARC
8
DEFAULT_255_1_234
10
5.5323753
20
20.8887549
40
0.390482
50
73.8043271
51
90.5585896
0
ARC
8
DEFAULT_255_1_234
10
5.555865
20
20.9745602
40
0.3015334
50
41.3071453
51
73.5430202
0
ARC
8
DEFAULT_255_1_234
10
5.5142477
20
20.9387324
40
0.3564457
50
13.5075983
51
41.2174222
0
ARC
8
DEFAULT_255_1_234
10
5.3500681
20
20.8957486
40
0.5261351
50
1.1331335
51
13.8829381
0
ARC
8
DEFAULT_255_1_234
10
5.208905
20
20.8881665
40
0.6674378
50
359.9919444
51
1.544251
0
ARC
8
DEFAULT_255_1_234
10
5.3365876
20
20.884028
40
0.5397702
50
347.8572367
51
0.4293338
0
ARC
8
DEFAULT_255_1_234
10
5.5116194
20
20.8443736
40
0.3603188
50
323.673004
51
348.1672506
0
ARC
8
DEFAULT_255_1_234
10
5.5410702
20
20.8264168
40
0.3259678
50
316.8171152
51
323.1492751
0
ARC
8
DEFAULT_255_1_234
10
5.5471891
20
20.822746
40
0.3189975
50
281.8396411
51
316.5457803
0
ARC
8
DEFAULT_255_1_234
10
5.5096155
20
20.9782762
40
0.4789527
50
269.5770101
51
282.4214771
0
ARC
8
DEFAULT_255_1_234
10
5.5024966
20
20.9569125
40
0.45759
50
256.2427136
51
270.4486331
0
ARC
8
DEFAULT_255_1_234
10
5.4725869
20
20.8369229
40
0.3339303
50
228.9023911
51
256.3314342
0
ARC
8
DEFAULT_255_1_234
10
5.4652101
20
20.8252746
40
0.32031
50
193.753695
51
228.5271154
0
ARC
8
DEFAULT_255_1_234
10
5.5890055
20
20.86158
40
0.4492253
50
184.924711
51
194.497588
0
ARC
8
DEFAULT_255_1_234
10
5.6082622
20
20.8651591
40
0.3289787
50
187.3600538
51
198.6732863
0
ARC
8
DEFAULT_255_1_234
10
5.5032916
20
20.8287674
40
0.217884
50
198.4451669
51
217.794479
0
ARC
8
DEFAULT_255_1_234
10
5.4737091
20
20.8078085
40
0.1816698
50
218.2887171
51
228.5612368
0
ARC
8
DEFAULT_255_1_234
10
5.4834878
20
20.8209963
40
0.1980329
50
228.9654866
51
258.1234728
0
ARC
8
DEFAULT_255_1_234
10
5.5040588
20
20.9090833
40
0.2884748
50
257.7258293
51
270.401361
0
ARC
8
DEFAULT_255_1_234
10
5.5085474
20
20.8645821
40
0.2439788
50
269.4204404
51
286.4209037
0
ARC
8
DEFAULT_255_1_234
10
5.5233962
20
20.8106657
40
0.1880666
50
286.7251356
51
320.600362
0
ARC
8
DEFAULT_255_1_234
10
5.4850787
20
20.8417595
40
0.2374121
50
320.6712579
51
344.5441685
0
ARC
8
DEFAULT_255_1_234
10
5.3694113
20
20.8757045
40
0.3579479
50
344.2412205
51
356.7357071
0
ARC
8
DEFAULT_255_1_234
10
5.2445262
20
20.8860444
40
0.4832297
50
356.3548756
51
0.0500261
0
ARC
8
DEFAULT_255_1_234
10
5.3781771
20
20.889165
40
0.3495889
50
359.5576869
51
12.953486
0
ARC
8
DEFAULT_255_1_234
10
5.4836668
20
20.9147434
40
0.2410532
50
12.6490276
51
41.6081334
0
ARC
8
DEFAULT_255_1_234
10
5.5067039
20
20.9343321
40
0.2108218
50
41.7850273
51
85.9892764
0
ARC
8
DEFAULT_255_1_234
10
5.4943776
20
20.8530462
40
0.2928454
50
84.6957577
51
90.0676183
0
ARC
8
DEFAULT_255_1_234
10
5.492026
20
20.7861716
40
0.3597255
50
89.6804936
51
99.1614436
0
ARC
8
DEFAULT_255_1_234
10
5.4714891
20
20.9089131
40
0.235281
50
98.9830931
51
113.8908934
0
ARC
8
DEFAULT_255_1_234
10
5.4485301
20
20.9630587
40
0.176479
50
114.1950727
51
127.3641004
0
LINE
8
DEFAULT_255_1_234
10
4.7854137
20
29.6279433
11
4.7854137
21
28.4529
0
LINE
8
DEFAULT_255_1_234
10
4.7854137
20
28.4529
11
4.6360234
21
28.4529
0
LINE
8
DEFAULT_255_1_234
10
4.6360234
20
28.4529
11
4.6360234
21
29.4432133
0
LINE
8
DEFAULT_255_1_234
10
4.6360234
20
29.4432133
11
4.3364396
21
29.3331785
0
LINE
8
DEFAULT_255_1_234
10
4.3364396
20
29.3331785
11
4.3364396
21
29.4681117
0
LINE
8
DEFAULT_255_1_234
10
4.3364396
20
29.4681117
11
4.7621217
21
29.6279433
0
LINE
8
DEFAULT_255_1_234
10
4.7621217
20
29.6279433
11
4.7854137
21
29.6279433
0
LINE
8
DEFAULT_255_1_234
10
5.8480127
20
29.6223211
11
5.8480127
21
28.845652
0
LINE
8
DEFAULT_255_1_234
10
5.8480127
20
28.845652
11
6.0102538
21
28.845652
0
LINE
8
DEFAULT_255_1_234
10
6.0102538
20
28.845652
11
6.0102538
21
28.7243728
0
LINE
8
DEFAULT_255_1_234
10
6.0102538
20
28.7243728
11
5.8480127
21
28.7243728
0
LINE
8
DEFAULT_255_1_234
10
5.8480127
20
28.7243728
11
5.8480127
21
28.4529
0
LINE
8
DEFAULT_255_1_234
10
5.8480127
20
28.4529
11
5.6986224
21
28.4529
0
LINE
8
DEFAULT_255_1_234
10
5.6986224
20
28.4529
11
5.6986224
21
28.7243728
0
LINE
8
DEFAULT_255_1_234
10
5.6986224
20
28.7243728
11
5.1661181
21
28.7243728
0
LINE
8
DEFAULT_255_1_234
10
5.1661181
20
28.7243728
11
5.1661181
21
28.8119187
0
LINE
8
DEFAULT_255_1_234
10
5.1661181
20
28.8119187
11
5.6897875
21
29.6223211
0
LINE
8
DEFAULT_255_1_234
10
5.6897875
20
29.6223211
11
5.8480127
21
29.6223211
0
LINE
8
DEFAULT_255_1_234
10
5.6809525
20
29.3869912
11
5.3347846
21
28.845652
0
LINE
8
DEFAULT_255_1_234
10
5.3347846
20
28.845652
11
5.6986224
21
28.845652
0
LINE
8
DEFAULT_255_1_234
10
5.6986224
20
28.845652
11
5.6986224
21
29.4191181
0
LINE
8
DEFAULT_255_1_234
10
5.6986224
20
29.4191181
11
5.6809525
21
29.3869912
0
LINE
8
DEFAULT_255_1_234
10
4.6796137
20
37.5654433
11
4.6796137
21
36.3904
0
LINE
8
DEFAULT_255_1_234
10
4.6796137
20
36.3904
11
4.5302234
21
36.3904
0
LINE
8
DEFAULT_255_1_234
10
4.5302234
20
36.3904
11
4.5302234
21
37.3807133
0
LINE
8
DEFAULT_255_1_234
10
4.5302234
20
37.3807133
11
4.2306396
21
37.2706785
0
LINE
8
DEFAULT_255_1_234
10
4.2306396
20
37.2706785
11
4.2306396
21
37.4056117
0
LINE
8
DEFAULT_255_1_234
10
4.2306396
20
37.4056117
11
4.6563217
21
37.5654433
0
LINE
8
DEFAULT_255_1_234
10
4.6563217
20
37.5654433
11
4.6796137
21
37.5654433
0
LINE
8
DEFAULT_255_1_234
10
5.3309877
20
36.9261169
11
5.3309877
21
37.0473962
0
LINE
8
DEFAULT_255_1_234
10
5.3309877
20
37.0473962
11
5.4426289
21
37.0473962
0
LINE
8
DEFAULT_255_1_234
10
5.2522767
20
37.2530087
11
5.1036895
21
37.2530087
0
LINE
8
DEFAULT_255_1_234
10
5.0932482
20
36.6988188
11
5.2426386
21
36.6988188
0
LINE
8
DEFAULT_255_1_234
10
5.4426289
20
36.9261169
11
5.3309877
21
36.9261169
0
ARC
8
DEFAULT_255_1_234
10
5.4397155
20
37.3866713
40
0.3392876
50
270.4919872
51
281.8951556
0
ARC
8
DEFAULT_255_1_234
10
5.4638417
20
37.2764702
40
0.2264817
50
281.6691735
51
301.2943132
0
ARC
8
DEFAULT_255_1_234
10
5.4808627
20
37.2453304
40
0.1910381
50
301.7833094
51
311.7545298
0
ARC
8
DEFAULT_255_1_234
10
5.4900203
20
37.2351748
40
0.1773635
50
311.7323931
51
354.2802411
0
ARC
8
DEFAULT_255_1_234
10
5.4173828
20
37.2476722
40
0.2509385
50
353.0937916
51
0.1181479
0
ARC
8
DEFAULT_255_1_234
10
5.3712613
20
37.2524386
40
0.2970898
50
359.1805295
51
15.0453146
0
ARC
8
DEFAULT_255_1_234
10
5.505845
20
37.2916992
40
0.1569564
50
13.9577229
51
77.6713066
0
ARC
8
DEFAULT_255_1_234
10
5.4671979
20
37.1531949
40
0.3006298
50
76.1116566
51
90.7026153
0
ARC
8
DEFAULT_255_1_234
10
5.4612817
20
37.1805545
40
0.2732568
50
89.5324876
51
103.531937
0
ARC
8
DEFAULT_255_1_234
10
5.4412261
20
37.2604884
40
0.1908508
50
103.2931773
51
133.5619022
0
ARC
8
DEFAULT_255_1_234
10
5.436775
20
37.2664375
40
0.1834746
50
133.8349307
51
173.5344437
0
ARC
8
DEFAULT_255_1_234
10
5.5090793
20
37.2536213
40
0.2568033
50
172.5096846
51
180.1366907
0
ARC
8
DEFAULT_255_1_234
10
5.4139687
20
37.2570622
40
0.3103056
50
155.3484492
51
180.7484736
0
ARC
8
DEFAULT_255_1_234
10
5.4090776
20
37.2541846
40
0.3070957
50
131.5744599
51
154.4798489
0
ARC
8
DEFAULT_255_1_234
10
5.4403923
20
37.222531
40
0.3515643
50
96.9875458
51
131.9690667
0
ARC
8
DEFAULT_255_1_234
10
5.4623403
20
37.0979636
40
0.4779224
50
89.8596053
51
97.7825159
0
ARC
8
DEFAULT_255_1_234
10
5.4671466
20
37.0717616
40
0.5041361
50
78.3655447
51
90.4131539
0
ARC
8
DEFAULT_255_1_234
10
5.5029384
20
37.2376887
40
0.3344039
50
56.6229102
51
78.638727
0
ARC
8
DEFAULT_255_1_234
10
5.5244328
20
37.2752805
40
0.2912001
50
47.0253525
51
56.0854072
0
ARC
8
DEFAULT_255_1_234
10
5.5264108
20
37.2792223
40
0.2869704
50
10.9208013
51
46.7778124
0
ARC
8
DEFAULT_255_1_234
10
5.3900174
20
37.2476857
40
0.426899
50
359.6364486
51
11.6087304
0
ARC
8
DEFAULT_255_1_234
10
5.5735018
20
37.2461752
40
0.243409
50
332.3549906
51
359.7179418
0
ARC
8
DEFAULT_255_1_234
10
5.508462
20
37.2770142
40
0.3153459
50
325.2333722
51
332.8745602
0
ARC
8
DEFAULT_255_1_234
10
5.5237244
20
37.2663828
40
0.2967456
50
292.9802137
51
325.2392345
0
ARC
8
DEFAULT_255_1_234
10
5.4962617
20
37.3197863
40
0.3566604
50
292.5402179
51
293.6924929
0
ARC
8
DEFAULT_255_1_234
10
5.5355213
20
36.6743091
40
0.3307468
50
57.6435486
51
72.8625112
0
ARC
8
DEFAULT_255_1_234
10
5.5709713
20
36.7317549
40
0.2632492
50
36.7248896
51
57.4697979
0
ARC
8
DEFAULT_255_1_234
10
5.5698346
20
36.733022
40
0.2634081
50
8.0545065
51
36.356114
0
ARC
8
DEFAULT_255_1_234
10
5.4835531
20
36.7175174
40
0.3510261
50
359.8320645
51
8.5869982
0
ARC
8
DEFAULT_255_1_234
10
5.4460307
20
36.7127101
40
0.3885653
50
343.9829931
51
0.5571613
0
ARC
8
DEFAULT_255_1_234
10
5.5346504
20
36.6884438
40
0.2966924
50
311.6359546
51
343.7651759
0
ARC
8
DEFAULT_255_1_234
10
5.4968074
20
36.7311102
40
0.3537231
50
279.7829875
51
311.6255694
0
ARC
8
DEFAULT_255_1_234
10
5.466685
20
36.874828
40
0.5004971
50
269.7286406
51
280.3856417
0
ARC
8
DEFAULT_255_1_234
10
5.4604922
20
36.8706996
40
0.4963778
50
256.6828919
51
270.4412052
0
ARC
8
DEFAULT_255_1_234
10
5.4266218
20
36.7322394
40
0.3538406
50
229.4223008
51
256.8556159
0
ARC
8
DEFAULT_255_1_234
10
5.3851611
20
36.6855736
40
0.2914296
50
181.818294
51
229.6455059
0
ARC
8
DEFAULT_255_1_234
10
5.4891567
20
36.6986496
40
0.3959084
50
179.9755256
51
183.2323064
0
ARC
8
DEFAULT_255_1_234
10
5.4719313
20
36.6966037
40
0.2293034
50
179.4465117
51
196.2869258
0
ARC
8
DEFAULT_255_1_234
10
5.4231721
20
36.6832651
40
0.1787621
50
196.5661473
51
227.705904
0
ARC
8
DEFAULT_255_1_234
10
5.4395816
20
36.7016155
40
0.2033784
50
227.7652068
51
257.8762805
0
ARC
8
DEFAULT_255_1_234
10
5.4620786
20
36.7959156
40
0.3003081
50
257.4584385
51
270.426602
0
ARC
8
DEFAULT_255_1_234
10
5.4666352
20
36.8248996
40
0.329292
50
269.5962073
51
280.8789248
0
ARC
8
DEFAULT_255_1_234
10
5.4895881
20
36.7102685
40
0.2123908
50
280.6346389
51
299.8595945
0
ARC
8
DEFAULT_255_1_234
10
5.5086788
20
36.6740212
40
0.171457
50
300.3576302
51
314.5517981
0
ARC
8
DEFAULT_255_1_234
10
5.5003848
20
36.6800919
40
0.1816095
50
315.0728369
51
345.0431014
0
ARC
8
DEFAULT_255_1_234
10
5.4080662
20
36.7069841
40
0.2777492
50
344.5986631
51
357.9269593
0
ARC
8
DEFAULT_255_1_234
10
5.3184989
20
36.7131276
40
0.3674917
50
357.4748886
51
0.0231117
0
ARC
8
DEFAULT_255_1_234
10
5.4208098
20
36.7155679
40
0.2651907
50
359.5047933
51
13.4239635
0
ARC
8
DEFAULT_255_1_234
10
5.5074741
20
36.7377478
40
0.1757509
50
12.9498199
51
48.7551375
0
ARC
8
DEFAULT_255_1_234
10
5.4892475
20
36.71284
40
0.2065134
50
49.5088623
51
72.1836453
0
ARC
8
DEFAULT_255_1_234
10
5.4534628
20
36.6066291
40
0.3185836
50
71.9010081
51
84.3554254
0
ARC
8
DEFAULT_255_1_234
10
5.437326
20
36.4705326
40
0.4556151
50
84.0193428
51
89.333121
0
LINE
8
DEFAULT_255_1_234
10
4.6796137
20
45.5029433
11
4.6796137
21
44.3279
0
LINE
8
DEFAULT_255_1_234
10
4.6796137
20
44.3279
11
4.5302234
21
44.3279
0
LINE
8
DEFAULT_255_1_234
10
4.5302234
20
44.3279
11
4.5302234
21
45.3182133
0
LINE
8
DEFAULT_255_1_234
10
4.5302234
20
45.3182133
11
4.2306396
21
45.2081785
0
LINE
8
DEFAULT_255_1_234
10
4.2306396
20
45.2081785
11
4.2306396
21
45.3431117
0
LINE
8
DEFAULT_255_1_234
10
4.2306396
20
45.3431117
11
4.6563217
21
45.5029433
0
LINE
8
DEFAULT_255_1_234
10
4.6563217
20
45.5029433
11
4.6796137
21
45.5029433
0
LINE
8
DEFAULT_255_1_234
10
5.8811618
20
44.4491792
11
5.8811618
21
44.3279
0
LINE
8
DEFAULT_255_1_234
10
5.8811618
20
44.3279
11
5.1149339
21
44.3279
0
LINE
8
DEFAULT_255_1_234
10
5.1149339
20
44.3279
11
5.1149339
21
44.4347221
0
LINE
8
DEFAULT_255_1_234
10
5.1149339
20
44.4347221
11
5.5197335
21
44.8844995
0
LINE
8
DEFAULT_255_1_234
10
5.2410322
20
45.1527595
11
5.0924451
21
45.1527595
0
LINE
8
DEFAULT_255_1_234
10
5.6072795
20
44.7889218
11
5.2940417
21
44.4491792
0
LINE
8
DEFAULT_255_1_234
10
5.2940417
20
44.4491792
11
5.8811618
21
44.4491792
0
ARC
8
DEFAULT_255_1_234
10
4.1707169
20
46.0774527
40
1.8008286
50
318.5132453
51
320.7828378
0
ARC
8
DEFAULT_255_1_234
10
4.6994143
20
45.6471426
40
1.1191493
50
320.7372736
51
323.9737074
0
ARC
8
DEFAULT_255_1_234
10
5.0914
20
45.3631361
40
0.6350923
50
323.8961724
51
328.6421089
0
ARC
8
DEFAULT_255_1_234
10
5.2960595
20
45.2369031
40
0.3946393
50
328.8299013
51
331.789948
0
ARC
8
DEFAULT_255_1_234
10
5.3957774
20
45.1854509
40
0.2824501
50
331.4255242
51
352.9364833
0
ARC
8
DEFAULT_255_1_234
10
5.4094274
20
45.1823976
40
0.2685315
50
353.2248685
51
0.0169286
0
ARC
8
DEFAULT_255_1_234
10
5.4304151
20
45.184695
40
0.2475536
50
359.4866256
51
15.9339782
0
ARC
8
DEFAULT_255_1_234
10
5.4811136
20
45.1983286
40
0.1950618
50
16.1714718
51
43.5284424
0
ARC
8
DEFAULT_255_1_234
10
5.4888445
20
45.2060573
40
0.184134
50
43.4415429
51
83.1661404
0
ARC
8
DEFAULT_255_1_234
10
5.4754363
20
45.1323771
40
0.258926
50
82.160215
51
90.1505798
0
ARC
8
DEFAULT_255_1_234
10
5.472279
20
45.0786865
40
0.3126255
50
89.5460705
51
102.5418777
0
ARC
8
DEFAULT_255_1_234
10
5.4479876
20
45.1817665
40
0.2067346
50
102.1739365
51
129.2061916
0
ARC
8
DEFAULT_255_1_234
10
5.4400948
20
45.1942094
40
0.1921118
50
129.7279328
51
135.7542026
0
ARC
8
DEFAULT_255_1_234
10
5.4522476
20
45.1845045
40
0.2075944
50
136.175737
51
166.3674722
0
ARC
8
DEFAULT_255_1_234
10
5.5529395
20
45.1575182
40
0.3118201
50
165.9092917
51
178.8683903
0
ARC
8
DEFAULT_255_1_234
10
5.6394256
20
45.1528179
40
0.3983935
50
178.438168
51
180.0083905
0
ARC
8
DEFAULT_255_1_234
10
5.4992859
20
45.1567231
40
0.4068601
50
163.2878735
51
180.5581814
0
ARC
8
DEFAULT_255_1_234
10
5.419112
20
45.178784
40
0.3237344
50
133.454115
51
162.9470031
0
ARC
8
DEFAULT_255_1_234
10
5.4369661
20
45.1598
40
0.349795
50
100.7869394
51
133.4384016
0
ARC
8
DEFAULT_255_1_234
10
5.4717433
20
45.0049319
40
0.5084616
50
89.6605301
51
101.3704185
0
ARC
8
DEFAULT_255_1_234
10
5.4783772
20
45.0110496
40
0.502348
50
78.2171172
51
90.4130393
0
ARC
8
DEFAULT_255_1_234
10
5.513885
20
45.1734637
40
0.3361092
50
55.9268222
51
78.4888551
0
ARC
8
DEFAULT_255_1_234
10
5.533529
20
45.2073324
40
0.2970617
50
47.9292255
51
55.4054003
0
ARC
8
DEFAULT_255_1_234
10
5.5436851
20
45.2176502
40
0.2825983
50
4.3347696
51
48.0560701
0
ARC
8
DEFAULT_255_1_234
10
5.4341244
20
45.2006601
40
0.393225
50
359.925209
51
5.5967654
0
ARC
8
DEFAULT_255_1_234
10
5.4770136
20
45.2062816
40
0.3503892
50
337.8914096
51
358.9967724
0
ARC
8
DEFAULT_255_1_234
10
5.2056548
20
45.3109706
40
0.6412172
50
326.9135351
51
338.3505194
0
ARC
8
DEFAULT_255_1_234
10
4.8070852
20
45.5664284
40
1.1146189
50
319.6472867
51
327.095818
0
ARC
8
DEFAULT_255_1_234
10
4.4237855
20
45.8826
40
1.6114559
50
317.2586784
51
319.9046139
0
LINE
8
DEFAULT_255_1_234
10
4.6706137
20
53.4404433
11
4.6706137
21
52.2654
0
LINE
8
DEFAULT_255_1_234
10
4.6706137
20
52.2654
11
4.5212234
21
52.2654
0
LINE
8
DEFAULT_255_1_234
10
4.5212234
20
52.2654
11
4.5212234
21
53.2557133
0
LINE
8
DEFAULT_255_1_234
10
4.5212234
20
53.2557133
11
4.2216396
21
53.1456785
0
LINE
8
DEFAULT_255_1_234
10
4.2216396
20
53.1456785
11
4.2216396
21
53.2806117
0
LINE
8
DEFAULT_255_1_234
10
4.2216396
20
53.2806117
11
4.6473217
21
53.4404433
0
LINE
8
DEFAULT_255_1_234
10
4.6473217
20
53.4404433
11
4.6706137
21
53.4404433
0
LINE
8
DEFAULT_255_1_234
10
5.5942636
20
53.4404433
11
5.5942636
21
52.2654
0
LINE
8
DEFAULT_255_1_234
10
5.5942636
20
52.2654
11
5.4448733
21
52.2654
0
LINE
8
DEFAULT_255_1_234
10
5.4448733
20
52.2654
11
5.4448733
21
53.2557133
0
LINE
8
DEFAULT_255_1_234
10
5.4448733
20
53.2557133
11
5.1452895
21
53.1456785
0
LINE
8
DEFAULT_255_1_234
10
5.1452895
20
53.1456785
11
5.1452895
21
53.2806117
0
LINE
8
DEFAULT_255_1_234
10
5.1452895
20
53.2806117
11
5.5709716
21
53.4404433
0
LINE
8
DEFAULT_255_1_234
10
5.5709716
20
53.4404433
11
5.5942636
21
53.4404433
0
LINE
8
DEFAULT_255_1_234
10
4.6796137
20
61.3779433
11
4.6796137
21
60.2029
0
LINE
8
DEFAULT_255_1_234
10
4.6796137
20
60.2029
11
4.5302234
21
60.2029
0
LINE
8
DEFAULT_255_1_234
10
4.5302234
20
60.2029
11
4.5302234
21
61.1932133
0
LINE
8
DEFAULT_255_1_234
10
4.5302234
20
61.1932133
11
4.2306396
21
61.0831785
0
LINE
8
DEFAULT_255_1_234
10
4.2306396
20
61.0831785
11
4.2306396
21
61.2181117
0
LINE
8
DEFAULT_255_1_234
10
4.2306396
20
61.2181117
11
4.6563217
21
61.3779433
0
LINE
8
DEFAULT_255_1_234
10
4.6563217
20
61.3779433
11
4.6796137
21
61.3779433
0
LINE
8
DEFAULT_255_1_234
10
5.8482316
20
60.8944327
11
5.8482316
21
60.7016709
0
LINE
8
DEFAULT_255_1_234
10
5.1101149
20
60.6815916
11
5.1101149
21
60.8799755
0
LINE
8
DEFAULT_255_1_234
10
5.6996445
20
60.6615123
11
5.6996445
21
60.9048739
0
LINE
8
DEFAULT_255_1_234
10
5.2587021
20
60.9161184
11
5.2587021
21
60.6783789
0
ARC
8
DEFAULT_255_1_234
10
4.6235206
20
60.6967805
40
1.2247208
50
353.8441951
51
0.2287902
0
ARC
8
DEFAULT_255_1_234
10
5.087471
20
60.6449806
40
0.7578929
50
344.4934747
51
353.9765454
0
ARC
8
DEFAULT_255_1_234
10
5.38673
20
60.5598981
40
0.4467846
50
329.2803592
51
344.7472793
0
ARC
8
DEFAULT_255_1_234
10
5.4860125
20
60.5054018
40
0.3336173
50
324.9352394
51
328.6160465
0
ARC
8
DEFAULT_255_1_234
10
5.5237233
20
60.4790427
40
0.2876076
50
280.580143
51
324.9173126
0
ARC
8
DEFAULT_255_1_234
10
5.4836026
20
60.6461099
40
0.4592847
50
269.5977311
51
281.6734359
0
ARC
8
DEFAULT_255_1_234
10
5.4763932
20
60.6341173
40
0.4472986
50
256.6228859
51
270.51044
0
ARC
8
DEFAULT_255_1_234
10
5.4361909
20
60.4792877
40
0.2873874
50
215.8618325
51
257.2788573
0
ARC
8
DEFAULT_255_1_234
10
5.5382941
20
60.5477977
40
0.4102928
50
197.9693508
51
215.2623606
0
ARC
8
DEFAULT_255_1_234
10
5.7868057
20
60.6316709
40
0.6725652
50
187.8816417
51
198.2346507
0
ARC
8
DEFAULT_255_1_234
10
6.1826265
20
60.6888079
40
1.0724845
50
180.8976217
51
188.0055519
0
ARC
8
DEFAULT_255_1_234
10
6.4626453
20
60.6991777
40
1.3526448
50
180.7449369
51
181.1510016
0
ARC
8
DEFAULT_255_1_234
10
6.3049182
20
60.8848042
40
1.1948131
50
173.7675579
51
180.231553
0
ARC
8
DEFAULT_255_1_234
10
5.8531329
20
60.9358666
40
0.7401564
50
164.3058563
51
173.9002247
0
ARC
8
DEFAULT_255_1_234
10
5.5619398
20
61.0197656
40
0.4371288
50
148.7922025
51
164.568378
0
ARC
8
DEFAULT_255_1_234
10
5.466785
20
61.0728929
40
0.3282386
50
144.5883898
51
148.1176286
0
ARC
8
DEFAULT_255_1_234
10
5.4324748
20
61.0968315
40
0.2864044
50
101.6440918
51
144.514236
0
ARC
8
DEFAULT_255_1_234
10
5.4749814
20
60.9279069
40
0.4604934
50
89.5284041
51
102.5819763
0
ARC
8
DEFAULT_255_1_234
10
5.4828902
20
60.9240018
40
0.464401
50
77.0437873
51
90.5081339
0
ARC
8
DEFAULT_255_1_234
10
5.5230904
20
61.0882615
40
0.2953195
50
48.2778575
51
77.4994676
0
ARC
8
DEFAULT_255_1_234
10
5.5303535
20
61.1011746
40
0.2808655
50
36.3142134
51
47.6305865
0
ARC
8
DEFAULT_255_1_234
10
5.4434842
20
61.0426515
40
0.3855453
50
18.2931786
51
35.6769206
0
ARC
8
DEFAULT_255_1_234
10
5.1891601
20
60.9553593
40
0.654423
50
8.024666
51
18.5605216
0
ARC
8
DEFAULT_255_1_234
10
4.7728521
20
60.8938792
40
1.0752407
50
1.1274072
51
8.1718305
0
ARC
8
DEFAULT_255_1_234
10
4.4492712
20
60.8811885
40
1.3990231
50
0.5424119
51
1.3863029
0
ARC
8
DEFAULT_255_1_234
10
4.6314089
20
60.9084342
40
1.0682415
50
359.8090433
51
4.9407866
0
ARC
8
DEFAULT_255_1_234
10
5.0524103
20
60.9460113
40
0.6455691
50
4.8362157
51
12.2904523
0
ARC
8
DEFAULT_255_1_234
10
5.3279218
20
61.0073965
40
0.3633074
50
12.0805627
51
23.8173984
0
ARC
8
DEFAULT_255_1_234
10
5.4452924
20
61.0570919
40
0.2358723
50
24.2871213
51
31.3935614
0
ARC
8
DEFAULT_255_1_234
10
5.4977621
20
61.0914233
40
0.1732111
50
30.7407893
51
82.4657128
0
ARC
8
DEFAULT_255_1_234
10
5.4797755
20
61.0030691
40
0.263235
50
81.1060089
51
90.2184952
0
ARC
8
DEFAULT_255_1_234
10
5.4762054
20
61.0288924
40
0.2374236
50
89.3806855
51
105.6762551
0
ARC
8
DEFAULT_255_1_234
10
5.4578685
20
61.0955567
40
0.1682847
50
105.7981136
51
149.7388061
0
ARC
8
DEFAULT_255_1_234
10
5.5642763
20
61.031595
40
0.2924306
50
149.4208916
51
163.6286378
0
ARC
8
DEFAULT_255_1_234
10
5.7733651
20
60.967825
40
0.5110213
50
163.3763315
51
172.1410975
0
ARC
8
DEFAULT_255_1_234
10
6.103437
20
60.9205518
40
0.8444586
50
172.0259487
51
178.0703232
0
ARC
8
DEFAULT_255_1_234
10
6.406446
20
60.9061906
40
1.1477868
50
177.8631668
51
179.5044149
0
ARC
8
DEFAULT_255_1_234
10
6.2991864
20
60.6747389
40
1.0404907
50
179.7995573
51
185.2460446
0
ARC
8
DEFAULT_255_1_234
10
5.8948903
20
60.6364513
40
0.6343885
50
185.1411642
51
193.0079639
0
ARC
8
DEFAULT_255_1_234
10
5.6305376
20
60.5739641
40
0.3627568
50
192.7897626
51
205.2507664
0
ARC
8
DEFAULT_255_1_234
10
5.5258923
20
60.5272415
40
0.2481908
50
205.8005384
51
211.2537509
0
ARC
8
DEFAULT_255_1_234
10
5.4735363
20
60.492158
40
0.1852521
50
210.3789793
51
238.4008143
0
ARC
8
DEFAULT_255_1_234
10
5.4715885
20
60.4968376
40
0.1882621
50
239.6520629
51
265.9793761
0
ARC
8
DEFAULT_255_1_234
10
5.4801085
20
60.5640427
40
0.2559272
50
265.1315437
51
270.060332
0
ARC
8
DEFAULT_255_1_234
10
5.4829864
20
60.5316534
40
0.2235528
50
269.3314664
51
287.2178029
0
ARC
8
DEFAULT_255_1_234
10
5.4967716
20
60.4813279
40
0.1714108
50
287.7958004
51
329.080874
0
ARC
8
DEFAULT_255_1_234
10
5.4010173
20
60.541093
40
0.2842745
50
328.6634704
51
343.3325132
0
ARC
8
DEFAULT_255_1_234
10
5.1837193
20
60.6087863
40
0.5118644
50
343.0499468
51
351.9393422
0
ARC
8
DEFAULT_255_1_234
10
4.8370493
20
60.6598949
40
0.8622784
50
351.8069023
51
357.7959224
0
ARC
8
DEFAULT_255_1_234
10
4.5135049
20
60.6766721
40
1.1862365
50
357.5871873
51
359.2677531
0
LINE
8
DEFAULT_255_1_234
10
4.8504246
20
68.8423739
11
4.8504246
21
68.7990025
0
LINE
8
DEFAULT_255_1_234
10
4.3082823
20
68.1395968
11
4.279368
21
68.1395968
0
LINE
8
DEFAULT_255_1_234
10
4.279368
20
68.1395968
11
4.279368
21
68.2648919
0
LINE
8
DEFAULT_255_1_234
10
4.279368
20
68.2648919
11
4.3106918
21
68.2648919
0
LINE
8
DEFAULT_255_1_234
10
4.7018375
20
68.8134597
11
4.7018375
21
68.8728945
0
ARC
8
DEFAULT_255_1_234
10
4.4224644
20
68.8880403
40
0.3635579
50
297.4037347
51
320.016758
0
ARC
8
DEFAULT_255_1_234
10
4.4514593
20
68.832324
40
0.3007486
50
270.2633101
51
297.3851877
0
ARC
8
DEFAULT_255_1_234
10
4.4480549
20
68.8786904
40
0.3471448
50
269.9966443
51
270.7900392
0
ARC
8
DEFAULT_255_1_234
10
4.445503
20
68.8785143
40
0.3469779
50
254.5999133
51
270.4180344
0
ARC
8
DEFAULT_255_1_234
10
4.4312389
20
68.8220647
40
0.2887697
50
236.4717942
51
254.3541279
0
ARC
8
DEFAULT_255_1_234
10
4.4468607
20
68.8430711
40
0.3149125
50
208.4727207
51
236.2134933
0
ARC
8
DEFAULT_255_1_234
10
4.5107382
20
68.8821455
40
0.3897115
50
204.3447514
51
209.0453999
0
ARC
8
DEFAULT_255_1_234
10
4.5786958
20
68.9109656
40
0.4635101
50
183.9375985
51
204.1276318
0
ARC
8
DEFAULT_255_1_234
10
4.6695209
20
68.9207482
40
0.5548037
50
179.9652252
51
184.3013875
0
ARC
8
DEFAULT_255_1_234
10
4.6455255
20
68.9240507
40
0.5308164
50
166.7585989
51
180.3201225
0
ARC
8
DEFAULT_255_1_234
10
4.5608869
20
68.9424488
40
0.4442163
50
154.6955053
51
166.5679793
0
ARC
8
DEFAULT_255_1_234
10
4.4755739
20
68.985421
40
0.3487299
50
136.3324195
51
155.0871442
0
ARC
8
DEFAULT_255_1_234
10
4.4474812
20
69.0094954
40
0.3117924
50
121.236733
51
135.9680508
0
ARC
8
DEFAULT_255_1_234
10
4.461531
20
68.9834743
40
0.3413302
50
96.845628
51
120.9881519
0
ARC
8
DEFAULT_255_1_234
10
4.4760892
20
68.8899515
40
0.4359341
50
89.8870174
51
97.2802754
0
ARC
8
DEFAULT_255_1_234
10
4.481333
20
68.9537095
40
0.3722009
50
70.6505584
51
90.6749113
0
ARC
8
DEFAULT_255_1_234
10
4.4944609
20
69.0050361
40
0.3194571
50
36.7492984
51
69.8219918
0
ARC
8
DEFAULT_255_1_234
10
4.3945774
20
68.9271993
40
0.4460685
50
15.39587
51
37.0840084
0
ARC
8
DEFAULT_255_1_234
10
4.1816207
20
68.8651242
40
0.6678714
50
3.9488873
51
15.6798563
0
ARC
8
DEFAULT_255_1_234
10
3.9414835
20
68.8434964
40
0.9089418
50
359.929245
51
4.2665314
0
ARC
8
DEFAULT_255_1_234
10
3.4809272
20
68.7923513
40
1.3695135
50
352.8366322
51
0.2782669
0
ARC
8
DEFAULT_255_1_234
10
4.0096951
20
68.7236629
40
0.8363105
50
341.8359505
51
352.9884176
0
ARC
8
DEFAULT_255_1_234
10
4.331567
20
68.61517
40
0.4966642
50
322.8578092
51
342.1527901
0
ARC
8
DEFAULT_255_1_234
10
4.4179626
20
68.5562384
40
0.3922466
50
319.334325
51
322.0998941
0
ARC
8
DEFAULT_255_1_234
10
4.3869963
20
68.5873209
40
0.4360033
50
285.9541367
51
318.8878087
0
ARC
8
DEFAULT_255_1_234
10
4.3143224
20
68.81836
40
0.678149
50
272.9281676
51
286.4922826
0
ARC
8
DEFAULT_255_1_234
10
4.2953342
20
69.0434587
40
0.9039547
50
270.8207226
51
273.4012994
0
ARC
8
DEFAULT_255_1_234
10
4.3042193
20
68.8615666
40
0.5967098
50
270.6214993
51
281.4062806
0
ARC
8
DEFAULT_255_1_234
10
4.3472174
20
68.6559833
40
0.3866861
50
281.1852553
51
299.0621114
0
ARC
8
DEFAULT_255_1_234
10
4.3845745
20
68.5838798
40
0.3055236
50
299.5067782
51
313.1200873
0
ARC
8
DEFAULT_255_1_234
10
4.3867712
20
68.5759554
40
0.2982623
50
313.8526205
51
338.5989322
0
ARC
8
DEFAULT_255_1_234
10
4.2243786
20
68.6426781
40
0.4738131
50
338.2523585
51
351.2430902
0
ARC
8
DEFAULT_255_1_234
10
3.9833082
20
68.6836447
40
0.7183203
50
350.9409515
51
357.6691871
0
ARC
8
DEFAULT_255_1_234
10
4.4723512
20
68.8838764
40
0.2294452
50
269.9447023
51
306.8248917
0
ARC
8
DEFAULT_255_1_234
10
4.4486427
20
68.9261898
40
0.2775994
50
305.5072438
51
327.0773448
0
ARC
8
DEFAULT_255_1_234
10
4.4604868
20
68.9167025
40
0.2625056
50
327.4104943
51
336.840169
0
ARC
8
DEFAULT_255_1_234
10
4.1510933
20
68.8761302
40
0.5507537
50
359.6633817
51
10.117533
0
ARC
8
DEFAULT_255_1_234
10
4.3264731
20
68.9085777
40
0.372403
50
9.9430141
51
26.7700076
0
ARC
8
DEFAULT_255_1_234
10
4.3861943
20
68.9361187
40
0.3066865
50
27.2015464
51
34.6829435
0
ARC
8
DEFAULT_255_1_234
10
4.4351423
20
68.9728977
40
0.245519
50
34.1250343
51
50.3070065
0
ARC
8
DEFAULT_255_1_234
10
4.4798103
20
69.0263385
40
0.1758693
50
50.3851167
51
90.6705993
0
ARC
8
DEFAULT_255_1_234
10
4.4751336
20
68.9958799
40
0.2063326
50
89.272901
51
111.9140407
0
ARC
8
DEFAULT_255_1_234
10
4.4731864
20
69.009944
40
0.1925887
50
112.9382311
51
142.5320782
0
ARC
8
DEFAULT_255_1_234
10
4.5278044
20
68.9655969
40
0.2629232
50
142.1021256
51
166.3835592
0
ARC
8
DEFAULT_255_1_234
10
4.6459349
20
68.9350915
40
0.3849193
50
166.1100289
51
178.665427
0
ARC
8
DEFAULT_255_1_234
10
4.7506938
20
68.9292117
40
0.4897989
50
178.2632126
51
180.0111093
0
ARC
8
DEFAULT_255_1_234
10
4.6705059
20
68.9263728
40
0.40962
50
179.6161962
51
191.8787166
0
ARC
8
DEFAULT_255_1_234
10
4.5484898
20
68.8993896
40
0.2846655
50
191.6191692
51
215.2972286
0
ARC
8
DEFAULT_255_1_234
10
4.5288089
20
68.8878918
40
0.2619665
50
215.7320102
51
216.5355409
0
ARC
8
DEFAULT_255_1_234
10
4.4749175
20
68.8446647
40
0.1929497
50
215.7486685
51
239.9727502
0
ARC
8
DEFAULT_255_1_234
10
4.4679091
20
68.8395894
40
0.1850822
50
241.0650169
51
269.2810483
0
ARC
8
DEFAULT_255_1_234
10
4.4721006
20
68.8886371
40
0.2342059
50
268.4062526
51
270.0071348
0
ARC
8
DEFAULT_255_1_234
10
4.5585624
20
76.9395703
40
0.2822356
50
338.8763615
51
0.5166041
0
ARC
8
DEFAULT_255_1_234
10
4.5754278
20
76.9350208
40
0.2648703
50
325.8412414
51
338.4795939
0
ARC
8
DEFAULT_255_1_234
10
4.5363646
20
76.9621042
40
0.3124019
50
296.7586019
51
325.753654
0
ARC
8
DEFAULT_255_1_234
10
4.5075754
20
77.0105789
40
0.368668
50
296.0902311
51
297.3618122
0
ARC
8
DEFAULT_255_1_234
10
4.5333212
20
76.3551041
40
0.3518806
50
47.9009248
51
67.1946869
0
ARC
8
DEFAULT_255_1_234
10
4.5529454
20
76.3797395
40
0.320451
50
35.236241
51
47.551371
0
ARC
8
DEFAULT_255_1_234
10
4.5791072
20
76.3971993
40
0.2890103
50
359.2759738
51
35.4014081
0
ARC
8
DEFAULT_255_1_234
10
4.5046103
20
76.3898826
40
0.3635026
50
343.1294516
51
0.5776525
0
ARC
8
DEFAULT_255_1_234
10
4.5770648
20
76.369933
40
0.2883832
50
310.8497458
51
342.744803
0
ARC
8
DEFAULT_255_1_234
10
4.5352761
20
76.4176294
40
0.3517954
50
281.5473923
51
310.9169905
0
ARC
8
DEFAULT_255_1_234
10
4.499621
20
76.5729084
40
0.5110832
50
269.6192722
51
281.9789957
0
ARC
8
DEFAULT_255_1_234
10
4.4924
20
76.5729828
40
0.5111606
50
257.4584469
51
270.4287458
0
ARC
8
DEFAULT_255_1_234
10
4.4543143
20
76.4126344
40
0.3463762
50
228.7553743
51
257.8484423
0
ARC
8
DEFAULT_255_1_234
10
4.4233341
20
76.3753442
40
0.297916
50
184.0104442
51
228.5071787
0
ARC
8
DEFAULT_255_1_234
10
4.5396285
20
76.3930512
40
0.4152734
50
179.9315461
51
185.3254504
0
ARC
8
DEFAULT_255_1_234
10
4.4219931
20
76.3967992
40
0.2976554
50
145.6795913
51
180.6259649
0
ARC
8
DEFAULT_255_1_234
10
4.438328
20
76.3853929
40
0.3175776
50
115.5537925
51
145.6416199
0
ARC
8
DEFAULT_255_1_234
10
4.472421
20
76.3243028
40
0.3874232
50
113.2437915
51
116.2054627
0
ARC
8
DEFAULT_255_1_234
10
4.4571423
20
76.964158
40
0.3154751
50
222.9548379
51
244.1372485
0
ARC
8
DEFAULT_255_1_234
10
4.4449498
20
76.9504834
40
0.2972382
50
213.3439227
51
222.6271327
0
ARC
8
DEFAULT_255_1_234
10
4.4257433
20
76.9374308
40
0.274019
50
180.4316517
51
213.2713999
0
ARC
8
DEFAULT_255_1_234
10
4.4832434
20
76.942111
40
0.33158
50
179.9992944
51
181.1655061
0
ARC
8
DEFAULT_255_1_234
10
4.5241851
20
76.9455561
40
0.3725376
50
164.6186108
51
180.5292368
0
ARC
8
DEFAULT_255_1_234
10
4.4343714
20
76.9697101
40
0.2795349
50
132.2454369
51
164.5092287
0
ARC
8
DEFAULT_255_1_234
10
4.4630818
20
76.9372028
40
0.3229019
50
100.7052766
51
132.1387266
0
ARC
8
DEFAULT_255_1_234
10
4.493579
20
76.7994086
40
0.4639835
50
89.6732617
51
101.2449487
0
ARC
8
DEFAULT_255_1_234
10
4.4997988
20
76.816899
40
0.4464999
50
76.2876631
51
90.4586123
0
ARC
8
DEFAULT_255_1_234
10
4.530422
20
76.939122
40
0.3205023
50
47.8240157
51
76.4266918
0
ARC
8
DEFAULT_255_1_234
10
4.552677
20
76.965159
40
0.2862661
50
6.9168658
51
47.6261438
0
ARC
8
DEFAULT_255_1_234
10
4.4340173
20
76.943237
40
0.4067708
50
359.8419705
51
7.9694496
0
ARC
8
DEFAULT_255_1_234
10
4.468207
20
76.3991925
40
0.2513121
50
359.4454068
51
16.9256425
0
ARC
8
DEFAULT_255_1_234
10
4.5150881
20
76.4121033
40
0.2027071
50
17.292259
51
45.462717
0
ARC
8
DEFAULT_255_1_234
10
4.5096817
20
76.4074434
40
0.2098212
50
45.3028762
51
83.1921472
0
ARC
8
DEFAULT_255_1_234
10
4.4953501
20
76.3272895
40
0.2911472
50
82.2614531
51
90.143954
0
ARC
8
DEFAULT_255_1_234
10
4.4922621
20
76.350595
40
0.2678513
50
89.4959189
51
104.8579811
0
ARC
8
DEFAULT_255_1_234
10
4.474588
20
76.417589
40
0.1985654
50
104.8855873
51
135.2448349
0
ARC
8
DEFAULT_255_1_234
10
4.4795653
20
76.4131336
40
0.2052373
50
135.3398955
51
172.104394
0
ARC
8
DEFAULT_255_1_234
10
4.5602711
20
76.3976925
40
0.2873299
50
171.2651929
51
180.1859362
0
ARC
8
DEFAULT_255_1_234
10
4.5433412
20
76.3944733
40
0.2704083
50
179.515471
51
193.6466734
0
ARC
8
DEFAULT_255_1_234
10
4.4617181
20
76.3736777
40
0.1861855
50
193.3540587
51
225.8256931
0
ARC
8
DEFAULT_255_1_234
10
4.4657938
20
76.3807524
40
0.1941102
50
226.418029
51
255.8553723
0
ARC
8
DEFAULT_255_1_234
10
4.4914371
20
76.4743998
40
0.2911917
50
255.4655572
51
268.7985967
0
ARC
8
DEFAULT_255_1_234
10
4.4961563
20
76.5582491
40
0.3751331
50
268.3464808
51
270.0104874
0
ARC
8
DEFAULT_255_1_234
10
4.4984951
20
76.4898138
40
0.3067064
50
269.575914
51
282.0823146
0
ARC
8
DEFAULT_255_1_234
10
4.520986
20
76.3903803
40
0.2047712
50
281.7522535
51
306.6056425
0
ARC
8
DEFAULT_255_1_234
10
4.5308286
20
76.3742487
40
0.1859604
50
307.1350025
51
314.0277951
0
ARC
8
DEFAULT_255_1_234
10
4.527237
20
76.3768766
40
0.1903475
50
314.2553419
51
350.169324
0
ARC
8
DEFAULT_255_1_234
10
4.4420839
20
76.3953409
40
0.2774269
50
349.4145679
51
0.2930737
0
ARC
8
DEFAULT_255_1_234
10
4.4941272
20
76.9112353
40
0.2300764
50
89.477591
51
105.729794
0
ARC
8
DEFAULT_255_1_234
10
4.4805185
20
76.9617637
40
0.1777519
50
105.922966
51
135.1662921
0
ARC
8
DEFAULT_255_1_234
10
4.4825688
20
76.9603419
40
0.1802087
50
135.3053131
51
168.9882338
0
ARC
8
DEFAULT_255_1_234
10
4.565326
20
76.9413721
40
0.2650806
50
168.3802067
51
180.3602358
0
ARC
8
DEFAULT_255_1_234
10
4.542484
20
76.9376041
40
0.2422425
50
179.5029707
51
194.9126783
0
ARC
8
DEFAULT_255_1_234
10
4.4839501
20
76.922211
40
0.1817188
50
194.9722181
51
224.1943972
0
ARC
8
DEFAULT_255_1_234
10
4.4811368
20
76.9199169
40
0.1781027
50
224.2961434
51
262.0157375
0
ARC
8
DEFAULT_255_1_234
10
4.4953611
20
76.9930661
40
0.2525492
50
261.1250369
51
270.1959853
0
ARC
8
DEFAULT_255_1_234
10
4.4983366
20
76.9743339
40
0.233825
50
269.4825617
51
285.0988277
0
ARC
8
DEFAULT_255_1_234
10
4.5137525
20
76.916499
40
0.1739712
50
285.1585659
51
315.9484648
0
ARC
8
DEFAULT_255_1_234
10
4.5048537
20
76.9246886
40
0.1860616
50
316.0412958
51
351.9162715
0
ARC
8
DEFAULT_255_1_234
10
4.4315492
20
76.9388245
40
0.2606517
50
351.1056823
51
0.1936567
0
ARC
8
DEFAULT_255_1_234
10
4.4578321
20
76.9418369
40
0.234377
50
359.4789506
51
16.0679113
0
ARC
8
DEFAULT_255_1_234
10
4.505428
20
76.954681
40
0.1850875
50
16.3251951
51
44.791304
0
ARC
8
DEFAULT_255_1_234
10
4.5036561
20
76.9547339
40
0.186312
50
44.3958661
51
88.2498933
0
ARC
8
DEFAULT_255_1_234
10
4.4963115
20
76.8936154
40
0.2476868
50
86.9833827
51
90.0200148
0
LINE
8
DEFAULT_255_1_234
10
4.8865674
20
85.1848211
11
4.8865674
21
85.101291
0
LINE
8
DEFAULT_255_1_234
10
4.8865674
20
85.101291
11
4.4022536
21
84.0154
0
LINE
8
DEFAULT_255_1_234
10
4.4022536
20
84.0154
11
4.2464379
21
84.0154
0
LINE
8
DEFAULT_255_1_234
10
4.2464379
20
84.0154
11
4.7291454
21
85.0627387
0
LINE
8
DEFAULT_255_1_234
10
4.7291454
20
85.0627387
11
4.0962444
21
85.0627387
0
LINE
8
DEFAULT_255_1_234
10
4.0962444
20
85.0627387
11
4.0962444
21
85.1848211
0
LINE
8
DEFAULT_255_1_234
10
4.0962444
20
85.1848211
11
4.8865674
21
85.1848211
0
LINE
8
DEFAULT_255_1_234
10
4.6881835
20
93.1231243
11
4.7146882
21
93.1231243
0
LINE
8
DEFAULT_255_1_234
10
4.7146882
20
93.1231243
11
4.7146882
21
92.997026
0
LINE
8
DEFAULT_255_1_234
10
4.7146882
20
92.997026
11
4.6873803
21
92.997026
0
LINE
8
DEFAULT_255_1_234
10
4.1404189
20
92.3978583
11
4.1404189
21
92.4548836
0
LINE
8
DEFAULT_255_1_234
10
4.2898093
20
92.4356075
11
4.2898093
21
92.3809917
0
ARC
8
DEFAULT_255_1_234
10
4.6926151
20
92.4972455
40
0.4998079
50
90.6001036
51
104.514704
0
ARC
8
DEFAULT_255_1_234
10
4.6537667
20
92.6417131
40
0.3502176
50
104.2855254
51
133.862935
0
ARC
8
DEFAULT_255_1_234
10
4.6701424
20
92.630883
40
0.3693984
50
134.5302688
51
161.6210873
0
ARC
8
DEFAULT_255_1_234
10
4.8354613
20
92.5725895
40
0.5446739
50
161.2849839
51
174.2076652
0
ARC
8
DEFAULT_255_1_234
10
4.976155
20
92.5531787
40
0.6866274
50
173.7810589
51
174.9254635
0
ARC
8
DEFAULT_255_1_234
10
4.5211382
20
92.4148839
40
0.3033419
50
95.8330959
51
138.9954921
0
ARC
8
DEFAULT_255_1_234
10
4.5434738
20
92.2870375
40
0.4328947
50
89.8753725
51
97.0544009
0
ARC
8
DEFAULT_255_1_234
10
4.5482204
20
92.3705748
40
0.3493769
50
71.6407809
51
90.6240094
0
ARC
8
DEFAULT_255_1_234
10
4.5632777
20
92.4260082
40
0.2920396
50
39.6367836
51
71.019018
0
ARC
8
DEFAULT_255_1_234
10
4.499625
20
92.3709998
40
0.3761538
50
10.658731
51
39.9043955
0
ARC
8
DEFAULT_255_1_234
10
4.3448333
20
92.3373686
40
0.5345136
50
359.682601
51
11.132623
0
ARC
8
DEFAULT_255_1_234
10
4.3408464
20
92.330301
40
0.5385081
50
347.2486944
51
0.4369317
0
ARC
8
DEFAULT_255_1_234
10
4.5075941
20
92.2901807
40
0.3670249
50
318.1409698
51
347.6118597
0
ARC
8
DEFAULT_255_1_234
10
4.5400934
20
92.2634702
40
0.3250007
50
275.6342139
51
317.8248465
0
ARC
8
DEFAULT_255_1_234
10
4.5180045
20
92.3934219
40
0.4565864
50
269.8874292
51
276.7917694
0
ARC
8
DEFAULT_255_1_234
10
4.5125116
20
92.2908743
40
0.3540676
50
246.9140195
51
270.7437342
0
ARC
8
DEFAULT_255_1_234
10
4.5131506
20
92.2766384
40
0.3412781
50
218.1665114
51
245.878116
0
ARC
8
DEFAULT_255_1_234
10
4.6010967
20
92.3502279
40
0.455911
50
191.4115814
51
218.6077802
0
ARC
8
DEFAULT_255_1_234
10
4.7949056
20
92.3936833
40
0.6545001
50
179.6345085
51
191.7836486
0
ARC
8
DEFAULT_255_1_234
10
5.3531393
20
92.4615697
40
1.2127388
50
171.4525249
51
180.3158839
0
ARC
8
DEFAULT_255_1_234
10
4.9136269
20
92.5299608
40
0.7679464
50
157.9802646
51
171.6246686
0
ARC
8
DEFAULT_255_1_234
10
4.692229
20
92.6182421
40
0.5296008
50
141.4298019
51
157.854097
0
ARC
8
DEFAULT_255_1_234
10
4.628061
20
92.6636381
40
0.4511509
50
102.8715806
51
140.8564722
0
ARC
8
DEFAULT_255_1_234
10
4.6928226
20
92.4196552
40
0.7034845
50
90.3778349
51
103.5869322
0
ARC
8
DEFAULT_255_1_234
10
4.5190002
20
92.359173
40
0.2370698
50
89.8751008
51
126.2071704
0
ARC
8
DEFAULT_255_1_234
10
4.5235792
20
92.3437303
40
0.2522934
50
124.9745049
51
144.895901
0
ARC
8
DEFAULT_255_1_234
10
4.5059982
20
92.358056
40
0.2296779
50
145.2974905
51
160.2660252
0
ARC
8
DEFAULT_255_1_234
10
4.8132521
20
92.3778071
40
0.5234525
50
179.6514266
51
190.2855912
0
ARC
8
DEFAULT_255_1_234
10
4.6438658
20
92.3458786
40
0.3510893
50
190.0945431
51
207.5098196
0
ARC
8
DEFAULT_255_1_234
10
4.5872928
20
92.3189623
40
0.288489
50
207.9583163
51
216.3251085
0
ARC
8
DEFAULT_255_1_234
10
4.5533036
20
92.2910105
40
0.2445587
50
215.7661442
51
232.5456785
0
ARC
8
DEFAULT_255_1_234
10
4.5150019
20
92.2423482
40
0.1826382
50
232.8005391
51
270.6605633
0
ARC
8
DEFAULT_255_1_234
10
4.519572
20
92.2787612
40
0.2190529
50
269.35537
51
288.4744281
0
ARC
8
DEFAULT_255_1_234
10
4.5288617
20
92.2438118
40
0.1829749
50
289.1833337
51
322.9683818
0
ARC
8
DEFAULT_255_1_234
10
4.4677139
20
92.2920391
40
0.2608399
50
322.6007884
51
346.5182367
0
ARC
8
DEFAULT_255_1_234
10
4.3519735
20
92.3215616
40
0.3802777
50
346.2582162
51
358.7741648
0
ARC
8
DEFAULT_255_1_234
10
4.2501404
20
92.3270965
40
0.4822176
50
358.3755224
51
0.0098023
0
ARC
8
DEFAULT_255_1_234
10
4.3257591
20
92.3298657
40
0.4066078
50
359.6214041
51
11.2839074
0
ARC
8
DEFAULT_255_1_234
10
4.4534738
20
92.3565066
40
0.2761514
50
11.0482309
51
31.8146458
0
ARC
8
DEFAULT_255_1_234
10
4.4843781
20
92.3732584
40
0.2410679
50
32.3035391
51
38.082671
0
ARC
8
DEFAULT_255_1_234
10
4.5264441
20
92.4113662
40
0.1844966
50
36.825067
51
85.7415724
0
ARC
8
DEFAULT_255_1_234
10
4.5197274
20
92.3613301
40
0.2349122
50
85.0140713
51
90.0513278
0
LINE
8
DEFAULT_255_1_234
10
4.3187235
20
100.4461963
11
4.1998538
21
100.4767169
0
LINE
8
DEFAULT_255_1_234
10
4.1998538
20
100.4767169
11
4.2592887
21
101.0598211
0
LINE
8
DEFAULT_255_1_234
10
4.2592887
20
101.0598211
11
4.8584563
21
101.0598211
0
LINE
8
DEFAULT_255_1_234
10
4.8584563
20
101.0598211
11
4.8584563
21
100.9224784
0
LINE
8
DEFAULT_255_1_234
10
4.8584563
20
100.9224784
11
4.385387
21
100.9224784
0
LINE
8
DEFAULT_255_1_234
10
4.385387
20
100.9224784
11
4.3500473
21
100.6036184
0
LINE
8
DEFAULT_255_1_234
10
4.1580888
20
100.1980156
11
4.2986442
21
100.1980156
0
LINE
8
DEFAULT_255_1_234
10
4.3580791
20
100.4783232
11
4.3187235
21
100.4461963
0
ARC
8
DEFAULT_255_1_234
10
4.5355257
20
100.285623
40
0.3681349
50
93.7182161
51
120.2538958
0
ARC
8
DEFAULT_255_1_234
10
4.544952
20
100.2048394
40
0.449379
50
89.9660152
51
94.2496022
0
ARC
8
DEFAULT_255_1_234
10
4.5490254
20
100.2637549
40
0.390482
50
73.8043271
51
90.5585896
0
ARC
8
DEFAULT_255_1_234
10
4.5725151
20
100.3495602
40
0.3015334
50
41.3071453
51
73.5430202
0
ARC
8
DEFAULT_255_1_234
10
4.5308978
20
100.3137324
40
0.3564457
50
13.5075983
51
41.2174222
0
ARC
8
DEFAULT_255_1_234
10
4.3667182
20
100.2707486
40
0.5261351
50
1.1331335
51
13.8829381
0
ARC
8
DEFAULT_255_1_234
10
4.2255551
20
100.2631665
40
0.6674378
50
359.9919444
51
1.544251
0
ARC
8
DEFAULT_255_1_234
10
4.3532377
20
100.259028
40
0.5397702
50
347.8572367
51
0.4293338
0
ARC
8
DEFAULT_255_1_234
10
4.5282695
20
100.2193736
40
0.3603188
50
323.673004
51
348.1672506
0
ARC
8
DEFAULT_255_1_234
10
4.5577203
20
100.2014168
40
0.3259678
50
316.8171152
51
323.1492751
0
ARC
8
DEFAULT_255_1_234
10
4.5638392
20
100.197746
40
0.3189975
50
281.8396411
51
316.5457803
0
ARC
8
DEFAULT_255_1_234
10
4.5262656
20
100.3532762
40
0.4789527
50
269.5770101
51
282.4214771
0
ARC
8
DEFAULT_255_1_234
10
4.5191467
20
100.3319125
40
0.45759
50
256.2427136
51
270.4486331
0
ARC
8
DEFAULT_255_1_234
10
4.489237
20
100.2119229
40
0.3339303
50
228.9023911
51
256.3314342
0
ARC
8
DEFAULT_255_1_234
10
4.4818602
20
100.2002746
40
0.32031
50
193.753695
51
228.5271154
0
ARC
8
DEFAULT_255_1_234
10
4.6056556
20
100.23658
40
0.4492253
50
184.924711
51
194.497588
0
ARC
8
DEFAULT_255_1_234
10
4.6249123
20
100.2401591
40
0.3289787
50
187.3600538
51
198.6732863
0
ARC
8
DEFAULT_255_1_234
10
4.5199417
20
100.2037674
40
0.217884
50
198.4451669
51
217.794479
0
ARC
8
DEFAULT_255_1_234
10
4.4903592
20
100.1828085
40
0.1816698
50
218.2887171
51
228.5612368
0
ARC
8
DEFAULT_255_1_234
10
4.5001379
20
100.1959963
40
0.1980329
50
228.9654866
51
258.1234728
0
ARC
8
DEFAULT_255_1_234
10
4.5207089
20
100.2840833
40
0.2884748
50
257.7258293
51
270.401361
0
ARC
8
DEFAULT_255_1_234
10
4.5251975
20
100.2395821
40
0.2439788
50
269.4204404
51
286.4209037
0
ARC
8
DEFAULT_255_1_234
10
4.5400463
20
100.1856657
40
0.1880666
50
286.7251356
51
320.600362
0
ARC
8
DEFAULT_255_1_234
10
4.5017288
20
100.2167595
40
0.2374121
50
320.6712579
51
344.5441685
0
ARC
8
DEFAULT_255_1_234
10
4.3860614
20
100.2507045
40
0.3579479
50
344.2412205
51
356.7357071
0
ARC
8
DEFAULT_255_1_234
10
4.2611763
20
100.2610444
40
0.4832297
50
356.3548756
51
0.0500261
0
ARC
8
DEFAULT_255_1_234
10
4.3948272
20
100.264165
40
0.3495889
50
359.5576869
51
12.953486
0
ARC
8
DEFAULT_255_1_234
10
4.5003169
20
100.2897434
40
0.2410532
50
12.6490276
51
41.6081334
0
ARC
8
DEFAULT_255_1_234
10
4.523354
20
100.3093321
40
0.2108218
50
41.7850273
51
85.9892764
0
ARC
8
DEFAULT_255_1_234
10
4.5110277
20
100.2280462
40
0.2928454
50
84.6957577
51
90.0676183
0
ARC
8
DEFAULT_255_1_234
10
4.5086761
20
100.1611716
40
0.3597255
50
89.6804936
51
99.1614436
0
ARC
8
DEFAULT_255_1_234
10
4.4881392
20
100.2839131
40
0.235281
50
98.9830931
51
113.8908934
0
ARC
8
DEFAULT_255_1_234
10
4.4651802
20
100.3380587
40
0.176479
50
114.1950727
51
127.3641004
0
LINE
8
DEFAULT_255_1_234
10
4.9704628
20
108.9973211
11
4.9704628
21
108.220652
0
LINE
8
DEFAULT_255_1_234
10
4.9704628
20
108.220652
11
5.1327039
21
108.220652
0
LINE
8
DEFAULT_255_1_234
10
5.1327039
20
108.220652
11
5.1327039
21
108.0993728
0
LINE
8
DEFAULT_255_1_234
10
5.1327039
20
108.0993728
11
4.9704628
21
108.0993728
0
LINE
8
DEFAULT_255_1_234
10
4.9704628
20
108.0993728
11
4.9704628
21
107.8279
0
LINE
8
DEFAULT_255_1_234
10
4.9704628
20
107.8279
11
4.8210725
21
107.8279
0
LINE
8
DEFAULT_255_1_234
10
4.8210725
20
107.8279
11
4.8210725
21
108.0993728
0
LINE
8
DEFAULT_255_1_234
10
4.8210725
20
108.0993728
11
4.2885682
21
108.0993728
0
LINE
8
DEFAULT_255_1_234
10
4.2885682
20
108.0993728
11
4.2885682
21
108.1869187
0
LINE
8
DEFAULT_255_1_234
10
4.2885682
20
108.1869187
11
4.8122375
21
108.9973211
0
LINE
8
DEFAULT_255_1_234
10
4.8122375
20
108.9973211
11
4.9704628
21
108.9973211
0
LINE
8
DEFAULT_255_1_234
10
4.8034026
20
108.7619912
11
4.4572347
21
108.220652
0
LINE
8
DEFAULT_255_1_234
10
4.4572347
20
108.220652
11
4.8210725
21
108.220652
0
LINE
8
DEFAULT_255_1_234
10
4.8210725
20
108.220652
11
4.8210725
21
108.7941181
0
LINE
8
DEFAULT_255_1_234
10
4.8210725
20
108.7941181
11
4.8034026
21
108.7619912
0
LINE
8
DEFAULT_255_1_234
10
4.3476378
20
116.3011169
11
4.3476378
21
116.4223962
0
LINE
8
DEFAULT_255_1_234
10
4.3476378
20
116.4223962
11
4.459279
21
116.4223962
0
LINE
8
DEFAULT_255_1_234
10
4.2689268
20
116.6280087
11
4.1203396
21
116.6280087
0
LINE
8
DEFAULT_255_1_234
10
4.1098983
20
116.0738188
11
4.2592887
21
116.0738188
0
LINE
8
DEFAULT_255_1_234
10
4.459279
20
116.3011169
11
4.3476378
21
116.3011169
0
ARC
8
DEFAULT_255_1_234
10
4.4563656
20
116.7616713
40
0.3392876
50
270.4919872
51
281.8951556
0
ARC
8
DEFAULT_255_1_234
10
4.4804918
20
116.6514702
40
0.2264817
50
281.6691735
51
301.2943132
0
ARC
8
DEFAULT_255_1_234
10
4.4975128
20
116.6203304
40
0.1910381
50
301.7833094
51
311.7545298
0
ARC
8
DEFAULT_255_1_234
10
4.5066704
20
116.6101748
40
0.1773635
50
311.7323931
51
354.2802411
0
ARC
8
DEFAULT_255_1_234
10
4.4340329
20
116.6226722
40
0.2509385
50
353.0937916
51
0.1181479
0
ARC
8
DEFAULT_255_1_234
10
4.3879114
20
116.6274386
40
0.2970898
50
359.1805295
51
15.0453146
0
ARC
8
DEFAULT_255_1_234
10
4.5224951
20
116.6666992
40
0.1569564
50
13.9577229
51
77.6713066
0
ARC
8
DEFAULT_255_1_234
10
4.483848
20
116.5281949
40
0.3006298
50
76.1116566
51
90.7026153
0
ARC
8
DEFAULT_255_1_234
10
4.4779318
20
116.5555545
40
0.2732568
50
89.5324876
51
103.531937
0
ARC
8
DEFAULT_255_1_234
10
4.4578762
20
116.6354884
40
0.1908508
50
103.2931773
51
133.5619022
0
ARC
8
DEFAULT_255_1_234
10
4.4534251
20
116.6414375
40
0.1834746
50
133.8349307
51
173.5344437
0
ARC
8
DEFAULT_255_1_234
10
4.5257294
20
116.6286213
40
0.2568033
50
172.5096846
51
180.1366907
0
ARC
8
DEFAULT_255_1_234
10
4.4306188
20
116.6320622
40
0.3103056
50
155.3484492
51
180.7484736
0
ARC
8
DEFAULT_255_1_234
10
4.4257277
20
116.6291846
40
0.3070957
50
131.5744599
51
154.4798489
0
ARC
8
DEFAULT_255_1_234
10
4.4570424
20
116.597531
40
0.3515643
50
96.9875458
51
131.9690667
0
ARC
8
DEFAULT_255_1_234
10
4.4789904
20
116.4729636
40
0.4779224
50
89.8596053
51
97.7825159
0
ARC
8
DEFAULT_255_1_234
10
4.4837967
20
116.4467616
40
0.5041361
50
78.3655447
51
90.4131539
0
ARC
8
DEFAULT_255_1_234
10
4.5195885
20
116.6126887
40
0.3344039
50
56.6229102
51
78.638727
0
ARC
8
DEFAULT_255_1_234
10
4.5410829
20
116.6502805
40
0.2912001
50
47.0253525
51
56.0854072
0
ARC
8
DEFAULT_255_1_234
10
4.5430609
20
116.6542223
40
0.2869704
50
10.9208013
51
46.7778124
0
ARC
8
DEFAULT_255_1_234
10
4.4066675
20
116.6226857
40
0.426899
50
359.6364486
51
11.6087304
0
ARC
8
DEFAULT_255_1_234
10
4.5901519
20
116.6211752
40
0.243409
50
332.3549906
51
359.7179418
0
ARC
8
DEFAULT_255_1_234
10
4.5251121
20
116.6520142
40
0.3153459
50
325.2333722
51
332.8745602
0
ARC
8
DEFAULT_255_1_234
10
4.5403744
20
116.6413828
40
0.2967456
50
292.9802137
51
325.2392345
0
ARC
8
DEFAULT_255_1_234
10
4.5129118
20
116.6947863
40
0.3566604
50
292.5402179
51
293.6924929
0
ARC
8
DEFAULT_255_1_234
10
4.5521714
20
116.0493091
40
0.3307468
50
57.6435486
51
72.8625112
0
ARC
8
DEFAULT_255_1_234
10
4.5876214
20
116.1067549
40
0.2632492
50
36.7248896
51
57.4697979
0
ARC
8
DEFAULT_255_1_234
10
4.5864847
20
116.108022
40
0.2634081
50
8.0545065
51
36.356114
0
ARC
8
DEFAULT_255_1_234
10
4.5002032
20
116.0925174
40
0.3510261
50
359.8320645
51
8.5869982
0
ARC
8
DEFAULT_255_1_234
10
4.4626808
20
116.0877101
40
0.3885653
50
343.9829931
51
0.5571613
0
ARC
8
DEFAULT_255_1_234
10
4.5513005
20
116.0634438
40
0.2966924
50
311.6359546
51
343.7651759
0
ARC
8
DEFAULT_255_1_234
10
4.5134574
20
116.1061102
40
0.3537231
50
279.7829875
51
311.6255694
0
ARC
8
DEFAULT_255_1_234
10
4.4833351
20
116.249828
40
0.5004971
50
269.7286406
51
280.3856417
0
ARC
8
DEFAULT_255_1_234
10
4.4771423
20
116.2456996
40
0.4963778
50
256.6828919
51
270.4412052
0
ARC
8
DEFAULT_255_1_234
10
4.4432719
20
116.1072394
40
0.3538406
50
229.4223008
51
256.8556159
0
ARC
8
DEFAULT_255_1_234
10
4.4018112
20
116.0605736
40
0.2914296
50
181.818294
51
229.6455059
0
ARC
8
DEFAULT_255_1_234
10
4.5058068
20
116.0736496
40
0.3959084
50
179.9755256
51
183.2323064
0
ARC
8
DEFAULT_255_1_234
10
4.4885814
20
116.0716037
40
0.2293034
50
179.4465117
51
196.2869258
0
ARC
8
DEFAULT_255_1_234
10
4.4398222
20
116.0582651
40
0.1787621
50
196.5661473
51
227.705904
0
ARC
8
DEFAULT_255_1_234
10
4.4562317
20
116.0766155
40
0.2033784
50
227.7652068
51
257.8762805
0
ARC
8
DEFAULT_255_1_234
10
4.4787287
20
116.1709156
40
0.3003081
50
257.4584385
51
270.426602
0
ARC
8
DEFAULT_255_1_234
10
4.4832853
20
116.1998996
40
0.329292
50
269.5962073
51
280.8789248
0
ARC
8
DEFAULT_255_1_234
10
4.5062382
20
116.0852685
40
0.2123908
50
280.6346389
51
299.8595945
0
ARC
8
DEFAULT_255_1_234
10
4.5253289
20
116.0490212
40
0.171457
50
300.3576302
51
314.5517981
0
ARC
8
DEFAULT_255_1_234
10
4.5170349
20
116.0550919
40
0.1816095
50
315.0728369
51
345.0431014
0
ARC
8
DEFAULT_255_1_234
10
4.4247163
20
116.0819841
40
0.2777492
50
344.5986631
51
357.9269593
0
ARC
8
DEFAULT_255_1_234
10
4.3351489
20
116.0881276
40
0.3674917
50
357.4748886
51
0.0231117
0
ARC
8
DEFAULT_255_1_234
10
4.4374599
20
116.0905679
40
0.2651907
50
359.5047933
51
13.4239635
0
ARC
8
DEFAULT_255_1_234
10
4.5241242
20
116.1127478
40
0.1757509
50
12.9498199
51
48.7551375
0
ARC
8
DEFAULT_255_1_234
10
4.5058976
20
116.08784
40
0.2065134
50
49.5088623
51
72.1836453
0
ARC
8
DEFAULT_255_1_234
10
4.4701129
20
115.9816291
40
0.3185836
50
71.9010081
51
84.3554254
0
ARC
8
DEFAULT_255_1_234
10
4.4539761
20
115.8455326
40
0.4556151
50
84.0193428
51
89.333121
0
LINE
8
DEFAULT_255_1_234
10
4.8978119
20
123.8241792
11
4.8978119
21
123.7029
0
LINE
8
DEFAULT_255_1_234
10
4.8978119
20
123.7029
11
4.131584
21
123.7029
0
LINE
8
DEFAULT_255_1_234
10
4.131584
20
123.7029
11
4.131584
21
123.8097221
0
LINE
8
DEFAULT_255_1_234
10
4.131584
20
123.8097221
11
4.5363836
21
124.2594995
0
LINE
8
DEFAULT_255_1_234
10
4.2576823
20
124.5277595
11
4.1090952
21
124.5277595
0
LINE
8
DEFAULT_255_1_234
10
4.6239296
20
124.1639218
11
4.3106918
21
123.8241792
0
LINE
8
DEFAULT_255_1_234
10
4.3106918
20
123.8241792
11
4.8978119
21
123.8241792
0
ARC
8
DEFAULT_255_1_234
10
3.187367
20
125.4524527
40
1.8008286
50
318.5132453
51
320.7828378
0
ARC
8
DEFAULT_255_1_234
10
3.7160644
20
125.0221426
40
1.1191493
50
320.7372736
51
323.9737074
0
ARC
8
DEFAULT_255_1_234
10
4.1080501
20
124.7381361
40
0.6350923
50
323.8961724
51
328.6421089
0
ARC
8
DEFAULT_255_1_234
10
4.3127096
20
124.6119031
40
0.3946393
50
328.8299013
51
331.789948
0
ARC
8
DEFAULT_255_1_234
10
4.4124274
20
124.5604509
40
0.2824501
50
331.4255242
51
352.9364833
0
ARC
8
DEFAULT_255_1_234
10
4.4260775
20
124.5573976
40
0.2685315
50
353.2248685
51
0.0169286
0
ARC
8
DEFAULT_255_1_234
10
4.4470652
20
124.559695
40
0.2475536
50
359.4866256
51
15.9339782
0
ARC
8
DEFAULT_255_1_234
10
4.4977637
20
124.5733286
40
0.1950618
50
16.1714718
51
43.5284424
0
ARC
8
DEFAULT_255_1_234
10
4.5054946
20
124.5810573
40
0.184134
50
43.4415429
51
83.1661404
0
ARC
8
DEFAULT_255_1_234
10
4.4920864
20
124.5073771
40
0.258926
50
82.160215
51
90.1505798
0
ARC
8
DEFAULT_255_1_234
10
4.4889291
20
124.4536865
40
0.3126255
50
89.5460705
51
102.5418777
0
ARC
8
DEFAULT_255_1_234
10
4.4646377
20
124.5567665
40
0.2067346
50
102.1739365
51
129.2061916
0
ARC
8
DEFAULT_255_1_234
10
4.4567449
20
124.5692094
40
0.1921118
50
129.7279328
51
135.7542026
0
ARC
8
DEFAULT_255_1_234
10
4.4688977
20
124.5595045
40
0.2075944
50
136.175737
51
166.3674722
0
ARC
8
DEFAULT_255_1_234
10
4.5695896
20
124.5325182
40
0.3118201
50
165.9092917
51
178.8683903
0
ARC
8
DEFAULT_255_1_234
10
4.6560757
20
124.5278179
40
0.3983935
50
178.438168
51
180.0083905
0
ARC
8
DEFAULT_255_1_234
10
4.5159359
20
124.5317231
40
0.4068601
50
163.2878735
51
180.5581814
0
ARC
8
DEFAULT_255_1_234
10
4.4357621
20
124.553784
40
0.3237344
50
133.454115
51
162.9470031
0
ARC
8
DEFAULT_255_1_234
10
4.4536162
20
124.5348
40
0.349795
50
100.7869394
51
133.4384016
0
ARC
8
DEFAULT_255_1_234
10
4.4883934
20
124.3799319
40
0.5084616
50
89.6605301
51
101.3704185
0
ARC
8
DEFAULT_255_1_234
10
4.4950273
20
124.3860496
40
0.502348
50
78.2171172
51
90.4130393
0
ARC
8
DEFAULT_255_1_234
10
4.5305351
20
124.5484637
40
0.3361092
50
55.9268222
51
78.4888551
0
ARC
8
DEFAULT_255_1_234
10
4.5501791
20
124.5823324
40
0.2970617
50
47.9292255
51
55.4054003
0
ARC
8
DEFAULT_255_1_234
10
4.5603352
20
124.5926502
40
0.2825983
50
4.3347696
51
48.0560701
0
ARC
8
DEFAULT_255_1_234
10
4.4507745
20
124.5756601
40
0.393225
50
359.925209
51
5.5967654
0
ARC
8
DEFAULT_255_1_234
10
4.4936637
20
124.5812816
40
0.3503892
50
337.8914096
51
358.9967724
0
ARC
8
DEFAULT_255_1_234
10
4.2223049
20
124.6859706
40
0.6412172
50
326.9135351
51
338.3505194
0
ARC
8
DEFAULT_255_1_234
10
3.8237353
20
124.9414284
40
1.1146189
50
319.6472867
51
327.095818
0
ARC
8
DEFAULT_255_1_234
10
3.4404356
20
125.2576
40
1.6114559
50
317.2586784
51
319.9046139
0
LINE
8
DEFAULT_255_1_234
10
4.6116137
20
132.8154433
11
4.6116137
21
131.6404
0
LINE
8
DEFAULT_255_1_234
10
4.6116137
20
131.6404
11
4.4622234
21
131.6404
0
LINE
8
DEFAULT_255_1_234
10
4.4622234
20
131.6404
11
4.4622234
21
132.6307133
0
LINE
8
DEFAULT_255_1_234
10
4.4622234
20
132.6307133
11
4.1626396
21
132.5206785
0
LINE
8
DEFAULT_255_1_234
10
4.1626396
20
132.5206785
11
4.1626396
21
132.6556117
0
LINE
8
DEFAULT_255_1_234
10
4.1626396
20
132.6556117
11
4.5883217
21
132.8154433
0
LINE
8
DEFAULT_255_1_234
10
4.5883217
20
132.8154433
11
4.6116137
21
132.8154433
0
LINE
8
DEFAULT_255_1_234
10
4.8648817
20
140.2694327
11
4.8648817
21
140.0766709
0
LINE
8
DEFAULT_255_1_234
10
4.126765
20
140.0565916
11
4.126765
21
140.2549755
0
LINE
8
DEFAULT_255_1_234
10
4.7162946
20
140.0365123
11
4.7162946
21
140.2798739
0
LINE
8
DEFAULT_255_1_234
10
4.2753521
20
140.2911184
11
4.2753521
21
140.0533789
0
ARC
8
DEFAULT_255_1_234
10
3.6401707
20
140.0717805
40
1.2247208
50
353.8441951
51
0.2287902
0
ARC
8
DEFAULT_255_1_234
10
4.1041211
20
140.0199806
40
0.7578929
50
344.4934747
51
353.9765454
0
ARC
8
DEFAULT_255_1_234
10
4.4033801
20
139.9348981
40
0.4467846
50
329.2803592
51
344.7472793
0
ARC
8
DEFAULT_255_1_234
10
4.5026626
20
139.8804018
40
0.3336173
50
324.9352394
51
328.6160465
0
ARC
8
DEFAULT_255_1_234
10
4.5403734
20
139.8540427
40
0.2876076
50
280.580143
51
324.9173126
0
ARC
8
DEFAULT_255_1_234
10
4.5002527
20
140.0211099
40
0.4592847
50
269.5977311
51
281.6734359
0
ARC
8
DEFAULT_255_1_234
10
4.4930433
20
140.0091173
40
0.4472986
50
256.6228859
51
270.51044
0
ARC
8
DEFAULT_255_1_234
10
4.452841
20
139.8542877
40
0.2873874
50
215.8618325
51
257.2788573
0
ARC
8
DEFAULT_255_1_234
10
4.5549442
20
139.9227977
40
0.4102928
50
197.9693508
51
215.2623606
0
ARC
8
DEFAULT_255_1_234
10
4.8034558
20
140.0066709
40
0.6725652
50
187.8816417
51
198.2346507
0
ARC
8
DEFAULT_255_1_234
10
5.1992766
20
140.0638079
40
1.0724845
50
180.8976217
51
188.0055519
0
ARC
8
DEFAULT_255_1_234
10
5.4792954
20
140.0741777
40
1.3526448
50
180.7449369
51
181.1510016
0
ARC
8
DEFAULT_255_1_234
10
5.3215683
20
140.2598042
40
1.1948131
50
173.7675579
51
180.231553
0
ARC
8
DEFAULT_255_1_234
10
4.869783
20
140.3108666
40
0.7401564
50
164.3058563
51
173.9002247
0
ARC
8
DEFAULT_255_1_234
10
4.5785899
20
140.3947656
40
0.4371288
50
148.7922025
51
164.568378
0
ARC
8
DEFAULT_255_1_234
10
4.4834351
20
140.4478929
40
0.3282386
50
144.5883898
51
148.1176286
0
ARC
8
DEFAULT_255_1_234
10
4.4491249
20
140.4718315
40
0.2864044
50
101.6440918
51
144.514236
0
ARC
8
DEFAULT_255_1_234
10
4.4916315
20
140.3029069
40
0.4604934
50
89.5284041
51
102.5819763
0
ARC
8
DEFAULT_255_1_234
10
4.4995403
20
140.2990018
40
0.464401
50
77.0437873
51
90.5081339
0
ARC
8
DEFAULT_255_1_234
10
4.5397405
20
140.4632615
40
0.2953195
50
48.2778575
51
77.4994676
0
ARC
8
DEFAULT_255_1_234
10
4.5470036
20
140.4761746
40
0.2808655
50
36.3142134
51
47.6305865
0
ARC
8
DEFAULT_255_1_234
10
4.4601343
20
140.4176515
40
0.3855453
50
18.2931786
51
35.6769206
0
ARC
8
DEFAULT_255_1_234
10
4.2058102
20
140.3303593
40
0.654423
50
8.024666
51
18.5605216
0
ARC
8
DEFAULT_255_1_234
10
3.7895022
20
140.2688792
40
1.0752407
50
1.1274072
51
8.1718305
0
ARC
8
DEFAULT_255_1_234
10
3.4659213
20
140.2561885
40
1.3990231
50
0.5424119
51
1.3863029
0
ARC
8
DEFAULT_255_1_234
10
3.648059
20
140.2834342
40
1.0682415
50
359.8090433
51
4.9407866
0
ARC
8
DEFAULT_255_1_234
10
4.0690604
20
140.3210113
40
0.6455691
50
4.8362157
51
12.2904523
0
ARC
8
DEFAULT_255_1_234
10
4.3445719
20
140.3823965
40
0.3633074
50
12.0805627
51
23.8173984
0
ARC
8
DEFAULT_255_1_234
10
4.4619425
20
140.4320919
40
0.2358723
50
24.2871213
51
31.3935614
0
ARC
8
DEFAULT_255_1_234
10
4.5144122
20
140.4664233
40
0.1732111
50
30.7407893
51
82.4657128
0
ARC
8
DEFAULT_255_1_234
10
4.4964256
20
140.3780691
40
0.263235
50
81.1060089
51
90.2184952
0
ARC
8
DEFAULT_255_1_234
10
4.4928555
20
140.4038924
40
0.2374236
50
89.3806855
51
105.6762551
0
ARC
8
DEFAULT_255_1_234
10
4.4745186
20
140.4705567
40
0.1682847
50
105.7981136
51
149.7388061
0
ARC
8
DEFAULT_255_1_234
10
4.5809264
20
140.406595
40
0.2924306
50
149.4208916
51
163.6286378
0
ARC
8
DEFAULT_255_1_234
10
4.7900152
20
140.342825
40
0.5110213
50
163.3763315
51
172.1410975
0
ARC
8
DEFAULT_255_1_234
10
5.1200871
20
140.2955518
40
0.8444586
50
172.0259487
51
178.0703232
0
ARC
8
DEFAULT_255_1_234
10
5.423096
20
140.2811906
40
1.1477868
50
177.8631668
51
179.5044149
0
ARC
8
DEFAULT_255_1_234
10
5.3158365
20
140.0497389
40
1.0404907
50
179.7995573
51
185.2460446
0
ARC
8
DEFAULT_255_1_234
10
4.9115404
20
140.0114513
40
0.6343885
50
185.1411642
51
193.0079639
0
ARC
8
DEFAULT_255_1_234
10
4.6471877
20
139.9489641
40
0.3627568
50
192.7897626
51
205.2507664
0
ARC
8
DEFAULT_255_1_234
10
4.5425424
20
139.9022415
40
0.2481908
50
205.8005384
51
211.2537509
0
ARC
8
DEFAULT_255_1_234
10
4.4901864
20
139.867158
40
0.1852521
50
210.3789793
51
238.4008143
0
ARC
8
DEFAULT_255_1_234
10
4.4882386
20
139.8718376
40
0.1882621
50
239.6520629
51
265.9793761
0
ARC
8
DEFAULT_255_1_234
10
4.4967586
20
139.9390427
40
0.2559272
50
265.1315437
51
270.060332
0
ARC
8
DEFAULT_255_1_234
10
4.4996365
20
139.9066534
40
0.2235528
50
269.3314664
51
287.2178029
0
ARC
8
DEFAULT_255_1_234
10
4.5134217
20
139.8563279
40
0.1714108
50
287.7958004
51
329.080874
0
ARC
8
DEFAULT_255_1_234
10
4.4176674
20
139.916093
40
0.2842745
50
328.6634704
51
343.3325132
0
ARC
8
DEFAULT_255_1_234
10
4.2003694
20
139.9837863
40
0.5118644
50
343.0499468
51
351.9393422
0
ARC
8
DEFAULT_255_1_234
10
3.8536994
20
140.0348949
40
0.8622784
50
351.8069023
51
357.7959224
0
ARC
8
DEFAULT_255_1_234
10
3.530155
20
140.0516721
40
1.1862365
50
357.5871873
51
359.2677531
0
LINE
8
DEFAULT_255_1_234
10
4.4893489
20
148.6848211
11
4.4893489
21
147.6414983
0
LINE
8
DEFAULT_255_1_234
10
4.4893489
20
147.6414983
11
5.0435389
21
147.6414983
0
LINE
8
DEFAULT_255_1_234
10
5.0435389
20
147.6414983
11
5.0435389
21
147.5154
0
LINE
8
DEFAULT_255_1_234
10
5.0435389
20
147.5154
11
4.3343364
21
147.5154
0
LINE
8
DEFAULT_255_1_234
10
4.3343364
20
147.5154
11
4.3343364
21
148.6848211
0
LINE
8
DEFAULT_255_1_234
10
4.3343364
20
148.6848211
11
4.4893489
21
148.6848211
0
LINE
8
DEFAULT_255_1_234
10
5.9471094
20
147.6366792
11
5.9471094
21
147.5154
0
LINE
8
DEFAULT_255_1_234
10
5.9471094
20
147.5154
11
5.1808816
21
147.5154
0
LINE
8
DEFAULT_255_1_234
10
5.1808816
20
147.5154
11
5.1808816
21
147.6222221
0
LINE
8
DEFAULT_255_1_234
10
5.1808816
20
147.6222221
11
5.5856812
21
148.0719995
0
LINE
8
DEFAULT_255_1_234
10
5.3069799
20
148.3402595
11
5.1583927
21
148.3402595
0
LINE
8
DEFAULT_255_1_234
10
5.6732271
20
147.9764218
11
5.3599894
21
147.6366792
0
LINE
8
DEFAULT_255_1_234
10
5.3599894
20
147.6366792
11
5.9471094
21
147.6366792
0
ARC
8
DEFAULT_255_1_234
10
4.2366645
20
149.2649527
40
1.8008286
50
318.5132453
51
320.7828378
0
ARC
8
DEFAULT_255_1_234
10
4.765362
20
148.8346426
40
1.1191493
50
320.7372736
51
323.9737074
0
ARC
8
DEFAULT_255_1_234
10
5.1573476
20
148.5506361
40
0.6350923
50
323.8961724
51
328.6421089
0
ARC
8
DEFAULT_255_1_234
10
5.3620072
20
148.4244031
40
0.3946393
50
328.8299013
51
331.789948
0
ARC
8
DEFAULT_255_1_234
10
5.461725
20
148.3729509
40
0.2824501
50
331.4255242
51
352.9364833
0
ARC
8
DEFAULT_255_1_234
10
5.4753751
20
148.3698976
40
0.2685315
50
353.2248685
51
0.0169286
0
ARC
8
DEFAULT_255_1_234
10
5.4963627
20
148.372195
40
0.2475536
50
359.4866256
51
15.9339782
0
ARC
8
DEFAULT_255_1_234
10
5.5470613
20
148.3858286
40
0.1950618
50
16.1714718
51
43.5284424
0
ARC
8
DEFAULT_255_1_234
10
5.5547921
20
148.3935573
40
0.184134
50
43.4415429
51
83.1661404
0
ARC
8
DEFAULT_255_1_234
10
5.541384
20
148.3198771
40
0.258926
50
82.160215
51
90.1505798
0
ARC
8
DEFAULT_255_1_234
10
5.5382267
20
148.2661865
40
0.3126255
50
89.5460705
51
102.5418777
0
ARC
8
DEFAULT_255_1_234
10
5.5139353
20
148.3692665
40
0.2067346
50
102.1739365
51
129.2061916
0
ARC
8
DEFAULT_255_1_234
10
5.5060425
20
148.3817094
40
0.1921118
50
129.7279328
51
135.7542026
0
ARC
8
DEFAULT_255_1_234
10
5.5181952
20
148.3720045
40
0.2075944
50
136.175737
51
166.3674722
0
ARC
8
DEFAULT_255_1_234
10
5.6188872
20
148.3450182
40
0.3118201
50
165.9092917
51
178.8683903
0
ARC
8
DEFAULT_255_1_234
10
5.7053733
20
148.3403179
40
0.3983935
50
178.438168
51
180.0083905
0
ARC
8
DEFAULT_255_1_234
10
5.5652335
20
148.3442231
40
0.4068601
50
163.2878735
51
180.5581814
0
ARC
8
DEFAULT_255_1_234
10
5.4850596
20
148.366284
40
0.3237344
50
133.454115
51
162.9470031
0
ARC
8
DEFAULT_255_1_234
10
5.5029138
20
148.3473
40
0.349795
50
100.7869394
51
133.4384016
0
ARC
8
DEFAULT_255_1_234
10
5.5376909
20
148.1924319
40
0.5084616
50
89.6605301
51
101.3704185
0
ARC
8
DEFAULT_255_1_234
10
5.5443248
20
148.1985496
40
0.502348
50
78.2171172
51
90.4130393
0
ARC
8
DEFAULT_255_1_234
10
5.5798326
20
148.3609637
40
0.3361092
50
55.9268222
51
78.4888551
0
ARC
8
DEFAULT_255_1_234
10
5.5994767
20
148.3948324
40
0.2970617
50
47.9292255
51
55.4054003
0
ARC
8
DEFAULT_255_1_234
10
5.6096327
20
148.4051502
40
0.2825983
50
4.3347696
51
48.0560701
0
ARC
8
DEFAULT_255_1_234
10
5.5000721
20
148.3881601
40
0.393225
50
359.925209
51
5.5967654
0
ARC
8
DEFAULT_255_1_234
10
5.5429613
20
148.3937816
40
0.3503892
50
337.8914096
51
358.9967724
0
ARC
8
DEFAULT_255_1_234
10
5.2716025
20
148.4984706
40
0.6412172
50
326.9135351
51
338.3505194
0
ARC
8
DEFAULT_255_1_234
10
4.8730328
20
148.7539284
40
1.1146189
50
319.6472867
51
327.095818
0
ARC
8
DEFAULT_255_1_234
10
4.4897332
20
149.0701
40
1.6114559
50
317.2586784
51
319.9046139
0
LINE
8
DEFAULT_255_1_234
10
6.6370357
20
148.6848211
11
6.1495092
21
147.4150033
0
LINE
8
DEFAULT_255_1_234
10
6.1495092
20
147.4150033
11
6.0218046
21
147.4150033
0
LINE
8
DEFAULT_255_1_234
10
6.0218046
20
147.4150033
11
6.5101343
21
148.6848211
0
LINE
8
DEFAULT_255_1_234
10
6.5101343
20
148.6848211
11
6.6370357
21
148.6848211
0
LINE
8
DEFAULT_255_1_234
10
7.7197141
20
148.6848211
11
7.7197141
21
147.5154
0
LINE
8
DEFAULT_255_1_234
10
7.7197141
20
147.5154
11
7.5647015
21
147.5154
0
LINE
8
DEFAULT_255_1_234
10
7.5647015
20
147.5154
11
6.9759751
21
148.416561
0
LINE
8
DEFAULT_255_1_234
10
6.9759751
20
148.416561
11
6.9759751
21
147.5154
0
LINE
8
DEFAULT_255_1_234
10
6.9759751
20
147.5154
11
6.8209625
21
147.5154
0
LINE
8
DEFAULT_255_1_234
10
6.8209625
20
147.5154
11
6.8209625
21
148.6848211
0
LINE
8
DEFAULT_255_1_234
10
6.8209625
20
148.6848211
11
6.9759751
21
148.6848211
0
LINE
8
DEFAULT_255_1_234
10
6.9759751
20
148.6848211
11
7.5663079
21
147.7796442
0
LINE
8
DEFAULT_255_1_234
10
7.5663079
20
147.7796442
11
7.5663079
21
148.6848211
0
LINE
8
DEFAULT_255_1_234
10
7.5663079
20
148.6848211
11
7.7197141
21
148.6848211
0
LINE
8
DEFAULT_255_1_234
10
21.9943482
20
156.035201
11
21.9943482
21
155.6063062
0
LINE
8
DEFAULT_255_1_234
10
21.0931872
20
155.9813884
11
21.0931872
21
156.0833915
0
LINE
8
DEFAULT_255_1_234
10
21.9943482
20
156.2793659
11
21.8401389
21
156.2793659
0
LINE
8
DEFAULT_255_1_234
10
21.2481998
20
156.0874073
11
21.2481998
21
155.9918296
0
LINE
8
DEFAULT_255_1_234
10
21.840942
20
155.6472681
11
21.840942
21
155.9099059
0
LINE
8
DEFAULT_255_1_234
10
21.840942
20
155.9099059
11
21.5702725
21
155.9099059
0
LINE
8
DEFAULT_255_1_234
10
21.5702725
20
155.9099059
11
21.5702725
21
156.035201
0
LINE
8
DEFAULT_255_1_234
10
21.5702725
20
156.035201
11
21.9943482
21
156.035201
0
ARC
8
DEFAULT_255_1_234
10
21.7111989
20
155.8056396
40
0.3462765
50
295.8437914
51
324.8549609
0
ARC
8
DEFAULT_255_1_234
10
21.6695956
20
155.8809567
40
0.4322211
50
291.5695085
51
296.4549398
0
ARC
8
DEFAULT_255_1_234
10
21.6185207
20
156.0174275
40
0.5779178
50
278.6622409
51
291.3045483
0
ARC
8
DEFAULT_255_1_234
10
21.5845699
20
156.2322408
40
0.7953952
50
270.020006
51
278.7494541
0
ARC
8
DEFAULT_255_1_234
10
21.5807623
20
156.3639036
40
0.927067
50
269.9969998
51
270.2524872
0
ARC
8
DEFAULT_255_1_234
10
21.5769336
20
155.9555589
40
0.5187361
50
253.5786322
51
270.4175299
0
ARC
8
DEFAULT_255_1_234
10
21.5595992
20
155.8884236
40
0.4494451
50
238.8203306
51
253.2788235
0
ARC
8
DEFAULT_255_1_234
10
21.5576365
20
155.8833231
40
0.4440665
50
206.7883783
51
238.6962764
0
ARC
8
DEFAULT_255_1_234
10
21.6350275
20
155.9297405
40
0.5341121
50
206.1129412
51
207.4916643
0
ARC
8
DEFAULT_255_1_234
10
21.694719
20
155.9551488
40
0.5989041
50
188.6921119
51
205.7821245
0
ARC
8
DEFAULT_255_1_234
10
21.8803552
20
155.986723
40
0.7871862
50
180.3882829
51
188.9219216
0
ARC
8
DEFAULT_255_1_234
10
22.0031366
20
156.0890464
40
0.909967
50
170.2024264
51
180.3560651
0
ARC
8
DEFAULT_255_1_234
10
21.6867884
20
156.1456237
40
0.5886083
50
154.2857445
51
170.3893044
0
ARC
8
DEFAULT_255_1_234
10
21.5586087
20
156.204295
40
0.4476743
50
139.8401567
51
153.9332699
0
ARC
8
DEFAULT_255_1_234
10
21.5226823
20
156.2330577
40
0.4016697
50
98.4190291
51
139.6707122
0
ARC
8
DEFAULT_255_1_234
10
21.5606341
20
156.0485328
40
0.5898566
50
89.7659205
51
99.4415478
0
ARC
8
DEFAULT_255_1_234
10
21.567159
20
156.0550844
40
0.5833147
50
78.0551672
51
90.4042112
0
ARC
8
DEFAULT_255_1_234
10
21.60761
20
156.2369644
40
0.3970055
50
54.6380464
51
78.3339173
0
ARC
8
DEFAULT_255_1_234
10
21.6266156
20
156.2689795
40
0.3599102
50
50.031736
51
54.1558201
0
ARC
8
DEFAULT_255_1_234
10
21.6158944
20
156.2593766
40
0.3741624
50
18.1092409
51
49.7180913
0
ARC
8
DEFAULT_255_1_234
10
21.4702144
20
156.2060089
40
0.5292424
50
7.9672797
51
18.6984571
0
ARC
8
DEFAULT_255_1_234
10
21.4852622
20
156.2183504
40
0.3600838
50
9.7557294
51
27.3215714
0
ARC
8
DEFAULT_255_1_234
10
21.5980094
20
156.2746912
40
0.2340608
50
27.7361077
51
84.5257964
0
ARC
8
DEFAULT_255_1_234
10
21.5652481
20
156.110364
40
0.4011215
50
82.106034
51
90.2001166
0
ARC
8
DEFAULT_255_1_234
10
21.5602698
20
156.1611215
40
0.3503799
50
89.4150119
51
105.5823402
0
ARC
8
DEFAULT_255_1_234
10
21.5345696
20
156.2546867
40
0.2533503
50
105.6678618
51
144.2648758
0
ARC
8
DEFAULT_255_1_234
10
21.6238951
20
156.1911289
40
0.3629787
50
144.3561283
51
162.8564086
0
ARC
8
DEFAULT_255_1_234
10
21.832286
20
156.1242017
40
0.5818441
50
162.6076014
51
173.6780284
0
ARC
8
DEFAULT_255_1_234
10
22.1384004
20
156.086989
40
0.8902007
50
173.4670142
51
179.9730753
0
ARC
8
DEFAULT_255_1_234
10
21.9475675
20
155.987626
40
0.6993804
50
179.6556203
51
190.0080463
0
ARC
8
DEFAULT_255_1_234
10
21.7159504
20
155.9451375
40
0.4639066
50
189.8116607
51
206.6796816
0
ARC
8
DEFAULT_255_1_234
10
21.6314656
20
155.9057503
40
0.3707421
50
207.1031645
51
217.7074368
0
ARC
8
DEFAULT_255_1_234
10
21.5680345
20
155.8505559
40
0.2868417
50
216.7345547
51
265.6812148
0
ARC
8
DEFAULT_255_1_234
10
21.5811136
20
155.9409855
40
0.3780509
50
264.7366618
51
270.0611241
0
ARC
8
DEFAULT_255_1_234
10
21.5834399
20
156.2250111
40
0.662079
50
269.8335834
51
276.0539546
0
ARC
8
DEFAULT_255_1_234
10
21.6041404
20
156.034856
40
0.4708016
50
275.9894168
51
284.4615085
0
ARC
8
DEFAULT_255_1_234
10
21.6239411
20
155.9515663
40
0.3852094
50
284.7034461
51
286.4953897
0
ARC
8
DEFAULT_255_1_234
10
21.6646424
20
155.8204965
40
0.2479842
50
286.0770838
51
304.2625829
0
ARC
8
DEFAULT_255_1_234
10
21.6779838
20
155.7986594
40
0.2224291
50
304.5891602
51
317.1073298
0
LINE
8
DEFAULT_255_1_234
10
23.1501154
20
156.6223211
11
23.1501154
21
155.4529
0
LINE
8
DEFAULT_255_1_234
10
23.1501154
20
155.4529
11
22.9951028
21
155.4529
0
LINE
8
DEFAULT_255_1_234
10
22.9951028
20
155.4529
11
22.4063764
21
156.354061
0
LINE
8
DEFAULT_255_1_234
10
22.4063764
20
156.354061
11
22.4063764
21
155.4529
0
LINE
8
DEFAULT_255_1_234
10
22.4063764
20
155.4529
11
22.2513639
21
155.4529
0
LINE
8
DEFAULT_255_1_234
10
22.2513639
20
155.4529
11
22.2513639
21
156.6223211
0
LINE
8
DEFAULT_255_1_234
10
22.2513639
20
156.6223211
11
22.4063764
21
156.6223211
0
LINE
8
DEFAULT_255_1_234
10
22.4063764
20
156.6223211
11
22.9967092
21
155.7171442
0
LINE
8
DEFAULT_255_1_234
10
22.9967092
20
155.7171442
11
22.9967092
21
156.6223211
0
LINE
8
DEFAULT_255_1_234
10
22.9967092
20
156.6223211
11
23.1501154
21
156.6223211
0
LINE
8
DEFAULT_255_1_234
10
23.7476767
20
155.4529
11
23.4239977
21
155.4529
0
LINE
8
DEFAULT_255_1_234
10
23.4239977
20
155.4529
11
23.4239977
21
156.6223211
0
LINE
8
DEFAULT_255_1_234
10
23.4239977
20
156.6223211
11
23.7541021
21
156.6223211
0
LINE
8
DEFAULT_255_1_234
10
24.2697397
20
156.0769661
11
24.2697397
21
156.0022709
0
LINE
8
DEFAULT_255_1_234
10
23.758118
20
156.4954196
11
23.578207
21
156.4954196
0
LINE
8
DEFAULT_255_1_234
10
23.578207
20
156.4954196
11
23.578207
21
155.5789983
0
LINE
8
DEFAULT_255_1_234
10
23.578207
20
155.5789983
11
23.7404481
21
155.5789983
0
LINE
8
DEFAULT_255_1_234
10
24.1171367
20
156.0054836
11
24.1171367
21
156.0737534
0
ARC
8
DEFAULT_255_1_234
10
23.7579963
20
156.0357894
40
0.5865446
50
75.4101064
51
90.3804066
0
ARC
8
DEFAULT_255_1_234
10
23.7809477
20
156.1314492
40
0.4881916
50
60.145586
51
75.1888407
0
ARC
8
DEFAULT_255_1_234
10
23.7968252
20
156.1591199
40
0.4562893
50
26.5253612
51
60.1450928
0
ARC
8
DEFAULT_255_1_234
10
23.6848002
20
156.0997158
40
0.5830602
50
7.4030428
51
26.8320788
0
ARC
8
DEFAULT_255_1_234
10
23.5253758
20
156.0748804
40
0.7443669
50
0.1605367
51
7.7176192
0
ARC
8
DEFAULT_255_1_234
10
23.5417663
20
155.9984434
40
0.7279835
50
348.7289388
51
0.3012466
0
ARC
8
DEFAULT_255_1_234
10
23.7074093
20
155.9655386
40
0.559104
50
333.0706509
51
348.7181832
0
ARC
8
DEFAULT_255_1_234
10
23.8040851
20
155.9130319
40
0.4491417
50
299.2531685
51
333.4571258
0
ARC
8
DEFAULT_255_1_234
10
23.7679991
20
155.9815828
40
0.5265881
50
278.107187
51
299.0339503
0
ARC
8
DEFAULT_255_1_234
10
23.742407
20
156.1323216
40
0.679442
50
270.4443897
51
278.4511052
0
ARC
8
DEFAULT_255_1_234
10
23.74449
20
156.0394213
40
0.4604407
50
269.4970433
51
284.0205042
0
ARC
8
DEFAULT_255_1_234
10
23.7800201
20
155.9028978
40
0.3193797
50
283.7700273
51
318.1555492
0
ARC
8
DEFAULT_255_1_234
10
23.7462959
20
155.9281367
40
0.3613588
50
318.7415601
51
343.6873628
0
ARC
8
DEFAULT_255_1_234
10
23.5658982
20
155.9844832
40
0.5503313
50
343.3325091
51
355.8548958
0
ARC
8
DEFAULT_255_1_234
10
23.3560666
20
156.0044319
40
0.7610708
50
355.4988528
51
0.0791727
0
ARC
8
DEFAULT_255_1_234
10
23.4343289
20
156.077978
40
0.6828208
50
359.6455037
51
9.8607896
0
ARC
8
DEFAULT_255_1_234
10
23.6703987
20
156.1206099
40
0.4429406
50
9.6571907
51
26.1932807
0
ARC
8
DEFAULT_255_1_234
10
23.7631975
20
156.1637118
40
0.3406537
50
26.5777228
51
40.1532208
0
ARC
8
DEFAULT_255_1_234
10
23.7887702
20
156.1836619
40
0.308246
50
40.3840491
51
80.1431104
0
ARC
8
DEFAULT_255_1_234
10
23.756082
20
156.0387333
40
0.4566909
50
79.2152159
51
89.7445637
0
LINE
8
DEFAULT_255_1_234
10
23.2299137
20
61.3779433
11
23.2299137
21
60.2029
0
LINE
8
DEFAULT_255_1_234
10
23.2299137
20
60.2029
11
23.0805234
21
60.2029
0
LINE
8
DEFAULT_255_1_234
10
23.0805234
20
60.2029
11
23.0805234
21
61.1932133
0
LINE
8
DEFAULT_255_1_234
10
23.0805234
20
61.1932133
11
22.7809396
21
61.0831785
0
LINE
8
DEFAULT_255_1_234
10
22.7809396
20
61.0831785
11
22.7809396
21
61.2181117
0
LINE
8
DEFAULT_255_1_234
10
22.7809396
20
61.2181117
11
23.2066217
21
61.3779433
0
LINE
8
DEFAULT_255_1_234
10
23.2066217
20
61.3779433
11
23.2299137
21
61.3779433
0
LINE
8
DEFAULT_255_1_234
10
24.1535636
20
61.3779433
11
24.1535636
21
60.2029
0
LINE
8
DEFAULT_255_1_234
10
24.1535636
20
60.2029
11
24.0041733
21
60.2029
0
LINE
8
DEFAULT_255_1_234
10
24.0041733
20
60.2029
11
24.0041733
21
61.1932133
0
LINE
8
DEFAULT_255_1_234
10
24.0041733
20
61.1932133
11
23.7045895
21
61.0831785
0
LINE
8
DEFAULT_255_1_234
10
23.7045895
20
61.0831785
11
23.7045895
21
61.2181117
0
LINE
8
DEFAULT_255_1_234
10
23.7045895
20
61.2181117
11
24.1302716
21
61.3779433
0
LINE
8
DEFAULT_255_1_234
10
24.1302716
20
61.3779433
11
24.1535636
21
61.3779433
0
LINE
8
DEFAULT_255_1_234
10
23.2209137
20
69.3154433
11
23.2209137
21
68.1404
0
LINE
8
DEFAULT_255_1_234
10
23.2209137
20
68.1404
11
23.0715234
21
68.1404
0
LINE
8
DEFAULT_255_1_234
10
23.0715234
20
68.1404
11
23.0715234
21
69.1307133
0
LINE
8
DEFAULT_255_1_234
10
23.0715234
20
69.1307133
11
22.7719396
21
69.0206785
0
LINE
8
DEFAULT_255_1_234
10
22.7719396
20
69.0206785
11
22.7719396
21
69.1556117
0
LINE
8
DEFAULT_255_1_234
10
22.7719396
20
69.1556117
11
23.1976217
21
69.3154433
0
LINE
8
DEFAULT_255_1_234
10
23.1976217
20
69.3154433
11
23.2209137
21
69.3154433
0
LINE
8
DEFAULT_255_1_234
10
24.3895316
20
68.8319327
11
24.3895316
21
68.6391709
0
LINE
8
DEFAULT_255_1_234
10
23.6514149
20
68.6190916
11
23.6514149
21
68.8174755
0
LINE
8
DEFAULT_255_1_234
10
24.2409445
20
68.5990123
11
24.2409445
21
68.8423739
0
LINE
8
DEFAULT_255_1_234
10
23.8000021
20
68.8536184
11
23.8000021
21
68.6158789
0
ARC
8
DEFAULT_255_1_234
10
23.1648206
20
68.6342805
40
1.2247208
50
353.8441951
51
0.2287902
0
ARC
8
DEFAULT_255_1_234
10
23.628771
20
68.5824806
40
0.7578929
50
344.4934747
51
353.9765454
0
ARC
8
DEFAULT_255_1_234
10
23.92803
20
68.4973981
40
0.4467846
50
329.2803592
51
344.7472793
0
ARC
8
DEFAULT_255_1_234
10
24.0273125
20
68.4429018
40
0.3336173
50
324.9352394
51
328.6160465
0
ARC
8
DEFAULT_255_1_234
10
24.0650233
20
68.4165427
40
0.2876076
50
280.580143
51
324.9173126
0
ARC
8
DEFAULT_255_1_234
10
24.0249026
20
68.5836099
40
0.4592847
50
269.5977311
51
281.6734359
0
ARC
8
DEFAULT_255_1_234
10
24.0176932
20
68.5716173
40
0.4472986
50
256.6228859
51
270.51044
0
ARC
8
DEFAULT_255_1_234
10
23.9774909
20
68.4167877
40
0.2873874
50
215.8618325
51
257.2788573
0
ARC
8
DEFAULT_255_1_234
10
24.0795941
20
68.4852977
40
0.4102928
50
197.9693508
51
215.2623606
0
ARC
8
DEFAULT_255_1_234
10
24.3281057
20
68.5691709
40
0.6725652
50
187.8816417
51
198.2346507
0
ARC
8
DEFAULT_255_1_234
10
24.7239265
20
68.6263079
40
1.0724845
50
180.8976217
51
188.0055519
0
ARC
8
DEFAULT_255_1_234
10
25.0039453
20
68.6366777
40
1.3526448
50
180.7449369
51
181.1510016
0
ARC
8
DEFAULT_255_1_234
10
24.8462182
20
68.8223042
40
1.1948131
50
173.7675579
51
180.231553
0
ARC
8
DEFAULT_255_1_234
10
24.3944329
20
68.8733666
40
0.7401564
50
164.3058563
51
173.9002247
0
ARC
8
DEFAULT_255_1_234
10
24.1032398
20
68.9572656
40
0.4371288
50
148.7922025
51
164.568378
0
ARC
8
DEFAULT_255_1_234
10
24.008085
20
69.0103929
40
0.3282386
50
144.5883898
51
148.1176286
0
ARC
8
DEFAULT_255_1_234
10
23.9737748
20
69.0343315
40
0.2864044
50
101.6440918
51
144.514236
0
ARC
8
DEFAULT_255_1_234
10
24.0162814
20
68.8654069
40
0.4604934
50
89.5284041
51
102.5819763
0
ARC
8
DEFAULT_255_1_234
10
24.0241902
20
68.8615018
40
0.464401
50
77.0437873
51
90.5081339
0
ARC
8
DEFAULT_255_1_234
10
24.0643904
20
69.0257615
40
0.2953195
50
48.2778575
51
77.4994676
0
ARC
8
DEFAULT_255_1_234
10
24.0716535
20
69.0386746
40
0.2808655
50
36.3142134
51
47.6305865
0
ARC
8
DEFAULT_255_1_234
10
23.9847842
20
68.9801515
40
0.3855453
50
18.2931786
51
35.6769206
0
ARC
8
DEFAULT_255_1_234
10
23.7304601
20
68.8928593
40
0.654423
50
8.024666
51
18.5605216
0
ARC
8
DEFAULT_255_1_234
10
23.3141521
20
68.8313792
40
1.0752407
50
1.1274072
51
8.1718305
0
ARC
8
DEFAULT_255_1_234
10
22.9905712
20
68.8186885
40
1.3990231
50
0.5424119
51
1.3863029
0
ARC
8
DEFAULT_255_1_234
10
23.1727089
20
68.8459342
40
1.0682415
50
359.8090433
51
4.9407866
0
ARC
8
DEFAULT_255_1_234
10
23.5937103
20
68.8835113
40
0.6455691
50
4.8362157
51
12.2904523
0
ARC
8
DEFAULT_255_1_234
10
23.8692218
20
68.9448965
40
0.3633074
50
12.0805627
51
23.8173984
0
ARC
8
DEFAULT_255_1_234
10
23.9865924
20
68.9945919
40
0.2358723
50
24.2871213
51
31.3935614
0
ARC
8
DEFAULT_255_1_234
10
24.0390621
20
69.0289233
40
0.1732111
50
30.7407893
51
82.4657128
0
ARC
8
DEFAULT_255_1_234
10
24.0210755
20
68.9405691
40
0.263235
50
81.1060089
51
90.2184952
0
ARC
8
DEFAULT_255_1_234
10
24.0175054
20
68.9663924
40
0.2374236
50
89.3806855
51
105.6762551
0
ARC
8
DEFAULT_255_1_234
10
23.9991685
20
69.0330567
40
0.1682847
50
105.7981136
51
149.7388061
0
ARC
8
DEFAULT_255_1_234
10
24.1055763
20
68.969095
40
0.2924306
50
149.4208916
51
163.6286378
0
ARC
8
DEFAULT_255_1_234
10
24.3146651
20
68.905325
40
0.5110213
50
163.3763315
51
172.1410975
0
ARC
8
DEFAULT_255_1_234
10
24.644737
20
68.8580518
40
0.8444586
50
172.0259487
51
178.0703232
0
ARC
8
DEFAULT_255_1_234
10
24.947746
20
68.8436906
40
1.1477868
50
177.8631668
51
179.5044149
0
ARC
8
DEFAULT_255_1_234
10
24.8404864
20
68.6122389
40
1.0404907
50
179.7995573
51
185.2460446
0
ARC
8
DEFAULT_255_1_234
10
24.4361903
20
68.5739513
40
0.6343885
50
185.1411642
51
193.0079639
0
ARC
8
DEFAULT_255_1_234
10
24.1718376
20
68.5114641
40
0.3627568
50
192.7897626
51
205.2507664
0
ARC
8
DEFAULT_255_1_234
10
24.0671923
20
68.4647415
40
0.2481908
50
205.8005384
51
211.2537509
0
ARC
8
DEFAULT_255_1_234
10
24.0148363
20
68.429658
40
0.1852521
50
210.3789793
51
238.4008143
0
ARC
8
DEFAULT_255_1_234
10
24.0128885
20
68.4343376
40
0.1882621
50
239.6520629
51
265.9793761
0
ARC
8
DEFAULT_255_1_234
10
24.0214085
20
68.5015427
40
0.2559272
50
265.1315437
51
270.060332
0
ARC
8
DEFAULT_255_1_234
10
24.0242864
20
68.4691534
40
0.2235528
50
269.3314664
51
287.2178029
0
ARC
8
DEFAULT_255_1_234
10
24.0380716
20
68.4188279
40
0.1714108
50
287.7958004
51
329.080874
0
ARC
8
DEFAULT_255_1_234
10
23.9423173
20
68.478593
40
0.2842745
50
328.6634704
51
343.3325132
0
ARC
8
DEFAULT_255_1_234
10
23.7250193
20
68.5462863
40
0.5118644
50
343.0499468
51
351.9393422
0
ARC
8
DEFAULT_255_1_234
10
23.3783493
20
68.5973949
40
0.8622784
50
351.8069023
51
357.7959224
0
ARC
8
DEFAULT_255_1_234
10
23.0548049
20
68.6141721
40
1.1862365
50
357.5871873
51
359.2677531
0
LINE
8
DEFAULT_255_1_234
10
24.4316246
20
76.7798739
11
24.4316246
21
76.7365025
0
LINE
8
DEFAULT_255_1_234
10
23.8894823
20
76.0770968
11
23.860568
21
76.0770968
0
LINE
8
DEFAULT_255_1_234
10
23.860568
20
76.0770968
11
23.860568
21
76.2023919
0
LINE
8
DEFAULT_255_1_234
10
23.860568
20
76.2023919
11
23.8918918
21
76.2023919
0
LINE
8
DEFAULT_255_1_234
10
24.2830375
20
76.7509597
11
24.2830375
21
76.8103945
0
ARC
8
DEFAULT_255_1_234
10
24.0036644
20
76.8255403
40
0.3635579
50
297.4037347
51
320.016758
0
ARC
8
DEFAULT_255_1_234
10
24.0326593
20
76.769824
40
0.3007486
50
270.2633101
51
297.3851877
0
ARC
8
DEFAULT_255_1_234
10
24.0292549
20
76.8161904
40
0.3471448
50
269.9966443
51
270.7900392
0
ARC
8
DEFAULT_255_1_234
10
24.026703
20
76.8160143
40
0.3469779
50
254.5999133
51
270.4180344
0
ARC
8
DEFAULT_255_1_234
10
24.0124389
20
76.7595647
40
0.2887697
50
236.4717942
51
254.3541279
0
ARC
8
DEFAULT_255_1_234
10
24.0280607
20
76.7805711
40
0.3149125
50
208.4727207
51
236.2134933
0
ARC
8
DEFAULT_255_1_234
10
24.0919382
20
76.8196455
40
0.3897115
50
204.3447514
51
209.0453999
0
ARC
8
DEFAULT_255_1_234
10
24.1598958
20
76.8484656
40
0.4635101
50
183.9375985
51
204.1276318
0
ARC
8
DEFAULT_255_1_234
10
24.2507209
20
76.8582482
40
0.5548037
50
179.9652252
51
184.3013875
0
ARC
8
DEFAULT_255_1_234
10
24.2267255
20
76.8615507
40
0.5308164
50
166.7585989
51
180.3201225
0
ARC
8
DEFAULT_255_1_234
10
24.1420869
20
76.8799488
40
0.4442163
50
154.6955053
51
166.5679793
0
ARC
8
DEFAULT_255_1_234
10
24.0567739
20
76.922921
40
0.3487299
50
136.3324195
51
155.0871442
0
ARC
8
DEFAULT_255_1_234
10
24.0286812
20
76.9469954
40
0.3117924
50
121.236733
51
135.9680508
0
ARC
8
DEFAULT_255_1_234
10
24.042731
20
76.9209743
40
0.3413302
50
96.845628
51
120.9881519
0
ARC
8
DEFAULT_255_1_234
10
24.0572892
20
76.8274515
40
0.4359341
50
89.8870174
51
97.2802754
0
ARC
8
DEFAULT_255_1_234
10
24.062533
20
76.8912095
40
0.3722009
50
70.6505584
51
90.6749113
0
ARC
8
DEFAULT_255_1_234
10
24.0756609
20
76.9425361
40
0.3194571
50
36.7492984
51
69.8219918
0
ARC
8
DEFAULT_255_1_234
10
23.9757774
20
76.8646993
40
0.4460685
50
15.39587
51
37.0840084
0
ARC
8
DEFAULT_255_1_234
10
23.7628207
20
76.8026242
40
0.6678714
50
3.9488873
51
15.6798563
0
ARC
8
DEFAULT_255_1_234
10
23.5226835
20
76.7809964
40
0.9089418
50
359.929245
51
4.2665314
0
ARC
8
DEFAULT_255_1_234
10
23.0621272
20
76.7298513
40
1.3695135
50
352.8366322
51
0.2782669
0
ARC
8
DEFAULT_255_1_234
10
23.5908951
20
76.6611629
40
0.8363105
50
341.8359505
51
352.9884176
0
ARC
8
DEFAULT_255_1_234
10
23.912767
20
76.55267
40
0.4966642
50
322.8578092
51
342.1527901
0
ARC
8
DEFAULT_255_1_234
10
23.9991626
20
76.4937384
40
0.3922466
50
319.334325
51
322.0998941
0
ARC
8
DEFAULT_255_1_234
10
23.9681963
20
76.5248209
40
0.4360033
50
285.9541367
51
318.8878087
0
ARC
8
DEFAULT_255_1_234
10
23.8955224
20
76.75586
40
0.678149
50
272.9281676
51
286.4922826
0
ARC
8
DEFAULT_255_1_234
10
23.8765342
20
76.9809587
40
0.9039547
50
270.8207226
51
273.4012994
0
ARC
8
DEFAULT_255_1_234
10
23.8854193
20
76.7990666
40
0.5967098
50
270.6214993
51
281.4062806
0
ARC
8
DEFAULT_255_1_234
10
23.9284174
20
76.5934833
40
0.3866861
50
281.1852553
51
299.0621114
0
ARC
8
DEFAULT_255_1_234
10
23.9657745
20
76.5213798
40
0.3055236
50
299.5067782
51
313.1200873
0
ARC
8
DEFAULT_255_1_234
10
23.9679712
20
76.5134554
40
0.2982623
50
313.8526205
51
338.5989322
0
ARC
8
DEFAULT_255_1_234
10
23.8055786
20
76.5801781
40
0.4738131
50
338.2523585
51
351.2430902
0
ARC
8
DEFAULT_255_1_234
10
23.5645082
20
76.6211447
40
0.7183203
50
350.9409515
51
357.6691871
0
ARC
8
DEFAULT_255_1_234
10
24.0535512
20
76.8213764
40
0.2294452
50
269.9447023
51
306.8248917
0
ARC
8
DEFAULT_255_1_234
10
24.0298427
20
76.8636898
40
0.2775994
50
305.5072438
51
327.0773448
0
ARC
8
DEFAULT_255_1_234
10
24.0416868
20
76.8542025
40
0.2625056
50
327.4104943
51
336.840169
0
ARC
8
DEFAULT_255_1_234
10
23.7322933
20
76.8136302
40
0.5507537
50
359.6633817
51
10.117533
0
ARC
8
DEFAULT_255_1_234
10
23.9076731
20
76.8460777
40
0.372403
50
9.9430141
51
26.7700076
0
ARC
8
DEFAULT_255_1_234
10
23.9673943
20
76.8736187
40
0.3066865
50
27.2015464
51
34.6829435
0
ARC
8
DEFAULT_255_1_234
10
24.0163423
20
76.9103977
40
0.245519
50
34.1250343
51
50.3070065
0
ARC
8
DEFAULT_255_1_234
10
24.0610103
20
76.9638385
40
0.1758693
50
50.3851167
51
90.6705993
0
ARC
8
DEFAULT_255_1_234
10
24.0563336
20
76.9333799
40
0.2063326
50
89.272901
51
111.9140407
0
ARC
8
DEFAULT_255_1_234
10
24.0543864
20
76.947444
40
0.1925887
50
112.9382311
51
142.5320782
0
ARC
8
DEFAULT_255_1_234
10
24.1090044
20
76.9030969
40
0.2629232
50
142.1021256
51
166.3835592
0
ARC
8
DEFAULT_255_1_234
10
24.2271349
20
76.8725915
40
0.3849193
50
166.1100289
51
178.665427
0
ARC
8
DEFAULT_255_1_234
10
24.3318938
20
76.8667117
40
0.4897989
50
178.2632126
51
180.0111093
0
ARC
8
DEFAULT_255_1_234
10
24.2517059
20
76.8638728
40
0.40962
50
179.6161962
51
191.8787166
0
ARC
8
DEFAULT_255_1_234
10
24.1296898
20
76.8368896
40
0.2846655
50
191.6191692
51
215.2972286
0
ARC
8
DEFAULT_255_1_234
10
24.1100089
20
76.8253918
40
0.2619665
50
215.7320102
51
216.5355409
0
ARC
8
DEFAULT_255_1_234
10
24.0561175
20
76.7821647
40
0.1929497
50
215.7486685
51
239.9727502
0
ARC
8
DEFAULT_255_1_234
10
24.0491091
20
76.7770894
40
0.1850822
50
241.0650169
51
269.2810483
0
ARC
8
DEFAULT_255_1_234
10
24.0533006
20
76.8261371
40
0.2342059
50
268.4062526
51
270.0071348
0
ARC
8
DEFAULT_255_1_234
10
24.1397624
20
84.8770703
40
0.2822356
50
338.8763615
51
0.5166041
0
ARC
8
DEFAULT_255_1_234
10
24.1566278
20
84.8725208
40
0.2648703
50
325.8412414
51
338.4795939
0
ARC
8
DEFAULT_255_1_234
10
24.1175646
20
84.8996042
40
0.3124019
50
296.7586019
51
325.753654
0
ARC
8
DEFAULT_255_1_234
10
24.0887754
20
84.9480789
40
0.368668
50
296.0902311
51
297.3618122
0
ARC
8
DEFAULT_255_1_234
10
24.1145212
20
84.2926041
40
0.3518806
50
47.9009248
51
67.1946869
0
ARC
8
DEFAULT_255_1_234
10
24.1341454
20
84.3172395
40
0.320451
50
35.236241
51
47.551371
0
ARC
8
DEFAULT_255_1_234
10
24.1603072
20
84.3346993
40
0.2890103
50
359.2759738
51
35.4014081
0
ARC
8
DEFAULT_255_1_234
10
24.0858103
20
84.3273826
40
0.3635026
50
343.1294516
51
0.5776525
0
ARC
8
DEFAULT_255_1_234
10
24.1582648
20
84.307433
40
0.2883832
50
310.8497458
51
342.744803
0
ARC
8
DEFAULT_255_1_234
10
24.1164761
20
84.3551294
40
0.3517954
50
281.5473923
51
310.9169905
0
ARC
8
DEFAULT_255_1_234
10
24.080821
20
84.5104084
40
0.5110832
50
269.6192722
51
281.9789957
0
ARC
8
DEFAULT_255_1_234
10
24.0736
20
84.5104828
40
0.5111606
50
257.4584469
51
270.4287458
0
ARC
8
DEFAULT_255_1_234
10
24.0355143
20
84.3501344
40
0.3463762
50
228.7553743
51
257.8484423
0
ARC
8
DEFAULT_255_1_234
10
24.0045341
20
84.3128442
40
0.297916
50
184.0104442
51
228.5071787
0
ARC
8
DEFAULT_255_1_234
10
24.1208285
20
84.3305512
40
0.4152734
50
179.9315461
51
185.3254504
0
ARC
8
DEFAULT_255_1_234
10
24.0031931
20
84.3342992
40
0.2976554
50
145.6795913
51
180.6259649
0
ARC
8
DEFAULT_255_1_234
10
24.019528
20
84.3228929
40
0.3175776
50
115.5537925
51
145.6416199
0
ARC
8
DEFAULT_255_1_234
10
24.053621
20
84.2618028
40
0.3874232
50
113.2437915
51
116.2054627
0
ARC
8
DEFAULT_255_1_234
10
24.0383423
20
84.901658
40
0.3154751
50
222.9548379
51
244.1372485
0
ARC
8
DEFAULT_255_1_234
10
24.0261498
20
84.8879834
40
0.2972382
50
213.3439227
51
222.6271327
0
ARC
8
DEFAULT_255_1_234
10
24.0069433
20
84.8749308
40
0.274019
50
180.4316517
51
213.2713999
0
ARC
8
DEFAULT_255_1_234
10
24.0644434
20
84.879611
40
0.33158
50
179.9992944
51
181.1655061
0
ARC
8
DEFAULT_255_1_234
10
24.1053851
20
84.8830561
40
0.3725376
50
164.6186108
51
180.5292368
0
ARC
8
DEFAULT_255_1_234
10
24.0155714
20
84.9072101
40
0.2795349
50
132.2454369
51
164.5092287
0
ARC
8
DEFAULT_255_1_234
10
24.0442818
20
84.8747028
40
0.3229019
50
100.7052766
51
132.1387266
0
ARC
8
DEFAULT_255_1_234
10
24.074779
20
84.7369086
40
0.4639835
50
89.6732617
51
101.2449487
0
ARC
8
DEFAULT_255_1_234
10
24.0809988
20
84.754399
40
0.4464999
50
76.2876631
51
90.4586123
0
ARC
8
DEFAULT_255_1_234
10
24.111622
20
84.876622
40
0.3205023
50
47.8240157
51
76.4266918
0
ARC
8
DEFAULT_255_1_234
10
24.133877
20
84.902659
40
0.2862661
50
6.9168658
51
47.6261438
0
ARC
8
DEFAULT_255_1_234
10
24.0152173
20
84.880737
40
0.4067708
50
359.8419705
51
7.9694496
0
ARC
8
DEFAULT_255_1_234
10
24.049407
20
84.3366925
40
0.2513121
50
359.4454068
51
16.9256425
0
ARC
8
DEFAULT_255_1_234
10
24.0962881
20
84.3496033
40
0.2027071
50
17.292259
51
45.462717
0
ARC
8
DEFAULT_255_1_234
10
24.0908817
20
84.3449434
40
0.2098212
50
45.3028762
51
83.1921472
0
ARC
8
DEFAULT_255_1_234
10
24.0765501
20
84.2647895
40
0.2911472
50
82.2614531
51
90.143954
0
ARC
8
DEFAULT_255_1_234
10
24.0734621
20
84.288095
40
0.2678513
50
89.4959189
51
104.8579811
0
ARC
8
DEFAULT_255_1_234
10
24.055788
20
84.355089
40
0.1985654
50
104.8855873
51
135.2448349
0
ARC
8
DEFAULT_255_1_234
10
24.0607653
20
84.3506336
40
0.2052373
50
135.3398955
51
172.104394
0
ARC
8
DEFAULT_255_1_234
10
24.1414711
20
84.3351925
40
0.2873299
50
171.2651929
51
180.1859362
0
ARC
8
DEFAULT_255_1_234
10
24.1245412
20
84.3319733
40
0.2704083
50
179.515471
51
193.6466734
0
ARC
8
DEFAULT_255_1_234
10
24.0429181
20
84.3111777
40
0.1861855
50
193.3540587
51
225.8256931
0
ARC
8
DEFAULT_255_1_234
10
24.0469938
20
84.3182524
40
0.1941102
50
226.418029
51
255.8553723
0
ARC
8
DEFAULT_255_1_234
10
24.0726371
20
84.4118998
40
0.2911917
50
255.4655572
51
268.7985967
0
ARC
8
DEFAULT_255_1_234
10
24.0773563
20
84.4957491
40
0.3751331
50
268.3464808
51
270.0104874
0
ARC
8
DEFAULT_255_1_234
10
24.0796951
20
84.4273138
40
0.3067064
50
269.575914
51
282.0823146
0
ARC
8
DEFAULT_255_1_234
10
24.102186
20
84.3278803
40
0.2047712
50
281.7522535
51
306.6056425
0
ARC
8
DEFAULT_255_1_234
10
24.1120286
20
84.3117487
40
0.1859604
50
307.1350025
51
314.0277951
0
ARC
8
DEFAULT_255_1_234
10
24.108437
20
84.3143766
40
0.1903475
50
314.2553419
51
350.169324
0
ARC
8
DEFAULT_255_1_234
10
24.0232839
20
84.3328409
40
0.2774269
50
349.4145679
51
0.2930737
0
ARC
8
DEFAULT_255_1_234
10
24.0753272
20
84.8487353
40
0.2300764
50
89.477591
51
105.729794
0
ARC
8
DEFAULT_255_1_234
10
24.0617185
20
84.8992637
40
0.1777519
50
105.922966
51
135.1662921
0
ARC
8
DEFAULT_255_1_234
10
24.0637688
20
84.8978419
40
0.1802087
50
135.3053131
51
168.9882338
0
ARC
8
DEFAULT_255_1_234
10
24.146526
20
84.8788721
40
0.2650806
50
168.3802067
51
180.3602358
0
ARC
8
DEFAULT_255_1_234
10
24.123684
20
84.8751041
40
0.2422425
50
179.5029707
51
194.9126783
0
ARC
8
DEFAULT_255_1_234
10
24.0651501
20
84.859711
40
0.1817188
50
194.9722181
51
224.1943972
0
ARC
8
DEFAULT_255_1_234
10
24.0623368
20
84.8574169
40
0.1781027
50
224.2961434
51
262.0157375
0
ARC
8
DEFAULT_255_1_234
10
24.0765611
20
84.9305661
40
0.2525492
50
261.1250369
51
270.1959853
0
ARC
8
DEFAULT_255_1_234
10
24.0795366
20
84.9118339
40
0.233825
50
269.4825617
51
285.0988277
0
ARC
8
DEFAULT_255_1_234
10
24.0949525
20
84.853999
40
0.1739712
50
285.1585659
51
315.9484648
0
ARC
8
DEFAULT_255_1_234
10
24.0860537
20
84.8621886
40
0.1860616
50
316.0412958
51
351.9162715
0
ARC
8
DEFAULT_255_1_234
10
24.0127492
20
84.8763245
40
0.2606517
50
351.1056823
51
0.1936567
0
ARC
8
DEFAULT_255_1_234
10
24.0390321
20
84.8793369
40
0.234377
50
359.4789506
51
16.0679113
0
ARC
8
DEFAULT_255_1_234
10
24.086628
20
84.892181
40
0.1850875
50
16.3251951
51
44.791304
0
ARC
8
DEFAULT_255_1_234
10
24.0848561
20
84.8922339
40
0.186312
50
44.3958661
51
88.2498933
0
ARC
8
DEFAULT_255_1_234
10
24.0775115
20
84.8311154
40
0.2476868
50
86.9833827
51
90.0200148
0
LINE
8
DEFAULT_255_1_234
10
24.4677674
20
93.1223211
11
24.4677674
21
93.038791
0
LINE
8
DEFAULT_255_1_234
10
24.4677674
20
93.038791
11
23.9834536
21
91.9529
0
LINE
8
DEFAULT_255_1_234
10
23.9834536
20
91.9529
11
23.8276379
21
91.9529
0
LINE
8
DEFAULT_255_1_234
10
23.8276379
20
91.9529
11
24.3103454
21
93.0002387
0
LINE
8
DEFAULT_255_1_234
10
24.3103454
20
93.0002387
11
23.6774444
21
93.0002387
0
LINE
8
DEFAULT_255_1_234
10
23.6774444
20
93.0002387
11
23.6774444
21
93.1223211
0
LINE
8
DEFAULT_255_1_234
10
23.6774444
20
93.1223211
11
24.4677674
21
93.1223211
0
LINE
8
DEFAULT_255_1_234
10
24.2693835
20
101.0606243
11
24.2958882
21
101.0606243
0
LINE
8
DEFAULT_255_1_234
10
24.2958882
20
101.0606243
11
24.2958882
21
100.934526
0
LINE
8
DEFAULT_255_1_234
10
24.2958882
20
100.934526
11
24.2685803
21
100.934526
0
LINE
8
DEFAULT_255_1_234
10
23.7216189
20
100.3353583
11
23.7216189
21
100.3923836
0
LINE
8
DEFAULT_255_1_234
10
23.8710093
20
100.3731075
11
23.8710093
21
100.3184917
0
ARC
8
DEFAULT_255_1_234
10
24.2738151
20
100.4347455
40
0.4998079
50
90.6001036
51
104.514704
0
ARC
8
DEFAULT_255_1_234
10
24.2349667
20
100.5792131
40
0.3502176
50
104.2855254
51
133.862935
0
ARC
8
DEFAULT_255_1_234
10
24.2513424
20
100.568383
40
0.3693984
50
134.5302688
51
161.6210873
0
ARC
8
DEFAULT_255_1_234
10
24.4166613
20
100.5100895
40
0.5446739
50
161.2849839
51
174.2076652
0
ARC
8
DEFAULT_255_1_234
10
24.557355
20
100.4906787
40
0.6866274
50
173.7810589
51
174.9254635
0
ARC
8
DEFAULT_255_1_234
10
24.1023382
20
100.3523839
40
0.3033419
50
95.8330959
51
138.9954921
0
ARC
8
DEFAULT_255_1_234
10
24.1246738
20
100.2245375
40
0.4328947
50
89.8753725
51
97.0544009
0
ARC
8
DEFAULT_255_1_234
10
24.1294204
20
100.3080748
40
0.3493769
50
71.6407809
51
90.6240094
0
ARC
8
DEFAULT_255_1_234
10
24.1444777
20
100.3635082
40
0.2920396
50
39.6367836
51
71.019018
0
ARC
8
DEFAULT_255_1_234
10
24.080825
20
100.3084998
40
0.3761538
50
10.658731
51
39.9043955
0
ARC
8
DEFAULT_255_1_234
10
23.9260333
20
100.2748686
40
0.5345136
50
359.682601
51
11.132623
0
ARC
8
DEFAULT_255_1_234
10
23.9220464
20
100.267801
40
0.5385081
50
347.2486944
51
0.4369317
0
ARC
8
DEFAULT_255_1_234
10
24.0887941
20
100.2276807
40
0.3670249
50
318.1409698
51
347.6118597
0
ARC
8
DEFAULT_255_1_234
10
24.1212934
20
100.2009702
40
0.3250007
50
275.6342139
51
317.8248465
0
ARC
8
DEFAULT_255_1_234
10
24.0992045
20
100.3309219
40
0.4565864
50
269.8874292
51
276.7917694
0
ARC
8
DEFAULT_255_1_234
10
24.0937116
20
100.2283743
40
0.3540676
50
246.9140195
51
270.7437342
0
ARC
8
DEFAULT_255_1_234
10
24.0943506
20
100.2141384
40
0.3412781
50
218.1665114
51
245.878116
0
ARC
8
DEFAULT_255_1_234
10
24.1822967
20
100.2877279
40
0.455911
50
191.4115814
51
218.6077802
0
ARC
8
DEFAULT_255_1_234
10
24.3761056
20
100.3311833
40
0.6545001
50
179.6345085
51
191.7836486
0
ARC
8
DEFAULT_255_1_234
10
24.9343393
20
100.3990697
40
1.2127388
50
171.4525249
51
180.3158839
0
ARC
8
DEFAULT_255_1_234
10
24.4948269
20
100.4674608
40
0.7679464
50
157.9802646
51
171.6246686
0
ARC
8
DEFAULT_255_1_234
10
24.273429
20
100.5557421
40
0.5296008
50
141.4298019
51
157.854097
0
ARC
8
DEFAULT_255_1_234
10
24.209261
20
100.6011381
40
0.4511509
50
102.8715806
51
140.8564722
0
ARC
8
DEFAULT_255_1_234
10
24.2740226
20
100.3571552
40
0.7034845
50
90.3778349
51
103.5869322
0
ARC
8
DEFAULT_255_1_234
10
24.1002002
20
100.296673
40
0.2370698
50
89.8751008
51
126.2071704
0
ARC
8
DEFAULT_255_1_234
10
24.1047792
20
100.2812303
40
0.2522934
50
124.9745049
51
144.895901
0
ARC
8
DEFAULT_255_1_234
10
24.0871982
20
100.295556
40
0.2296779
50
145.2974905
51
160.2660252
0
ARC
8
DEFAULT_255_1_234
10
24.3944521
20
100.3153071
40
0.5234525
50
179.6514266
51
190.2855912
0
ARC
8
DEFAULT_255_1_234
10
24.2250658
20
100.2833786
40
0.3510893
50
190.0945431
51
207.5098196
0
ARC
8
DEFAULT_255_1_234
10
24.1684928
20
100.2564623
40
0.288489
50
207.9583163
51
216.3251085
0
ARC
8
DEFAULT_255_1_234
10
24.1345036
20
100.2285105
40
0.2445587
50
215.7661442
51
232.5456785
0
ARC
8
DEFAULT_255_1_234
10
24.0962019
20
100.1798482
40
0.1826382
50
232.8005391
51
270.6605633
0
ARC
8
DEFAULT_255_1_234
10
24.100772
20
100.2162612
40
0.2190529
50
269.35537
51
288.4744281
0
ARC
8
DEFAULT_255_1_234
10
24.1100617
20
100.1813118
40
0.1829749
50
289.1833337
51
322.9683818
0
ARC
8
DEFAULT_255_1_234
10
24.0489139
20
100.2295391
40
0.2608399
50
322.6007884
51
346.5182367
0
ARC
8
DEFAULT_255_1_234
10
23.9331735
20
100.2590616
40
0.3802777
50
346.2582162
51
358.7741648
0
ARC
8
DEFAULT_255_1_234
10
23.8313404
20
100.2645965
40
0.4822176
50
358.3755224
51
0.0098023
0
ARC
8
DEFAULT_255_1_234
10
23.9069591
20
100.2673657
40
0.4066078
50
359.6214041
51
11.2839074
0
ARC
8
DEFAULT_255_1_234
10
24.0346738
20
100.2940066
40
0.2761514
50
11.0482309
51
31.8146458
0
ARC
8
DEFAULT_255_1_234
10
24.0655781
20
100.3107584
40
0.2410679
50
32.3035391
51
38.082671
0
ARC
8
DEFAULT_255_1_234
10
24.1076441
20
100.3488662
40
0.1844966
50
36.825067
51
85.7415724
0
ARC
8
DEFAULT_255_1_234
10
24.1009274
20
100.2988301
40
0.2349122
50
85.0140713
51
90.0513278
0
LINE
8
DEFAULT_255_1_234
10
23.8999235
20
108.3836963
11
23.7810538
21
108.4142169
0
LINE
8
DEFAULT_255_1_234
10
23.7810538
20
108.4142169
11
23.8404887
21
108.9973211
0
LINE
8
DEFAULT_255_1_234
10
23.8404887
20
108.9973211
11
24.4396563
21
108.9973211
0
LINE
8
DEFAULT_255_1_234
10
24.4396563
20
108.9973211
11
24.4396563
21
108.8599784
0
LINE
8
DEFAULT_255_1_234
10
24.4396563
20
108.8599784
11
23.966587
21
108.8599784
0
LINE
8
DEFAULT_255_1_234
10
23.966587
20
108.8599784
11
23.9312473
21
108.5411184
0
LINE
8
DEFAULT_255_1_234
10
23.7392888
20
108.1355156
11
23.8798442
21
108.1355156
0
LINE
8
DEFAULT_255_1_234
10
23.9392791
20
108.4158232
11
23.8999235
21
108.3836963
0
ARC
8
DEFAULT_255_1_234
10
24.1167257
20
108.223123
40
0.3681349
50
93.7182161
51
120.2538958
0
ARC
8
DEFAULT_255_1_234
10
24.126152
20
108.1423394
40
0.449379
50
89.9660152
51
94.2496022
0
ARC
8
DEFAULT_255_1_234
10
24.1302254
20
108.2012549
40
0.390482
50
73.8043271
51
90.5585896
0
ARC
8
DEFAULT_255_1_234
10
24.1537151
20
108.2870602
40
0.3015334
50
41.3071453
51
73.5430202
0
ARC
8
DEFAULT_255_1_234
10
24.1120978
20
108.2512324
40
0.3564457
50
13.5075983
51
41.2174222
0
ARC
8
DEFAULT_255_1_234
10
23.9479182
20
108.2082486
40
0.5261351
50
1.1331335
51
13.8829381
0
ARC
8
DEFAULT_255_1_234
10
23.8067551
20
108.2006665
40
0.6674378
50
359.9919444
51
1.544251
0
ARC
8
DEFAULT_255_1_234
10
23.9344377
20
108.196528
40
0.5397702
50
347.8572367
51
0.4293338
0
ARC
8
DEFAULT_255_1_234
10
24.1094695
20
108.1568736
40
0.3603188
50
323.673004
51
348.1672506
0
ARC
8
DEFAULT_255_1_234
10
24.1389203
20
108.1389168
40
0.3259678
50
316.8171152
51
323.1492751
0
ARC
8
DEFAULT_255_1_234
10
24.1450392
20
108.135246
40
0.3189975
50
281.8396411
51
316.5457803
0
ARC
8
DEFAULT_255_1_234
10
24.1074656
20
108.2907762
40
0.4789527
50
269.5770101
51
282.4214771
0
ARC
8
DEFAULT_255_1_234
10
24.1003467
20
108.2694125
40
0.45759
50
256.2427136
51
270.4486331
0
ARC
8
DEFAULT_255_1_234
10
24.070437
20
108.1494229
40
0.3339303
50
228.9023911
51
256.3314342
0
ARC
8
DEFAULT_255_1_234
10
24.0630602
20
108.1377746
40
0.32031
50
193.753695
51
228.5271154
0
ARC
8
DEFAULT_255_1_234
10
24.1868556
20
108.17408
40
0.4492253
50
184.924711
51
194.497588
0
ARC
8
DEFAULT_255_1_234
10
24.2061123
20
108.1776591
40
0.3289787
50
187.3600538
51
198.6732863
0
ARC
8
DEFAULT_255_1_234
10
24.1011417
20
108.1412674
40
0.217884
50
198.4451669
51
217.794479
0
ARC
8
DEFAULT_255_1_234
10
24.0715592
20
108.1203085
40
0.1816698
50
218.2887171
51
228.5612368
0
ARC
8
DEFAULT_255_1_234
10
24.0813379
20
108.1334963
40
0.1980329
50
228.9654866
51
258.1234728
0
ARC
8
DEFAULT_255_1_234
10
24.1019089
20
108.2215833
40
0.2884748
50
257.7258293
51
270.401361
0
ARC
8
DEFAULT_255_1_234
10
24.1063975
20
108.1770821
40
0.2439788
50
269.4204404
51
286.4209037
0
ARC
8
DEFAULT_255_1_234
10
24.1212463
20
108.1231657
40
0.1880666
50
286.7251356
51
320.600362
0
ARC
8
DEFAULT_255_1_234
10
24.0829288
20
108.1542595
40
0.2374121
50
320.6712579
51
344.5441685
0
ARC
8
DEFAULT_255_1_234
10
23.9672614
20
108.1882045
40
0.3579479
50
344.2412205
51
356.7357071
0
ARC
8
DEFAULT_255_1_234
10
23.8423763
20
108.1985444
40
0.4832297
50
356.3548756
51
0.0500261
0
ARC
8
DEFAULT_255_1_234
10
23.9760272
20
108.201665
40
0.3495889
50
359.5576869
51
12.953486
0
ARC
8
DEFAULT_255_1_234
10
24.0815169
20
108.2272434
40
0.2410532
50
12.6490276
51
41.6081334
0
ARC
8
DEFAULT_255_1_234
10
24.104554
20
108.2468321
40
0.2108218
50
41.7850273
51
85.9892764
0
ARC
8
DEFAULT_255_1_234
10
24.0922277
20
108.1655462
40
0.2928454
50
84.6957577
51
90.0676183
0
ARC
8
DEFAULT_255_1_234
10
24.0898761
20
108.0986716
40
0.3597255
50
89.6804936
51
99.1614436
0
ARC
8
DEFAULT_255_1_234
10
24.0693392
20
108.2214131
40
0.235281
50
98.9830931
51
113.8908934
0
ARC
8
DEFAULT_255_1_234
10
24.0463802
20
108.2755587
40
0.176479
50
114.1950727
51
127.3641004
0
LINE
8
DEFAULT_255_1_234
10
24.1284628
20
116.9348211
11
24.1284628
21
116.158152
0
LINE
8
DEFAULT_255_1_234
10
24.1284628
20
116.158152
11
24.2907039
21
116.158152
0
LINE
8
DEFAULT_255_1_234
10
24.2907039
20
116.158152
11
24.2907039
21
116.0368728
0
LINE
8
DEFAULT_255_1_234
10
24.2907039
20
116.0368728
11
24.1284628
21
116.0368728
0
LINE
8
DEFAULT_255_1_234
10
24.1284628
20
116.0368728
11
24.1284628
21
115.7654
0
LINE
8
DEFAULT_255_1_234
10
24.1284628
20
115.7654
11
23.9790725
21
115.7654
0
LINE
8
DEFAULT_255_1_234
10
23.9790725
20
115.7654
11
23.9790725
21
116.0368728
0
LINE
8
DEFAULT_255_1_234
10
23.9790725
20
116.0368728
11
23.4465682
21
116.0368728
0
LINE
8
DEFAULT_255_1_234
10
23.4465682
20
116.0368728
11
23.4465682
21
116.1244187
0
LINE
8
DEFAULT_255_1_234
10
23.4465682
20
116.1244187
11
23.9702375
21
116.9348211
0
LINE
8
DEFAULT_255_1_234
10
23.9702375
20
116.9348211
11
24.1284628
21
116.9348211
0
LINE
8
DEFAULT_255_1_234
10
23.9614026
20
116.6994912
11
23.6152347
21
116.158152
0
LINE
8
DEFAULT_255_1_234
10
23.6152347
20
116.158152
11
23.9790725
21
116.158152
0
LINE
8
DEFAULT_255_1_234
10
23.9790725
20
116.158152
11
23.9790725
21
116.7316181
0
LINE
8
DEFAULT_255_1_234
10
23.9790725
20
116.7316181
11
23.9614026
21
116.6994912
0
LINE
8
DEFAULT_255_1_234
10
23.9288378
20
124.2386169
11
23.9288378
21
124.3598962
0
LINE
8
DEFAULT_255_1_234
10
23.9288378
20
124.3598962
11
24.040479
21
124.3598962
0
LINE
8
DEFAULT_255_1_234
10
23.8501268
20
124.5655087
11
23.7015396
21
124.5655087
0
LINE
8
DEFAULT_255_1_234
10
23.6910983
20
124.0113188
11
23.8404887
21
124.0113188
0
LINE
8
DEFAULT_255_1_234
10
24.040479
20
124.2386169
11
23.9288378
21
124.2386169
0
ARC
8
DEFAULT_255_1_234
10
24.0375656
20
124.6991713
40
0.3392876
50
270.4919872
51
281.8951556
0
ARC
8
DEFAULT_255_1_234
10
24.0616918
20
124.5889702
40
0.2264817
50
281.6691735
51
301.2943132
0
ARC
8
DEFAULT_255_1_234
10
24.0787128
20
124.5578304
40
0.1910381
50
301.7833094
51
311.7545298
0
ARC
8
DEFAULT_255_1_234
10
24.0878704
20
124.5476748
40
0.1773635
50
311.7323931
51
354.2802411
0
ARC
8
DEFAULT_255_1_234
10
24.0152329
20
124.5601722
40
0.2509385
50
353.0937916
51
0.1181479
0
ARC
8
DEFAULT_255_1_234
10
23.9691114
20
124.5649386
40
0.2970898
50
359.1805295
51
15.0453146
0
ARC
8
DEFAULT_255_1_234
10
24.1036951
20
124.6041992
40
0.1569564
50
13.9577229
51
77.6713066
0
ARC
8
DEFAULT_255_1_234
10
24.065048
20
124.4656949
40
0.3006298
50
76.1116566
51
90.7026153
0
ARC
8
DEFAULT_255_1_234
10
24.0591318
20
124.4930545
40
0.2732568
50
89.5324876
51
103.531937
0
ARC
8
DEFAULT_255_1_234
10
24.0390762
20
124.5729884
40
0.1908508
50
103.2931773
51
133.5619022
0
ARC
8
DEFAULT_255_1_234
10
24.0346251
20
124.5789375
40
0.1834746
50
133.8349307
51
173.5344437
0
ARC
8
DEFAULT_255_1_234
10
24.1069294
20
124.5661213
40
0.2568033
50
172.5096846
51
180.1366907
0
ARC
8
DEFAULT_255_1_234
10
24.0118188
20
124.5695622
40
0.3103056
50
155.3484492
51
180.7484736
0
ARC
8
DEFAULT_255_1_234
10
24.0069277
20
124.5666846
40
0.3070957
50
131.5744599
51
154.4798489
0
ARC
8
DEFAULT_255_1_234
10
24.0382424
20
124.535031
40
0.3515643
50
96.9875458
51
131.9690667
0
ARC
8
DEFAULT_255_1_234
10
24.0601904
20
124.4104636
40
0.4779224
50
89.8596053
51
97.7825159
0
ARC
8
DEFAULT_255_1_234
10
24.0649967
20
124.3842616
40
0.5041361
50
78.3655447
51
90.4131539
0
ARC
8
DEFAULT_255_1_234
10
24.1007885
20
124.5501887
40
0.3344039
50
56.6229102
51
78.638727
0
ARC
8
DEFAULT_255_1_234
10
24.1222829
20
124.5877805
40
0.2912001
50
47.0253525
51
56.0854072
0
ARC
8
DEFAULT_255_1_234
10
24.1242609
20
124.5917223
40
0.2869704
50
10.9208013
51
46.7778124
0
ARC
8
DEFAULT_255_1_234
10
23.9878675
20
124.5601857
40
0.426899
50
359.6364486
51
11.6087304
0
ARC
8
DEFAULT_255_1_234
10
24.1713519
20
124.5586752
40
0.243409
50
332.3549906
51
359.7179418
0
ARC
8
DEFAULT_255_1_234
10
24.1063121
20
124.5895142
40
0.3153459
50
325.2333722
51
332.8745602
0
ARC
8
DEFAULT_255_1_234
10
24.1215744
20
124.5788828
40
0.2967456
50
292.9802137
51
325.2392345
0
ARC
8
DEFAULT_255_1_234
10
24.0941118
20
124.6322863
40
0.3566604
50
292.5402179
51
293.6924929
0
ARC
8
DEFAULT_255_1_234
10
24.1333714
20
123.9868091
40
0.3307468
50
57.6435486
51
72.8625112
0
ARC
8
DEFAULT_255_1_234
10
24.1688214
20
124.0442549
40
0.2632492
50
36.7248896
51
57.4697979
0
ARC
8
DEFAULT_255_1_234
10
24.1676847
20
124.045522
40
0.2634081
50
8.0545065
51
36.356114
0
ARC
8
DEFAULT_255_1_234
10
24.0814032
20
124.0300174
40
0.3510261
50
359.8320645
51
8.5869982
0
ARC
8
DEFAULT_255_1_234
10
24.0438808
20
124.0252101
40
0.3885653
50
343.9829931
51
0.5571613
0
ARC
8
DEFAULT_255_1_234
10
24.1325005
20
124.0009438
40
0.2966924
50
311.6359546
51
343.7651759
0
ARC
8
DEFAULT_255_1_234
10
24.0946574
20
124.0436102
40
0.3537231
50
279.7829875
51
311.6255694
0
ARC
8
DEFAULT_255_1_234
10
24.0645351
20
124.187328
40
0.5004971
50
269.7286406
51
280.3856417
0
ARC
8
DEFAULT_255_1_234
10
24.0583423
20
124.1831996
40
0.4963778
50
256.6828919
51
270.4412052
0
ARC
8
DEFAULT_255_1_234
10
24.0244719
20
124.0447394
40
0.3538406
50
229.4223008
51
256.8556159
0
ARC
8
DEFAULT_255_1_234
10
23.9830112
20
123.9980736
40
0.2914296
50
181.818294
51
229.6455059
0
ARC
8
DEFAULT_255_1_234
10
24.0870068
20
124.0111496
40
0.3959084
50
179.9755256
51
183.2323064
0
ARC
8
DEFAULT_255_1_234
10
24.0697814
20
124.0091037
40
0.2293034
50
179.4465117
51
196.2869258
0
ARC
8
DEFAULT_255_1_234
10
24.0210222
20
123.9957651
40
0.1787621
50
196.5661473
51
227.705904
0
ARC
8
DEFAULT_255_1_234
10
24.0374317
20
124.0141155
40
0.2033784
50
227.7652068
51
257.8762805
0
ARC
8
DEFAULT_255_1_234
10
24.0599287
20
124.1084156
40
0.3003081
50
257.4584385
51
270.426602
0
ARC
8
DEFAULT_255_1_234
10
24.0644853
20
124.1373996
40
0.329292
50
269.5962073
51
280.8789248
0
ARC
8
DEFAULT_255_1_234
10
24.0874382
20
124.0227685
40
0.2123908
50
280.6346389
51
299.8595945
0
ARC
8
DEFAULT_255_1_234
10
24.1065289
20
123.9865212
40
0.171457
50
300.3576302
51
314.5517981
0
ARC
8
DEFAULT_255_1_234
10
24.0982349
20
123.9925919
40
0.1816095
50
315.0728369
51
345.0431014
0
ARC
8
DEFAULT_255_1_234
10
24.0059163
20
124.0194841
40
0.2777492
50
344.5986631
51
357.9269593
0
ARC
8
DEFAULT_255_1_234
10
23.9163489
20
124.0256276
40
0.3674917
50
357.4748886
51
0.0231117
0
ARC
8
DEFAULT_255_1_234
10
24.0186599
20
124.0280679
40
0.2651907
50
359.5047933
51
13.4239635
0
ARC
8
DEFAULT_255_1_234
10
24.1053242
20
124.0502478
40
0.1757509
50
12.9498199
51
48.7551375
0
ARC
8
DEFAULT_255_1_234
10
24.0870976
20
124.02534
40
0.2065134
50
49.5088623
51
72.1836453
0
ARC
8
DEFAULT_255_1_234
10
24.0513129
20
123.9191291
40
0.3185836
50
71.9010081
51
84.3554254
0
ARC
8
DEFAULT_255_1_234
10
24.0351761
20
123.7830326
40
0.4556151
50
84.0193428
51
89.333121
0
LINE
8
DEFAULT_255_1_234
10
24.4790119
20
131.7616792
11
24.4790119
21
131.6404
0
LINE
8
DEFAULT_255_1_234
10
24.4790119
20
131.6404
11
23.712784
21
131.6404
0
LINE
8
DEFAULT_255_1_234
10
23.712784
20
131.6404
11
23.712784
21
131.7472221
0
LINE
8
DEFAULT_255_1_234
10
23.712784
20
131.7472221
11
24.1175836
21
132.1969995
0
LINE
8
DEFAULT_255_1_234
10
23.8388823
20
132.4652595
11
23.6902952
21
132.4652595
0
LINE
8
DEFAULT_255_1_234
10
24.2051296
20
132.1014218
11
23.8918918
21
131.7616792
0
LINE
8
DEFAULT_255_1_234
10
23.8918918
20
131.7616792
11
24.4790119
21
131.7616792
0
ARC
8
DEFAULT_255_1_234
10
22.768567
20
133.3899527
40
1.8008286
50
318.5132453
51
320.7828378
0
ARC
8
DEFAULT_255_1_234
10
23.2972644
20
132.9596426
40
1.1191493
50
320.7372736
51
323.9737074
0
ARC
8
DEFAULT_255_1_234
10
23.6892501
20
132.6756361
40
0.6350923
50
323.8961724
51
328.6421089
0
ARC
8
DEFAULT_255_1_234
10
23.8939096
20
132.5494031
40
0.3946393
50
328.8299013
51
331.789948
0
ARC
8
DEFAULT_255_1_234
10
23.9936274
20
132.4979509
40
0.2824501
50
331.4255242
51
352.9364833
0
ARC
8
DEFAULT_255_1_234
10
24.0072775
20
132.4948976
40
0.2685315
50
353.2248685
51
0.0169286
0
ARC
8
DEFAULT_255_1_234
10
24.0282652
20
132.497195
40
0.2475536
50
359.4866256
51
15.9339782
0
ARC
8
DEFAULT_255_1_234
10
24.0789637
20
132.5108286
40
0.1950618
50
16.1714718
51
43.5284424
0
ARC
8
DEFAULT_255_1_234
10
24.0866946
20
132.5185573
40
0.184134
50
43.4415429
51
83.1661404
0
ARC
8
DEFAULT_255_1_234
10
24.0732864
20
132.4448771
40
0.258926
50
82.160215
51
90.1505798
0
ARC
8
DEFAULT_255_1_234
10
24.0701291
20
132.3911865
40
0.3126255
50
89.5460705
51
102.5418777
0
ARC
8
DEFAULT_255_1_234
10
24.0458377
20
132.4942665
40
0.2067346
50
102.1739365
51
129.2061916
0
ARC
8
DEFAULT_255_1_234
10
24.0379449
20
132.5067094
40
0.1921118
50
129.7279328
51
135.7542026
0
ARC
8
DEFAULT_255_1_234
10
24.0500977
20
132.4970045
40
0.2075944
50
136.175737
51
166.3674722
0
ARC
8
DEFAULT_255_1_234
10
24.1507896
20
132.4700182
40
0.3118201
50
165.9092917
51
178.8683903
0
ARC
8
DEFAULT_255_1_234
10
24.2372757
20
132.4653179
40
0.3983935
50
178.438168
51
180.0083905
0
ARC
8
DEFAULT_255_1_234
10
24.0971359
20
132.4692231
40
0.4068601
50
163.2878735
51
180.5581814
0
ARC
8
DEFAULT_255_1_234
10
24.0169621
20
132.491284
40
0.3237344
50
133.454115
51
162.9470031
0
ARC
8
DEFAULT_255_1_234
10
24.0348162
20
132.4723
40
0.349795
50
100.7869394
51
133.4384016
0
ARC
8
DEFAULT_255_1_234
10
24.0695934
20
132.3174319
40
0.5084616
50
89.6605301
51
101.3704185
0
ARC
8
DEFAULT_255_1_234
10
24.0762273
20
132.3235496
40
0.502348
50
78.2171172
51
90.4130393
0
ARC
8
DEFAULT_255_1_234
10
24.1117351
20
132.4859637
40
0.3361092
50
55.9268222
51
78.4888551
0
ARC
8
DEFAULT_255_1_234
10
24.1313791
20
132.5198324
40
0.2970617
50
47.9292255
51
55.4054003
0
ARC
8
DEFAULT_255_1_234
10
24.1415352
20
132.5301502
40
0.2825983
50
4.3347696
51
48.0560701
0
ARC
8
DEFAULT_255_1_234
10
24.0319745
20
132.5131601
40
0.393225
50
359.925209
51
5.5967654
0
ARC
8
DEFAULT_255_1_234
10
24.0748637
20
132.5187816
40
0.3503892
50
337.8914096
51
358.9967724
0
ARC
8
DEFAULT_255_1_234
10
23.8035049
20
132.6234706
40
0.6412172
50
326.9135351
51
338.3505194
0
ARC
8
DEFAULT_255_1_234
10
23.4049353
20
132.8789284
40
1.1146189
50
319.6472867
51
327.095818
0
ARC
8
DEFAULT_255_1_234
10
23.0216356
20
133.1951
40
1.6114559
50
317.2586784
51
319.9046139
0
LINE
8
DEFAULT_255_1_234
10
24.2094137
20
140.7529433
11
24.2094137
21
139.5779
0
LINE
8
DEFAULT_255_1_234
10
24.2094137
20
139.5779
11
24.0600234
21
139.5779
0
LINE
8
DEFAULT_255_1_234
10
24.0600234
20
139.5779
11
24.0600234
21
140.5682133
0
LINE
8
DEFAULT_255_1_234
10
24.0600234
20
140.5682133
11
23.7604396
21
140.4581785
0
LINE
8
DEFAULT_255_1_234
10
23.7604396
20
140.4581785
11
23.7604396
21
140.5931117
0
LINE
8
DEFAULT_255_1_234
10
23.7604396
20
140.5931117
11
24.1861217
21
140.7529433
0
LINE
8
DEFAULT_255_1_234
10
24.1861217
20
140.7529433
11
24.2094137
21
140.7529433
0
LINE
8
DEFAULT_255_1_234
10
24.4460817
20
148.2069327
11
24.4460817
21
148.0141709
0
LINE
8
DEFAULT_255_1_234
10
23.707965
20
147.9940916
11
23.707965
21
148.1924755
0
LINE
8
DEFAULT_255_1_234
10
24.2974946
20
147.9740123
11
24.2974946
21
148.2173739
0
LINE
8
DEFAULT_255_1_234
10
23.8565521
20
148.2286184
11
23.8565521
21
147.9908789
0
ARC
8
DEFAULT_255_1_234
10
23.2213707
20
148.0092805
40
1.2247208
50
353.8441951
51
0.2287902
0
ARC
8
DEFAULT_255_1_234
10
23.6853211
20
147.9574806
40
0.7578929
50
344.4934747
51
353.9765454
0
ARC
8
DEFAULT_255_1_234
10
23.9845801
20
147.8723981
40
0.4467846
50
329.2803592
51
344.7472793
0
ARC
8
DEFAULT_255_1_234
10
24.0838626
20
147.8179018
40
0.3336173
50
324.9352394
51
328.6160465
0
ARC
8
DEFAULT_255_1_234
10
24.1215734
20
147.7915427
40
0.2876076
50
280.580143
51
324.9173126
0
ARC
8
DEFAULT_255_1_234
10
24.0814527
20
147.9586099
40
0.4592847
50
269.5977311
51
281.6734359
0
ARC
8
DEFAULT_255_1_234
10
24.0742433
20
147.9466173
40
0.4472986
50
256.6228859
51
270.51044
0
ARC
8
DEFAULT_255_1_234
10
24.034041
20
147.7917877
40
0.2873874
50
215.8618325
51
257.2788573
0
ARC
8
DEFAULT_255_1_234
10
24.1361442
20
147.8602977
40
0.4102928
50
197.9693508
51
215.2623606
0
ARC
8
DEFAULT_255_1_234
10
24.3846558
20
147.9441709
40
0.6725652
50
187.8816417
51
198.2346507
0
ARC
8
DEFAULT_255_1_234
10
24.7804766
20
148.0013079
40
1.0724845
50
180.8976217
51
188.0055519
0
ARC
8
DEFAULT_255_1_234
10
25.0604954
20
148.0116777
40
1.3526448
50
180.7449369
51
181.1510016
0
ARC
8
DEFAULT_255_1_234
10
24.9027683
20
148.1973042
40
1.1948131
50
173.7675579
51
180.231553
0
ARC
8
DEFAULT_255_1_234
10
24.450983
20
148.2483666
40
0.7401564
50
164.3058563
51
173.9002247
0
ARC
8
DEFAULT_255_1_234
10
24.1597899
20
148.3322656
40
0.4371288
50
148.7922025
51
164.568378
0
ARC
8
DEFAULT_255_1_234
10
24.0646351
20
148.3853929
40
0.3282386
50
144.5883898
51
148.1176286
0
ARC
8
DEFAULT_255_1_234
10
24.0303249
20
148.4093315
40
0.2864044
50
101.6440918
51
144.514236
0
ARC
8
DEFAULT_255_1_234
10
24.0728315
20
148.2404069
40
0.4604934
50
89.5284041
51
102.5819763
0
ARC
8
DEFAULT_255_1_234
10
24.0807403
20
148.2365018
40
0.464401
50
77.0437873
51
90.5081339
0
ARC
8
DEFAULT_255_1_234
10
24.1209405
20
148.4007615
40
0.2953195
50
48.2778575
51
77.4994676
0
ARC
8
DEFAULT_255_1_234
10
24.1282036
20
148.4136746
40
0.2808655
50
36.3142134
51
47.6305865
0
ARC
8
DEFAULT_255_1_234
10
24.0413343
20
148.3551515
40
0.3855453
50
18.2931786
51
35.6769206
0
ARC
8
DEFAULT_255_1_234
10
23.7870102
20
148.2678593
40
0.654423
50
8.024666
51
18.5605216
0
ARC
8
DEFAULT_255_1_234
10
23.3707022
20
148.2063792
40
1.0752407
50
1.1274072
51
8.1718305
0
ARC
8
DEFAULT_255_1_234
10
23.0471213
20
148.1936885
40
1.3990231
50
0.5424119
51
1.3863029
0
ARC
8
DEFAULT_255_1_234
10
23.229259
20
148.2209342
40
1.0682415
50
359.8090433
51
4.9407866
0
ARC
8
DEFAULT_255_1_234
10
23.6502604
20
148.2585113
40
0.6455691
50
4.8362157
51
12.2904523
0
ARC
8
DEFAULT_255_1_234
10
23.9257719
20
148.3198965
40
0.3633074
50
12.0805627
51
23.8173984
0
ARC
8
DEFAULT_255_1_234
10
24.0431425
20
148.3695919
40
0.2358723
50
24.2871213
51
31.3935614
0
ARC
8
DEFAULT_255_1_234
10
24.0956122
20
148.4039233
40
0.1732111
50
30.7407893
51
82.4657128
0
ARC
8
DEFAULT_255_1_234
10
24.0776256
20
148.3155691
40
0.263235
50
81.1060089
51
90.2184952
0
ARC
8
DEFAULT_255_1_234
10
24.0740555
20
148.3413924
40
0.2374236
50
89.3806855
51
105.6762551
0
ARC
8
DEFAULT_255_1_234
10
24.0557186
20
148.4080567
40
0.1682847
50
105.7981136
51
149.7388061
0
ARC
8
DEFAULT_255_1_234
10
24.1621264
20
148.344095
40
0.2924306
50
149.4208916
51
163.6286378
0
ARC
8
DEFAULT_255_1_234
10
24.3712152
20
148.280325
40
0.5110213
50
163.3763315
51
172.1410975
0
ARC
8
DEFAULT_255_1_234
10
24.7012871
20
148.2330518
40
0.8444586
50
172.0259487
51
178.0703232
0
ARC
8
DEFAULT_255_1_234
10
25.004296
20
148.2186906
40
1.1477868
50
177.8631668
51
179.5044149
0
ARC
8
DEFAULT_255_1_234
10
24.8970365
20
147.9872389
40
1.0404907
50
179.7995573
51
185.2460446
0
ARC
8
DEFAULT_255_1_234
10
24.4927404
20
147.9489513
40
0.6343885
50
185.1411642
51
193.0079639
0
ARC
8
DEFAULT_255_1_234
10
24.2283877
20
147.8864641
40
0.3627568
50
192.7897626
51
205.2507664
0
ARC
8
DEFAULT_255_1_234
10
24.1237424
20
147.8397415
40
0.2481908
50
205.8005384
51
211.2537509
0
ARC
8
DEFAULT_255_1_234
10
24.0713864
20
147.804658
40
0.1852521
50
210.3789793
51
238.4008143
0
ARC
8
DEFAULT_255_1_234
10
24.0694386
20
147.8093376
40
0.1882621
50
239.6520629
51
265.9793761
0
ARC
8
DEFAULT_255_1_234
10
24.0779586
20
147.8765427
40
0.2559272
50
265.1315437
51
270.060332
0
ARC
8
DEFAULT_255_1_234
10
24.0808365
20
147.8441534
40
0.2235528
50
269.3314664
51
287.2178029
0
ARC
8
DEFAULT_255_1_234
10
24.0946217
20
147.7938279
40
0.1714108
50
287.7958004
51
329.080874
0
ARC
8
DEFAULT_255_1_234
10
23.9988674
20
147.853593
40
0.2842745
50
328.6634704
51
343.3325132
0
ARC
8
DEFAULT_255_1_234
10
23.7815694
20
147.9212863
40
0.5118644
50
343.0499468
51
351.9393422
0
ARC
8
DEFAULT_255_1_234
10
23.4348994
20
147.9723949
40
0.8622784
50
351.8069023
51
357.7959224
0
ARC
8
DEFAULT_255_1_234
10
23.111355
20
147.9891721
40
1.1862365
50
357.5871873
51
359.2677531
0
ENDSEC
0
EOF