0
SECTION
2
HEADER
9
$MEASUREMENT
70
1
0
ENDSEC
0
SECTION
2
TABLES
0
TABLE
2
LTYPE
0
LTYPE
72
65
70
64
2
CONTINUOUS
3
______
73
0
40
0
0
ENDTAB
0
TABLE
2
LAYER
0
LAYER
2
DEFAULT_255_2_778
70
0
62
255
6
CONTINUOUS
0
ENDTAB
0
ENDSEC
0
SECTION
2
ENTITIES
0
LINE
8
DEFAULT_255_2_778
10
47.2925066
20
38.0343542
11
47.2925066
21
42.0343542
0
LINE
8
DEFAULT_255_2_778
10
47.2925066
20
42.0343542
11
48.4924066
21
42.0343542
0
LINE
8
DEFAULT_255_2_778
10
48.4924066
20
42.0343542
11
50.2924066
21
39.0342542
0
LINE
8
DEFAULT_255_2_778
10
50.2924066
20
39.0342542
11
50.2924066
21
-0.1656458
0
LINE
8
DEFAULT_255_2_778
10
50.2924066
20
-0.1656458
11
42.2924066
21
-0.1656458
0
LINE
8
DEFAULT_255_2_778
10
42.2924066
20
-0.1656458
11
42.2924066
21
9.8342542
0
LINE
8
DEFAULT_255_2_778
10
42.2924066
20
9.8342542
11
40.4925066
21
9.8342542
0
LINE
8
DEFAULT_255_2_778
10
40.4925066
20
9.8342542
11
40.4925066
21
10.3343542
0
LINE
8
DEFAULT_255_2_778
10
40.4925066
20
10.3343542
11
38.4925066
21
10.3343542
0
LINE
8
DEFAULT_255_2_778
10
38.4925066
20
10.3343542
11
38.4925066
21
9.8342542
0
LINE
8
DEFAULT_255_2_778
10
38.4925066
20
9.8342542
11
36.4925066
21
9.8342542
0
LINE
8
DEFAULT_255_2_778
10
36.4925066
20
9.8342542
11
36.4925066
21
10.3343542
0
LINE
8
DEFAULT_255_2_778
10
36.4925066
20
10.3343542
11
34.4925066
21
10.3343542
0
LINE
8
DEFAULT_255_2_778
10
34.4925066
20
10.3343542
11
34.4925066
21
9.8342542
0
LINE
8
DEFAULT_255_2_778
10
34.4925066
20
9.8342542
11
32.4925066
21
9.8342542
0
LINE
8
DEFAULT_255_2_778
10
32.4925066
20
9.8342542
11
32.4925066
21
10.3343542
0
LINE
8
DEFAULT_255_2_778
10
32.4925066
20
10.3343542
11
30.4926066
21
10.3343542
0
LINE
8
DEFAULT_255_2_778
10
30.4926066
20
10.3343542
11
30.4926066
21
9.8342542
0
LINE
8
DEFAULT_255_2_778
10
30.4926066
20
9.8342542
11
27.4924066
21
9.8342542
0
LINE
8
DEFAULT_255_2_778
10
27.4924066
20
9.8342542
11
27.4924066
21
36.0843542
0
LINE
8
DEFAULT_255_2_778
10
27.4924066
20
36.0843542
11
24.9924066
21
38.5844542
0
LINE
8
DEFAULT_255_2_778
10
24.9924066
20
38.5844542
11
24.9924066
21
71.0842542
0
ARC
8
DEFAULT_255_2_778
10
2.8973382
20
76.1322715
40
2.6455102
50
339.9060345
51
0.0453948
0
ARC
8
DEFAULT_255_2_778
10
2.8893174
20
76.1387941
40
2.6552859
50
280.5750962
51
339.8333181
0
ARC
8
DEFAULT_255_2_778
10
2.8929448
20
76.1505404
40
2.666173
50
269.9979116
51
280.4521424
0
ARC
8
DEFAULT_255_2_778
10
2.8909253
20
76.1305379
40
2.6461711
50
249.9060568
51
270.0416211
0
ARC
8
DEFAULT_255_2_778
10
2.8971443
20
76.1379428
40
2.655264
50
190.5761011
51
249.8349256
0
ARC
8
DEFAULT_255_2_778
10
2.9088634
20
76.1342685
40
2.6661158
50
179.9978734
51
190.4522562
0
ARC
8
DEFAULT_255_2_778
10
60.1952102
20
82.2124096
40
59.9985869
50
162.9199275
51
177.753226
0
ARC
8
DEFAULT_255_2_778
10
2.8964955
20
33.5362903
40
2.6461528
50
359.9583676
51
20.094077
0
ARC
8
DEFAULT_255_2_778
10
2.8890615
20
33.5300395
40
2.6552839
50
20.1656353
51
79.4252751
0
ARC
8
DEFAULT_255_2_778
10
2.8926481
20
33.5180392
40
2.6664283
50
79.5483581
51
90.002161
0
ARC
8
DEFAULT_255_2_778
10
2.8908162
20
33.538682
40
2.6457861
50
89.9625074
51
110.0987017
0
ARC
8
DEFAULT_255_2_778
10
2.8972389
20
33.5308501
40
2.6553501
50
110.1707748
51
169.425515
0
ARC
8
DEFAULT_255_2_778
10
2.9090823
20
33.5344672
40
2.6663347
50
169.5486254
51
180.002143
0
ARC
8
DEFAULT_255_2_778
10
60.1952102
20
27.4566253
40
59.9985869
50
182.246774
51
197.0800725
0
LINE
8
DEFAULT_255_2_778
10
0.2927476
20
70.8842675
11
24.9926476
21
70.8842675
0
LINE
8
DEFAULT_255_2_778
10
24.9926476
20
70.8842675
11
24.9926476
21
38.5842675
0
LINE
8
DEFAULT_255_2_778
10
24.9926476
20
38.5842675
11
0.2927476
21
38.5842675
0
LINE
8
DEFAULT_255_2_778
10
2.8428476
20
99.8344675
11
5.5428476
21
99.8344675
0
LINE
8
DEFAULT_255_2_778
10
5.5428476
20
99.8344675
11
5.5428476
21
76.1343675
0
LINE
8
DEFAULT_255_2_778
10
0.2427476
20
76.1343675
11
0.2427476
21
84.5645675
0
LINE
8
DEFAULT_255_2_778
10
5.5426476
20
9.8343675
11
5.5426476
21
33.5343675
0
LINE
8
DEFAULT_255_2_778
10
0.2427476
20
33.5343675
11
0.2427476
21
25.1044675
0
LINE
8
DEFAULT_255_2_778
10
2.8428476
20
9.8345675
11
5.5428476
21
9.8345675
0
LINE
8
DEFAULT_255_2_778
10
50.2926476
20
37.3343675
11
46.2926476
21
37.3343675
0
LINE
8
DEFAULT_255_2_778
10
46.2926476
20
37.3343675
11
46.2926476
21
72.8342675
0
LINE
8
DEFAULT_255_2_778
10
46.2926476
20
72.8342675
11
50.2926476
21
72.8342675
0
LINE
8
DEFAULT_255_2_778
10
24.2854607
20
38.5844998
11
26.9926607
21
35.8771998
0
LINE
8
DEFAULT_255_2_778
10
26.9926607
20
35.8771998
11
26.9926607
21
9.8342998
0
LINE
8
DEFAULT_255_2_778
10
26.9926607
20
9.8342998
11
5.6926607
21
9.8342998
0
LINE
8
DEFAULT_255_2_778
10
5.6926607
20
9.8342998
11
5.6926607
21
38.5844998
0
LINE
8
DEFAULT_255_2_778
10
24.2854607
20
71.0844998
11
26.9926607
21
73.7917998
0
LINE
8
DEFAULT_255_2_778
10
26.9926607
20
73.7917998
11
26.9926607
21
99.8346998
0
LINE
8
DEFAULT_255_2_778
10
26.9926607
20
99.8346998
11
5.6926607
21
99.8346998
0
LINE
8
DEFAULT_255_2_778
10
5.6926607
20
99.8346998
11
5.6926607
21
70.9847998
0
LINE
8
DEFAULT_255_2_778
10
5.6926607
20
70.9847998
11
23.8425607
21
70.9847998
0
LINE
8
DEFAULT_255_2_778
10
27.4927607
20
10.3343998
11
26.9926607
21
10.3343998
0
LINE
8
DEFAULT_255_2_778
10
27.4927513
20
99.3343677
11
26.9926513
21
99.3343677
0
LINE
8
DEFAULT_255_2_778
10
5.6926513
20
97.7344677
11
5.5426513
21
97.7344677
0
ARC
8
DEFAULT_255_2_778
10
45.3925434
20
67.8341606
40
1.5000073
50
306.8748116
51
0.0027261
0
ARC
8
DEFAULT_255_2_778
10
45.392544
20
67.8343036
40
1.5000067
50
359.9972629
51
53.1251983
0
LINE
8
DEFAULT_255_2_778
10
0.2927507
20
75.621832
11
0.2927507
21
71.084232
0
LINE
8
DEFAULT_255_2_778
10
0.2927507
20
71.084232
11
24.9926507
21
71.084232
0
LINE
8
DEFAULT_255_2_778
10
24.9926507
20
71.084232
11
27.4927507
21
73.584332
0
LINE
8
DEFAULT_255_2_778
10
27.4927507
20
73.584332
11
27.4927507
21
99.834432
0
LINE
8
DEFAULT_255_2_778
10
27.4927507
20
99.834432
11
30.4928507
21
99.834432
0
LINE
8
DEFAULT_255_2_778
10
30.4928507
20
99.834432
11
30.4928507
21
99.334332
0
LINE
8
DEFAULT_255_2_778
10
30.4928507
20
99.334332
11
32.4928507
21
99.334332
0
LINE
8
DEFAULT_255_2_778
10
32.4928507
20
99.334332
11
32.4928507
21
99.834432
0
LINE
8
DEFAULT_255_2_778
10
32.4928507
20
99.834432
11
34.4927507
21
99.834432
0
LINE
8
DEFAULT_255_2_778
10
34.4927507
20
99.834432
11
34.4927507
21
99.334332
0
LINE
8
DEFAULT_255_2_778
10
34.4927507
20
99.334332
11
36.4927507
21
99.334332
0
LINE
8
DEFAULT_255_2_778
10
36.4927507
20
99.334332
11
36.4927507
21
99.834432
0
LINE
8
DEFAULT_255_2_778
10
36.4927507
20
99.834432
11
38.4927507
21
99.834432
0
LINE
8
DEFAULT_255_2_778
10
38.4927507
20
99.834432
11
38.4927507
21
99.334332
0
LINE
8
DEFAULT_255_2_778
10
38.4927507
20
99.334332
11
40.4927507
21
99.334332
0
LINE
8
DEFAULT_255_2_778
10
40.4927507
20
99.334332
11
40.4927507
21
99.834432
0
LINE
8
DEFAULT_255_2_778
10
40.4927507
20
99.834432
11
42.2927507
21
99.834432
0
LINE
8
DEFAULT_255_2_778
10
42.2927507
20
99.834432
11
42.2927507
21
109.834332
0
LINE
8
DEFAULT_255_2_778
10
42.2927507
20
109.834332
11
50.2926507
21
109.834332
0
LINE
8
DEFAULT_255_2_778
10
50.2926507
20
109.834332
11
50.2926507
21
70.334432
0
LINE
8
DEFAULT_255_2_778
10
50.2926507
20
70.334432
11
47.7785507
21
70.334432
0
LINE
8
DEFAULT_255_2_778
10
47.7785507
20
70.334432
11
47.2925507
21
72.834432
0
LINE
8
DEFAULT_255_2_778
10
5.6926507
20
11.934232
11
5.5426507
21
11.934232
0
LINE
8
DEFAULT_255_2_778
10
0.2927507
20
71.084232
11
0.2927507
21
34.046532
0
LINE
8
DEFAULT_255_2_778
10
2.8428507
20
71.084232
11
2.8428507
21
70.884232
0
LINE
8
DEFAULT_255_2_778
10
23.8427507
20
71.084232
11
23.8427507
21
70.884232
0
LINE
8
DEFAULT_255_2_778
10
48.0926507
20
37.334232
11
48.0926507
21
38.034332
0
LINE
8
DEFAULT_255_2_778
10
48.0926507
20
38.034332
11
46.2926507
21
38.034332
0
ARC
8
DEFAULT_255_2_778
10
2.8898598
20
33.5373704
40
1.3220963
50
148.7906428
51
180.1272848
0
ARC
8
DEFAULT_255_2_778
10
2.8894909
20
33.5376327
40
1.3216451
50
97.0977968
51
148.792082
0
ARC
8
DEFAULT_255_2_778
10
2.8924076
20
33.5109109
40
1.3485224
50
89.9847413
51
97.0804816
0
ARC
8
DEFAULT_255_2_778
10
2.8957185
20
33.5371361
40
1.3223005
50
58.7931131
51
90.1279027
0
ARC
8
DEFAULT_255_2_778
10
2.8961034
20
33.5377133
40
1.3216075
50
7.0978133
51
58.7944173
0
ARC
8
DEFAULT_255_2_778
10
2.8693442
20
33.5347924
40
1.3485224
50
359.9847413
51
7.0804817
0
ARC
8
DEFAULT_255_2_778
10
2.8956063
20
33.5314778
40
1.3222637
50
328.792332
51
0.1280657
0
ARC
8
DEFAULT_255_2_778
10
2.896093
20
33.5311904
40
1.3216985
50
277.5725023
51
328.7920551
0
ARC
8
DEFAULT_255_2_778
10
2.8931696
20
33.5571917
40
1.3478583
50
269.9828725
51
277.5500342
0
ARC
8
DEFAULT_255_2_778
10
2.8898259
20
33.5313896
40
1.3220595
50
238.7898617
51
270.1274479
0
ARC
8
DEFAULT_255_2_778
10
2.8896611
20
33.531111
40
1.3217359
50
187.5724614
51
238.7897161
0
ARC
8
DEFAULT_255_2_778
10
2.9156251
20
33.5340304
40
1.3478583
50
179.9828724
51
187.5500341
0
LINE
8
DEFAULT_255_2_778
10
1.5677667
20
33.5344333
11
1.5677667
21
33.5344333
0
ARC
8
DEFAULT_255_2_778
10
2.8906903
20
33.5375633
40
1.4980165
50
151.5794485
51
180.1201144
0
ARC
8
DEFAULT_255_2_778
10
2.8889083
20
33.5378486
40
1.4963136
50
98.4345278
51
151.556579
0
ARC
8
DEFAULT_255_2_778
10
2.892028
20
33.510377
40
1.523946
50
89.9793545
51
98.3990533
0
ARC
8
DEFAULT_255_2_778
10
2.8956732
20
33.5364841
40
1.497842
50
61.5777617
51
90.1184315
0
ARC
8
DEFAULT_255_2_778
10
2.8958573
20
33.5379384
40
1.4964755
50
8.4395422
51
61.5574586
0
ARC
8
DEFAULT_255_2_778
10
2.8689386
20
33.5349708
40
1.5235387
50
359.9793954
51
8.4013619
0
ARC
8
DEFAULT_255_2_778
10
2.8946384
20
33.5313268
40
1.497842
50
331.5777617
51
0.1184315
0
ARC
8
DEFAULT_255_2_778
10
2.8960927
20
33.5311427
40
1.4964755
50
278.4395422
51
331.5574586
0
ARC
8
DEFAULT_255_2_778
10
2.893125
20
33.5580614
40
1.5235387
50
269.9793954
51
278.4013619
0
ARC
8
DEFAULT_255_2_778
10
2.8894811
20
33.5323616
40
1.497842
50
241.5777617
51
270.1184315
0
ARC
8
DEFAULT_255_2_778
10
2.889297
20
33.5309073
40
1.4964755
50
188.4395422
51
241.5574586
0
ARC
8
DEFAULT_255_2_778
10
2.9162157
20
33.533875
40
1.5235387
50
179.9793954
51
188.4013619
0
LINE
8
DEFAULT_255_2_778
10
1.3926771
20
33.5344229
11
1.3926771
21
33.5344229
0
ARC
8
DEFAULT_255_2_778
10
2.8898598
20
76.1373704
40
1.3220963
50
148.7906428
51
180.1272848
0
ARC
8
DEFAULT_255_2_778
10
2.8894909
20
76.1376327
40
1.3216451
50
97.0977968
51
148.792082
0
ARC
8
DEFAULT_255_2_778
10
2.8924076
20
76.1109109
40
1.3485224
50
89.9847413
51
97.0804816
0
ARC
8
DEFAULT_255_2_778
10
2.8957185
20
76.1371361
40
1.3223005
50
58.7931131
51
90.1279027
0
ARC
8
DEFAULT_255_2_778
10
2.8961034
20
76.1377133
40
1.3216075
50
7.0978133
51
58.7944173
0
ARC
8
DEFAULT_255_2_778
10
2.8693442
20
76.1347924
40
1.3485224
50
359.9847413
51
7.0804817
0
ARC
8
DEFAULT_255_2_778
10
2.8956063
20
76.1314778
40
1.3222637
50
328.792332
51
0.1280657
0
ARC
8
DEFAULT_255_2_778
10
2.896093
20
76.1311904
40
1.3216985
50
277.5725023
51
328.7920551
0
ARC
8
DEFAULT_255_2_778
10
2.8931696
20
76.1571917
40
1.3478583
50
269.9828725
51
277.5500342
0
ARC
8
DEFAULT_255_2_778
10
2.8898259
20
76.1313896
40
1.3220595
50
238.7898617
51
270.1274479
0
ARC
8
DEFAULT_255_2_778
10
2.8896611
20
76.131111
40
1.3217359
50
187.5724614
51
238.7897161
0
ARC
8
DEFAULT_255_2_778
10
2.9156251
20
76.1340304
40
1.3478583
50
179.9828724
51
187.5500341
0
LINE
8
DEFAULT_255_2_778
10
1.5677667
20
76.1344333
11
1.5677667
21
76.1344333
0
ARC
8
DEFAULT_255_2_778
10
2.8906903
20
76.1375633
40
1.4980165
50
151.5794485
51
180.1201144
0
ARC
8
DEFAULT_255_2_778
10
2.8889083
20
76.1378486
40
1.4963136
50
98.4345278
51
151.556579
0
ARC
8
DEFAULT_255_2_778
10
2.892028
20
76.110377
40
1.523946
50
89.9793545
51
98.3990533
0
ARC
8
DEFAULT_255_2_778
10
2.8956732
20
76.1364841
40
1.497842
50
61.5777617
51
90.1184315
0
ARC
8
DEFAULT_255_2_778
10
2.8958573
20
76.1379384
40
1.4964755
50
8.4395422
51
61.5574586
0
ARC
8
DEFAULT_255_2_778
10
2.8689386
20
76.1349708
40
1.5235387
50
359.9793954
51
8.4013619
0
ARC
8
DEFAULT_255_2_778
10
2.8946384
20
76.1313268
40
1.497842
50
331.5777617
51
0.1184315
0
ARC
8
DEFAULT_255_2_778
10
2.8960927
20
76.1311427
40
1.4964755
50
278.4395422
51
331.5574586
0
ARC
8
DEFAULT_255_2_778
10
2.893125
20
76.1580614
40
1.5235387
50
269.9793954
51
278.4013619
0
ARC
8
DEFAULT_255_2_778
10
2.8894811
20
76.1323616
40
1.497842
50
241.5777617
51
270.1184315
0
ARC
8
DEFAULT_255_2_778
10
2.889297
20
76.1309073
40
1.4964755
50
188.4395422
51
241.5574586
0
ARC
8
DEFAULT_255_2_778
10
2.9162157
20
76.133875
40
1.5235387
50
179.9793954
51
188.4013619
0
LINE
8
DEFAULT_255_2_778
10
1.3926771
20
76.1344229
11
1.3926771
21
76.1344229
0
ENDSEC
0
EOF