0
SECTION
2
HEADER
9
$MEASUREMENT
70
1
0
ENDSEC
0
SECTION
2
TABLES
0
TABLE
2
LTYPE
0
LTYPE
72
65
70
64
2
CONTINUOUS
3
______
73
0
40
0
0
ENDTAB
0
TABLE
2
LAYER
0
LAYER
2
DEFAULT_255_2_778
70
0
62
255
6
CONTINUOUS
0
ENDTAB
0
ENDSEC
0
SECTION
2
ENTITIES
0
LINE
8
DEFAULT_255_2_778
10
0.2197761
20
65.9280609
11
2.7197761
21
65.9280609
0
LINE
8
DEFAULT_255_2_778
10
2.7197761
20
65.9280609
11
2.7197761
21
23.5849609
0
LINE
8
DEFAULT_255_2_778
10
2.7197761
20
23.5849609
11
0.2197761
21
23.5849609
0
LINE
8
DEFAULT_255_2_778
10
0.2197466
20
89.7564675
11
130.2198466
21
89.7564675
0
LINE
8
DEFAULT_255_2_778
10
130.2198466
20
89.7564675
11
130.2198466
21
-0.2436325
0
LINE
8
DEFAULT_255_2_778
10
130.2198466
20
-0.2436325
11
0.2197466
21
-0.2436325
0
LINE
8
DEFAULT_255_2_778
10
0.2197466
20
-0.2436325
11
0.2197466
21
89.7564675
0
LINE
8
DEFAULT_255_2_778
10
0.2197073
20
20.4564941
11
1.9149073
21
22.0159941
0
LINE
8
DEFAULT_255_2_778
10
1.9149073
20
22.0159941
11
0.2197073
21
22.0159941
0
LINE
8
DEFAULT_255_2_778
10
0.2197073
20
67.4969941
11
1.9149073
21
67.4969941
0
LINE
8
DEFAULT_255_2_778
10
1.9149073
20
67.4969941
11
0.2197073
21
69.0564941
0
ARC
8
DEFAULT_255_2_778
10
0.3032848
20
65.6792388
40
2.4293342
50
5.879559
51
48.4392279
0
ARC
8
DEFAULT_255_2_778
10
0.3152559
20
23.8276078
40
2.4168018
50
311.4450102
51
354.2362048
0
ARC
8
DEFAULT_255_2_778
10
130.1253994
20
23.8280069
40
2.4178137
50
185.7708812
51
228.5421235
0
ARC
8
DEFAULT_255_2_778
10
130.1351816
20
65.6799633
40
2.4280543
50
131.5524781
51
174.1345178
0
LINE
8
DEFAULT_255_2_778
10
130.2198393
20
23.5848941
11
127.7198393
21
23.5848941
0
LINE
8
DEFAULT_255_2_778
10
128.5246393
20
22.0159941
11
130.2198393
21
20.4564941
0
LINE
8
DEFAULT_255_2_778
10
130.2198393
20
69.0564941
11
128.5246393
21
67.4969941
0
LINE
8
DEFAULT_255_2_778
10
127.7198393
20
65.9280941
11
130.2198393
21
65.9280941
0
ARC
8
DEFAULT_255_2_778
10
40.4365197
20
71.2913426
40
2.533243
50
359.9531704
51
23.4037455
0
ARC
8
DEFAULT_255_2_778
10
40.4284885
20
71.2877292
40
2.5420485
50
23.406587
51
71.5251233
0
ARC
8
DEFAULT_255_2_778
10
40.4283251
20
71.2784122
40
2.5509388
50
71.5879564
51
80.0097882
0
ARC
8
DEFAULT_255_2_778
10
37.6093746
20
71.7838248
40
2.5425875
50
79.998365
51
84.865424
0
ARC
8
DEFAULT_255_2_778
10
37.6097436
20
71.7876699
40
2.538725
50
84.8659525
51
89.9998143
0
ARC
8
DEFAULT_255_2_778
10
37.6098271
20
71.7863581
40
2.5400368
50
90.0016959
51
129.9988509
0
ARC
8
DEFAULT_255_2_778
10
37.6098978
20
71.7864186
40
2.5400362
50
130.0009503
51
179.9987932
0
ARC
8
DEFAULT_255_2_778
10
37.6098978
20
60.5266256
40
2.540036
50
180.0012068
51
229.9990497
0
ARC
8
DEFAULT_255_2_778
10
37.6100179
20
60.5268274
40
2.540268
50
229.9999017
51
269.9964611
0
ARC
8
DEFAULT_255_2_778
10
37.6098575
20
60.5246314
40
2.5380719
50
270.0000779
51
275.1327906
0
ARC
8
DEFAULT_255_2_778
10
37.6094906
20
60.5284602
40
2.5419182
50
275.1333073
51
280.001641
0
ARC
8
DEFAULT_255_2_778
10
40.4331099
20
61.0174327
40
2.5331708
50
279.9511158
51
303.4024821
0
ARC
8
DEFAULT_255_2_778
10
40.428245
20
61.0246007
40
2.541833
50
303.4050791
51
351.52674
0
ARC
8
DEFAULT_255_2_778
10
40.4191265
20
61.0231203
40
2.5506354
50
351.5898135
51
0.0123956
0
ARC
8
DEFAULT_255_2_778
10
39.0173439
20
53.664495
40
1.4201856
50
150.3610478
51
180.1259909
0
ARC
8
DEFAULT_255_2_778
10
39.0158651
20
53.6648841
40
1.4187079
50
97.8325533
51
150.3451702
0
ARC
8
DEFAULT_255_2_778
10
39.0190994
20
53.6369353
40
1.4468367
50
89.9816886
51
97.8086064
0
ARC
8
DEFAULT_255_2_778
10
39.0226319
20
53.6637604
40
1.420015
50
60.2742866
51
90.1238748
0
ARC
8
DEFAULT_255_2_778
10
39.0229753
20
53.6649405
40
1.4188201
50
7.8875561
51
60.2626995
0
ARC
8
DEFAULT_255_2_778
10
38.9955573
20
53.6618388
40
1.4464045
50
359.9815138
51
7.8602194
0
ARC
8
DEFAULT_255_2_778
10
39.0220476
20
53.6583135
40
1.4199174
50
330.2715001
51
0.1234186
0
ARC
8
DEFAULT_255_2_778
10
39.0230401
20
53.6580597
40
1.4189297
50
277.8897422
51
330.2605242
0
ARC
8
DEFAULT_255_2_778
10
39.0200264
20
53.6850956
40
1.4461236
50
269.9815925
51
277.8609816
0
ARC
8
DEFAULT_255_2_778
10
39.0165032
20
53.6588862
40
1.4199174
50
240.2715001
51
270.1234186
0
ARC
8
DEFAULT_255_2_778
10
39.0162494
20
53.6578937
40
1.4189297
50
187.8897422
51
240.2605242
0
ARC
8
DEFAULT_255_2_778
10
39.0432853
20
53.6609075
40
1.4461236
50
179.9815925
51
187.8609816
0
ARC
8
DEFAULT_255_2_778
10
39.016565
20
53.6640645
40
1.0749066
50
143.254095
51
180.1435147
0
ARC
8
DEFAULT_255_2_778
10
39.0164752
20
53.6648843
40
1.0743443
50
94.338259
51
143.2862662
0
ARC
8
DEFAULT_255_2_778
10
39.0194345
20
53.6367139
40
1.1026581
50
89.9933874
51
94.3808604
0
ARC
8
DEFAULT_255_2_778
10
39.0222535
20
53.6647203
40
1.0746552
50
53.2464355
51
90.143508
0
ARC
8
DEFAULT_255_2_778
10
39.0227979
20
53.6644841
40
1.0745186
50
4.3362259
51
53.2772323
0
ARC
8
DEFAULT_255_2_778
10
38.9943641
20
53.6614911
40
1.1030977
50
359.993817
51
4.3795738
0
ARC
8
DEFAULT_255_2_778
10
39.0227354
20
53.6586999
40
1.0747297
50
323.2509705
51
0.142461
0
ARC
8
DEFAULT_255_2_778
10
39.0226433
20
53.6580004
40
1.0743851
50
274.3383601
51
323.2837958
0
ARC
8
DEFAULT_255_2_778
10
39.0196864
20
53.686267
40
1.1027948
50
269.9935241
51
274.3804529
0
ARC
8
DEFAULT_255_2_778
10
39.016874
20
53.6581622
40
1.0746935
50
233.2477057
51
270.143295
0
ARC
8
DEFAULT_255_2_778
10
39.0162343
20
53.6583114
40
1.0744304
50
184.3386035
51
233.2797999
0
ARC
8
DEFAULT_255_2_778
10
39.0444055
20
53.6612532
40
1.1027438
50
179.9938252
51
184.3802838
0
ARC
8
DEFAULT_255_2_778
10
39.0173439
20
78.654695
40
1.4201856
50
150.3610478
51
180.1259909
0
ARC
8
DEFAULT_255_2_778
10
39.0158651
20
78.6550841
40
1.4187079
50
97.8325533
51
150.3451702
0
ARC
8
DEFAULT_255_2_778
10
39.0190994
20
78.6271353
40
1.4468367
50
89.9816886
51
97.8086064
0
ARC
8
DEFAULT_255_2_778
10
39.0226204
20
78.6540579
40
1.4199174
50
60.2715001
51
90.1234186
0
ARC
8
DEFAULT_255_2_778
10
39.0228741
20
78.6550504
40
1.4189297
50
7.8897422
51
60.2605242
0
ARC
8
DEFAULT_255_2_778
10
38.9958382
20
78.6520367
40
1.4461236
50
359.9815925
51
7.8609816
0
ARC
8
DEFAULT_255_2_778
10
39.0220476
20
78.6485135
40
1.4199174
50
330.2715001
51
0.1234186
0
ARC
8
DEFAULT_255_2_778
10
39.0230401
20
78.6482597
40
1.4189297
50
277.8897422
51
330.2605242
0
ARC
8
DEFAULT_255_2_778
10
39.0200264
20
78.6752956
40
1.4461236
50
269.9815925
51
277.8609816
0
ARC
8
DEFAULT_255_2_778
10
39.0165032
20
78.6490862
40
1.4199174
50
240.2715001
51
270.1234186
0
ARC
8
DEFAULT_255_2_778
10
39.0162494
20
78.6480937
40
1.4189297
50
187.8897422
51
240.2605242
0
ARC
8
DEFAULT_255_2_778
10
39.0432853
20
78.6511075
40
1.4461236
50
179.9815925
51
187.8609816
0
ARC
8
DEFAULT_255_2_778
10
39.0164139
20
78.6542786
40
1.0747555
50
143.2514185
51
180.1442839
0
ARC
8
DEFAULT_255_2_778
10
39.0164278
20
78.6549763
40
1.0743493
50
94.3357001
51
143.2816777
0
ARC
8
DEFAULT_255_2_778
10
39.0194424
20
78.626404
40
1.1030681
50
89.9937969
51
94.3796372
0
ARC
8
DEFAULT_255_2_778
10
39.0222683
20
78.65472
40
1.0747555
50
53.2514185
51
90.1442839
0
ARC
8
DEFAULT_255_2_778
10
39.022966
20
78.6547061
40
1.0743493
50
4.3357001
51
53.2816777
0
ARC
8
DEFAULT_255_2_778
10
38.9943937
20
78.6516915
40
1.1030681
50
359.9937969
51
4.3796372
0
ARC
8
DEFAULT_255_2_778
10
39.0227097
20
78.6488656
40
1.0747555
50
323.2514185
51
0.1442839
0
ARC
8
DEFAULT_255_2_778
10
39.0226958
20
78.6481679
40
1.0743493
50
274.3357001
51
323.2816777
0
ARC
8
DEFAULT_255_2_778
10
39.0196812
20
78.6767402
40
1.1030681
50
269.9937969
51
274.3796372
0
ARC
8
DEFAULT_255_2_778
10
39.0168553
20
78.6484242
40
1.0747555
50
233.2514185
51
270.1442839
0
ARC
8
DEFAULT_255_2_778
10
39.0161576
20
78.6484381
40
1.0743493
50
184.3357001
51
233.2816777
0
ARC
8
DEFAULT_255_2_778
10
39.0447299
20
78.6514527
40
1.1030681
50
179.9937969
51
184.3796372
0
LINE
8
DEFAULT_255_2_778
10
130.2198618
20
67.4969721
11
128.5246618
21
67.4969721
0
LINE
8
DEFAULT_255_2_778
10
128.5246618
20
22.0159721
11
130.2198618
21
22.0159721
0
LINE
8
DEFAULT_255_2_778
10
127.7197618
20
65.9280721
11
127.7197618
21
23.5848721
0
LINE
8
DEFAULT_255_2_778
10
45.3197618
20
81.5513721
11
45.3197618
21
50.7612721
0
LINE
8
DEFAULT_255_2_778
10
45.3197618
20
50.7612721
11
32.7198618
21
50.7612721
0
LINE
8
DEFAULT_255_2_778
10
32.7198618
20
50.7612721
11
32.7198618
21
81.5513721
0
LINE
8
DEFAULT_255_2_778
10
32.7198618
20
81.5513721
11
45.3197618
21
81.5513721
0
LINE
8
DEFAULT_255_2_778
10
45.8198618
20
50.2614721
11
45.8198618
21
82.0514721
0
LINE
8
DEFAULT_255_2_778
10
45.8198618
20
82.0514721
11
32.2197618
21
82.0514721
0
LINE
8
DEFAULT_255_2_778
10
32.2197618
20
82.0514721
11
32.2197618
21
50.2614721
0
LINE
8
DEFAULT_255_2_778
10
32.2197618
20
50.2614721
11
45.8198618
21
50.2614721
0
LINE
8
DEFAULT_255_2_778
10
42.9697618
20
61.0236721
11
42.9697618
21
71.2892721
0
LINE
8
DEFAULT_255_2_778
10
40.8708618
20
73.7906721
11
38.0509618
21
74.2877721
0
LINE
8
DEFAULT_255_2_778
10
35.0698618
20
71.7864721
11
35.0698618
21
60.5265721
0
LINE
8
DEFAULT_255_2_778
10
38.0509618
20
58.0251721
11
40.8708618
21
58.5223721
0
LINE
8
DEFAULT_255_2_778
10
42.9697618
20
61.0236721
11
42.9697618
21
61.0236721
0
LINE
8
DEFAULT_255_2_778
10
37.5971618
20
53.6613721
11
37.5971618
21
53.6613721
0
LINE
8
DEFAULT_255_2_778
10
37.9416618
20
53.6613721
11
37.9416618
21
53.6613721
0
LINE
8
DEFAULT_255_2_778
10
39.0195618
20
50.9017721
11
41.4095618
21
52.2815721
0
LINE
8
DEFAULT_255_2_778
10
41.4095618
20
52.2815721
11
41.4095618
21
55.0411721
0
LINE
8
DEFAULT_255_2_778
10
41.4095618
20
55.0411721
11
39.0195618
21
56.4209721
0
LINE
8
DEFAULT_255_2_778
10
39.0195618
20
56.4209721
11
36.6295618
21
55.0411721
0
LINE
8
DEFAULT_255_2_778
10
36.6295618
20
55.0411721
11
36.6295618
21
52.2815721
0
LINE
8
DEFAULT_255_2_778
10
36.6295618
20
52.2815721
11
39.0195618
21
50.9017721
0
LINE
8
DEFAULT_255_2_778
10
37.5971618
20
78.6515721
11
37.5971618
21
78.6515721
0
LINE
8
DEFAULT_255_2_778
10
37.9416618
20
78.6515721
11
37.9416618
21
78.6515721
0
LINE
8
DEFAULT_255_2_778
10
41.4095618
20
77.2717721
11
41.4095618
21
80.0313721
0
LINE
8
DEFAULT_255_2_778
10
41.4095618
20
80.0313721
11
39.0195618
21
81.4111721
0
LINE
8
DEFAULT_255_2_778
10
39.0195618
20
81.4111721
11
36.6295618
21
80.0313721
0
LINE
8
DEFAULT_255_2_778
10
36.6295618
20
80.0313721
11
36.6295618
21
77.2717721
0
LINE
8
DEFAULT_255_2_778
10
36.6295618
20
77.2717721
11
39.0195618
21
75.8919721
0
LINE
8
DEFAULT_255_2_778
10
39.0195618
20
75.8919721
11
41.4095618
21
77.2717721
0
ARC
8
DEFAULT_255_2_778
10
56.2093219
20
71.7845558
40
2.5418299
50
79.9970404
51
84.9048787
0
ARC
8
DEFAULT_255_2_778
10
56.2096571
20
71.7880145
40
2.5383551
50
84.9054824
51
89.9998343
0
ARC
8
DEFAULT_255_2_778
10
56.2097047
20
71.7865962
40
2.5397734
50
90.0009089
51
130.0010133
0
ARC
8
DEFAULT_255_2_778
10
56.2095423
20
71.7865469
40
2.539707
50
129.9974909
51
180.0022581
0
ARC
8
DEFAULT_255_2_778
10
56.2095423
20
60.5264467
40
2.539707
50
179.9977419
51
230.0025091
0
ARC
8
DEFAULT_255_2_778
10
56.2098955
20
60.5265388
40
2.5400046
50
229.9977393
51
269.997248
0
ARC
8
DEFAULT_255_2_778
10
56.2097712
20
60.5242431
40
2.5377089
50
270.0000537
51
275.0932328
0
ARC
8
DEFAULT_255_2_778
10
56.2094407
20
60.5276889
40
2.5411704
50
275.0937574
51
280.0028624
0
ARC
8
DEFAULT_255_2_778
10
59.0329936
20
61.0176171
40
2.5333756
50
279.9500692
51
303.4008885
0
ARC
8
DEFAULT_255_2_778
10
59.0283034
20
61.0245431
40
2.5417395
50
303.4032072
51
351.6400638
0
ARC
8
DEFAULT_255_2_778
10
59.0188858
20
61.0231048
40
2.5508495
50
351.7027817
51
0.0121744
0
ARC
8
DEFAULT_255_2_778
10
59.0365329
20
71.2913195
40
2.5332033
50
359.9531201
51
23.4040785
0
ARC
8
DEFAULT_255_2_778
10
59.028468
20
71.287673
40
2.5420531
50
23.4073019
51
71.5270165
0
ARC
8
DEFAULT_255_2_778
10
59.0281812
20
71.2780746
40
2.5512494
50
71.5892105
51
80.0106212
0
ARC
8
DEFAULT_255_2_778
10
57.6174938
20
53.664466
40
1.4203619
50
150.5380646
51
180.1258258
0
ARC
8
DEFAULT_255_2_778
10
57.6157579
20
53.6649441
40
1.4186155
50
97.8534708
51
150.5203946
0
ARC
8
DEFAULT_255_2_778
10
57.6190695
20
53.6366609
40
1.4470859
50
89.9815559
51
97.8303419
0
ARC
8
DEFAULT_255_2_778
10
57.6226054
20
53.6637352
40
1.420015
50
60.2742866
51
90.1238748
0
ARC
8
DEFAULT_255_2_778
10
57.6229488
20
53.6649153
40
1.4188201
50
7.8875561
51
60.2626995
0
ARC
8
DEFAULT_255_2_778
10
57.5955309
20
53.6618135
40
1.4464045
50
359.9815138
51
7.8602194
0
ARC
8
DEFAULT_255_2_778
10
57.6220212
20
53.6582882
40
1.4199174
50
330.2715001
51
0.1234186
0
ARC
8
DEFAULT_255_2_778
10
57.6230137
20
53.6580345
40
1.4189297
50
277.8897422
51
330.2605242
0
ARC
8
DEFAULT_255_2_778
10
57.6199999
20
53.6850703
40
1.4461236
50
269.9815925
51
277.8609816
0
ARC
8
DEFAULT_255_2_778
10
57.61646
20
53.6589737
40
1.4200303
50
240.3593971
51
270.1240842
0
ARC
8
DEFAULT_255_2_778
10
57.6161593
20
53.6577968
40
1.4188587
50
187.8376927
51
240.3464433
0
ARC
8
DEFAULT_255_2_778
10
57.6435854
20
53.6608886
40
1.4464503
50
179.9818514
51
187.8108746
0
ARC
8
DEFAULT_255_2_778
10
57.6163382
20
53.6640244
40
1.0748062
50
143.2491123
51
180.1427388
0
ARC
8
DEFAULT_255_2_778
10
57.6164707
20
53.664691
40
1.0745136
50
94.3387845
51
143.2818207
0
ARC
8
DEFAULT_255_2_778
10
57.6194084
20
53.6366591
40
1.1026877
50
89.9934075
51
94.3807969
0
ARC
8
DEFAULT_255_2_778
10
57.6221927
20
53.6647207
40
1.0746294
50
53.2459875
51
90.1416848
0
ARC
8
DEFAULT_255_2_778
10
57.6227389
20
53.6644064
40
1.0745544
50
4.3388857
51
53.2793503
0
ARC
8
DEFAULT_255_2_778
10
57.5946108
20
53.6614711
40
1.1028243
50
359.9935441
51
4.3803895
0
ARC
8
DEFAULT_255_2_778
10
57.6227708
20
53.6586933
40
1.0746677
50
323.2472577
51
0.1414719
0
ARC
8
DEFAULT_255_2_778
10
57.6225413
20
53.6580536
40
1.074469
50
274.2869232
51
323.2819141
0
ARC
8
DEFAULT_255_2_778
10
57.6196498
20
53.686128
40
1.1026812
50
269.9940489
51
274.3277024
0
ARC
8
DEFAULT_255_2_778
10
57.6168616
20
53.658288
40
1.0748446
50
233.2503824
51
270.1425259
0
ARC
8
DEFAULT_255_2_778
10
57.6161008
20
53.6583352
40
1.0744272
50
184.2867886
51
233.2843944
0
ARC
8
DEFAULT_255_2_778
10
57.6442165
20
53.6612323
40
1.1026812
50
179.9940489
51
184.3277025
0
ARC
8
DEFAULT_255_2_778
10
57.6174938
20
78.654666
40
1.4203619
50
150.5380646
51
180.1258258
0
ARC
8
DEFAULT_255_2_778
10
57.6157579
20
78.6551441
40
1.4186155
50
97.8534708
51
150.5203946
0
ARC
8
DEFAULT_255_2_778
10
57.6190695
20
78.6268609
40
1.4470859
50
89.9815559
51
97.8303419
0
ARC
8
DEFAULT_255_2_778
10
57.6225939
20
78.6540327
40
1.4199174
50
60.2715001
51
90.1234186
0
ARC
8
DEFAULT_255_2_778
10
57.6228476
20
78.6550252
40
1.4189297
50
7.8897422
51
60.2605242
0
ARC
8
DEFAULT_255_2_778
10
57.5958118
20
78.6520114
40
1.4461236
50
359.9815925
51
7.8609816
0
ARC
8
DEFAULT_255_2_778
10
57.6220212
20
78.6484882
40
1.4199174
50
330.2715001
51
0.1234186
0
ARC
8
DEFAULT_255_2_778
10
57.6230137
20
78.6482345
40
1.4189297
50
277.8897422
51
330.2605242
0
ARC
8
DEFAULT_255_2_778
10
57.6199999
20
78.6752703
40
1.4461236
50
269.9815925
51
277.8609816
0
ARC
8
DEFAULT_255_2_778
10
57.61646
20
78.6491737
40
1.4200303
50
240.3593971
51
270.1240842
0
ARC
8
DEFAULT_255_2_778
10
57.6161593
20
78.6479968
40
1.4188587
50
187.8376927
51
240.3464433
0
ARC
8
DEFAULT_255_2_778
10
57.6435854
20
78.6510886
40
1.4464503
50
179.9818514
51
187.8108746
0
ARC
8
DEFAULT_255_2_778
10
57.6161871
20
78.6542385
40
1.0746552
50
143.2464355
51
180.143508
0
ARC
8
DEFAULT_255_2_778
10
57.6164233
20
78.654783
40
1.0745186
50
94.3362259
51
143.2772323
0
ARC
8
DEFAULT_255_2_778
10
57.6194163
20
78.6263492
40
1.1030977
50
89.993817
51
94.3795738
0
ARC
8
DEFAULT_255_2_778
10
57.6222075
20
78.6547204
40
1.0747297
50
53.2509705
51
90.142461
0
ARC
8
DEFAULT_255_2_778
10
57.622907
20
78.6546284
40
1.0743851
50
4.3383601
51
53.2837958
0
ARC
8
DEFAULT_255_2_778
10
57.5946404
20
78.6516715
40
1.1027948
50
359.9935241
51
4.3804529
0
ARC
8
DEFAULT_255_2_778
10
57.6227451
20
78.648859
40
1.0746935
50
323.2477057
51
0.143295
0
ARC
8
DEFAULT_255_2_778
10
57.6225959
20
78.6482193
40
1.0744304
50
274.3386035
51
323.2797999
0
ARC
8
DEFAULT_255_2_778
10
57.6196541
20
78.6763906
40
1.1027438
50
269.9938252
51
274.3802838
0
ARC
8
DEFAULT_255_2_778
10
57.6168429
20
78.64855
40
1.0749066
50
233.254095
51
270.1435147
0
ARC
8
DEFAULT_255_2_778
10
57.616023
20
78.6484603
40
1.0743443
50
184.338259
51
233.2862662
0
ARC
8
DEFAULT_255_2_778
10
57.6441934
20
78.6514196
40
1.1026581
50
179.9933874
51
184.3808604
0
ARC
8
DEFAULT_255_2_778
10
74.8093249
20
71.7845725
40
2.5418129
50
79.9970414
51
84.9073151
0
ARC
8
DEFAULT_255_2_778
10
74.8096592
20
71.7880767
40
2.538293
50
84.9078105
51
89.9998988
0
ARC
8
DEFAULT_255_2_778
10
74.8097565
20
71.786179
40
2.5401907
50
90.0020935
51
129.9975861
0
ARC
8
DEFAULT_255_2_778
10
74.8097707
20
71.7863936
40
2.5400355
50
130.0009438
51
179.9988004
0
ARC
8
DEFAULT_255_2_778
10
74.8097713
20
60.5266003
40
2.540036
50
180.0012068
51
229.9990497
0
ARC
8
DEFAULT_255_2_778
10
74.8099472
20
60.5269552
40
2.540421
50
230.001157
51
269.9960667
0
ARC
8
DEFAULT_255_2_778
10
74.8097643
20
60.5243836
40
2.5378494
50
270.0001922
51
275.0907001
0
ARC
8
DEFAULT_255_2_778
10
74.8094436
20
60.5276729
40
2.5411541
50
275.0913216
51
280.0028615
0
ARC
8
DEFAULT_255_2_778
10
77.6329834
20
61.0174075
40
2.5331708
50
279.9511158
51
303.4024821
0
ARC
8
DEFAULT_255_2_778
10
77.6281186
20
61.0245754
40
2.541833
50
303.4050791
51
351.52674
0
ARC
8
DEFAULT_255_2_778
10
77.619
20
61.023095
40
2.5506354
50
351.5898135
51
0.0123956
0
ARC
8
DEFAULT_255_2_778
10
77.6363932
20
71.2913173
40
2.533243
50
359.9531704
51
23.4037455
0
ARC
8
DEFAULT_255_2_778
10
77.628362
20
71.2877039
40
2.5420485
50
23.406587
51
71.5251233
0
ARC
8
DEFAULT_255_2_778
10
77.6281986
20
71.278387
40
2.5509388
50
71.5879564
51
80.0097882
0
ARC
8
DEFAULT_255_2_778
10
76.2172175
20
53.6644697
40
1.4201856
50
150.3610478
51
180.1259909
0
ARC
8
DEFAULT_255_2_778
10
76.2157386
20
53.6648588
40
1.4187079
50
97.8325533
51
150.3451702
0
ARC
8
DEFAULT_255_2_778
10
76.2189729
20
53.6369101
40
1.4468367
50
89.9816886
51
97.8086064
0
ARC
8
DEFAULT_255_2_778
10
76.2225054
20
53.6637352
40
1.420015
50
60.2742866
51
90.1238748
0
ARC
8
DEFAULT_255_2_778
10
76.2228488
20
53.6649153
40
1.4188201
50
7.8875561
51
60.2626995
0
ARC
8
DEFAULT_255_2_778
10
76.1954309
20
53.6618135
40
1.4464045
50
359.9815138
51
7.8602194
0
ARC
8
DEFAULT_255_2_778
10
76.2219212
20
53.6582882
40
1.4199174
50
330.2715001
51
0.1234186
0
ARC
8
DEFAULT_255_2_778
10
76.2229137
20
53.6580345
40
1.4189297
50
277.8897422
51
330.2605242
0
ARC
8
DEFAULT_255_2_778
10
76.2198999
20
53.6850703
40
1.4461236
50
269.9815925
51
277.8609816
0
ARC
8
DEFAULT_255_2_778
10
76.2163767
20
53.658861
40
1.4199174
50
240.2715001
51
270.1234186
0
ARC
8
DEFAULT_255_2_778
10
76.216123
20
53.6578685
40
1.4189297
50
187.8897422
51
240.2605242
0
ARC
8
DEFAULT_255_2_778
10
76.2431588
20
53.6608822
40
1.4461236
50
179.9815925
51
187.8609816
0
ARC
8
DEFAULT_255_2_778
10
76.2164385
20
53.6640392
40
1.0749066
50
143.254095
51
180.1435147
0
ARC
8
DEFAULT_255_2_778
10
76.2163488
20
53.6648591
40
1.0743443
50
94.338259
51
143.2862662
0
ARC
8
DEFAULT_255_2_778
10
76.219308
20
53.6366887
40
1.1026581
50
89.9933874
51
94.3808604
0
ARC
8
DEFAULT_255_2_778
10
76.222127
20
53.664695
40
1.0746552
50
53.2464355
51
90.143508
0
ARC
8
DEFAULT_255_2_778
10
76.2226715
20
53.6644588
40
1.0745186
50
4.3362259
51
53.2772323
0
ARC
8
DEFAULT_255_2_778
10
76.1942377
20
53.6614659
40
1.1030977
50
359.993817
51
4.3795738
0
ARC
8
DEFAULT_255_2_778
10
76.2226089
20
53.6586746
40
1.0747297
50
323.2509705
51
0.142461
0
ARC
8
DEFAULT_255_2_778
10
76.2225169
20
53.6579751
40
1.0743851
50
274.3383601
51
323.2837958
0
ARC
8
DEFAULT_255_2_778
10
76.2195599
20
53.6862418
40
1.1027948
50
269.9935241
51
274.3804529
0
ARC
8
DEFAULT_255_2_778
10
76.2167475
20
53.658137
40
1.0746935
50
233.2477057
51
270.143295
0
ARC
8
DEFAULT_255_2_778
10
76.2161078
20
53.6582862
40
1.0744304
50
184.3386035
51
233.2797999
0
ARC
8
DEFAULT_255_2_778
10
76.244279
20
53.661228
40
1.1027438
50
179.9938252
51
184.3802838
0
ARC
8
DEFAULT_255_2_778
10
76.2172175
20
78.6546697
40
1.4201856
50
150.3610478
51
180.1259909
0
ARC
8
DEFAULT_255_2_778
10
76.2157386
20
78.6550588
40
1.4187079
50
97.8325533
51
150.3451702
0
ARC
8
DEFAULT_255_2_778
10
76.2189729
20
78.6271101
40
1.4468367
50
89.9816886
51
97.8086064
0
ARC
8
DEFAULT_255_2_778
10
76.2224939
20
78.6540327
40
1.4199174
50
60.2715001
51
90.1234186
0
ARC
8
DEFAULT_255_2_778
10
76.2227476
20
78.6550252
40
1.4189297
50
7.8897422
51
60.2605242
0
ARC
8
DEFAULT_255_2_778
10
76.1957118
20
78.6520114
40
1.4461236
50
359.9815925
51
7.8609816
0
ARC
8
DEFAULT_255_2_778
10
76.2219212
20
78.6484882
40
1.4199174
50
330.2715001
51
0.1234186
0
ARC
8
DEFAULT_255_2_778
10
76.2229137
20
78.6482345
40
1.4189297
50
277.8897422
51
330.2605242
0
ARC
8
DEFAULT_255_2_778
10
76.2198999
20
78.6752703
40
1.4461236
50
269.9815925
51
277.8609816
0
ARC
8
DEFAULT_255_2_778
10
76.2163767
20
78.649061
40
1.4199174
50
240.2715001
51
270.1234186
0
ARC
8
DEFAULT_255_2_778
10
76.216123
20
78.6480685
40
1.4189297
50
187.8897422
51
240.2605242
0
ARC
8
DEFAULT_255_2_778
10
76.2431588
20
78.6510822
40
1.4461236
50
179.9815925
51
187.8609816
0
ARC
8
DEFAULT_255_2_778
10
76.2162874
20
78.6542533
40
1.0747555
50
143.2514185
51
180.1442839
0
ARC
8
DEFAULT_255_2_778
10
76.2163013
20
78.654951
40
1.0743493
50
94.3357001
51
143.2816777
0
ARC
8
DEFAULT_255_2_778
10
76.2193159
20
78.6263787
40
1.1030681
50
89.9937969
51
94.3796372
0
ARC
8
DEFAULT_255_2_778
10
76.2221418
20
78.6546947
40
1.0747555
50
53.2514185
51
90.1442839
0
ARC
8
DEFAULT_255_2_778
10
76.2228395
20
78.6546808
40
1.0743493
50
4.3357001
51
53.2816777
0
ARC
8
DEFAULT_255_2_778
10
76.1942672
20
78.6516662
40
1.1030681
50
359.9937969
51
4.3796372
0
ARC
8
DEFAULT_255_2_778
10
76.2225832
20
78.6488403
40
1.0747555
50
323.2514185
51
0.1442839
0
ARC
8
DEFAULT_255_2_778
10
76.2225693
20
78.6481426
40
1.0743493
50
274.3357001
51
323.2816777
0
ARC
8
DEFAULT_255_2_778
10
76.2195547
20
78.6767149
40
1.1030681
50
269.9937969
51
274.3796372
0
ARC
8
DEFAULT_255_2_778
10
76.2167288
20
78.6483989
40
1.0747555
50
233.2514185
51
270.1442839
0
ARC
8
DEFAULT_255_2_778
10
76.2160311
20
78.6484128
40
1.0743493
50
184.3357001
51
233.2816777
0
ARC
8
DEFAULT_255_2_778
10
76.2446034
20
78.6514274
40
1.1030681
50
179.9937969
51
184.3796372
0
ARC
8
DEFAULT_255_2_778
10
93.4095249
20
71.7845725
40
2.5418129
50
79.9970414
51
84.9073151
0
ARC
8
DEFAULT_255_2_778
10
93.4098592
20
71.7880767
40
2.538293
50
84.9078105
51
89.9998988
0
ARC
8
DEFAULT_255_2_778
10
93.4099565
20
71.786179
40
2.5401907
50
90.0020935
51
129.9975861
0
ARC
8
DEFAULT_255_2_778
10
93.4099715
20
71.7863933
40
2.5400363
50
130.0009529
51
179.9987923
0
ARC
8
DEFAULT_255_2_778
10
93.4099705
20
60.5265999
40
2.5400352
50
180.0011965
51
229.9990573
0
ARC
8
DEFAULT_255_2_778
10
93.4101472
20
60.5269552
40
2.540421
50
230.001157
51
269.9960667
0
ARC
8
DEFAULT_255_2_778
10
93.4099643
20
60.5243836
40
2.5378494
50
270.0001922
51
275.0907001
0
ARC
8
DEFAULT_255_2_778
10
93.4096436
20
60.5276729
40
2.5411541
50
275.0913216
51
280.0028615
0
ARC
8
DEFAULT_255_2_778
10
96.2331834
20
61.0174075
40
2.5331708
50
279.9511158
51
303.4024821
0
ARC
8
DEFAULT_255_2_778
10
96.2283186
20
61.0245754
40
2.541833
50
303.4050791
51
351.52674
0
ARC
8
DEFAULT_255_2_778
10
96.2192
20
61.023095
40
2.5506354
50
351.5898135
51
0.0123956
0
ARC
8
DEFAULT_255_2_778
10
96.2365932
20
71.2913173
40
2.533243
50
359.9531704
51
23.4037455
0
ARC
8
DEFAULT_255_2_778
10
96.228562
20
71.2877039
40
2.5420485
50
23.406587
51
71.5251233
0
ARC
8
DEFAULT_255_2_778
10
96.2283986
20
71.278387
40
2.5509388
50
71.5879564
51
80.0097882
0
ARC
8
DEFAULT_255_2_778
10
94.8174175
20
53.6644697
40
1.4201856
50
150.3610478
51
180.1259909
0
ARC
8
DEFAULT_255_2_778
10
94.8159386
20
53.6648588
40
1.4187079
50
97.8325533
51
150.3451702
0
ARC
8
DEFAULT_255_2_778
10
94.8191729
20
53.6369101
40
1.4468367
50
89.9816886
51
97.8086064
0
ARC
8
DEFAULT_255_2_778
10
94.8227054
20
53.6637352
40
1.420015
50
60.2742866
51
90.1238748
0
ARC
8
DEFAULT_255_2_778
10
94.8230488
20
53.6649153
40
1.4188201
50
7.8875561
51
60.2626995
0
ARC
8
DEFAULT_255_2_778
10
94.7956309
20
53.6618135
40
1.4464045
50
359.9815138
51
7.8602194
0
ARC
8
DEFAULT_255_2_778
10
94.8221212
20
53.6582882
40
1.4199174
50
330.2715001
51
0.1234186
0
ARC
8
DEFAULT_255_2_778
10
94.8231137
20
53.6580345
40
1.4189297
50
277.8897422
51
330.2605242
0
ARC
8
DEFAULT_255_2_778
10
94.8200999
20
53.6850703
40
1.4461236
50
269.9815925
51
277.8609816
0
ARC
8
DEFAULT_255_2_778
10
94.8165767
20
53.658861
40
1.4199174
50
240.2715001
51
270.1234186
0
ARC
8
DEFAULT_255_2_778
10
94.816323
20
53.6578685
40
1.4189297
50
187.8897422
51
240.2605242
0
ARC
8
DEFAULT_255_2_778
10
94.8433588
20
53.6608822
40
1.4461236
50
179.9815925
51
187.8609816
0
ARC
8
DEFAULT_255_2_778
10
94.8166385
20
53.6640392
40
1.0749066
50
143.254095
51
180.1435147
0
ARC
8
DEFAULT_255_2_778
10
94.8165488
20
53.6648591
40
1.0743443
50
94.338259
51
143.2862662
0
ARC
8
DEFAULT_255_2_778
10
94.819508
20
53.6366887
40
1.1026581
50
89.9933874
51
94.3808604
0
ARC
8
DEFAULT_255_2_778
10
94.822327
20
53.664695
40
1.0746552
50
53.2464355
51
90.143508
0
ARC
8
DEFAULT_255_2_778
10
94.8228715
20
53.6644588
40
1.0745186
50
4.3362259
51
53.2772323
0
ARC
8
DEFAULT_255_2_778
10
94.7944377
20
53.6614659
40
1.1030977
50
359.993817
51
4.3795738
0
ARC
8
DEFAULT_255_2_778
10
94.8228089
20
53.6586746
40
1.0747297
50
323.2509705
51
0.142461
0
ARC
8
DEFAULT_255_2_778
10
94.8227169
20
53.6579751
40
1.0743851
50
274.3383601
51
323.2837958
0
ARC
8
DEFAULT_255_2_778
10
94.8197599
20
53.6862418
40
1.1027948
50
269.9935241
51
274.3804529
0
ARC
8
DEFAULT_255_2_778
10
94.8169475
20
53.658137
40
1.0746935
50
233.2477057
51
270.143295
0
ARC
8
DEFAULT_255_2_778
10
94.8163078
20
53.6582862
40
1.0744304
50
184.3386035
51
233.2797999
0
ARC
8
DEFAULT_255_2_778
10
94.844479
20
53.661228
40
1.1027438
50
179.9938252
51
184.3802838
0
ARC
8
DEFAULT_255_2_778
10
94.8174175
20
78.6543697
40
1.4201856
50
150.3610478
51
180.1259909
0
ARC
8
DEFAULT_255_2_778
10
94.8159386
20
78.6547588
40
1.4187079
50
97.8325533
51
150.3451702
0
ARC
8
DEFAULT_255_2_778
10
94.8191729
20
78.6268101
40
1.4468367
50
89.9816886
51
97.8086064
0
ARC
8
DEFAULT_255_2_778
10
94.8227054
20
78.6536352
40
1.420015
50
60.2742866
51
90.1238748
0
ARC
8
DEFAULT_255_2_778
10
94.8230488
20
78.6548153
40
1.4188201
50
7.8875561
51
60.2626995
0
ARC
8
DEFAULT_255_2_778
10
94.7956309
20
78.6517135
40
1.4464045
50
359.9815138
51
7.8602194
0
ARC
8
DEFAULT_255_2_778
10
94.8221212
20
78.6481882
40
1.4199174
50
330.2715001
51
0.1234186
0
ARC
8
DEFAULT_255_2_778
10
94.8231137
20
78.6479345
40
1.4189297
50
277.8897422
51
330.2605242
0
ARC
8
DEFAULT_255_2_778
10
94.8200999
20
78.6749703
40
1.4461236
50
269.9815925
51
277.8609816
0
ARC
8
DEFAULT_255_2_778
10
94.8165767
20
78.648761
40
1.4199174
50
240.2715001
51
270.1234186
0
ARC
8
DEFAULT_255_2_778
10
94.816323
20
78.6477685
40
1.4189297
50
187.8897422
51
240.2605242
0
ARC
8
DEFAULT_255_2_778
10
94.8433588
20
78.6507822
40
1.4461236
50
179.9815925
51
187.8609816
0
ARC
8
DEFAULT_255_2_778
10
94.8166385
20
78.6539392
40
1.0749066
50
143.254095
51
180.1435147
0
ARC
8
DEFAULT_255_2_778
10
94.8165488
20
78.6547591
40
1.0743443
50
94.338259
51
143.2862662
0
ARC
8
DEFAULT_255_2_778
10
94.819508
20
78.6265887
40
1.1026581
50
89.9933874
51
94.3808604
0
ARC
8
DEFAULT_255_2_778
10
94.822327
20
78.654595
40
1.0746552
50
53.2464355
51
90.143508
0
ARC
8
DEFAULT_255_2_778
10
94.8228715
20
78.6543588
40
1.0745186
50
4.3362259
51
53.2772323
0
ARC
8
DEFAULT_255_2_778
10
94.7944377
20
78.6513659
40
1.1030977
50
359.993817
51
4.3795738
0
ARC
8
DEFAULT_255_2_778
10
94.8228089
20
78.6485746
40
1.0747297
50
323.2509705
51
0.142461
0
ARC
8
DEFAULT_255_2_778
10
94.8227169
20
78.6478751
40
1.0743851
50
274.3383601
51
323.2837958
0
ARC
8
DEFAULT_255_2_778
10
94.8197599
20
78.6761418
40
1.1027948
50
269.9935241
51
274.3804529
0
ARC
8
DEFAULT_255_2_778
10
94.8169475
20
78.648037
40
1.0746935
50
233.2477057
51
270.143295
0
ARC
8
DEFAULT_255_2_778
10
94.8163078
20
78.6481862
40
1.0744304
50
184.3386035
51
233.2797999
0
ARC
8
DEFAULT_255_2_778
10
94.844479
20
78.651128
40
1.1027438
50
179.9938252
51
184.3802838
0
ARC
8
DEFAULT_255_2_778
10
94.6903028
20
36.8414049
40
1.4700217
50
75.0014996
51
86.475735
0
ARC
8
DEFAULT_255_2_778
10
94.690386
20
36.8420855
40
1.4693375
50
86.4773387
51
90.0001827
0
ARC
8
DEFAULT_255_2_778
10
94.6901602
20
36.842282
40
1.4691409
50
89.9913784
51
127.5181235
0
ARC
8
DEFAULT_255_2_778
10
94.6911832
20
36.8407891
40
1.4709479
50
127.5143132
51
179.9782761
0
ARC
8
DEFAULT_255_2_778
10
94.6902056
20
13.1714225
40
1.4699703
50
179.9990536
51
232.5044679
0
ARC
8
DEFAULT_255_2_778
10
94.6904174
20
13.171169
40
1.4698982
50
232.491904
51
270.0006215
0
ARC
8
DEFAULT_255_2_778
10
94.6904319
20
13.1701888
40
1.468918
50
270.0000535
51
273.5629233
0
ARC
8
DEFAULT_255_2_778
10
94.6903075
20
13.1711889
40
1.4699241
50
273.5653427
51
284.9993327
0
ARC
8
DEFAULT_255_2_778
10
98.0509931
20
14.0705437
40
1.4687113
50
284.9802829
51
325.8354654
0
ARC
8
DEFAULT_255_2_778
10
98.0530468
20
14.0708574
40
1.4671888
50
325.7802906
51
0.0347322
0
ARC
8
DEFAULT_255_2_778
10
98.0518371
20
35.9418515
40
1.4683984
50
359.9725051
51
40.694533
0
ARC
8
DEFAULT_255_2_778
10
98.0514666
20
35.9434023
40
1.4676687
50
40.639199
51
75.0279654
0
ARC
8
DEFAULT_255_2_778
10
94.6807057
20
36.841517
40
0.8698348
50
75.0341069
51
86.4003937
0
ARC
8
DEFAULT_255_2_778
10
94.6807518
20
36.8417484
40
0.869601
50
86.4024716
51
89.9998833
0
ARC
8
DEFAULT_255_2_778
10
94.6807502
20
36.8409479
40
0.8704015
50
89.9997756
51
127.5039903
0
ARC
8
DEFAULT_255_2_778
10
94.6806883
20
36.8408349
40
0.8704533
50
127.4962317
51
179.9531411
0
ARC
8
DEFAULT_255_2_778
10
94.6808327
20
13.17243
40
0.8705977
50
180.0515426
51
232.4990853
0
ARC
8
DEFAULT_255_2_778
10
94.6807502
20
13.1722458
40
0.8704014
50
232.4960097
51
270.0002244
0
ARC
8
DEFAULT_255_2_778
10
94.6807518
20
13.1714453
40
0.869601
50
270.0001167
51
273.5975284
0
ARC
8
DEFAULT_255_2_778
10
94.6807057
20
13.1716766
40
0.8698348
50
273.5996063
51
284.9658931
0
ARC
8
DEFAULT_255_2_778
10
98.0396036
20
14.072503
40
0.8705319
50
285.0287234
51
359.9699778
0
ARC
8
DEFAULT_255_2_778
10
98.0396036
20
35.9409907
40
0.8705319
50
0.0300222
51
74.9712766
0
ARC
8
DEFAULT_255_2_778
10
96.3641706
20
43.8135635
40
1.293937
50
146.8052685
51
180.0937283
0
ARC
8
DEFAULT_255_2_778
10
96.3697559
20
43.8119121
40
1.299516
50
96.4973705
51
146.879159
0
ARC
8
DEFAULT_255_2_778
10
96.3698769
20
43.7969764
40
1.3143704
50
89.9887351
51
96.428937
0
ARC
8
DEFAULT_255_2_778
10
96.3722231
20
43.81746
40
1.2938885
50
56.7179954
51
90.0924523
0
ARC
8
DEFAULT_255_2_778
10
96.3705675
20
43.8117718
40
1.2995535
50
6.4896882
51
56.7945945
0
ARC
8
DEFAULT_255_2_778
10
96.3558416
20
43.8117033
40
1.3141938
50
359.9888195
51
6.4200928
0
ARC
8
DEFAULT_255_2_778
10
96.3762285
20
43.8093741
40
1.2938085
50
326.7148745
51
0.0917915
0
ARC
8
DEFAULT_255_2_778
10
96.3703767
20
43.811107
40
1.2996527
50
276.4921002
51
326.792589
0
ARC
8
DEFAULT_255_2_778
10
96.3703904
20
43.8254416
40
1.3138949
50
269.9888749
51
276.4208275
0
ARC
8
DEFAULT_255_2_778
10
96.368034
20
43.8054036
40
1.2938585
50
236.8021795
51
270.093053
0
ARC
8
DEFAULT_255_2_778
10
96.369763
20
43.8111513
40
1.2996158
50
186.4997895
51
236.8771337
0
ARC
8
DEFAULT_255_2_778
10
96.3843069
20
43.8111897
40
1.3140717
50
179.9887905
51
186.4296717
0
ARC
8
DEFAULT_255_2_778
10
96.3704318
20
43.8114823
40
1.0400966
50
120.0094286
51
180.0019532
0
ARC
8
DEFAULT_255_2_778
10
96.3700581
20
43.8117046
40
1.0397172
50
89.990236
51
119.9977225
0
ARC
8
DEFAULT_255_2_778
10
96.3704125
20
43.8117046
40
1.0397172
50
60.0022775
51
90.009764
0
ARC
8
DEFAULT_255_2_778
10
96.3700391
20
43.8114825
40
1.0400963
50
359.9980337
51
59.9905827
0
ARC
8
DEFAULT_255_2_778
10
96.3700792
20
43.8114881
40
1.0400561
50
300.0081402
51
359.9977274
0
ARC
8
DEFAULT_255_2_778
10
96.3704125
20
43.811289
40
1.0397172
50
269.990236
51
299.9977225
0
ARC
8
DEFAULT_255_2_778
10
96.3700581
20
43.811289
40
1.0397172
50
240.0022775
51
270.009764
0
ARC
8
DEFAULT_255_2_778
10
96.3703913
20
43.811488
40
1.0400562
50
180.0022699
51
239.9918608
0
ARC
8
DEFAULT_255_2_778
10
96.370128
20
42.1600265
40
2.2491796
50
218.4522472
51
270.0001871
0
ARC
8
DEFAULT_255_2_778
10
96.3701374
20
42.1598303
40
2.2489835
50
269.9999473
51
321.5501667
0
ARC
8
DEFAULT_255_2_778
10
96.3698377
20
42.1614754
40
1.2501287
50
269.9998887
51
341.0956343
0
ARC
8
DEFAULT_255_2_778
10
96.3697512
20
42.1613613
40
1.2500145
50
198.9006299
51
270.0038535
0
ARC
8
DEFAULT_255_2_778
10
96.3634921
20
6.2035481
40
1.2938585
50
146.8021795
51
180.093053
0
ARC
8
DEFAULT_255_2_778
10
96.3692397
20
6.2018191
40
1.2996158
50
96.4997895
51
146.8771337
0
ARC
8
DEFAULT_255_2_778
10
96.3692782
20
6.1872752
40
1.3140717
50
89.9887905
51
96.4296717
0
ARC
8
DEFAULT_255_2_778
10
96.371652
20
6.2074115
40
1.293937
50
56.8052685
51
90.0937283
0
ARC
8
DEFAULT_255_2_778
10
96.3700005
20
6.2018262
40
1.299516
50
6.4973705
51
56.879159
0
ARC
8
DEFAULT_255_2_778
10
96.3550649
20
6.2017052
40
1.3143704
50
359.9887351
51
6.428937
0
ARC
8
DEFAULT_255_2_778
10
96.3755485
20
6.199359
40
1.2938885
50
326.7179954
51
0.0924523
0
ARC
8
DEFAULT_255_2_778
10
96.3698603
20
6.2010146
40
1.2995535
50
276.4896882
51
326.7945945
0
ARC
8
DEFAULT_255_2_778
10
96.3697917
20
6.2157405
40
1.3141938
50
269.9888195
51
276.4200928
0
ARC
8
DEFAULT_255_2_778
10
96.3674625
20
6.1953537
40
1.2938085
50
236.7148745
51
270.0917915
0
ARC
8
DEFAULT_255_2_778
10
96.3691955
20
6.2012054
40
1.2996527
50
186.4921002
51
236.792589
0
ARC
8
DEFAULT_255_2_778
10
96.3835301
20
6.2011917
40
1.3138949
50
179.9888749
51
186.4208275
0
ARC
8
DEFAULT_255_2_778
10
96.3699244
20
6.2013712
40
1.0401891
50
120.006016
51
179.9958363
0
ARC
8
DEFAULT_255_2_778
10
96.369476
20
6.2020114
40
1.0394105
50
89.9877723
51
120.0022548
0
LINE
8
DEFAULT_255_2_778
10
96.3696978
20
7.2414218
11
96.3700581
21
7.2414218
0
ARC
8
DEFAULT_255_2_778
10
96.3698862
20
6.2016051
40
1.0398167
50
60.003766
51
89.990529
0
ARC
8
DEFAULT_255_2_778
10
96.3695387
20
6.2014823
40
1.0400967
50
359.9980468
51
59.9905714
0
ARC
8
DEFAULT_255_2_778
10
96.3695788
20
6.2014881
40
1.0400565
50
300.008158
51
359.9977274
0
ARC
8
DEFAULT_255_2_778
10
96.3698862
20
6.2013886
40
1.0398166
50
270.009471
51
299.996234
0
LINE
8
DEFAULT_255_2_778
10
96.3700581
20
5.1615719
11
96.3696978
21
5.1615718
0
ARC
8
DEFAULT_255_2_778
10
96.369476
20
6.2009823
40
1.0394105
50
239.9977452
51
270.0122277
0
ARC
8
DEFAULT_255_2_778
10
96.3698846
20
6.2015993
40
1.0401492
50
180.0084016
51
239.9952483
0
ARC
8
DEFAULT_255_2_778
10
96.3698371
20
7.8531631
40
2.2489838
50
38.4498319
51
90.0000448
0
ARC
8
DEFAULT_255_2_778
10
96.3698335
20
7.8531632
40
2.2489836
50
89.9999544
51
141.5501684
0
ARC
8
DEFAULT_255_2_778
10
96.3700335
20
7.8515092
40
1.2500376
50
89.9953349
51
161.0937655
0
ARC
8
DEFAULT_255_2_778
10
96.3702503
20
7.8515276
40
1.2500192
50
18.9056304
51
90.0052704
0
ARC
8
DEFAULT_255_2_778
10
79.4389866
20
35.940701
40
0.8706488
50
0.0293401
51
74.965373
0
ARC
8
DEFAULT_255_2_778
10
76.0802189
20
36.8408833
40
0.8704695
50
75.0393629
51
86.3503702
0
ARC
8
DEFAULT_255_2_778
10
76.0802927
20
36.8415524
40
0.869797
50
86.3524146
51
90.0001533
0
ARC
8
DEFAULT_255_2_778
10
76.0802591
20
36.8409216
40
0.8704277
50
89.9979404
51
127.503404
0
ARC
8
DEFAULT_255_2_778
10
76.0801938
20
36.8409583
40
0.8703588
50
127.5014655
51
179.9612578
0
ARC
8
DEFAULT_255_2_778
10
76.080338
20
13.1723066
40
0.870503
50
180.0434291
51
232.4938635
0
ARC
8
DEFAULT_255_2_778
10
76.0802591
20
13.172272
40
0.8704276
50
232.496596
51
270.0020596
0
ARC
8
DEFAULT_255_2_778
10
76.0802927
20
13.1716412
40
0.8697969
50
269.9998467
51
273.6475854
0
ARC
8
DEFAULT_255_2_778
10
76.0802189
20
13.1723103
40
0.8704695
50
273.6496298
51
284.9606371
0
ARC
8
DEFAULT_255_2_778
10
79.4391036
20
14.072503
40
0.8705319
50
285.0287234
51
359.9699778
0
ARC
8
DEFAULT_255_2_778
10
79.4512669
20
35.9418441
40
1.4684685
50
359.9727955
51
40.6925599
0
ARC
8
DEFAULT_255_2_778
10
79.4510142
20
35.9435213
40
1.4675673
50
40.6364754
51
75.0247864
0
ARC
8
DEFAULT_255_2_778
10
76.089765
20
36.842644
40
1.4690279
50
74.9895875
51
86.4718699
0
ARC
8
DEFAULT_255_2_778
10
76.0898277
20
36.8430712
40
1.4685977
50
86.4732843
51
90.0002964
0
ARC
8
DEFAULT_255_2_778
10
76.0896963
20
36.8422146
40
1.4694543
50
89.9951741
51
127.5105161
0
ARC
8
DEFAULT_255_2_778
10
76.0911687
20
36.8408495
40
1.4714336
50
127.5236301
51
179.9728493
0
ARC
8
DEFAULT_255_2_778
10
76.0899936
20
13.1717646
40
1.4702583
50
180.0045907
51
232.4989351
0
ARC
8
DEFAULT_255_2_778
10
76.0899536
20
13.1717368
40
1.470212
50
232.4995116
51
269.9968259
0
ARC
8
DEFAULT_255_2_778
10
76.0898736
20
13.1697353
40
1.4682106
50
269.9999412
51
273.5669217
0
ARC
8
DEFAULT_255_2_778
10
76.0897683
20
13.1704624
40
1.4689427
50
273.5692594
51
285.0111721
0
ARC
8
DEFAULT_255_2_778
10
79.45077
20
14.0704619
40
1.4682967
50
284.9774644
51
325.9851615
0
ARC
8
DEFAULT_255_2_778
10
79.4523612
20
14.0711694
40
1.4673744
50
325.9275084
51
0.0342616
0
ARC
8
DEFAULT_255_2_778
10
77.7635921
20
6.2035481
40
1.2938585
50
146.8021795
51
180.093053
0
ARC
8
DEFAULT_255_2_778
10
77.7693397
20
6.2018191
40
1.2996158
50
96.4997895
51
146.8771337
0
ARC
8
DEFAULT_255_2_778
10
77.7693782
20
6.1872752
40
1.3140717
50
89.9887905
51
96.4296717
0
ARC
8
DEFAULT_255_2_778
10
77.7717231
20
6.20746
40
1.2938885
50
56.7179954
51
90.0924523
0
ARC
8
DEFAULT_255_2_778
10
77.7700675
20
6.2017718
40
1.2995535
50
6.4896882
51
56.7945945
0
ARC
8
DEFAULT_255_2_778
10
77.7553416
20
6.2017033
40
1.3141938
50
359.9888195
51
6.4200928
0
ARC
8
DEFAULT_255_2_778
10
77.7757285
20
6.1993741
40
1.2938085
50
326.7148745
51
0.0917915
0
ARC
8
DEFAULT_255_2_778
10
77.7698767
20
6.201107
40
1.2996527
50
276.4921002
51
326.792589
0
ARC
8
DEFAULT_255_2_778
10
77.7698904
20
6.2154416
40
1.3138949
50
269.9888749
51
276.4208275
0
ARC
8
DEFAULT_255_2_778
10
77.7675625
20
6.1953537
40
1.2938085
50
236.7148745
51
270.0917915
0
ARC
8
DEFAULT_255_2_778
10
77.7692955
20
6.2012054
40
1.2996527
50
186.4921002
51
236.792589
0
ARC
8
DEFAULT_255_2_778
10
77.7836301
20
6.2011917
40
1.3138949
50
179.9888749
51
186.4208275
0
ARC
8
DEFAULT_255_2_778
10
77.769932
20
6.2014822
40
1.0400967
50
120.0094341
51
180.0019512
0
ARC
8
DEFAULT_255_2_778
10
77.7695844
20
6.2016051
40
1.0398166
50
90.009471
51
119.996234
0
LINE
8
DEFAULT_255_2_778
10
77.7694125
20
7.2414218
11
77.7697728
21
7.2414218
0
ARC
8
DEFAULT_255_2_778
10
77.7699946
20
6.2020114
40
1.0394105
50
59.9977452
51
90.0122277
0
ARC
8
DEFAULT_255_2_778
10
77.7695458
20
6.2013709
40
1.0401896
50
0.0041815
51
59.9939774
0
ARC
8
DEFAULT_255_2_778
10
77.7695862
20
6.2015993
40
1.0401491
50
300.0047442
51
359.9916012
0
ARC
8
DEFAULT_255_2_778
10
77.7699946
20
6.2009823
40
1.0394105
50
269.9877723
51
300.0022548
0
LINE
8
DEFAULT_255_2_778
10
77.7697728
20
5.1615718
11
77.7694125
21
5.1615719
0
ARC
8
DEFAULT_255_2_778
10
77.7695844
20
6.2013886
40
1.0398167
50
240.003766
51
269.990529
0
ARC
8
DEFAULT_255_2_778
10
77.7698913
20
6.2014878
40
1.040056
50
180.0022576
51
239.9918588
0
ARC
8
DEFAULT_255_2_778
10
77.7699371
20
7.8531632
40
2.2489837
50
38.4498316
51
90.0000456
0
ARC
8
DEFAULT_255_2_778
10
77.7699285
20
7.8529664
40
2.2491804
50
89.9998277
51
141.5477475
0
ARC
8
DEFAULT_255_2_778
10
77.7699598
20
7.851541
40
1.2500058
50
18.9051914
51
90.0011252
0
ARC
8
DEFAULT_255_2_778
10
77.7697522
20
7.851623
40
1.2499238
50
89.9916068
51
161.0974955
0
ARC
8
DEFAULT_255_2_778
10
77.7635921
20
43.8135481
40
1.2938585
50
146.8021795
51
180.093053
0
ARC
8
DEFAULT_255_2_778
10
77.7693397
20
43.8118191
40
1.2996158
50
96.4997895
51
146.8771337
0
ARC
8
DEFAULT_255_2_778
10
77.7693782
20
43.7972752
40
1.3140717
50
89.9887905
51
96.4296717
0
ARC
8
DEFAULT_255_2_778
10
77.7717231
20
43.81746
40
1.2938885
50
56.7179954
51
90.0924523
0
ARC
8
DEFAULT_255_2_778
10
77.7700675
20
43.8117718
40
1.2995535
50
6.4896882
51
56.7945945
0
ARC
8
DEFAULT_255_2_778
10
77.7553416
20
43.8117033
40
1.3141938
50
359.9888195
51
6.4200928
0
ARC
8
DEFAULT_255_2_778
10
77.7757285
20
43.8093741
40
1.2938085
50
326.7148745
51
0.0917915
0
ARC
8
DEFAULT_255_2_778
10
77.7698767
20
43.811107
40
1.2996527
50
276.4921002
51
326.792589
0
ARC
8
DEFAULT_255_2_778
10
77.7698904
20
43.8254416
40
1.3138949
50
269.9888749
51
276.4208275
0
ARC
8
DEFAULT_255_2_778
10
77.7675625
20
43.8053537
40
1.2938085
50
236.7148745
51
270.0917915
0
ARC
8
DEFAULT_255_2_778
10
77.7692955
20
43.8112054
40
1.2996527
50
186.4921002
51
236.792589
0
ARC
8
DEFAULT_255_2_778
10
77.7836301
20
43.8111917
40
1.3138949
50
179.9888749
51
186.4208275
0
ARC
8
DEFAULT_255_2_778
10
77.769932
20
43.8114822
40
1.0400967
50
120.0094341
51
180.0019512
0
ARC
8
DEFAULT_255_2_778
10
77.7695844
20
43.8116051
40
1.0398166
50
90.009471
51
119.996234
0
LINE
8
DEFAULT_255_2_778
10
77.7694125
20
44.8514218
11
77.7697728
21
44.8514218
0
ARC
8
DEFAULT_255_2_778
10
77.7699946
20
43.8120114
40
1.0394105
50
59.9977452
51
90.0122277
0
ARC
8
DEFAULT_255_2_778
10
77.7695458
20
43.8113709
40
1.0401896
50
0.0041815
51
59.9939774
0
ARC
8
DEFAULT_255_2_778
10
77.7695865
20
43.8115993
40
1.0401488
50
300.0047264
51
359.9916012
0
ARC
8
DEFAULT_255_2_778
10
77.7699946
20
43.8109823
40
1.0394105
50
269.9877723
51
300.0022548
0
LINE
8
DEFAULT_255_2_778
10
77.7697728
20
42.7715718
11
77.7694125
21
42.7715719
0
ARC
8
DEFAULT_255_2_778
10
77.7695844
20
43.8113886
40
1.0398167
50
240.003766
51
269.990529
0
ARC
8
DEFAULT_255_2_778
10
77.7698908
20
43.8114877
40
1.0400557
50
180.0022548
51
239.9918776
0
ARC
8
DEFAULT_255_2_778
10
77.7696329
20
42.1598297
40
2.2489828
50
218.4498264
51
270.0000604
0
ARC
8
DEFAULT_255_2_778
10
77.7696375
20
42.1598298
40
2.248983
50
269.9999429
51
321.5501736
0
ARC
8
DEFAULT_255_2_778
10
77.7693376
20
42.1614754
40
1.2501288
50
269.9998927
51
341.0956328
0
ARC
8
DEFAULT_255_2_778
10
77.7693193
20
42.1614566
40
1.2501098
50
198.9037543
51
270.0007346
0
ARC
8
DEFAULT_255_2_778
10
60.8390866
20
35.940701
40
0.8706488
50
0.0293401
51
74.965373
0
ARC
8
DEFAULT_255_2_778
10
57.4803057
20
36.841517
40
0.8698348
50
75.0341069
51
86.4003937
0
ARC
8
DEFAULT_255_2_778
10
57.4803518
20
36.8417484
40
0.869601
50
86.4024716
51
89.9998833
0
ARC
8
DEFAULT_255_2_778
10
57.4803502
20
36.8409479
40
0.8704015
50
89.9997756
51
127.5039903
0
ARC
8
DEFAULT_255_2_778
10
57.4802878
20
36.8408353
40
0.8704527
50
127.496223
51
179.9531654
0
ARC
8
DEFAULT_255_2_778
10
57.4804324
20
13.1724298
40
0.8705974
50
180.0515274
51
232.4990907
0
ARC
8
DEFAULT_255_2_778
10
57.4803502
20
13.1722458
40
0.8704014
50
232.4960097
51
270.0002244
0
ARC
8
DEFAULT_255_2_778
10
57.4803518
20
13.1714453
40
0.869601
50
270.0001167
51
273.5975284
0
ARC
8
DEFAULT_255_2_778
10
57.4803057
20
13.1716766
40
0.8698348
50
273.5996063
51
284.9658931
0
ARC
8
DEFAULT_255_2_778
10
60.8392036
20
14.072503
40
0.8705319
50
285.0287234
51
359.9699778
0
ARC
8
DEFAULT_255_2_778
10
60.8514371
20
35.9418515
40
1.4683984
50
359.9725051
51
40.694533
0
ARC
8
DEFAULT_255_2_778
10
60.8510666
20
35.9434023
40
1.4676687
50
40.639199
51
75.0279654
0
ARC
8
DEFAULT_255_2_778
10
57.489865
20
36.842644
40
1.4690279
50
74.9895875
51
86.4718699
0
ARC
8
DEFAULT_255_2_778
10
57.4899277
20
36.8430712
40
1.4685977
50
86.4732843
51
90.0002964
0
ARC
8
DEFAULT_255_2_778
10
57.4897963
20
36.8422146
40
1.4694543
50
89.9951741
51
127.5105161
0
ARC
8
DEFAULT_255_2_778
10
57.4906829
20
36.8411385
40
1.4708477
50
127.512386
51
179.9840934
0
ARC
8
DEFAULT_255_2_778
10
57.4898011
20
13.1716203
40
1.4699658
50
179.9989669
51
232.5045558
0
ARC
8
DEFAULT_255_2_778
10
57.4899678
20
13.1714844
40
1.4699595
50
232.4961741
51
269.9994922
0
ARC
8
DEFAULT_255_2_778
10
57.4899637
20
13.1697085
40
1.4681837
50
269.9996506
51
273.5536289
0
ARC
8
DEFAULT_255_2_778
10
57.4898709
20
13.1704677
40
1.4689472
50
273.5554067
51
285.0110182
0
ARC
8
DEFAULT_255_2_778
10
60.8508381
20
14.0705515
40
1.4683657
50
284.9739953
51
325.9805028
0
ARC
8
DEFAULT_255_2_778
10
60.8525263
20
14.0711631
40
1.4673093
50
325.9238266
51
0.0345073
0
ARC
8
DEFAULT_255_2_778
10
59.1637706
20
6.2035635
40
1.293937
50
146.8052685
51
180.0937283
0
ARC
8
DEFAULT_255_2_778
10
59.1693559
20
6.2019121
40
1.299516
50
96.4973705
51
146.879159
0
ARC
8
DEFAULT_255_2_778
10
59.1694769
20
6.1869764
40
1.3143704
50
89.9887351
51
96.428937
0
ARC
8
DEFAULT_255_2_778
10
59.1718354
20
6.2076051
40
1.2937434
50
56.8027153
51
90.0930056
0
ARC
8
DEFAULT_255_2_778
10
59.1700613
20
6.201821
40
1.2995558
50
6.4974011
51
56.876889
0
ARC
8
DEFAULT_255_2_778
10
59.1551649
20
6.2017052
40
1.3143704
50
359.9887351
51
6.428937
0
ARC
8
DEFAULT_255_2_778
10
59.1756155
20
6.1993622
40
1.2939215
50
326.8054555
51
0.0923061
0
ARC
8
DEFAULT_255_2_778
10
59.1699881
20
6.2009623
40
1.2995078
50
276.50217
51
326.8822586
0
ARC
8
DEFAULT_255_2_778
10
59.1699913
20
6.2153924
40
1.3138456
50
269.9888363
51
276.43077
0
ARC
8
DEFAULT_255_2_778
10
59.167634
20
6.1954036
40
1.2938585
50
236.8021795
51
270.093053
0
ARC
8
DEFAULT_255_2_778
10
59.169363
20
6.2011513
40
1.2996158
50
186.4997895
51
236.8771337
0
ARC
8
DEFAULT_255_2_778
10
59.1839069
20
6.2011897
40
1.3140717
50
179.9887905
51
186.4296717
0
ARC
8
DEFAULT_255_2_778
10
59.169815
20
6.2014921
40
1.0399797
50
119.9993543
51
180.0024956
0
ARC
8
DEFAULT_255_2_778
10
59.1696546
20
6.2017175
40
1.0397044
50
90.0106131
51
119.9979094
0
LINE
8
DEFAULT_255_2_778
10
59.169462
20
7.2414218
11
59.1698228
21
7.2414218
0
ARC
8
DEFAULT_255_2_778
10
59.1700251
20
6.2021249
40
1.0392969
50
59.9960688
51
90.0111512
0
ARC
8
DEFAULT_255_2_778
10
59.1697556
20
6.2014921
40
1.0399797
50
359.9975044
51
60.0006457
0
ARC
8
DEFAULT_255_2_778
10
59.1697958
20
6.2014782
40
1.0399395
50
299.9980782
51
359.9982713
0
ARC
8
DEFAULT_255_2_778
10
59.1700251
20
6.2008687
40
1.0392969
50
269.9888488
51
300.0039312
0
LINE
8
DEFAULT_255_2_778
10
59.1698228
20
5.1615718
11
59.169462
21
5.1615719
0
ARC
8
DEFAULT_255_2_778
10
59.1696546
20
6.2012762
40
1.0397043
50
240.0020906
51
269.9893869
0
ARC
8
DEFAULT_255_2_778
10
59.1697748
20
6.2014782
40
1.0399394
50
180.0017287
51
240.0019218
0
ARC
8
DEFAULT_255_2_778
10
59.1699371
20
7.8531632
40
2.2489837
50
38.4498316
51
90.0000456
0
ARC
8
DEFAULT_255_2_778
10
59.1699335
20
7.8531634
40
2.2489834
50
89.9999538
51
141.5501719
0
ARC
8
DEFAULT_255_2_778
10
59.1700372
20
7.8515095
40
1.2500374
50
18.9062233
51
90.0046711
0
ARC
8
DEFAULT_255_2_778
10
59.1698202
20
7.851528
40
1.2500188
50
89.9947236
51
161.0943854
0
ARC
8
DEFAULT_255_2_778
10
59.1637706
20
43.8135635
40
1.293937
50
146.8052685
51
180.0937283
0
ARC
8
DEFAULT_255_2_778
10
59.1693559
20
43.8119121
40
1.299516
50
96.4973705
51
146.879159
0
ARC
8
DEFAULT_255_2_778
10
59.1694769
20
43.7969764
40
1.3143704
50
89.9887351
51
96.428937
0
ARC
8
DEFAULT_255_2_778
10
59.1718354
20
43.8176051
40
1.2937434
50
56.8027153
51
90.0930056
0
ARC
8
DEFAULT_255_2_778
10
59.1700613
20
43.811821
40
1.2995558
50
6.4974011
51
56.876889
0
ARC
8
DEFAULT_255_2_778
10
59.1551649
20
43.8117052
40
1.3143704
50
359.9887351
51
6.428937
0
ARC
8
DEFAULT_255_2_778
10
59.1756155
20
43.8093622
40
1.2939215
50
326.8054555
51
0.0923061
0
ARC
8
DEFAULT_255_2_778
10
59.1699881
20
43.8109623
40
1.2995078
50
276.50217
51
326.8822586
0
ARC
8
DEFAULT_255_2_778
10
59.1699913
20
43.8253924
40
1.3138456
50
269.9888363
51
276.43077
0
ARC
8
DEFAULT_255_2_778
10
59.167634
20
43.8054036
40
1.2938585
50
236.8021795
51
270.093053
0
ARC
8
DEFAULT_255_2_778
10
59.169363
20
43.8111513
40
1.2996158
50
186.4997895
51
236.8771337
0
ARC
8
DEFAULT_255_2_778
10
59.1839069
20
43.8111897
40
1.3140717
50
179.9887905
51
186.4296717
0
ARC
8
DEFAULT_255_2_778
10
59.169815
20
43.8114921
40
1.0399797
50
119.9993543
51
180.0024956
0
ARC
8
DEFAULT_255_2_778
10
59.1696546
20
43.8117175
40
1.0397044
50
90.0106131
51
119.9979094
0
LINE
8
DEFAULT_255_2_778
10
59.169462
20
44.8514218
11
59.1698228
21
44.8514218
0
ARC
8
DEFAULT_255_2_778
10
59.1700251
20
43.8121249
40
1.0392969
50
59.9960688
51
90.0111512
0
ARC
8
DEFAULT_255_2_778
10
59.1697556
20
43.8114921
40
1.0399797
50
359.9975044
51
60.0006457
0
ARC
8
DEFAULT_255_2_778
10
59.1697962
20
43.8114782
40
1.0399391
50
299.9980603
51
359.9982713
0
ARC
8
DEFAULT_255_2_778
10
59.1700251
20
43.8108687
40
1.0392969
50
269.9888488
51
300.0039312
0
LINE
8
DEFAULT_255_2_778
10
59.1698228
20
42.7715718
11
59.169462
21
42.7715719
0
ARC
8
DEFAULT_255_2_778
10
59.1696546
20
43.8112762
40
1.0397043
50
240.0020906
51
269.9893869
0
ARC
8
DEFAULT_255_2_778
10
59.1697744
20
43.8114781
40
1.0399391
50
180.0017259
51
240.0019407
0
ARC
8
DEFAULT_255_2_778
10
59.1696603
20
42.1614439
40
1.2500971
50
270.003437
51
341.0966652
0
ARC
8
DEFAULT_255_2_778
10
59.1696512
20
42.1613613
40
1.2500145
50
198.9006299
51
270.0038535
0
ARC
8
DEFAULT_255_2_778
10
59.169433
20
42.1598298
40
2.2489829
50
218.4498268
51
270.000059
0
ARC
8
DEFAULT_255_2_778
10
59.1694375
20
42.1598299
40
2.2489831
50
269.9999443
51
321.5501731
0
ARC
8
DEFAULT_255_2_778
10
42.2012241
20
35.9416015
40
1.4684113
50
359.9744543
51
40.9106651
0
ARC
8
DEFAULT_255_2_778
10
42.2011517
20
35.9434603
40
1.4672495
50
40.8539571
51
75.035107
0
ARC
8
DEFAULT_255_2_778
10
38.8396197
20
36.8408243
40
1.470604
50
75.0042256
51
86.4245008
0
ARC
8
DEFAULT_255_2_778
10
38.8397385
20
36.841778
40
1.4696448
50
86.4268047
51
90.0000364
0
ARC
8
DEFAULT_255_2_778
10
38.8395123
20
36.8424232
40
1.4689997
50
89.9912138
51
127.5199976
0
ARC
8
DEFAULT_255_2_778
10
38.8402908
20
36.8409332
40
1.4706556
50
127.5086973
51
179.9838859
0
ARC
8
DEFAULT_255_2_778
10
38.8393128
20
13.171278
40
1.4696775
50
179.9934196
51
232.5100959
0
ARC
8
DEFAULT_255_2_778
10
38.8396837
20
13.1707754
40
1.4695046
50
232.4866932
51
270.003452
0
ARC
8
DEFAULT_255_2_778
10
38.8397777
20
13.1703991
40
1.4691283
50
269.9997883
51
273.6005064
0
ARC
8
DEFAULT_255_2_778
10
38.8396207
20
13.1718168
40
1.470553
50
273.6031417
51
284.9962656
0
ARC
8
DEFAULT_255_2_778
10
42.2003931
20
14.0705437
40
1.4687113
50
284.9802829
51
325.8354654
0
ARC
8
DEFAULT_255_2_778
10
42.2024468
20
14.0708574
40
1.4671888
50
325.7802906
51
0.0347322
0
ARC
8
DEFAULT_255_2_778
10
42.1989155
20
35.9404232
40
0.8706199
50
0.0344608
51
74.9668339
0
ARC
8
DEFAULT_255_2_778
10
38.8401369
20
36.8395514
40
0.8715584
50
75.0597144
51
86.3561212
0
ARC
8
DEFAULT_255_2_778
10
38.8402249
20
36.8402481
40
0.8708575
50
86.3589851
51
89.9999575
0
ARC
8
DEFAULT_255_2_778
10
38.8401042
20
36.8406732
40
0.8704325
50
89.9920131
51
127.4985988
0
ARC
8
DEFAULT_255_2_778
10
38.8405257
20
36.8404189
40
0.870891
50
127.5104137
51
179.9389531
0
ARC
8
DEFAULT_255_2_778
10
38.8405738
20
13.1722982
40
0.8709389
50
180.0560102
51
232.4880194
0
ARC
8
DEFAULT_255_2_778
10
38.8401042
20
13.1720204
40
0.8704326
50
232.5014012
51
270.0079869
0
ARC
8
DEFAULT_255_2_778
10
38.8402249
20
13.1724455
40
0.8708576
50
270.0000425
51
273.6410149
0
ARC
8
DEFAULT_255_2_778
10
38.8401369
20
13.1731422
40
0.8715584
50
273.6438788
51
284.9402856
0
ARC
8
DEFAULT_255_2_778
10
42.198916
20
14.0722702
40
0.8706195
50
285.0331408
51
359.9655563
0
ARC
8
DEFAULT_255_2_778
10
40.5133421
20
6.2033196
40
1.2938085
50
146.7148745
51
180.0917915
0
ARC
8
DEFAULT_255_2_778
10
40.5191939
20
6.2015866
40
1.2996527
50
96.4921002
51
146.792589
0
ARC
8
DEFAULT_255_2_778
10
40.5191802
20
6.187252
40
1.3138949
50
89.9888749
51
96.4208275
0
ARC
8
DEFAULT_255_2_778
10
40.5215366
20
6.20729
40
1.2938585
50
56.8021795
51
90.093053
0
ARC
8
DEFAULT_255_2_778
10
40.5198076
20
6.2015424
40
1.2996158
50
6.4997895
51
56.8771337
0
ARC
8
DEFAULT_255_2_778
10
40.5052636
20
6.2015039
40
1.3140717
50
359.9887905
51
6.4296717
0
ARC
8
DEFAULT_255_2_778
10
40.5254485
20
6.199159
40
1.2938885
50
326.7179954
51
0.0924523
0
ARC
8
DEFAULT_255_2_778
10
40.5197603
20
6.2008146
40
1.2995535
50
276.4896882
51
326.7945945
0
ARC
8
DEFAULT_255_2_778
10
40.5196917
20
6.2155405
40
1.3141938
50
269.9888195
51
276.4200928
0
ARC
8
DEFAULT_255_2_778
10
40.5173625
20
6.1951537
40
1.2938085
50
236.7148745
51
270.0917915
0
ARC
8
DEFAULT_255_2_778
10
40.5190955
20
6.2010054
40
1.2996527
50
186.4921002
51
236.792589
0
ARC
8
DEFAULT_255_2_778
10
40.5334301
20
6.2009917
40
1.3138949
50
179.9888749
51
186.4208275
0
ARC
8
DEFAULT_255_2_778
10
40.5197842
20
6.2010942
40
1.0401489
50
120.0047291
51
179.9915936
0
ARC
8
DEFAULT_255_2_778
10
40.5194724
20
6.2019122
40
1.0392848
50
89.9910213
51
120.0123963
0
ARC
8
DEFAULT_255_2_778
10
40.5197982
20
6.2019122
40
1.0392846
50
59.9876037
51
90.0089787
0
ARC
8
DEFAULT_255_2_778
10
40.5194795
20
6.2012058
40
1.0400559
50
0.0022603
51
59.9918691
0
ARC
8
DEFAULT_255_2_778
10
40.5196006
20
6.2012178
40
1.0399347
50
300.0042873
51
0.0016005
0
ARC
8
DEFAULT_255_2_778
10
40.5197993
20
6.2005787
40
1.0392819
50
269.9909596
51
300.0124176
0
ARC
8
DEFAULT_255_2_778
10
40.5194724
20
6.2005814
40
1.0392846
50
239.9876037
51
270.0089787
0
ARC
8
DEFAULT_255_2_778
10
40.519663
20
6.2013293
40
1.0400277
50
180.0045432
51
239.9991203
0
ARC
8
DEFAULT_255_2_778
10
40.5197055
20
7.8512563
40
1.2500905
50
89.9986365
51
161.0968801
0
ARC
8
DEFAULT_255_2_778
10
40.5198194
20
7.8513324
40
1.2500145
50
18.9006299
51
90.0038535
0
ARC
8
DEFAULT_255_2_778
10
40.5199126
20
7.8528696
40
2.2490772
50
38.4477316
51
89.9968744
0
ARC
8
DEFAULT_255_2_778
10
40.5201532
20
7.8526721
40
2.2492747
50
90.0030037
51
141.5498371
0
ARC
8
DEFAULT_255_2_778
10
40.5140706
20
43.8135635
40
1.293937
50
146.8052685
51
180.0937283
0
ARC
8
DEFAULT_255_2_778
10
40.5196559
20
43.8119121
40
1.299516
50
96.4973705
51
146.879159
0
ARC
8
DEFAULT_255_2_778
10
40.5197769
20
43.7969764
40
1.3143704
50
89.9887351
51
96.428937
0
ARC
8
DEFAULT_255_2_778
10
40.5221231
20
43.81746
40
1.2938885
50
56.7179954
51
90.0924523
0
ARC
8
DEFAULT_255_2_778
10
40.5204675
20
43.8117718
40
1.2995535
50
6.4896882
51
56.7945945
0
ARC
8
DEFAULT_255_2_778
10
40.5057416
20
43.8117033
40
1.3141938
50
359.9888195
51
6.4200928
0
ARC
8
DEFAULT_255_2_778
10
40.5261285
20
43.8093741
40
1.2938085
50
326.7148745
51
0.0917915
0
ARC
8
DEFAULT_255_2_778
10
40.5202767
20
43.811107
40
1.2996527
50
276.4921002
51
326.792589
0
ARC
8
DEFAULT_255_2_778
10
40.5202904
20
43.8254416
40
1.3138949
50
269.9888749
51
276.4208275
0
ARC
8
DEFAULT_255_2_778
10
40.517934
20
43.8054036
40
1.2938585
50
236.8021795
51
270.093053
0
ARC
8
DEFAULT_255_2_778
10
40.519663
20
43.8111513
40
1.2996158
50
186.4997895
51
236.8771337
0
ARC
8
DEFAULT_255_2_778
10
40.5342069
20
43.8111897
40
1.3140717
50
179.9887905
51
186.4296717
0
ARC
8
DEFAULT_255_2_778
10
40.5203317
20
43.8114826
40
1.0400964
50
120.0094276
51
180.001969
0
ARC
8
DEFAULT_255_2_778
10
40.5199581
20
43.8117046
40
1.0397172
50
89.990236
51
119.9977225
0
ARC
8
DEFAULT_255_2_778
10
40.5203125
20
43.8117046
40
1.0397172
50
60.0022775
51
90.009764
0
ARC
8
DEFAULT_255_2_778
10
40.5199389
20
43.8114826
40
1.0400963
50
359.998031
51
59.9905724
0
ARC
8
DEFAULT_255_2_778
10
40.51998
20
43.8114875
40
1.0400553
50
300.0081169
51
359.9977602
0
ARC
8
DEFAULT_255_2_778
10
40.5203125
20
43.811289
40
1.0397172
50
269.990236
51
299.9977225
0
ARC
8
DEFAULT_255_2_778
10
40.5199581
20
43.811289
40
1.0397172
50
240.0022775
51
270.009764
0
ARC
8
DEFAULT_255_2_778
10
40.520291
20
43.8114878
40
1.0400558
50
180.0022576
51
239.9918701
0
ARC
8
DEFAULT_255_2_778
10
40.5200277
20
42.1600258
40
2.249179
50
218.4522364
51
270.0001928
0
ARC
8
DEFAULT_255_2_778
10
40.5200375
20
42.15983
40
2.2489832
50
269.9999438
51
321.5501713
0
ARC
8
DEFAULT_255_2_778
10
40.5197376
20
42.1614757
40
1.2501288
50
269.9998927
51
341.0956239
0
ARC
8
DEFAULT_255_2_778
10
40.5196512
20
42.1613613
40
1.2500145
50
198.9006299
51
270.0038535
0
LINE
8
DEFAULT_255_2_778
10
51.3197353
20
81.5513468
11
63.9197353
21
81.5513468
0
LINE
8
DEFAULT_255_2_778
10
63.9197353
20
81.5513468
11
63.9197353
21
50.7612468
0
LINE
8
DEFAULT_255_2_778
10
63.9197353
20
50.7612468
11
51.3197353
21
50.7612468
0
LINE
8
DEFAULT_255_2_778
10
51.3197353
20
50.7612468
11
51.3197353
21
81.5513468
0
LINE
8
DEFAULT_255_2_778
10
64.4198353
20
82.0514468
11
50.8197353
21
82.0514468
0
LINE
8
DEFAULT_255_2_778
10
50.8197353
20
82.0514468
11
50.8197353
21
50.2614468
0
LINE
8
DEFAULT_255_2_778
10
50.8197353
20
50.2614468
11
64.4198353
21
50.2614468
0
LINE
8
DEFAULT_255_2_778
10
64.4198353
20
50.2614468
11
64.4198353
21
82.0514468
0
LINE
8
DEFAULT_255_2_778
10
59.4707353
20
73.7906468
11
56.6508353
21
74.2877468
0
LINE
8
DEFAULT_255_2_778
10
53.6698353
20
71.7864468
11
53.6698353
21
60.5265468
0
LINE
8
DEFAULT_255_2_778
10
56.6508353
20
58.0251468
11
59.4707353
21
58.5223468
0
LINE
8
DEFAULT_255_2_778
10
61.5697353
20
61.0236468
11
61.5697353
21
71.2892468
0
LINE
8
DEFAULT_255_2_778
10
59.4707353
20
73.7906468
11
59.4707353
21
73.7906468
0
LINE
8
DEFAULT_255_2_778
10
56.1971353
20
53.6613468
11
56.1971353
21
53.6613468
0
LINE
8
DEFAULT_255_2_778
10
56.5415353
20
53.6613468
11
56.5415353
21
53.6613468
0
LINE
8
DEFAULT_255_2_778
10
60.0094353
20
52.2815468
11
60.0094353
21
55.0411468
0
LINE
8
DEFAULT_255_2_778
10
60.0094353
20
55.0411468
11
57.6195353
21
56.4209468
0
LINE
8
DEFAULT_255_2_778
10
57.6195353
20
56.4209468
11
55.2295353
21
55.0411468
0
LINE
8
DEFAULT_255_2_778
10
55.2295353
20
55.0411468
11
55.2295353
21
52.2815468
0
LINE
8
DEFAULT_255_2_778
10
55.2295353
20
52.2815468
11
57.6195353
21
50.9017468
0
LINE
8
DEFAULT_255_2_778
10
57.6195353
20
50.9017468
11
60.0094353
21
52.2815468
0
LINE
8
DEFAULT_255_2_778
10
56.1971353
20
78.6515468
11
56.1971353
21
78.6515468
0
LINE
8
DEFAULT_255_2_778
10
56.5415353
20
78.6515468
11
56.5415353
21
78.6515468
0
LINE
8
DEFAULT_255_2_778
10
60.0094353
20
77.2717468
11
60.0094353
21
80.0313468
0
LINE
8
DEFAULT_255_2_778
10
60.0094353
20
80.0313468
11
57.6195353
21
81.4111468
0
LINE
8
DEFAULT_255_2_778
10
57.6195353
20
81.4111468
11
55.2295353
21
80.0313468
0
LINE
8
DEFAULT_255_2_778
10
55.2295353
20
80.0313468
11
55.2295353
21
77.2717468
0
LINE
8
DEFAULT_255_2_778
10
55.2295353
20
77.2717468
11
57.6195353
21
75.8919468
0
LINE
8
DEFAULT_255_2_778
10
57.6195353
20
75.8919468
11
60.0094353
21
77.2717468
0
LINE
8
DEFAULT_255_2_778
10
69.9197353
20
81.5513468
11
82.5197353
21
81.5513468
0
LINE
8
DEFAULT_255_2_778
10
82.5197353
20
81.5513468
11
82.5197353
21
50.7612468
0
LINE
8
DEFAULT_255_2_778
10
82.5197353
20
50.7612468
11
69.9197353
21
50.7612468
0
LINE
8
DEFAULT_255_2_778
10
69.9197353
20
50.7612468
11
69.9197353
21
81.5513468
0
LINE
8
DEFAULT_255_2_778
10
83.0197353
20
82.0514468
11
69.4196353
21
82.0514468
0
LINE
8
DEFAULT_255_2_778
10
69.4196353
20
82.0514468
11
69.4196353
21
50.2614468
0
LINE
8
DEFAULT_255_2_778
10
69.4196353
20
50.2614468
11
83.0197353
21
50.2614468
0
LINE
8
DEFAULT_255_2_778
10
83.0197353
20
50.2614468
11
83.0197353
21
82.0514468
0
LINE
8
DEFAULT_255_2_778
10
78.0707353
20
73.7906468
11
75.2508353
21
74.2877468
0
LINE
8
DEFAULT_255_2_778
10
72.2697353
20
71.7864468
11
72.2697353
21
60.5265468
0
LINE
8
DEFAULT_255_2_778
10
75.2508353
20
58.0251468
11
78.0707353
21
58.5223468
0
LINE
8
DEFAULT_255_2_778
10
80.1696353
20
61.0236468
11
80.1696353
21
71.2892468
0
LINE
8
DEFAULT_255_2_778
10
78.0707353
20
73.7906468
11
78.0707353
21
73.7906468
0
LINE
8
DEFAULT_255_2_778
10
74.7970353
20
53.6613468
11
74.7970353
21
53.6613468
0
LINE
8
DEFAULT_255_2_778
10
75.1415353
20
53.6613468
11
75.1415353
21
53.6613468
0
LINE
8
DEFAULT_255_2_778
10
78.6094353
20
52.2815468
11
78.6094353
21
55.0411468
0
LINE
8
DEFAULT_255_2_778
10
78.6094353
20
55.0411468
11
76.2194353
21
56.4209468
0
LINE
8
DEFAULT_255_2_778
10
76.2194353
20
56.4209468
11
73.8294353
21
55.0411468
0
LINE
8
DEFAULT_255_2_778
10
73.8294353
20
55.0411468
11
73.8294353
21
52.2815468
0
LINE
8
DEFAULT_255_2_778
10
73.8294353
20
52.2815468
11
76.2194353
21
50.9017468
0
LINE
8
DEFAULT_255_2_778
10
76.2194353
20
50.9017468
11
78.6094353
21
52.2815468
0
LINE
8
DEFAULT_255_2_778
10
74.7970353
20
78.6515468
11
74.7970353
21
78.6515468
0
LINE
8
DEFAULT_255_2_778
10
75.1415353
20
78.6515468
11
75.1415353
21
78.6515468
0
LINE
8
DEFAULT_255_2_778
10
78.6094353
20
77.2717468
11
78.6094353
21
80.0313468
0
LINE
8
DEFAULT_255_2_778
10
78.6094353
20
80.0313468
11
76.2194353
21
81.4111468
0
LINE
8
DEFAULT_255_2_778
10
76.2194353
20
81.4111468
11
73.8294353
21
80.0313468
0
LINE
8
DEFAULT_255_2_778
10
73.8294353
20
80.0313468
11
73.8294353
21
77.2717468
0
LINE
8
DEFAULT_255_2_778
10
73.8294353
20
77.2717468
11
76.2194353
21
75.8919468
0
LINE
8
DEFAULT_255_2_778
10
76.2194353
20
75.8919468
11
78.6094353
21
77.2717468
0
LINE
8
DEFAULT_255_2_778
10
101.1199353
20
81.5513468
11
101.1199353
21
50.7612468
0
LINE
8
DEFAULT_255_2_778
10
101.1199353
20
50.7612468
11
88.5199353
21
50.7612468
0
LINE
8
DEFAULT_255_2_778
10
88.5199353
20
50.7612468
11
88.5199353
21
81.5513468
0
LINE
8
DEFAULT_255_2_778
10
88.5199353
20
81.5513468
11
101.1199353
21
81.5513468
0
LINE
8
DEFAULT_255_2_778
10
101.6199353
20
50.2614468
11
101.6199353
21
82.0514468
0
LINE
8
DEFAULT_255_2_778
10
101.6199353
20
82.0514468
11
88.0198353
21
82.0514468
0
LINE
8
DEFAULT_255_2_778
10
88.0198353
20
82.0514468
11
88.0198353
21
50.2614468
0
LINE
8
DEFAULT_255_2_778
10
88.0198353
20
50.2614468
11
101.6199353
21
50.2614468
0
LINE
8
DEFAULT_255_2_778
10
96.6709353
20
73.7906468
11
93.8510353
21
74.2877468
0
LINE
8
DEFAULT_255_2_778
10
90.8699353
20
71.7864468
11
90.8699353
21
60.5265468
0
LINE
8
DEFAULT_255_2_778
10
93.8510353
20
58.0251468
11
96.6709353
21
58.5223468
0
LINE
8
DEFAULT_255_2_778
10
98.7698353
20
61.0236468
11
98.7698353
21
71.2892468
0
LINE
8
DEFAULT_255_2_778
10
96.6709353
20
73.7906468
11
96.6709353
21
73.7906468
0
LINE
8
DEFAULT_255_2_778
10
93.3972353
20
53.6613468
11
93.3972353
21
53.6613468
0
LINE
8
DEFAULT_255_2_778
10
93.7417353
20
53.6613468
11
93.7417353
21
53.6613468
0
LINE
8
DEFAULT_255_2_778
10
97.2096353
20
55.0411468
11
94.8196353
21
56.4209468
0
LINE
8
DEFAULT_255_2_778
10
94.8196353
20
56.4209468
11
92.4296353
21
55.0411468
0
LINE
8
DEFAULT_255_2_778
10
92.4296353
20
55.0411468
11
92.4296353
21
52.2815468
0
LINE
8
DEFAULT_255_2_778
10
92.4296353
20
52.2815468
11
94.8196353
21
50.9017468
0
LINE
8
DEFAULT_255_2_778
10
94.8196353
20
50.9017468
11
97.2096353
21
52.2815468
0
LINE
8
DEFAULT_255_2_778
10
97.2096353
20
52.2815468
11
97.2096353
21
55.0411468
0
LINE
8
DEFAULT_255_2_778
10
93.3972353
20
78.6512468
11
93.3972353
21
78.6512468
0
LINE
8
DEFAULT_255_2_778
10
93.7417353
20
78.6512468
11
93.7417353
21
78.6512468
0
LINE
8
DEFAULT_255_2_778
10
97.2096353
20
80.0310468
11
94.8196353
21
81.4108468
0
LINE
8
DEFAULT_255_2_778
10
94.8196353
20
81.4108468
11
92.4296353
21
80.0310468
0
LINE
8
DEFAULT_255_2_778
10
92.4296353
20
80.0310468
11
92.4296353
21
77.2714468
0
LINE
8
DEFAULT_255_2_778
10
92.4296353
20
77.2714468
11
94.8196353
21
75.8916468
0
LINE
8
DEFAULT_255_2_778
10
94.8196353
20
75.8916468
11
97.2096353
21
77.2714468
0
LINE
8
DEFAULT_255_2_778
10
97.2096353
20
77.2714468
11
97.2096353
21
80.0310468
0
LINE
8
DEFAULT_255_2_778
10
91.8200353
20
46.7562468
11
101.1701353
21
46.7562468
0
LINE
8
DEFAULT_255_2_778
10
101.1701353
20
46.7562468
11
101.1701353
21
3.2564468
0
LINE
8
DEFAULT_255_2_778
10
101.1701353
20
3.2564468
11
91.8200353
21
3.2564468
0
LINE
8
DEFAULT_255_2_778
10
91.8200353
20
3.2564468
11
91.8200353
21
46.7562468
0
LINE
8
DEFAULT_255_2_778
10
101.4950353
20
47.2563468
11
91.1451353
21
47.2563468
0
LINE
8
DEFAULT_255_2_778
10
91.1451353
20
47.2563468
11
91.1451353
21
2.7563468
0
LINE
8
DEFAULT_255_2_778
10
91.1451353
20
2.7563468
11
101.4950353
21
2.7563468
0
LINE
8
DEFAULT_255_2_778
10
101.4950353
20
2.7563468
11
101.4950353
21
47.2563468
0
LINE
8
DEFAULT_255_2_778
10
98.4306353
20
37.3609468
11
95.0707353
21
38.2613468
0
LINE
8
DEFAULT_255_2_778
10
93.2202353
20
36.8413468
11
93.2202353
21
13.1714468
0
LINE
8
DEFAULT_255_2_778
10
95.0707353
20
11.7513468
11
98.4306353
21
12.6517468
0
LINE
8
DEFAULT_255_2_778
10
99.5202353
20
14.0717468
11
99.5202353
21
35.9411468
0
LINE
8
DEFAULT_255_2_778
10
98.4306353
20
37.3612468
11
98.4306353
21
37.3609468
0
LINE
8
DEFAULT_255_2_778
10
97.7602353
20
36.8063468
11
94.9601353
21
36.8063468
0
LINE
8
DEFAULT_255_2_778
10
94.9601353
20
36.8063468
11
94.9601353
21
13.2063468
0
LINE
8
DEFAULT_255_2_778
10
94.9601353
20
13.2063468
11
97.7602353
21
13.2063468
0
LINE
8
DEFAULT_255_2_778
10
97.7602353
20
13.2063468
11
97.7602353
21
36.8063468
0
LINE
8
DEFAULT_255_2_778
10
98.2653353
20
36.7815468
11
94.9053353
21
37.6818468
0
LINE
8
DEFAULT_255_2_778
10
93.8102353
20
36.8415468
11
93.8102353
21
13.1716468
0
LINE
8
DEFAULT_255_2_778
10
94.9053353
20
12.3313468
11
98.2653353
21
13.2317468
0
LINE
8
DEFAULT_255_2_778
10
98.9101353
20
14.0720468
11
98.9101353
21
35.9414468
0
LINE
8
DEFAULT_255_2_778
10
98.2653353
20
36.7817468
11
98.2653353
21
36.7815468
0
LINE
8
DEFAULT_255_2_778
10
95.0702353
20
43.8114468
11
95.0702353
21
43.8114468
0
LINE
8
DEFAULT_255_2_778
10
95.3303353
20
43.8114468
11
95.3303353
21
43.8114468
0
LINE
8
DEFAULT_255_2_778
10
92.7701353
20
40.7613468
11
94.6087353
21
40.7613468
0
LINE
8
DEFAULT_255_2_778
10
98.1314353
20
40.7613468
11
99.9700353
21
40.7613468
0
LINE
8
DEFAULT_255_2_778
10
95.1871353
20
41.7564468
11
92.7696353
21
41.7564468
0
LINE
8
DEFAULT_255_2_778
10
92.7696353
20
41.7564468
11
92.7696353
21
39.9115468
0
LINE
8
DEFAULT_255_2_778
10
92.7696353
20
39.9115468
11
99.9697353
21
39.9115468
0
LINE
8
DEFAULT_255_2_778
10
99.9697353
20
39.9115468
11
99.9697353
21
41.7564468
0
LINE
8
DEFAULT_255_2_778
10
99.9697353
20
41.7564468
11
97.5522353
21
41.7564468
0
LINE
8
DEFAULT_255_2_778
10
95.0696353
20
6.2014468
11
95.0696353
21
6.2014468
0
LINE
8
DEFAULT_255_2_778
10
95.3297353
20
6.2014468
11
95.3297353
21
6.2014468
0
LINE
8
DEFAULT_255_2_778
10
99.9697353
20
9.2516468
11
98.1311353
21
9.2516468
0
LINE
8
DEFAULT_255_2_778
10
94.6085353
20
9.2516468
11
92.7699353
21
9.2516468
0
LINE
8
DEFAULT_255_2_778
10
97.5525353
20
8.2565468
11
99.9700353
21
8.2565468
0
LINE
8
DEFAULT_255_2_778
10
99.9700353
20
8.2565468
11
99.9700353
21
10.1014468
0
LINE
8
DEFAULT_255_2_778
10
99.9700353
20
10.1014468
11
92.7699353
21
10.1014468
0
LINE
8
DEFAULT_255_2_778
10
92.7699353
20
10.1014468
11
92.7699353
21
8.2565468
0
LINE
8
DEFAULT_255_2_778
10
92.7699353
20
8.2565468
11
95.1874353
21
8.2565468
0
LINE
8
DEFAULT_255_2_778
10
73.2198353
20
46.7562468
11
82.5699353
21
46.7562468
0
LINE
8
DEFAULT_255_2_778
10
82.5699353
20
46.7562468
11
82.5699353
21
3.2564468
0
LINE
8
DEFAULT_255_2_778
10
82.5699353
20
3.2564468
11
73.2198353
21
3.2564468
0
LINE
8
DEFAULT_255_2_778
10
73.2198353
20
3.2564468
11
73.2198353
21
46.7562468
0
LINE
8
DEFAULT_255_2_778
10
82.8946353
20
47.2563468
11
72.5446353
21
47.2563468
0
LINE
8
DEFAULT_255_2_778
10
72.5446353
20
47.2563468
11
72.5446353
21
2.7563468
0
LINE
8
DEFAULT_255_2_778
10
72.5446353
20
2.7563468
11
82.8946353
21
2.7563468
0
LINE
8
DEFAULT_255_2_778
10
82.8946353
20
2.7563468
11
82.8946353
21
47.2563468
0
LINE
8
DEFAULT_255_2_778
10
79.1597353
20
36.8063468
11
76.3596353
21
36.8063468
0
LINE
8
DEFAULT_255_2_778
10
76.3596353
20
36.8063468
11
76.3596353
21
13.2063468
0
LINE
8
DEFAULT_255_2_778
10
76.3596353
20
13.2063468
11
79.1597353
21
13.2063468
0
LINE
8
DEFAULT_255_2_778
10
79.1597353
20
13.2063468
11
79.1597353
21
36.8063468
0
LINE
8
DEFAULT_255_2_778
10
79.6648353
20
36.7815468
11
76.3049353
21
37.6818468
0
LINE
8
DEFAULT_255_2_778
10
75.2098353
20
36.8415468
11
75.2098353
21
13.1716468
0
LINE
8
DEFAULT_255_2_778
10
76.3049353
20
12.3313468
11
79.6648353
21
13.2317468
0
LINE
8
DEFAULT_255_2_778
10
80.3096353
20
14.0720468
11
80.3096353
21
35.9411468
0
LINE
8
DEFAULT_255_2_778
10
79.8302353
20
37.3612468
11
76.4702353
21
38.2615468
0
LINE
8
DEFAULT_255_2_778
10
74.6197353
20
36.8415468
11
74.6197353
21
13.1716468
0
LINE
8
DEFAULT_255_2_778
10
76.4702353
20
11.7516468
11
79.8302353
21
12.6520468
0
LINE
8
DEFAULT_255_2_778
10
80.9197353
20
14.0720468
11
80.9197353
21
35.9411468
0
LINE
8
DEFAULT_255_2_778
10
76.4697353
20
6.2014468
11
76.4697353
21
6.2014468
0
LINE
8
DEFAULT_255_2_778
10
76.7298353
20
6.2014468
11
76.7298353
21
6.2014468
0
LINE
8
DEFAULT_255_2_778
10
81.3698353
20
9.2516468
11
79.5312353
21
9.2516468
0
LINE
8
DEFAULT_255_2_778
10
76.0085353
20
9.2516468
11
74.1699353
21
9.2516468
0
LINE
8
DEFAULT_255_2_778
10
81.3700353
20
8.2565468
11
78.9525353
21
8.2565468
0
LINE
8
DEFAULT_255_2_778
10
76.5872353
20
8.2565468
11
74.1697353
21
8.2565468
0
LINE
8
DEFAULT_255_2_778
10
74.1697353
20
8.2565468
11
74.1697353
21
10.1014468
0
LINE
8
DEFAULT_255_2_778
10
74.1697353
20
10.1014468
11
81.3698353
21
10.1014468
0
LINE
8
DEFAULT_255_2_778
10
81.3698353
20
10.1014468
11
81.3698353
21
8.2565468
0
LINE
8
DEFAULT_255_2_778
10
76.4697353
20
43.8114468
11
76.4697353
21
43.8114468
0
LINE
8
DEFAULT_255_2_778
10
76.7298353
20
43.8114468
11
76.7298353
21
43.8114468
0
LINE
8
DEFAULT_255_2_778
10
74.1697353
20
40.7613468
11
76.0083353
21
40.7613468
0
LINE
8
DEFAULT_255_2_778
10
79.5309353
20
40.7613468
11
81.3695353
21
40.7613468
0
LINE
8
DEFAULT_255_2_778
10
81.3695353
20
41.7564468
11
78.9520353
21
41.7564468
0
LINE
8
DEFAULT_255_2_778
10
76.5866353
20
41.7564468
11
74.1691353
21
41.7564468
0
LINE
8
DEFAULT_255_2_778
10
74.1691353
20
41.7564468
11
74.1691353
21
39.9115468
0
LINE
8
DEFAULT_255_2_778
10
74.1691353
20
39.9115468
11
81.3693353
21
39.9115468
0
LINE
8
DEFAULT_255_2_778
10
81.3693353
20
39.9115468
11
81.3693353
21
41.7564468
0
LINE
8
DEFAULT_255_2_778
10
54.6199353
20
46.7562468
11
63.9700353
21
46.7562468
0
LINE
8
DEFAULT_255_2_778
10
63.9700353
20
46.7562468
11
63.9700353
21
3.2564468
0
LINE
8
DEFAULT_255_2_778
10
63.9700353
20
3.2564468
11
54.6199353
21
3.2564468
0
LINE
8
DEFAULT_255_2_778
10
54.6199353
20
3.2564468
11
54.6199353
21
46.7562468
0
LINE
8
DEFAULT_255_2_778
10
64.2946353
20
47.2563468
11
53.9447353
21
47.2563468
0
LINE
8
DEFAULT_255_2_778
10
53.9447353
20
47.2563468
11
53.9447353
21
2.7563468
0
LINE
8
DEFAULT_255_2_778
10
53.9447353
20
2.7563468
11
64.2946353
21
2.7563468
0
LINE
8
DEFAULT_255_2_778
10
64.2946353
20
2.7563468
11
64.2946353
21
47.2563468
0
LINE
8
DEFAULT_255_2_778
10
61.7097353
20
14.0717468
11
61.7097353
21
35.9411468
0
LINE
8
DEFAULT_255_2_778
10
61.0649353
20
36.7815468
11
57.7049353
21
37.6818468
0
LINE
8
DEFAULT_255_2_778
10
56.6098353
20
36.8415468
11
56.6098353
21
13.1716468
0
LINE
8
DEFAULT_255_2_778
10
57.7049353
20
12.3313468
11
61.0649353
21
13.2317468
0
LINE
8
DEFAULT_255_2_778
10
61.7097353
20
14.0720468
11
61.7097353
21
14.0717468
0
LINE
8
DEFAULT_255_2_778
10
60.5598353
20
36.8063468
11
57.7597353
21
36.8063468
0
LINE
8
DEFAULT_255_2_778
10
57.7597353
20
36.8063468
11
57.7597353
21
13.2063468
0
LINE
8
DEFAULT_255_2_778
10
57.7597353
20
13.2063468
11
60.5598353
21
13.2063468
0
LINE
8
DEFAULT_255_2_778
10
60.5598353
20
13.2063468
11
60.5598353
21
36.8063468
0
LINE
8
DEFAULT_255_2_778
10
61.2302353
20
37.3612468
11
57.8703353
21
38.2615468
0
LINE
8
DEFAULT_255_2_778
10
56.0198353
20
36.8415468
11
56.0198353
21
13.1716468
0
LINE
8
DEFAULT_255_2_778
10
57.8703353
20
11.7516468
11
61.2302353
21
12.6520468
0
LINE
8
DEFAULT_255_2_778
10
62.3198353
20
14.0720468
11
62.3198353
21
35.9411468
0
LINE
8
DEFAULT_255_2_778
10
57.8698353
20
6.2014468
11
57.8698353
21
6.2014468
0
LINE
8
DEFAULT_255_2_778
10
58.1298353
20
6.2014468
11
58.1298353
21
6.2014468
0
LINE
8
DEFAULT_255_2_778
10
62.7698353
20
9.2516468
11
60.9312353
21
9.2516468
0
LINE
8
DEFAULT_255_2_778
10
57.4086353
20
9.2516468
11
55.5700353
21
9.2516468
0
LINE
8
DEFAULT_255_2_778
10
62.7701353
20
8.2565468
11
60.3526353
21
8.2565468
0
LINE
8
DEFAULT_255_2_778
10
57.9872353
20
8.2565468
11
55.5697353
21
8.2565468
0
LINE
8
DEFAULT_255_2_778
10
55.5697353
20
8.2565468
11
55.5697353
21
10.1014468
0
LINE
8
DEFAULT_255_2_778
10
55.5697353
20
10.1014468
11
62.7698353
21
10.1014468
0
LINE
8
DEFAULT_255_2_778
10
62.7698353
20
10.1014468
11
62.7698353
21
8.2565468
0
LINE
8
DEFAULT_255_2_778
10
57.8698353
20
43.8114468
11
57.8698353
21
43.8114468
0
LINE
8
DEFAULT_255_2_778
10
58.1298353
20
43.8114468
11
58.1298353
21
43.8114468
0
LINE
8
DEFAULT_255_2_778
10
62.7698353
20
41.7564468
11
60.3523353
21
41.7564468
0
LINE
8
DEFAULT_255_2_778
10
57.9870353
20
41.7564468
11
55.5695353
21
41.7564468
0
LINE
8
DEFAULT_255_2_778
10
55.5695353
20
41.7564468
11
55.5695353
21
39.9115468
0
LINE
8
DEFAULT_255_2_778
10
55.5695353
20
39.9115468
11
62.7696353
21
39.9115468
0
LINE
8
DEFAULT_255_2_778
10
62.7696353
20
39.9115468
11
62.7696353
21
41.7564468
0
LINE
8
DEFAULT_255_2_778
10
55.5695353
20
40.7613468
11
57.4081353
21
40.7613468
0
LINE
8
DEFAULT_255_2_778
10
60.9307353
20
40.7613468
11
62.7693353
21
40.7613468
0
LINE
8
DEFAULT_255_2_778
10
35.9697353
20
46.7562468
11
45.3198353
21
46.7562468
0
LINE
8
DEFAULT_255_2_778
10
45.3198353
20
46.7562468
11
45.3198353
21
3.2564468
0
LINE
8
DEFAULT_255_2_778
10
45.3198353
20
3.2564468
11
35.9697353
21
3.2564468
0
LINE
8
DEFAULT_255_2_778
10
35.9697353
20
3.2564468
11
35.9697353
21
46.7562468
0
LINE
8
DEFAULT_255_2_778
10
45.8196353
20
47.2563468
11
35.4696353
21
47.2563468
0
LINE
8
DEFAULT_255_2_778
10
35.4696353
20
47.2563468
11
35.4696353
21
2.7563468
0
LINE
8
DEFAULT_255_2_778
10
35.4696353
20
2.7563468
11
45.8196353
21
2.7563468
0
LINE
8
DEFAULT_255_2_778
10
45.8196353
20
2.7563468
11
45.8196353
21
47.2563468
0
LINE
8
DEFAULT_255_2_778
10
42.5800353
20
37.3609468
11
39.2201353
21
38.2613468
0
LINE
8
DEFAULT_255_2_778
10
37.3696353
20
36.8413468
11
37.3696353
21
13.1714468
0
LINE
8
DEFAULT_255_2_778
10
39.2201353
20
11.7513468
11
42.5800353
21
12.6517468
0
LINE
8
DEFAULT_255_2_778
10
43.6696353
20
14.0717468
11
43.6696353
21
35.9409468
0
LINE
8
DEFAULT_255_2_778
10
42.4247353
20
36.7812468
11
39.0648353
21
37.6816468
0
LINE
8
DEFAULT_255_2_778
10
37.9696353
20
36.8413468
11
37.9696353
21
13.1714468
0
LINE
8
DEFAULT_255_2_778
10
39.0648353
20
12.3310468
11
42.4247353
21
13.2314468
0
LINE
8
DEFAULT_255_2_778
10
43.0695353
20
14.0717468
11
43.0695353
21
35.9409468
0
LINE
8
DEFAULT_255_2_778
10
41.9196353
20
36.8061468
11
39.1195353
21
36.8061468
0
LINE
8
DEFAULT_255_2_778
10
39.1195353
20
36.8061468
11
39.1195353
21
13.2060468
0
LINE
8
DEFAULT_255_2_778
10
39.1195353
20
13.2060468
11
41.9196353
21
13.2060468
0
LINE
8
DEFAULT_255_2_778
10
41.9196353
20
13.2060468
11
41.9196353
21
36.8061468
0
LINE
8
DEFAULT_255_2_778
10
39.2195353
20
6.2012468
11
39.2195353
21
6.2012468
0
LINE
8
DEFAULT_255_2_778
10
39.4796353
20
6.2012468
11
39.4796353
21
6.2012468
0
LINE
8
DEFAULT_255_2_778
10
44.1196353
20
8.2562468
11
44.1196353
21
10.1011468
0
LINE
8
DEFAULT_255_2_778
10
44.1196353
20
10.1011468
11
36.9195353
21
10.1011468
0
LINE
8
DEFAULT_255_2_778
10
36.9195353
20
10.1011468
11
36.9195353
21
8.2562468
0
LINE
8
DEFAULT_255_2_778
10
36.9195353
20
8.2562468
11
39.3370353
21
8.2562468
0
LINE
8
DEFAULT_255_2_778
10
41.7024353
20
8.2562468
11
44.1199353
21
8.2562468
0
LINE
8
DEFAULT_255_2_778
10
44.1199353
20
9.2513468
11
42.2813353
21
9.2513468
0
LINE
8
DEFAULT_255_2_778
10
38.7586353
20
9.2513468
11
36.9200353
21
9.2513468
0
LINE
8
DEFAULT_255_2_778
10
39.2201353
20
43.8114468
11
39.2201353
21
43.8114468
0
LINE
8
DEFAULT_255_2_778
10
39.4802353
20
43.8114468
11
39.4802353
21
43.8114468
0
LINE
8
DEFAULT_255_2_778
10
36.9200353
20
40.7613468
11
38.7586353
21
40.7613468
0
LINE
8
DEFAULT_255_2_778
10
42.2813353
20
40.7613468
11
44.1199353
21
40.7613468
0
LINE
8
DEFAULT_255_2_778
10
39.3373353
20
41.7564468
11
36.9198353
21
41.7564468
0
LINE
8
DEFAULT_255_2_778
10
36.9198353
20
41.7564468
11
36.9198353
21
39.9115468
0
LINE
8
DEFAULT_255_2_778
10
36.9198353
20
39.9115468
11
44.1199353
21
39.9115468
0
LINE
8
DEFAULT_255_2_778
10
44.1199353
20
39.9115468
11
44.1199353
21
41.7564468
0
LINE
8
DEFAULT_255_2_778
10
44.1199353
20
41.7564468
11
41.7024353
21
41.7564468
0
ARC
8
DEFAULT_255_2_778
10
20.9698579
20
50.7662648
40
1.8094727
50
221.7597844
51
267.7080092
0
ARC
8
DEFAULT_255_2_778
10
20.9702535
20
50.7673192
40
1.8105422
50
267.6968355
51
269.999864
0
ARC
8
DEFAULT_255_2_778
10
20.9700921
20
50.7663548
40
1.8095777
50
270.0049724
51
313.6472775
0
ARC
8
DEFAULT_255_2_778
10
20.9700921
20
39.6472244
40
1.8095778
50
46.3527225
51
89.9950276
0
ARC
8
DEFAULT_255_2_778
10
20.9702535
20
39.64626
40
1.8105421
50
90.000136
51
92.3031645
0
ARC
8
DEFAULT_255_2_778
10
20.9698582
20
39.647314
40
1.8094732
50
92.2919996
51
138.2402125
0
ARC
8
DEFAULT_255_2_778
10
20.9699996
20
40.266365
40
1.8095785
50
221.7568023
51
267.7036541
0
ARC
8
DEFAULT_255_2_778
10
20.9699522
20
40.2692148
40
1.8124242
50
267.7087598
51
269.9998981
0
ARC
8
DEFAULT_255_2_778
10
20.9699726
20
40.2667026
40
1.8099121
50
269.9992529
51
313.6424169
0
ARC
8
DEFAULT_255_2_778
10
20.9699726
20
43.1470766
40
1.809912
50
46.3575831
51
90.0007471
0
ARC
8
DEFAULT_255_2_778
10
20.9699522
20
43.1445644
40
1.8124243
50
90.0001019
51
92.2912402
0
ARC
8
DEFAULT_255_2_778
10
20.9698578
20
43.147515
40
1.8094722
50
92.291987
51
138.2402265
0
ARC
8
DEFAULT_255_2_778
10
20.9698583
20
43.7664656
40
1.8094735
50
221.7597947
51
267.7079979
0
ARC
8
DEFAULT_255_2_778
10
20.9702535
20
43.7675192
40
1.8105422
50
267.6968355
51
269.999864
0
ARC
8
DEFAULT_255_2_778
10
20.9700921
20
43.7665548
40
1.8095777
50
270.0049724
51
313.6472775
0
ARC
8
DEFAULT_255_2_778
10
20.9699726
20
46.6472766
40
1.809912
50
46.3575831
51
90.0007471
0
ARC
8
DEFAULT_255_2_778
10
20.9699522
20
46.6447644
40
1.8124243
50
90.0001019
51
92.2912402
0
ARC
8
DEFAULT_255_2_778
10
20.9699992
20
46.647615
40
1.8095778
50
92.2963346
51
138.243208
0
ARC
8
DEFAULT_255_2_778
10
20.9701821
20
47.2670514
40
1.8099719
50
221.7620778
51
267.6983713
0
ARC
8
DEFAULT_255_2_778
10
20.9699513
20
47.2694729
40
1.8123823
50
267.7087345
51
269.9998981
0
ARC
8
DEFAULT_255_2_778
10
20.9700007
20
47.2666708
40
1.8095803
50
269.9983364
51
313.6512088
0
ARC
8
DEFAULT_255_2_778
10
17.8701139
20
40.2659026
40
1.809912
50
226.3575831
51
270.0007471
0
ARC
8
DEFAULT_255_2_778
10
17.8701343
20
40.2684148
40
1.8124243
50
270.0001019
51
272.2912402
0
ARC
8
DEFAULT_255_2_778
10
17.8700868
20
40.2655652
40
1.8095788
50
272.2963503
51
318.2431961
0
ARC
8
DEFAULT_255_2_778
10
17.8702287
20
39.6465146
40
1.8094725
50
41.7597808
51
87.7080105
0
ARC
8
DEFAULT_255_2_778
10
17.869833
20
39.64546
40
1.8105422
50
87.6968355
51
89.999864
0
ARC
8
DEFAULT_255_2_778
10
17.8699944
20
39.6464244
40
1.8095777
50
90.0049724
51
133.6472775
0
ARC
8
DEFAULT_255_2_778
10
17.8701139
20
36.7657026
40
1.809912
50
226.3575831
51
270.0007471
0
ARC
8
DEFAULT_255_2_778
10
17.8701343
20
36.7682148
40
1.8124243
50
270.0001019
51
272.2912402
0
ARC
8
DEFAULT_255_2_778
10
17.8699044
20
36.7657514
40
1.8099719
50
272.3016287
51
318.2379222
0
ARC
8
DEFAULT_255_2_778
10
17.8699044
20
36.1459278
40
1.8099719
50
41.7620778
51
87.6983713
0
ARC
8
DEFAULT_255_2_778
10
17.8701343
20
36.1434644
40
1.8124242
50
87.7087598
51
89.9998981
0
ARC
8
DEFAULT_255_2_778
10
17.8701139
20
36.1459766
40
1.8099121
50
89.9992529
51
133.6424169
0
ARC
8
DEFAULT_255_2_778
10
17.8699944
20
33.2652548
40
1.8095778
50
226.3527225
51
269.9950276
0
ARC
8
DEFAULT_255_2_778
10
17.869833
20
33.2662192
40
1.8105421
50
270.000136
51
272.3031645
0
ARC
8
DEFAULT_255_2_778
10
17.870228
20
33.2651652
40
1.8094732
50
272.2920089
51
318.2402187
0
ARC
8
DEFAULT_255_2_778
10
17.8700871
20
32.6461148
40
1.809578
50
41.7567914
51
87.703658
0
ARC
8
DEFAULT_255_2_778
10
17.8701343
20
32.6432644
40
1.8124242
50
87.7087598
51
89.9998981
0
ARC
8
DEFAULT_255_2_778
10
17.8701139
20
32.6457766
40
1.8099121
50
89.9992529
51
133.6424169
0
ARC
8
DEFAULT_255_2_778
10
17.8699944
20
50.7650548
40
1.8095778
50
226.3527225
51
269.9950276
0
ARC
8
DEFAULT_255_2_778
10
17.869833
20
50.7660192
40
1.8105421
50
270.000136
51
272.3031645
0
ARC
8
DEFAULT_255_2_778
10
17.8702282
20
50.7649656
40
1.8094736
50
272.2920021
51
318.2402053
0
ARC
8
DEFAULT_255_2_778
10
17.8700872
20
50.1459146
40
1.809578
50
41.7567992
51
87.7036629
0
ARC
8
DEFAULT_255_2_778
10
17.8701343
20
50.1430644
40
1.8124242
50
87.7087598
51
89.9998981
0
ARC
8
DEFAULT_255_2_778
10
17.8701139
20
50.1455766
40
1.8099121
50
89.9992529
51
133.6424169
0
ARC
8
DEFAULT_255_2_778
10
17.8701139
20
47.2652026
40
1.809912
50
226.3575831
51
270.0007471
0
ARC
8
DEFAULT_255_2_778
10
17.8701343
20
47.2677148
40
1.8124243
50
270.0001019
51
272.2912402
0
ARC
8
DEFAULT_255_2_778
10
17.8702282
20
47.2647652
40
1.8094732
50
272.2920027
51
318.2402146
0
ARC
8
DEFAULT_255_2_778
10
17.8702288
20
46.645815
40
1.8094722
50
41.7597735
51
87.708013
0
ARC
8
DEFAULT_255_2_778
10
17.869833
20
46.64476
40
1.8105422
50
87.6968355
51
89.999864
0
ARC
8
DEFAULT_255_2_778
10
17.8699944
20
46.6457244
40
1.8095777
50
90.0049724
51
133.6472775
0
ARC
8
DEFAULT_255_2_778
10
17.8701139
20
43.7650026
40
1.809912
50
226.3575831
51
270.0007471
0
ARC
8
DEFAULT_255_2_778
10
17.8701343
20
43.7675148
40
1.8124243
50
270.0001019
51
272.2912402
0
ARC
8
DEFAULT_255_2_778
10
17.8699044
20
43.7650514
40
1.8099719
50
272.3016287
51
318.2379222
0
ARC
8
DEFAULT_255_2_778
10
17.8699044
20
43.1452278
40
1.8099719
50
41.7620778
51
87.6983713
0
ARC
8
DEFAULT_255_2_778
10
17.8701743
20
43.1440207
40
1.8111673
50
87.7084363
51
90.0000615
0
ARC
8
DEFAULT_255_2_778
10
17.8702725
20
43.1451401
40
1.8100479
50
90.0031685
51
133.6452504
0
ARC
8
DEFAULT_255_2_778
10
20.9697921
20
29.1451244
40
1.8095778
50
46.3527225
51
89.9950276
0
ARC
8
DEFAULT_255_2_778
10
20.9699535
20
29.14416
40
1.8105421
50
90.000136
51
92.3031645
0
ARC
8
DEFAULT_255_2_778
10
20.9696439
20
29.1450324
40
1.809658
50
92.2944809
51
138.2377313
0
ARC
8
DEFAULT_255_2_778
10
20.9696439
20
29.7643467
40
1.8096579
50
221.7622663
51
267.705519
0
ARC
8
DEFAULT_255_2_778
10
20.9696522
20
29.7671148
40
1.8124242
50
267.7087598
51
269.9998981
0
ARC
8
DEFAULT_255_2_778
10
20.9696726
20
29.7646026
40
1.8099121
50
269.9992529
51
313.6424169
0
ARC
8
DEFAULT_255_2_778
10
20.9696726
20
32.6449766
40
1.809912
50
46.3575831
51
90.0007471
0
ARC
8
DEFAULT_255_2_778
10
20.9696522
20
32.6424644
40
1.8124243
50
90.0001019
51
92.2912402
0
ARC
8
DEFAULT_255_2_778
10
20.9697858
20
32.6451318
40
1.8097643
50
92.2988419
51
138.240708
0
ARC
8
DEFAULT_255_2_778
10
20.9696449
20
33.2645486
40
1.80966
50
221.7622922
51
267.7054907
0
ARC
8
DEFAULT_255_2_778
10
20.9699535
20
33.2654192
40
1.8105422
50
267.6968355
51
269.999864
0
ARC
8
DEFAULT_255_2_778
10
20.9697921
20
33.2644548
40
1.8095777
50
270.0049724
51
313.6472775
0
ARC
8
DEFAULT_255_2_778
10
20.9694862
20
36.144709
40
1.8103791
50
46.3635287
51
89.9959189
0
ARC
8
DEFAULT_255_2_778
10
20.9696134
20
36.1438602
40
1.8112278
50
89.9999433
51
92.2915243
0
ARC
8
DEFAULT_255_2_778
10
20.9699683
20
36.1449452
40
1.8101579
50
92.304123
51
138.2354267
0
ARC
8
DEFAULT_255_2_778
10
20.9699683
20
36.7651339
40
1.8101578
50
221.764571
51
267.6958769
0
ARC
8
DEFAULT_255_2_778
10
20.9696522
20
36.7674148
40
1.8124242
50
267.7087598
51
269.9998981
0
ARC
8
DEFAULT_255_2_778
10
20.9696726
20
36.7649026
40
1.8099121
50
269.9992529
51
313.6424169
0
ARC
8
DEFAULT_255_2_778
10
20.9697921
20
22.1474244
40
1.8095778
50
46.3527225
51
89.9950276
0
ARC
8
DEFAULT_255_2_778
10
20.9699535
20
22.14646
40
1.8105421
50
90.000136
51
92.3031645
0
ARC
8
DEFAULT_255_2_778
10
20.9696446
20
22.1473315
40
1.8096591
50
92.2945028
51
138.2377236
0
ARC
8
DEFAULT_255_2_778
10
20.9696449
20
22.7666486
40
1.80966
50
221.7622922
51
267.7054907
0
ARC
8
DEFAULT_255_2_778
10
20.9696522
20
22.7694148
40
1.8124242
50
267.7087598
51
269.9998981
0
ARC
8
DEFAULT_255_2_778
10
20.9696726
20
22.7669026
40
1.8099121
50
269.9992529
51
313.6424169
0
ARC
8
DEFAULT_255_2_778
10
20.9696726
20
25.6472766
40
1.809912
50
46.3575831
51
90.0007471
0
ARC
8
DEFAULT_255_2_778
10
20.9696522
20
25.6447644
40
1.8124243
50
90.0001019
51
92.2912402
0
ARC
8
DEFAULT_255_2_778
10
20.9697852
20
25.647433
40
1.8097631
50
92.2988249
51
138.2407235
0
ARC
8
DEFAULT_255_2_778
10
20.9696446
20
26.2668476
40
1.8096591
50
221.7622741
51
267.705497
0
ARC
8
DEFAULT_255_2_778
10
20.9699535
20
26.2677192
40
1.8105422
50
267.6968355
51
269.999864
0
ARC
8
DEFAULT_255_2_778
10
20.9697921
20
26.2667548
40
1.8095777
50
270.0049724
51
313.6472775
0
ARC
8
DEFAULT_255_2_778
10
20.9697921
20
8.1475244
40
1.8095778
50
46.3527225
51
89.9950276
0
ARC
8
DEFAULT_255_2_778
10
20.9699535
20
8.14656
40
1.8105421
50
90.000136
51
92.3031645
0
ARC
8
DEFAULT_255_2_778
10
20.9696449
20
8.1474305
40
1.80966
50
92.2945092
51
138.2377055
0
ARC
8
DEFAULT_255_2_778
10
20.9696441
20
8.7667476
40
1.8096588
50
221.7622844
51
267.7055126
0
ARC
8
DEFAULT_255_2_778
10
20.9696522
20
8.7695148
40
1.8124242
50
267.7087598
51
269.9998981
0
ARC
8
DEFAULT_255_2_778
10
20.9696726
20
8.7670026
40
1.8099121
50
269.9992529
51
313.6424169
0
ARC
8
DEFAULT_255_2_778
10
20.9696726
20
15.1475766
40
1.809912
50
46.3575831
51
90.0007471
0
ARC
8
DEFAULT_255_2_778
10
20.9696522
20
15.1450644
40
1.8124243
50
90.0001019
51
92.2912402
0
ARC
8
DEFAULT_255_2_778
10
20.9699683
20
15.1473452
40
1.8101579
50
92.304123
51
138.2354267
0
ARC
8
DEFAULT_255_2_778
10
20.9696441
20
15.7671472
40
1.8096584
50
221.7622772
51
267.7055152
0
ARC
8
DEFAULT_255_2_778
10
20.9699544
20
15.7680609
40
1.8105839
50
267.6968608
51
269.9998641
0
ARC
8
DEFAULT_255_2_778
10
20.9697649
20
15.7673853
40
1.8099083
50
270.0058613
51
313.6384933
0
ARC
8
DEFAULT_255_2_778
10
17.8700216
20
15.7673853
40
1.8099082
50
226.3615067
51
269.9941387
0
ARC
8
DEFAULT_255_2_778
10
17.8698322
20
15.7680609
40
1.8105838
50
270.0001359
51
272.3031392
0
ARC
8
DEFAULT_255_2_778
10
17.8702285
20
15.7669652
40
1.8094732
50
272.2919933
51
318.2402084
0
ARC
8
DEFAULT_255_2_778
10
17.8699044
20
15.1475278
40
1.8099719
50
41.7620778
51
87.6983713
0
ARC
8
DEFAULT_255_2_778
10
17.8701343
20
15.1450644
40
1.8124242
50
87.7087598
51
89.9998981
0
ARC
8
DEFAULT_255_2_778
10
17.8701139
20
15.1475766
40
1.8099121
50
89.9992529
51
133.6424169
0
ARC
8
DEFAULT_255_2_778
10
17.8699944
20
12.2668548
40
1.8095778
50
226.3527225
51
269.9950276
0
ARC
8
DEFAULT_255_2_778
10
17.869833
20
12.2678192
40
1.8105421
50
270.000136
51
272.3031645
0
ARC
8
DEFAULT_255_2_778
10
17.8702279
20
12.2667656
40
1.8094736
50
272.2920115
51
318.2402115
0
ARC
8
DEFAULT_255_2_778
10
17.8702695
20
11.6481011
40
1.8091846
50
41.7515103
51
87.7089388
0
ARC
8
DEFAULT_255_2_778
10
17.8701343
20
11.6448644
40
1.8124242
50
87.7087598
51
89.9998981
0
ARC
8
DEFAULT_255_2_778
10
17.8701139
20
11.6473766
40
1.8099121
50
89.9992529
51
133.6424169
0
ARC
8
DEFAULT_255_2_778
10
17.8699944
20
26.2638548
40
1.8095778
50
226.3527225
51
269.9950276
0
ARC
8
DEFAULT_255_2_778
10
17.869833
20
26.2648192
40
1.8105421
50
270.000136
51
272.3031645
0
ARC
8
DEFAULT_255_2_778
10
17.8702282
20
26.2637654
40
1.8094734
50
272.292004
51
318.2402109
0
ARC
8
DEFAULT_255_2_778
10
17.8699044
20
25.6443278
40
1.8099719
50
41.7620778
51
87.6983713
0
ARC
8
DEFAULT_255_2_778
10
17.8701343
20
25.6418644
40
1.8124242
50
87.7087598
51
89.9998981
0
ARC
8
DEFAULT_255_2_778
10
17.8701139
20
25.6443766
40
1.8099121
50
89.9992529
51
133.6424169
0
ARC
8
DEFAULT_255_2_778
10
17.8701139
20
29.7638026
40
1.809912
50
226.3575831
51
270.0007471
0
ARC
8
DEFAULT_255_2_778
10
17.8701343
20
29.7663148
40
1.8124243
50
270.0001019
51
272.2912402
0
ARC
8
DEFAULT_255_2_778
10
17.8700872
20
29.7634646
40
1.8095782
50
272.2963371
51
318.2432008
0
ARC
8
DEFAULT_255_2_778
10
17.8702284
20
29.1444142
40
1.809473
50
41.7597838
51
87.7080017
0
ARC
8
DEFAULT_255_2_778
10
17.869833
20
29.14336
40
1.8105422
50
87.6968355
51
89.999864
0
ARC
8
DEFAULT_255_2_778
10
17.8699944
20
29.1443244
40
1.8095777
50
90.0049724
51
133.6472775
0
ARC
8
DEFAULT_255_2_778
10
17.8702725
20
22.7635391
40
1.8100479
50
226.3547496
51
269.9968315
0
ARC
8
DEFAULT_255_2_778
10
17.8701743
20
22.7646585
40
1.8111673
50
269.9999385
51
272.2915637
0
ARC
8
DEFAULT_255_2_778
10
17.8699044
20
22.7634514
40
1.8099719
50
272.3016287
51
318.2379222
0
ARC
8
DEFAULT_255_2_778
10
17.8700865
20
22.1440136
40
1.8095792
50
41.7568069
51
87.7036409
0
ARC
8
DEFAULT_255_2_778
10
17.8701343
20
22.1411644
40
1.8124242
50
87.7087598
51
89.9998981
0
ARC
8
DEFAULT_255_2_778
10
17.8701139
20
22.1436766
40
1.8099121
50
89.9992529
51
133.6424169
0
ARC
8
DEFAULT_255_2_778
10
20.9697921
20
50.1467244
40
1.8095778
50
46.3527225
51
89.9950276
0
ARC
8
DEFAULT_255_2_778
10
20.9699535
20
50.14576
40
1.8105421
50
90.000136
51
92.3031645
0
ARC
8
DEFAULT_255_2_778
10
20.9697854
20
50.1465324
40
1.8097637
50
92.2988287
51
138.2407126
0
ARC
8
DEFAULT_255_2_778
10
20.9697921
20
18.6467244
40
1.8095778
50
46.3527225
51
89.9950276
0
ARC
8
DEFAULT_255_2_778
10
20.9699535
20
18.64576
40
1.8105421
50
90.000136
51
92.3031645
0
ARC
8
DEFAULT_255_2_778
10
20.9696439
20
18.6466324
40
1.809658
50
92.2944809
51
138.2377313
0
ARC
8
DEFAULT_255_2_778
10
20.9696446
20
19.2659476
40
1.8096591
50
221.7622741
51
267.705497
0
ARC
8
DEFAULT_255_2_778
10
20.9696522
20
19.2687148
40
1.8124242
50
267.7087598
51
269.9998981
0
ARC
8
DEFAULT_255_2_778
10
20.9696726
20
19.2662026
40
1.8099121
50
269.9992529
51
313.6424169
0
ARC
8
DEFAULT_255_2_778
10
20.9696726
20
11.6465766
40
1.809912
50
46.3575831
51
90.0007471
0
ARC
8
DEFAULT_255_2_778
10
20.9696522
20
11.6440644
40
1.8124243
50
90.0001019
51
92.2912402
0
ARC
8
DEFAULT_255_2_778
10
20.9696441
20
11.6468315
40
1.809659
50
92.2944873
51
138.2377132
0
ARC
8
DEFAULT_255_2_778
10
20.9696443
20
12.2661472
40
1.8096587
50
221.762271
51
267.7055058
0
ARC
8
DEFAULT_255_2_778
10
20.9699535
20
12.2670192
40
1.8105422
50
267.6968355
51
269.999864
0
ARC
8
DEFAULT_255_2_778
10
20.9697921
20
12.2660548
40
1.8095777
50
270.0049724
51
313.6472775
0
ARC
8
DEFAULT_255_2_778
10
17.8701139
20
19.2662026
40
1.809912
50
226.3575831
51
270.0007471
0
ARC
8
DEFAULT_255_2_778
10
17.8701343
20
19.2687148
40
1.8124243
50
270.0001019
51
272.2912402
0
ARC
8
DEFAULT_255_2_778
10
17.870228
20
19.2657652
40
1.8094732
50
272.2920089
51
318.2402187
0
ARC
8
DEFAULT_255_2_778
10
17.8702284
20
18.6468142
40
1.809473
50
41.7597838
51
87.7080017
0
ARC
8
DEFAULT_255_2_778
10
17.869833
20
18.64576
40
1.8105422
50
87.6968355
51
89.999864
0
ARC
8
DEFAULT_255_2_778
10
17.8699944
20
18.6467244
40
1.8095777
50
90.0049724
51
133.6472775
0
ARC
8
DEFAULT_255_2_778
10
17.8701139
20
8.7654026
40
1.809912
50
226.3575831
51
270.0007471
0
ARC
8
DEFAULT_255_2_778
10
17.8701343
20
8.7679148
40
1.8124243
50
270.0001019
51
272.2912402
0
ARC
8
DEFAULT_255_2_778
10
17.8700872
20
8.7650646
40
1.8095782
50
272.2963371
51
318.2432008
0
ARC
8
DEFAULT_255_2_778
10
17.8702285
20
8.146014
40
1.809473
50
41.7597916
51
87.7080067
0
ARC
8
DEFAULT_255_2_778
10
17.869833
20
8.14496
40
1.8105422
50
87.6968355
51
89.999864
0
ARC
8
DEFAULT_255_2_778
10
17.8699944
20
8.1459244
40
1.8095777
50
90.0049724
51
133.6472775
0
ARC
8
DEFAULT_255_2_778
10
20.7197393
20
72.7563686
40
1.750046
50
120.0008702
51
179.9976742
0
ARC
8
DEFAULT_255_2_778
10
20.7191985
20
72.7580382
40
1.7483297
50
93.6986408
51
120.0128815
0
ARC
8
DEFAULT_255_2_778
10
20.7196538
20
72.7543445
40
1.752045
50
89.9999364
51
93.7057077
0
LINE
8
DEFAULT_255_2_778
10
20.7196558
20
74.5063896
11
20.7200165
21
74.5063896
0
ARC
8
DEFAULT_255_2_778
10
20.7199433
20
72.7573295
40
1.7490601
50
61.4288555
51
89.9976029
0
ARC
8
DEFAULT_255_2_778
10
20.7165187
20
72.7507455
40
1.75648
50
60.0024641
51
61.4334596
0
ARC
8
DEFAULT_255_2_778
10
20.7196405
20
72.7564802
40
1.7499527
50
359.9986718
51
59.9971127
0
ARC
8
DEFAULT_255_2_778
10
20.7196405
20
72.756399
40
1.7499527
50
300.0028873
51
0.0013282
0
ARC
8
DEFAULT_255_2_778
10
20.7200618
20
72.7552954
40
1.7487863
50
273.709739
51
300.0090139
0
ARC
8
DEFAULT_255_2_778
10
20.7196559
20
72.758535
40
1.7520456
50
270.0117944
51
273.7161333
0
LINE
8
DEFAULT_255_2_778
10
20.7200165
20
71.0064896
11
20.7196558
21
71.0064896
0
ARC
8
DEFAULT_255_2_778
10
20.7193377
20
72.7551613
40
1.7486717
50
241.4261775
51
270.0104209
0
ARC
8
DEFAULT_255_2_778
10
20.722579
20
72.7613658
40
1.7556707
50
239.9981005
51
241.4301293
0
ARC
8
DEFAULT_255_2_778
10
20.7197393
20
72.7565106
40
1.750046
50
180.0023258
51
239.9991298
0
LINE
8
DEFAULT_255_2_778
10
22.4198933
20
46.6565396
11
25.0199933
21
46.6565396
0
LINE
8
DEFAULT_255_2_778
10
22.4198933
20
47.2566396
11
25.0199933
21
47.2566396
0
LINE
8
DEFAULT_255_2_778
10
22.4198933
20
47.5453396
11
25.0199933
21
47.5453396
0
LINE
8
DEFAULT_255_2_778
10
25.0199933
20
45.6567396
11
25.0199933
21
48.2567396
0
LINE
8
DEFAULT_255_2_778
10
25.0199933
20
48.2567396
11
22.4198933
21
48.2567396
0
LINE
8
DEFAULT_255_2_778
10
22.4198933
20
48.2567396
11
22.4198933
21
45.6567396
0
LINE
8
DEFAULT_255_2_778
10
22.4198933
20
45.6567396
11
25.0199933
21
45.6567396
0
LINE
8
DEFAULT_255_2_778
10
22.4198933
20
46.3679396
11
25.0199933
21
46.3679396
0
LINE
8
DEFAULT_255_2_778
10
25.0199933
20
42.1565396
11
25.0199933
21
44.7566396
0
LINE
8
DEFAULT_255_2_778
10
25.0199933
20
44.7566396
11
22.4198933
21
44.7566396
0
LINE
8
DEFAULT_255_2_778
10
22.4198933
20
44.7566396
11
22.4198933
21
42.1565396
0
LINE
8
DEFAULT_255_2_778
10
22.4198933
20
42.1565396
11
25.0199933
21
42.1565396
0
LINE
8
DEFAULT_255_2_778
10
22.4198933
20
50.1565396
11
25.0199933
21
50.1565396
0
LINE
8
DEFAULT_255_2_778
10
22.4198933
20
50.7565396
11
25.0199933
21
50.7565396
0
LINE
8
DEFAULT_255_2_778
10
22.4198933
20
49.8678396
11
25.0199933
21
49.8678396
0
LINE
8
DEFAULT_255_2_778
10
22.4198933
20
51.0452396
11
25.0199933
21
51.0452396
0
LINE
8
DEFAULT_255_2_778
10
25.0199933
20
49.1566396
11
25.0199933
21
51.7567396
0
LINE
8
DEFAULT_255_2_778
10
25.0199933
20
51.7567396
11
22.4198933
21
51.7567396
0
LINE
8
DEFAULT_255_2_778
10
22.4198933
20
51.7567396
11
22.4198933
21
49.1566396
0
LINE
8
DEFAULT_255_2_778
10
22.4198933
20
49.1566396
11
25.0199933
21
49.1566396
0
LINE
8
DEFAULT_255_2_778
10
19.6200933
20
51.3524396
11
19.6200933
21
49.5611396
0
LINE
8
DEFAULT_255_2_778
10
22.2190933
20
49.4569396
11
22.4201933
21
49.4569396
0
LINE
8
DEFAULT_255_2_778
10
25.0201933
20
49.7069396
11
27.1201933
21
49.7069396
0
LINE
8
DEFAULT_255_2_778
10
27.1201933
20
51.2068396
11
25.0201933
21
51.2068396
0
LINE
8
DEFAULT_255_2_778
10
25.0201933
20
39.2069396
11
27.1201933
21
39.2069396
0
LINE
8
DEFAULT_255_2_778
10
27.1201933
20
40.7069396
11
25.0201933
21
40.7069396
0
LINE
8
DEFAULT_255_2_778
10
25.0201933
20
42.7068396
11
27.1201933
21
42.7068396
0
LINE
8
DEFAULT_255_2_778
10
27.1201933
20
44.2068396
11
25.0201933
21
44.2068396
0
LINE
8
DEFAULT_255_2_778
10
25.0201933
20
46.2068396
11
27.1201933
21
46.2068396
0
LINE
8
DEFAULT_255_2_778
10
27.1201933
20
47.7067396
11
25.0201933
21
47.7067396
0
LINE
8
DEFAULT_255_2_778
10
22.4201933
20
40.9566396
11
22.2190933
21
40.9566396
0
LINE
8
DEFAULT_255_2_778
10
19.6200933
20
40.8524396
11
19.6200933
21
39.0612396
0
LINE
8
DEFAULT_255_2_778
10
22.2190933
20
38.9569396
11
22.4201933
21
38.9569396
0
LINE
8
DEFAULT_255_2_778
10
22.4201933
20
44.4568396
11
22.2190933
21
44.4568396
0
LINE
8
DEFAULT_255_2_778
10
19.6200933
20
44.3526396
11
19.6200933
21
42.5613396
0
LINE
8
DEFAULT_255_2_778
10
22.2190933
20
42.4571396
11
22.4201933
21
42.4571396
0
LINE
8
DEFAULT_255_2_778
10
22.4201933
20
47.9570396
11
22.2190933
21
47.9570396
0
LINE
8
DEFAULT_255_2_778
10
19.6200933
20
47.8527396
11
19.6200933
21
46.0615396
0
LINE
8
DEFAULT_255_2_778
10
22.2190933
20
45.9573396
11
22.4201933
21
45.9573396
0
LINE
8
DEFAULT_255_2_778
10
22.4201933
20
43.7572396
11
25.0201933
21
43.7572396
0
LINE
8
DEFAULT_255_2_778
10
25.0201933
20
41.2572396
11
22.4201933
21
41.2572396
0
LINE
8
DEFAULT_255_2_778
10
22.4201933
20
41.2572396
11
22.4201933
21
38.6571396
0
LINE
8
DEFAULT_255_2_778
10
22.4201933
20
38.6571396
11
25.0201933
21
38.6571396
0
LINE
8
DEFAULT_255_2_778
10
25.0201933
20
38.6571396
11
25.0201933
21
41.2572396
0
LINE
8
DEFAULT_255_2_778
10
22.4201933
20
40.2571396
11
25.0201933
21
40.2571396
0
LINE
8
DEFAULT_255_2_778
10
22.4201933
20
39.3683396
11
25.0201933
21
39.3683396
0
LINE
8
DEFAULT_255_2_778
10
22.4201933
20
39.6570396
11
25.0201933
21
39.6570396
0
LINE
8
DEFAULT_255_2_778
10
25.0201933
20
35.1570396
11
25.0201933
21
37.7570396
0
LINE
8
DEFAULT_255_2_778
10
25.0201933
20
37.7570396
11
22.4201933
21
37.7570396
0
LINE
8
DEFAULT_255_2_778
10
22.4201933
20
37.7570396
11
22.4201933
21
35.1570396
0
LINE
8
DEFAULT_255_2_778
10
22.4201933
20
35.1570396
11
25.0201933
21
35.1570396
0
LINE
8
DEFAULT_255_2_778
10
22.4201933
20
40.5457396
11
25.0201933
21
40.5457396
0
LINE
8
DEFAULT_255_2_778
10
22.4201933
20
42.8685396
11
25.0201933
21
42.8685396
0
LINE
8
DEFAULT_255_2_778
10
22.4201933
20
43.1572396
11
25.0201933
21
43.1572396
0
LINE
8
DEFAULT_255_2_778
10
22.4201933
20
44.0459396
11
25.0201933
21
44.0459396
0
LINE
8
DEFAULT_255_2_778
10
16.1449933
20
54.9764396
11
16.1449933
21
52.4565396
0
LINE
8
DEFAULT_255_2_778
10
15.8309933
20
54.9764396
11
15.8309933
21
52.4565396
0
LINE
8
DEFAULT_255_2_778
10
15.5697933
20
54.9764396
11
15.5697933
21
52.4565396
0
LINE
8
DEFAULT_255_2_778
10
13.8198933
20
46.6565396
11
16.4198933
21
46.6565396
0
LINE
8
DEFAULT_255_2_778
10
16.4198933
20
48.2565396
11
13.8198933
21
48.2565396
0
LINE
8
DEFAULT_255_2_778
10
13.8198933
20
48.2565396
11
13.8198933
21
45.6564396
0
LINE
8
DEFAULT_255_2_778
10
13.8198933
20
45.6564396
11
16.4198933
21
45.6564396
0
LINE
8
DEFAULT_255_2_778
10
16.4198933
20
45.6564396
11
16.4198933
21
48.2565396
0
LINE
8
DEFAULT_255_2_778
10
13.8198933
20
46.3679396
11
16.4198933
21
46.3679396
0
LINE
8
DEFAULT_255_2_778
10
13.8198933
20
47.2566396
11
16.4198933
21
47.2566396
0
LINE
8
DEFAULT_255_2_778
10
13.8198933
20
43.1566396
11
16.4198933
21
43.1566396
0
LINE
8
DEFAULT_255_2_778
10
13.8198933
20
50.7565396
11
16.4198933
21
50.7565396
0
LINE
8
DEFAULT_255_2_778
10
16.4198933
20
51.7567396
11
13.8198933
21
51.7567396
0
LINE
8
DEFAULT_255_2_778
10
13.8198933
20
51.7567396
11
13.8198933
21
49.1566396
0
LINE
8
DEFAULT_255_2_778
10
13.8198933
20
49.1566396
11
16.4198933
21
49.1566396
0
LINE
8
DEFAULT_255_2_778
10
16.4198933
20
49.1566396
11
16.4198933
21
51.7567396
0
LINE
8
DEFAULT_255_2_778
10
13.8198933
20
49.8681396
11
16.4198933
21
49.8681396
0
LINE
8
DEFAULT_255_2_778
10
13.8198933
20
50.1567396
11
16.4198933
21
50.1567396
0
LINE
8
DEFAULT_255_2_778
10
11.9198933
20
46.2068396
11
13.8198933
21
46.2068396
0
LINE
8
DEFAULT_255_2_778
10
13.8198933
20
47.7067396
11
11.9198933
21
47.7067396
0
LINE
8
DEFAULT_255_2_778
10
16.4198933
20
47.5453396
11
13.8198933
21
47.5453396
0
LINE
8
DEFAULT_255_2_778
10
11.9198933
20
49.7067396
11
13.8198933
21
49.7067396
0
LINE
8
DEFAULT_255_2_778
10
13.8198933
20
51.2066396
11
11.9198933
21
51.2066396
0
LINE
8
DEFAULT_255_2_778
10
16.4198933
20
51.0452396
11
13.8198933
21
51.0452396
0
LINE
8
DEFAULT_255_2_778
10
13.9198933
20
54.9766396
11
13.9198933
21
55.7566396
0
LINE
8
DEFAULT_255_2_778
10
13.9198933
20
55.7566396
11
24.7198933
21
55.7566396
0
LINE
8
DEFAULT_255_2_778
10
20.7947933
20
54.9766396
11
20.7947933
21
55.7066396
0
LINE
8
DEFAULT_255_2_778
10
20.7947933
20
55.7066396
11
18.8448933
21
55.7066396
0
LINE
8
DEFAULT_255_2_778
10
18.8448933
20
55.7066396
11
18.8448933
21
54.9766396
0
LINE
8
DEFAULT_255_2_778
10
18.1198933
20
54.9766396
11
18.1198933
21
55.7066396
0
LINE
8
DEFAULT_255_2_778
10
18.1198933
20
55.7066396
11
14.5199933
21
55.7066396
0
LINE
8
DEFAULT_255_2_778
10
14.5199933
20
55.7066396
11
14.5199933
21
54.9766396
0
LINE
8
DEFAULT_255_2_778
10
10.2699933
20
4.0364396
11
10.2699933
21
2.7563396
0
LINE
8
DEFAULT_255_2_778
10
10.2699933
20
2.7563396
11
24.9699933
21
2.7563396
0
LINE
8
DEFAULT_255_2_778
10
24.9699933
20
2.7563396
11
24.9699933
21
6.0562396
0
LINE
8
DEFAULT_255_2_778
10
24.9699933
20
6.0562396
11
27.6699933
21
6.0562396
0
LINE
8
DEFAULT_255_2_778
10
27.6699933
20
6.0562396
11
27.6699933
21
52.9563396
0
LINE
8
DEFAULT_255_2_778
10
27.6699933
20
52.9563396
11
24.9699933
21
52.9563396
0
LINE
8
DEFAULT_255_2_778
10
24.9699933
20
52.9563396
11
24.9699933
21
56.2562396
0
LINE
8
DEFAULT_255_2_778
10
24.9699933
20
56.2562396
11
10.2699933
21
56.2562396
0
LINE
8
DEFAULT_255_2_778
10
10.2699933
20
56.2562396
11
10.2699933
21
54.9761396
0
LINE
8
DEFAULT_255_2_778
10
24.1899933
20
52.4562396
11
24.1899933
21
54.9761396
0
LINE
8
DEFAULT_255_2_778
10
24.1899933
20
54.9761396
11
9.6698933
21
54.9761396
0
LINE
8
DEFAULT_255_2_778
10
9.6698933
20
54.9761396
11
9.6698933
21
52.4562396
0
LINE
8
DEFAULT_255_2_778
10
9.6698933
20
52.4562396
11
27.1199933
21
52.4562396
0
LINE
8
DEFAULT_255_2_778
10
27.1199933
20
52.4562396
11
27.1199933
21
6.5563396
0
LINE
8
DEFAULT_255_2_778
10
27.1199933
20
6.5563396
11
9.6698933
21
6.5563396
0
LINE
8
DEFAULT_255_2_778
10
9.6698933
20
6.5563396
11
9.6698933
21
4.0364396
0
LINE
8
DEFAULT_255_2_778
10
9.6698933
20
4.0364396
11
24.1899933
21
4.0364396
0
LINE
8
DEFAULT_255_2_778
10
24.1899933
20
4.0364396
11
24.1899933
21
6.5563396
0
LINE
8
DEFAULT_255_2_778
10
11.9198933
20
39.2064396
11
13.8198933
21
39.2064396
0
LINE
8
DEFAULT_255_2_778
10
13.8198933
20
40.7063396
11
11.9198933
21
40.7063396
0
LINE
8
DEFAULT_255_2_778
10
16.4198933
20
40.5449396
11
13.8198933
21
40.5449396
0
LINE
8
DEFAULT_255_2_778
10
11.9198933
20
35.7062396
11
13.8198933
21
35.7062396
0
LINE
8
DEFAULT_255_2_778
10
13.8198933
20
37.2062396
11
11.9198933
21
37.2062396
0
LINE
8
DEFAULT_255_2_778
10
16.4198933
20
37.0448396
11
13.8198933
21
37.0448396
0
LINE
8
DEFAULT_255_2_778
10
11.9198933
20
42.7061396
11
13.8198933
21
42.7061396
0
LINE
8
DEFAULT_255_2_778
10
13.8198933
20
44.2060396
11
11.9198933
21
44.2060396
0
LINE
8
DEFAULT_255_2_778
10
16.4198933
20
44.0446396
11
13.8198933
21
44.0446396
0
LINE
8
DEFAULT_255_2_778
10
16.4198933
20
37.7560396
11
13.8198933
21
37.7560396
0
LINE
8
DEFAULT_255_2_778
10
13.8198933
20
37.7560396
11
13.8198933
21
35.1559396
0
LINE
8
DEFAULT_255_2_778
10
13.8198933
20
35.1559396
11
16.4198933
21
35.1559396
0
LINE
8
DEFAULT_255_2_778
10
16.4198933
20
35.1559396
11
16.4198933
21
37.7560396
0
LINE
8
DEFAULT_255_2_778
10
13.8198933
20
40.2560396
11
16.4198933
21
40.2560396
0
LINE
8
DEFAULT_255_2_778
10
13.8198933
20
36.7561396
11
16.4198933
21
36.7561396
0
LINE
8
DEFAULT_255_2_778
10
13.8198933
20
35.8674396
11
16.4198933
21
35.8674396
0
LINE
8
DEFAULT_255_2_778
10
13.8198933
20
36.1560396
11
16.4198933
21
36.1560396
0
LINE
8
DEFAULT_255_2_778
10
16.4198933
20
41.2561396
11
13.8198933
21
41.2561396
0
LINE
8
DEFAULT_255_2_778
10
13.8198933
20
41.2561396
11
13.8198933
21
38.6561396
0
LINE
8
DEFAULT_255_2_778
10
13.8198933
20
38.6561396
11
16.4198933
21
38.6561396
0
LINE
8
DEFAULT_255_2_778
10
16.4198933
20
38.6561396
11
16.4198933
21
41.2561396
0
LINE
8
DEFAULT_255_2_778
10
13.8198933
20
39.3675396
11
16.4198933
21
39.3675396
0
LINE
8
DEFAULT_255_2_778
10
13.8198933
20
39.6562396
11
16.4198933
21
39.6562396
0
LINE
8
DEFAULT_255_2_778
10
16.4198933
20
42.1562396
11
16.4198933
21
44.7563396
0
LINE
8
DEFAULT_255_2_778
10
16.4198933
20
44.7563396
11
13.8198933
21
44.7563396
0
LINE
8
DEFAULT_255_2_778
10
13.8198933
20
44.7563396
11
13.8198933
21
42.1562396
0
LINE
8
DEFAULT_255_2_778
10
13.8198933
20
42.1562396
11
16.4198933
21
42.1562396
0
LINE
8
DEFAULT_255_2_778
10
13.8198933
20
42.8674396
11
16.4198933
21
42.8674396
0
LINE
8
DEFAULT_255_2_778
10
13.8198933
20
43.7562396
11
16.4198933
21
43.7562396
0
LINE
8
DEFAULT_255_2_778
10
16.4198933
20
38.9561396
11
16.6209933
21
38.9561396
0
LINE
8
DEFAULT_255_2_778
10
19.2199933
20
39.0604396
11
19.2199933
21
40.8516396
0
LINE
8
DEFAULT_255_2_778
10
16.6209933
20
40.9558396
11
16.4198933
21
40.9558396
0
LINE
8
DEFAULT_255_2_778
10
16.4198933
20
35.4559396
11
16.6209933
21
35.4559396
0
LINE
8
DEFAULT_255_2_778
10
19.2199933
20
35.5602396
11
19.2199933
21
37.3514396
0
LINE
8
DEFAULT_255_2_778
10
16.6209933
20
37.4557396
11
16.4198933
21
37.4557396
0
LINE
8
DEFAULT_255_2_778
10
16.4198933
20
31.9558396
11
16.6209933
21
31.9558396
0
LINE
8
DEFAULT_255_2_778
10
19.2199933
20
32.0600396
11
19.2199933
21
33.8512396
0
LINE
8
DEFAULT_255_2_778
10
16.6209933
20
33.9555396
11
16.4198933
21
33.9555396
0
LINE
8
DEFAULT_255_2_778
10
16.4198933
20
49.4556396
11
16.6209933
21
49.4556396
0
LINE
8
DEFAULT_255_2_778
10
19.2199933
20
49.5598396
11
19.2199933
21
51.3510396
0
LINE
8
DEFAULT_255_2_778
10
16.6209933
20
51.4553396
11
16.4198933
21
51.4553396
0
LINE
8
DEFAULT_255_2_778
10
16.4198933
20
45.9554396
11
16.6209933
21
45.9554396
0
LINE
8
DEFAULT_255_2_778
10
19.2199933
20
46.0596396
11
19.2199933
21
47.8509396
0
LINE
8
DEFAULT_255_2_778
10
16.6209933
20
47.9551396
11
16.4198933
21
47.9551396
0
LINE
8
DEFAULT_255_2_778
10
16.4198933
20
42.4552396
11
16.6209933
21
42.4552396
0
LINE
8
DEFAULT_255_2_778
10
19.2199933
20
42.5595396
11
19.2199933
21
44.3507396
0
LINE
8
DEFAULT_255_2_778
10
16.6209933
20
44.4549396
11
16.4198933
21
44.4549396
0
LINE
8
DEFAULT_255_2_778
10
25.0199933
20
28.7048396
11
27.1199933
21
28.7048396
0
LINE
8
DEFAULT_255_2_778
10
27.1199933
20
30.2048396
11
25.0199933
21
30.2048396
0
LINE
8
DEFAULT_255_2_778
10
25.0199933
20
32.2047396
11
27.1199933
21
32.2047396
0
LINE
8
DEFAULT_255_2_778
10
27.1199933
20
33.7047396
11
25.0199933
21
33.7047396
0
LINE
8
DEFAULT_255_2_778
10
25.0199933
20
35.7046396
11
27.1199933
21
35.7046396
0
LINE
8
DEFAULT_255_2_778
10
27.1199933
20
37.2046396
11
25.0199933
21
37.2046396
0
LINE
8
DEFAULT_255_2_778
10
22.4198933
20
30.4545396
11
22.2187933
21
30.4545396
0
LINE
8
DEFAULT_255_2_778
10
19.6197933
20
30.3503396
11
19.6197933
21
28.5590396
0
LINE
8
DEFAULT_255_2_778
10
22.2187933
20
28.4548396
11
22.4198933
21
28.4548396
0
LINE
8
DEFAULT_255_2_778
10
22.4198933
20
33.9547396
11
22.2187933
21
33.9547396
0
LINE
8
DEFAULT_255_2_778
10
19.6197933
20
33.8504396
11
19.6197933
21
32.0592396
0
LINE
8
DEFAULT_255_2_778
10
22.2187933
20
31.9550396
11
22.4198933
21
31.9550396
0
LINE
8
DEFAULT_255_2_778
10
22.4198933
20
37.4549396
11
22.2187933
21
37.4549396
0
LINE
8
DEFAULT_255_2_778
10
19.6197933
20
37.3506396
11
19.6197933
21
35.5594396
0
LINE
8
DEFAULT_255_2_778
10
22.2187933
20
35.4551396
11
22.4198933
21
35.4551396
0
LINE
8
DEFAULT_255_2_778
10
22.4198933
20
36.7550396
11
25.0199933
21
36.7550396
0
LINE
8
DEFAULT_255_2_778
10
22.4198933
20
29.7550396
11
25.0199933
21
29.7550396
0
LINE
8
DEFAULT_255_2_778
10
22.4198933
20
28.8662396
11
25.0199933
21
28.8662396
0
LINE
8
DEFAULT_255_2_778
10
22.4198933
20
29.1549396
11
25.0199933
21
29.1549396
0
LINE
8
DEFAULT_255_2_778
10
25.0199933
20
34.2550396
11
22.4198933
21
34.2550396
0
LINE
8
DEFAULT_255_2_778
10
22.4198933
20
34.2550396
11
22.4198933
21
31.6549396
0
LINE
8
DEFAULT_255_2_778
10
22.4198933
20
31.6549396
11
25.0199933
21
31.6549396
0
LINE
8
DEFAULT_255_2_778
10
25.0199933
20
31.6549396
11
25.0199933
21
34.2550396
0
LINE
8
DEFAULT_255_2_778
10
22.4198933
20
32.3664396
11
25.0199933
21
32.3664396
0
LINE
8
DEFAULT_255_2_778
10
22.4198933
20
30.0436396
11
25.0199933
21
30.0436396
0
LINE
8
DEFAULT_255_2_778
10
25.0199933
20
28.1550396
11
25.0199933
21
30.7551396
0
LINE
8
DEFAULT_255_2_778
10
25.0199933
20
30.7551396
11
22.4198933
21
30.7551396
0
LINE
8
DEFAULT_255_2_778
10
22.4198933
20
30.7551396
11
22.4198933
21
28.1550396
0
LINE
8
DEFAULT_255_2_778
10
22.4198933
20
28.1550396
11
25.0199933
21
28.1550396
0
LINE
8
DEFAULT_255_2_778
10
22.4198933
20
33.2551396
11
25.0199933
21
33.2551396
0
LINE
8
DEFAULT_255_2_778
10
22.4198933
20
33.5438396
11
25.0199933
21
33.5438396
0
LINE
8
DEFAULT_255_2_778
10
22.4198933
20
32.6551396
11
25.0199933
21
32.6551396
0
LINE
8
DEFAULT_255_2_778
10
22.4198933
20
35.8663396
11
25.0199933
21
35.8663396
0
LINE
8
DEFAULT_255_2_778
10
22.4198933
20
36.1550396
11
25.0199933
21
36.1550396
0
LINE
8
DEFAULT_255_2_778
10
22.4198933
20
37.0437396
11
25.0199933
21
37.0437396
0
LINE
8
DEFAULT_255_2_778
10
22.4198933
20
26.2564396
11
25.0199933
21
26.2564396
0
LINE
8
DEFAULT_255_2_778
10
22.4198933
20
22.1564396
11
25.0199933
21
22.1564396
0
LINE
8
DEFAULT_255_2_778
10
22.4198933
20
18.3678396
11
25.0199933
21
18.3678396
0
LINE
8
DEFAULT_255_2_778
10
22.4198933
20
18.6565396
11
25.0199933
21
18.6565396
0
LINE
8
DEFAULT_255_2_778
10
22.4198933
20
21.8677396
11
25.0199933
21
21.8677396
0
LINE
8
DEFAULT_255_2_778
10
22.4198933
20
22.7565396
11
25.0199933
21
22.7565396
0
LINE
8
DEFAULT_255_2_778
10
22.4198933
20
19.2566396
11
25.0199933
21
19.2566396
0
LINE
8
DEFAULT_255_2_778
10
22.4198933
20
19.5452396
11
25.0199933
21
19.5452396
0
LINE
8
DEFAULT_255_2_778
10
25.0199933
20
17.6566396
11
25.0199933
21
20.2567396
0
LINE
8
DEFAULT_255_2_778
10
25.0199933
20
20.2567396
11
22.4198933
21
20.2567396
0
LINE
8
DEFAULT_255_2_778
10
22.4198933
20
20.2567396
11
22.4198933
21
17.6566396
0
LINE
8
DEFAULT_255_2_778
10
22.4198933
20
17.6566396
11
25.0199933
21
17.6566396
0
LINE
8
DEFAULT_255_2_778
10
22.4198933
20
23.0454396
11
25.0199933
21
23.0454396
0
LINE
8
DEFAULT_255_2_778
10
25.0199933
20
21.1568396
11
25.0199933
21
23.7569396
0
LINE
8
DEFAULT_255_2_778
10
25.0199933
20
23.7569396
11
22.4198933
21
23.7569396
0
LINE
8
DEFAULT_255_2_778
10
22.4198933
20
23.7569396
11
22.4198933
21
21.1568396
0
LINE
8
DEFAULT_255_2_778
10
22.4198933
20
21.1568396
11
25.0199933
21
21.1568396
0
LINE
8
DEFAULT_255_2_778
10
22.4198933
20
25.3682396
11
25.0199933
21
25.3682396
0
LINE
8
DEFAULT_255_2_778
10
22.4198933
20
25.6568396
11
25.0199933
21
25.6568396
0
LINE
8
DEFAULT_255_2_778
10
22.4198933
20
26.5456396
11
25.0199933
21
26.5456396
0
LINE
8
DEFAULT_255_2_778
10
25.0199933
20
24.6570396
11
25.0199933
21
27.2570396
0
LINE
8
DEFAULT_255_2_778
10
25.0199933
20
27.2570396
11
22.4198933
21
27.2570396
0
LINE
8
DEFAULT_255_2_778
10
22.4198933
20
27.2570396
11
22.4198933
21
24.6570396
0
LINE
8
DEFAULT_255_2_778
10
22.4198933
20
24.6570396
11
25.0199933
21
24.6570396
0
LINE
8
DEFAULT_255_2_778
10
25.0199933
20
18.2070396
11
27.1199933
21
18.2070396
0
LINE
8
DEFAULT_255_2_778
10
27.1199933
20
19.7069396
11
25.0199933
21
19.7069396
0
LINE
8
DEFAULT_255_2_778
10
25.0199933
20
21.7069396
11
27.1199933
21
21.7069396
0
LINE
8
DEFAULT_255_2_778
10
27.1199933
20
23.2068396
11
25.0199933
21
23.2068396
0
LINE
8
DEFAULT_255_2_778
10
25.0199933
20
25.2068396
11
27.1199933
21
25.2068396
0
LINE
8
DEFAULT_255_2_778
10
27.1199933
20
26.7067396
11
25.0199933
21
26.7067396
0
LINE
8
DEFAULT_255_2_778
10
22.4198933
20
23.4568396
11
22.2187933
21
23.4568396
0
LINE
8
DEFAULT_255_2_778
10
19.6197933
20
23.3526396
11
19.6197933
21
21.5613396
0
LINE
8
DEFAULT_255_2_778
10
22.2187933
20
21.4571396
11
22.4198933
21
21.4571396
0
LINE
8
DEFAULT_255_2_778
10
22.4198933
20
26.9570396
11
22.2187933
21
26.9570396
0
LINE
8
DEFAULT_255_2_778
10
19.6197933
20
26.8527396
11
19.6197933
21
25.0615396
0
LINE
8
DEFAULT_255_2_778
10
22.2187933
20
24.9573396
11
22.4198933
21
24.9573396
0
LINE
8
DEFAULT_255_2_778
10
25.0199933
20
7.7072396
11
27.1199933
21
7.7072396
0
LINE
8
DEFAULT_255_2_778
10
27.1199933
20
9.2072396
11
25.0199933
21
9.2072396
0
LINE
8
DEFAULT_255_2_778
10
25.0199933
20
11.2071396
11
27.1199933
21
11.2071396
0
LINE
8
DEFAULT_255_2_778
10
27.1199933
20
12.7071396
11
25.0199933
21
12.7071396
0
LINE
8
DEFAULT_255_2_778
10
25.0199933
20
14.7070396
11
27.1199933
21
14.7070396
0
LINE
8
DEFAULT_255_2_778
10
27.1199933
20
16.2070396
11
25.0199933
21
16.2070396
0
LINE
8
DEFAULT_255_2_778
10
22.4198933
20
9.4569396
11
22.2187933
21
9.4569396
0
LINE
8
DEFAULT_255_2_778
10
19.6197933
20
9.3527396
11
19.6197933
21
7.5614396
0
LINE
8
DEFAULT_255_2_778
10
22.2187933
20
7.4572396
11
22.4198933
21
7.4572396
0
LINE
8
DEFAULT_255_2_778
10
22.4198933
20
16.4573396
11
22.2187933
21
16.4573396
0
LINE
8
DEFAULT_255_2_778
10
19.6197933
20
16.3530396
11
19.6197933
21
14.5618396
0
LINE
8
DEFAULT_255_2_778
10
22.2187933
20
14.4575396
11
22.4198933
21
14.4575396
0
LINE
8
DEFAULT_255_2_778
10
16.4198933
20
14.4575396
11
16.6209933
21
14.4575396
0
LINE
8
DEFAULT_255_2_778
10
19.2199933
20
14.5618396
11
19.2199933
21
16.3530396
0
LINE
8
DEFAULT_255_2_778
10
16.6209933
20
16.4573396
11
16.4198933
21
16.4573396
0
LINE
8
DEFAULT_255_2_778
10
16.4198933
20
10.9574396
11
16.6209933
21
10.9574396
0
LINE
8
DEFAULT_255_2_778
10
19.2199933
20
11.0616396
11
19.2199933
21
12.8528396
0
LINE
8
DEFAULT_255_2_778
10
16.6209933
20
12.9571396
11
16.4198933
21
12.9571396
0
LINE
8
DEFAULT_255_2_778
10
25.0199933
20
9.7572396
11
22.4198933
21
9.7572396
0
LINE
8
DEFAULT_255_2_778
10
22.4198933
20
9.7572396
11
22.4198933
21
7.1572396
0
LINE
8
DEFAULT_255_2_778
10
22.4198933
20
7.1572396
11
25.0199933
21
7.1572396
0
LINE
8
DEFAULT_255_2_778
10
25.0199933
20
7.1572396
11
25.0199933
21
9.7572396
0
LINE
8
DEFAULT_255_2_778
10
22.4198933
20
7.8686396
11
25.0199933
21
7.8686396
0
LINE
8
DEFAULT_255_2_778
10
22.4198933
20
8.1573396
11
25.0199933
21
8.1573396
0
LINE
8
DEFAULT_255_2_778
10
22.4198933
20
11.3685396
11
25.0199933
21
11.3685396
0
LINE
8
DEFAULT_255_2_778
10
22.4198933
20
11.6572396
11
25.0199933
21
11.6572396
0
LINE
8
DEFAULT_255_2_778
10
22.4198933
20
12.2573396
11
25.0199933
21
12.2573396
0
LINE
8
DEFAULT_255_2_778
10
22.4198933
20
8.7574396
11
25.0199933
21
8.7574396
0
LINE
8
DEFAULT_255_2_778
10
22.4198933
20
9.0460396
11
25.0199933
21
9.0460396
0
LINE
8
DEFAULT_255_2_778
10
25.0199933
20
16.7573396
11
22.4198933
21
16.7573396
0
LINE
8
DEFAULT_255_2_778
10
22.4198933
20
16.7573396
11
22.4198933
21
14.1572396
0
LINE
8
DEFAULT_255_2_778
10
22.4198933
20
14.1572396
11
25.0199933
21
14.1572396
0
LINE
8
DEFAULT_255_2_778
10
25.0199933
20
14.1572396
11
25.0199933
21
16.7573396
0
LINE
8
DEFAULT_255_2_778
10
22.4198933
20
14.8687396
11
25.0199933
21
14.8687396
0
LINE
8
DEFAULT_255_2_778
10
22.4198933
20
15.1574396
11
25.0199933
21
15.1574396
0
LINE
8
DEFAULT_255_2_778
10
22.4198933
20
12.5459396
11
25.0199933
21
12.5459396
0
LINE
8
DEFAULT_255_2_778
10
25.0199933
20
10.6573396
11
25.0199933
21
13.2574396
0
LINE
8
DEFAULT_255_2_778
10
25.0199933
20
13.2574396
11
22.4198933
21
13.2574396
0
LINE
8
DEFAULT_255_2_778
10
22.4198933
20
13.2574396
11
22.4198933
21
10.6573396
0
LINE
8
DEFAULT_255_2_778
10
22.4198933
20
10.6573396
11
25.0199933
21
10.6573396
0
LINE
8
DEFAULT_255_2_778
10
22.4198933
20
15.7574396
11
25.0199933
21
15.7574396
0
LINE
8
DEFAULT_255_2_778
10
22.4198933
20
16.0461396
11
25.0199933
21
16.0461396
0
LINE
8
DEFAULT_255_2_778
10
11.9198933
20
28.7064396
11
13.8198933
21
28.7064396
0
LINE
8
DEFAULT_255_2_778
10
13.8198933
20
30.2063396
11
11.9198933
21
30.2063396
0
LINE
8
DEFAULT_255_2_778
10
16.4198933
20
30.0449396
11
13.8198933
21
30.0449396
0
LINE
8
DEFAULT_255_2_778
10
11.9198933
20
32.2063396
11
13.8198933
21
32.2063396
0
LINE
8
DEFAULT_255_2_778
10
13.8198933
20
33.7062396
11
11.9198933
21
33.7062396
0
LINE
8
DEFAULT_255_2_778
10
16.4198933
20
33.5449396
11
13.8198933
21
33.5449396
0
LINE
8
DEFAULT_255_2_778
10
13.8198933
20
28.1561396
11
16.4198933
21
28.1561396
0
LINE
8
DEFAULT_255_2_778
10
16.4198933
20
28.1561396
11
16.4198933
21
30.7561396
0
LINE
8
DEFAULT_255_2_778
10
16.4198933
20
30.7561396
11
13.8198933
21
30.7561396
0
LINE
8
DEFAULT_255_2_778
10
13.8198933
20
30.7561396
11
13.8198933
21
28.1561396
0
LINE
8
DEFAULT_255_2_778
10
13.8198933
20
26.2561396
11
16.4198933
21
26.2561396
0
LINE
8
DEFAULT_255_2_778
10
13.8198933
20
25.6560396
11
16.4198933
21
25.6560396
0
LINE
8
DEFAULT_255_2_778
10
13.8198933
20
29.7560396
11
16.4198933
21
29.7560396
0
LINE
8
DEFAULT_255_2_778
10
13.8198933
20
28.8673396
11
16.4198933
21
28.8673396
0
LINE
8
DEFAULT_255_2_778
10
13.8198933
20
29.1559396
11
16.4198933
21
29.1559396
0
LINE
8
DEFAULT_255_2_778
10
13.8198933
20
32.3672396
11
16.4198933
21
32.3672396
0
LINE
8
DEFAULT_255_2_778
10
16.4198933
20
34.2558396
11
13.8198933
21
34.2558396
0
LINE
8
DEFAULT_255_2_778
10
13.8198933
20
34.2558396
11
13.8198933
21
31.6557396
0
LINE
8
DEFAULT_255_2_778
10
13.8198933
20
31.6557396
11
16.4198933
21
31.6557396
0
LINE
8
DEFAULT_255_2_778
10
16.4198933
20
31.6557396
11
16.4198933
21
34.2558396
0
LINE
8
DEFAULT_255_2_778
10
13.8198933
20
32.6559396
11
16.4198933
21
32.6559396
0
LINE
8
DEFAULT_255_2_778
10
13.8198933
20
33.2559396
11
16.4198933
21
33.2559396
0
LINE
8
DEFAULT_255_2_778
10
16.4198933
20
21.1560396
11
16.4198933
21
23.7561396
0
LINE
8
DEFAULT_255_2_778
10
16.4198933
20
23.7561396
11
13.8198933
21
23.7561396
0
LINE
8
DEFAULT_255_2_778
10
13.8198933
20
23.7561396
11
13.8198933
21
21.1560396
0
LINE
8
DEFAULT_255_2_778
10
13.8198933
20
21.1560396
11
16.4198933
21
21.1560396
0
LINE
8
DEFAULT_255_2_778
10
13.8198933
20
22.7559396
11
16.4198933
21
22.7559396
0
LINE
8
DEFAULT_255_2_778
10
13.8198933
20
22.1559396
11
16.4198933
21
22.1559396
0
LINE
8
DEFAULT_255_2_778
10
16.4198933
20
17.6558396
11
16.4198933
21
20.2559396
0
LINE
8
DEFAULT_255_2_778
10
16.4198933
20
20.2559396
11
13.8198933
21
20.2559396
0
LINE
8
DEFAULT_255_2_778
10
13.8198933
20
20.2559396
11
13.8198933
21
17.6558396
0
LINE
8
DEFAULT_255_2_778
10
13.8198933
20
17.6558396
11
16.4198933
21
17.6558396
0
LINE
8
DEFAULT_255_2_778
10
13.8198933
20
19.2558396
11
16.4198933
21
19.2558396
0
LINE
8
DEFAULT_255_2_778
10
13.8198933
20
18.3670396
11
16.4198933
21
18.3670396
0
LINE
8
DEFAULT_255_2_778
10
13.8198933
20
18.6557396
11
16.4198933
21
18.6557396
0
LINE
8
DEFAULT_255_2_778
10
13.8198933
20
21.8669396
11
16.4198933
21
21.8669396
0
LINE
8
DEFAULT_255_2_778
10
16.4198933
20
24.6556396
11
16.4198933
21
27.2557396
0
LINE
8
DEFAULT_255_2_778
10
16.4198933
20
27.2557396
11
13.8198933
21
27.2557396
0
LINE
8
DEFAULT_255_2_778
10
13.8198933
20
27.2557396
11
13.8198933
21
24.6556396
0
LINE
8
DEFAULT_255_2_778
10
13.8198933
20
24.6556396
11
16.4198933
21
24.6556396
0
LINE
8
DEFAULT_255_2_778
10
13.8198933
20
25.3668396
11
16.4198933
21
25.3668396
0
LINE
8
DEFAULT_255_2_778
10
11.9198933
20
21.7055396
11
13.8198933
21
21.7055396
0
LINE
8
DEFAULT_255_2_778
10
13.8198933
20
23.2055396
11
11.9198933
21
23.2055396
0
LINE
8
DEFAULT_255_2_778
10
16.4198933
20
23.0441396
11
13.8198933
21
23.0441396
0
LINE
8
DEFAULT_255_2_778
10
11.9198933
20
18.2054396
11
13.8198933
21
18.2054396
0
LINE
8
DEFAULT_255_2_778
10
13.8198933
20
19.7053396
11
11.9198933
21
19.7053396
0
LINE
8
DEFAULT_255_2_778
10
16.4198933
20
19.5439396
11
13.8198933
21
19.5439396
0
LINE
8
DEFAULT_255_2_778
10
11.9198933
20
25.2052396
11
13.8198933
21
25.2052396
0
LINE
8
DEFAULT_255_2_778
10
13.8198933
20
26.7051396
11
11.9198933
21
26.7051396
0
LINE
8
DEFAULT_255_2_778
10
16.4198933
20
26.5437396
11
13.8198933
21
26.5437396
0
LINE
8
DEFAULT_255_2_778
10
11.9198933
20
11.2050396
11
13.8198933
21
11.2050396
0
LINE
8
DEFAULT_255_2_778
10
13.8198933
20
12.7049396
11
11.9198933
21
12.7049396
0
LINE
8
DEFAULT_255_2_778
10
16.4198933
20
12.5436396
11
13.8198933
21
12.5436396
0
LINE
8
DEFAULT_255_2_778
10
11.9198933
20
7.7049396
11
13.8198933
21
7.7049396
0
LINE
8
DEFAULT_255_2_778
10
13.8198933
20
9.2048396
11
11.9198933
21
9.2048396
0
LINE
8
DEFAULT_255_2_778
10
16.4198933
20
9.0434396
11
13.8198933
21
9.0434396
0
LINE
8
DEFAULT_255_2_778
10
11.9198933
20
14.7047396
11
13.8198933
21
14.7047396
0
LINE
8
DEFAULT_255_2_778
10
13.8198933
20
16.2046396
11
11.9198933
21
16.2046396
0
LINE
8
DEFAULT_255_2_778
10
16.4198933
20
16.0432396
11
13.8198933
21
16.0432396
0
LINE
8
DEFAULT_255_2_778
10
16.4198933
20
9.7546396
11
13.8198933
21
9.7546396
0
LINE
8
DEFAULT_255_2_778
10
13.8198933
20
9.7546396
11
13.8198933
21
7.1545396
0
LINE
8
DEFAULT_255_2_778
10
13.8198933
20
7.1545396
11
16.4198933
21
7.1545396
0
LINE
8
DEFAULT_255_2_778
10
16.4198933
20
7.1545396
11
16.4198933
21
9.7546396
0
LINE
8
DEFAULT_255_2_778
10
13.8198933
20
7.8660396
11
16.4198933
21
7.8660396
0
LINE
8
DEFAULT_255_2_778
10
16.4198933
20
13.2548396
11
13.8198933
21
13.2548396
0
LINE
8
DEFAULT_255_2_778
10
13.8198933
20
13.2548396
11
13.8198933
21
10.6547396
0
LINE
8
DEFAULT_255_2_778
10
13.8198933
20
10.6547396
11
16.4198933
21
10.6547396
0
LINE
8
DEFAULT_255_2_778
10
16.4198933
20
10.6547396
11
16.4198933
21
13.2548396
0
LINE
8
DEFAULT_255_2_778
10
13.8198933
20
11.3662396
11
16.4198933
21
11.3662396
0
LINE
8
DEFAULT_255_2_778
10
13.8198933
20
11.6548396
11
16.4198933
21
11.6548396
0
LINE
8
DEFAULT_255_2_778
10
13.8198933
20
15.1547396
11
16.4198933
21
15.1547396
0
LINE
8
DEFAULT_255_2_778
10
13.8198933
20
12.2546396
11
16.4198933
21
12.2546396
0
LINE
8
DEFAULT_255_2_778
10
13.8198933
20
15.7545396
11
16.4198933
21
15.7545396
0
LINE
8
DEFAULT_255_2_778
10
13.8198933
20
8.7545396
11
16.4198933
21
8.7545396
0
LINE
8
DEFAULT_255_2_778
10
13.8198933
20
8.1544396
11
16.4198933
21
8.1544396
0
LINE
8
DEFAULT_255_2_778
10
13.8198933
20
14.8658396
11
16.4198933
21
14.8658396
0
LINE
8
DEFAULT_255_2_778
10
16.4198933
20
16.7544396
11
13.8198933
21
16.7544396
0
LINE
8
DEFAULT_255_2_778
10
13.8198933
20
16.7544396
11
13.8198933
21
14.1543396
0
LINE
8
DEFAULT_255_2_778
10
13.8198933
20
14.1543396
11
16.4198933
21
14.1543396
0
LINE
8
DEFAULT_255_2_778
10
16.4198933
20
14.1543396
11
16.4198933
21
16.7544396
0
LINE
8
DEFAULT_255_2_778
10
16.4198933
20
24.9544396
11
16.6209933
21
24.9544396
0
LINE
8
DEFAULT_255_2_778
10
19.2199933
20
25.0586396
11
19.2199933
21
26.8498396
0
LINE
8
DEFAULT_255_2_778
10
16.6209933
20
26.9541396
11
16.4198933
21
26.9541396
0
LINE
8
DEFAULT_255_2_778
10
16.4198933
20
28.4540396
11
16.6209933
21
28.4540396
0
LINE
8
DEFAULT_255_2_778
10
19.2199933
20
28.5583396
11
19.2199933
21
30.3495396
0
LINE
8
DEFAULT_255_2_778
10
16.6209933
20
30.4537396
11
16.4198933
21
30.4537396
0
LINE
8
DEFAULT_255_2_778
10
16.4198933
20
21.4537396
11
16.6209933
21
21.4537396
0
LINE
8
DEFAULT_255_2_778
10
19.2199933
20
21.5579396
11
19.2199933
21
23.3491396
0
LINE
8
DEFAULT_255_2_778
10
16.6209933
20
23.4534396
11
16.4198933
21
23.4534396
0
LINE
8
DEFAULT_255_2_778
10
16.1449933
20
4.0335396
11
16.1449933
21
6.5534396
0
LINE
8
DEFAULT_255_2_778
10
15.5697933
20
4.0335396
11
15.5697933
21
6.5534396
0
LINE
8
DEFAULT_255_2_778
10
15.8309933
20
4.0335396
11
15.8309933
21
6.5534396
0
LINE
8
DEFAULT_255_2_778
10
24.7198933
20
3.2535396
11
13.9198933
21
3.2535396
0
LINE
8
DEFAULT_255_2_778
10
13.9198933
20
3.2535396
11
13.9198933
21
4.0335396
0
LINE
8
DEFAULT_255_2_778
10
20.7947933
20
4.0335396
11
20.7947933
21
3.3035396
0
LINE
8
DEFAULT_255_2_778
10
20.7947933
20
3.3035396
11
18.8448933
21
3.3035396
0
LINE
8
DEFAULT_255_2_778
10
18.8448933
20
3.3035396
11
18.8448933
21
4.0335396
0
LINE
8
DEFAULT_255_2_778
10
18.1198933
20
4.0335396
11
18.1198933
21
3.3035396
0
LINE
8
DEFAULT_255_2_778
10
18.1198933
20
3.3035396
11
14.5199933
21
3.3035396
0
LINE
8
DEFAULT_255_2_778
10
14.5199933
20
3.3035396
11
14.5199933
21
4.0335396
0
LINE
8
DEFAULT_255_2_778
10
10.2699933
20
52.4565396
11
10.2699933
21
52.1564396
0
LINE
8
DEFAULT_255_2_778
10
10.2699933
20
52.1564396
11
11.3697933
21
52.1564396
0
LINE
8
DEFAULT_255_2_778
10
11.3697933
20
52.1564396
11
11.3697933
21
6.8563396
0
LINE
8
DEFAULT_255_2_778
10
11.3697933
20
6.8563396
11
10.2699933
21
6.8563396
0
LINE
8
DEFAULT_255_2_778
10
10.2699933
20
6.8563396
11
10.2699933
21
6.5563396
0
LINE
8
DEFAULT_255_2_778
10
11.9198933
20
52.4562396
11
11.9198933
21
6.5563396
0
LINE
8
DEFAULT_255_2_778
10
26.3198933
20
52.9563396
11
26.3198933
21
52.4562396
0
LINE
8
DEFAULT_255_2_778
10
22.4198933
20
51.4561396
11
22.2187933
21
51.4561396
0
LINE
8
DEFAULT_255_2_778
10
22.7648933
20
54.9761396
11
22.7648933
21
52.4562396
0
LINE
8
DEFAULT_255_2_778
10
24.7198933
20
56.2562396
11
24.7198933
21
52.4562396
0
LINE
8
DEFAULT_255_2_778
10
22.4198933
20
19.9561396
11
22.2187933
21
19.9561396
0
LINE
8
DEFAULT_255_2_778
10
19.6197933
20
19.8519396
11
19.6197933
21
18.0606396
0
LINE
8
DEFAULT_255_2_778
10
22.2187933
20
17.9564396
11
22.4198933
21
17.9564396
0
LINE
8
DEFAULT_255_2_778
10
22.4198933
20
12.9563396
11
22.2187933
21
12.9563396
0
LINE
8
DEFAULT_255_2_778
10
19.6197933
20
12.8521396
11
19.6197933
21
11.0608396
0
LINE
8
DEFAULT_255_2_778
10
22.2187933
20
10.9566396
11
22.4198933
21
10.9566396
0
LINE
8
DEFAULT_255_2_778
10
16.4198933
20
17.9564396
11
16.6209933
21
17.9564396
0
LINE
8
DEFAULT_255_2_778
10
19.2199933
20
18.0606396
11
19.2199933
21
19.8519396
0
LINE
8
DEFAULT_255_2_778
10
16.6209933
20
19.9561396
11
16.4198933
21
19.9561396
0
LINE
8
DEFAULT_255_2_778
10
26.3198933
20
6.5560396
11
26.3198933
21
6.0560396
0
LINE
8
DEFAULT_255_2_778
10
22.7648933
20
4.0359396
11
22.7648933
21
6.5558396
0
LINE
8
DEFAULT_255_2_778
10
24.7198933
20
2.7558396
11
24.7198933
21
6.5558396
0
LINE
8
DEFAULT_255_2_778
10
16.4198933
20
7.4556396
11
16.6209933
21
7.4556396
0
LINE
8
DEFAULT_255_2_778
10
19.2199933
20
7.5599396
11
19.2199933
21
9.3511396
0
LINE
8
DEFAULT_255_2_778
10
16.6209933
20
9.4553396
11
16.4198933
21
9.4553396
0
LINE
8
DEFAULT_255_2_778
10
24.5195933
20
76.4563396
11
16.9196933
21
76.4563396
0
LINE
8
DEFAULT_255_2_778
10
16.9196933
20
76.4563396
11
16.9196933
21
69.0562396
0
LINE
8
DEFAULT_255_2_778
10
16.9196933
20
69.0562396
11
24.5195933
21
69.0562396
0
LINE
8
DEFAULT_255_2_778
10
24.5195933
20
69.0562396
11
24.5195933
21
76.4563396
0
LINE
8
DEFAULT_255_2_778
10
18.9696933
20
72.7564396
11
18.9696933
21
72.7564396
0
LINE
8
DEFAULT_255_2_778
10
114.7197933
20
7.4564396
11
114.9208933
21
7.4564396
0
LINE
8
DEFAULT_255_2_778
10
123.0197933
20
2.7566396
11
123.0197933
21
6.5566396
0
LINE
8
DEFAULT_255_2_778
10
121.0647933
20
4.0367396
11
121.0647933
21
6.5566396
0
LINE
8
DEFAULT_255_2_778
10
120.5186933
20
7.4564396
11
120.7197933
21
7.4564396
0
LINE
8
DEFAULT_255_2_778
10
124.6196933
20
6.5566396
11
124.6196933
21
6.0565396
0
LINE
8
DEFAULT_255_2_778
10
114.920822
20
12.9566082
11
114.719722
21
12.9566082
0
LINE
8
DEFAULT_255_2_778
10
120.719722
20
12.9566082
11
120.518622
21
12.9566082
0
LINE
8
DEFAULT_255_2_778
10
114.920822
20
19.9564082
11
114.719722
21
19.9564082
0
LINE
8
DEFAULT_255_2_778
10
120.7197105
20
19.9564545
11
120.5186105
21
19.9564545
0
LINE
8
DEFAULT_255_2_778
10
114.7197105
20
66.9564545
11
114.9208105
21
66.9564545
0
LINE
8
DEFAULT_255_2_778
10
123.0197105
20
73.7565545
11
123.0197105
21
69.9566545
0
LINE
8
DEFAULT_255_2_778
10
121.0647105
20
72.4764545
11
121.0647105
21
69.9566545
0
LINE
8
DEFAULT_255_2_778
10
120.5186792
20
66.9564864
11
120.7197792
21
66.9564864
0
LINE
8
DEFAULT_255_2_778
10
124.6196792
20
70.4566864
11
124.6196792
21
69.9565864
0
ARC
8
DEFAULT_255_2_778
10
119.2696562
20
8.147002
40
1.8095778
50
46.3527225
51
89.9950276
0
ARC
8
DEFAULT_255_2_778
10
119.2698176
20
8.1460376
40
1.8105421
50
90.000136
51
92.3031645
0
ARC
8
DEFAULT_255_2_778
10
119.2695082
20
8.1469088
40
1.8096592
50
92.294487
51
138.2377086
0
ARC
8
DEFAULT_255_2_778
10
119.2696503
20
8.7663259
40
1.8097652
50
221.759307
51
267.701147
0
ARC
8
DEFAULT_255_2_778
10
119.2695163
20
8.7689923
40
1.8124242
50
267.7087598
51
269.9998981
0
ARC
8
DEFAULT_255_2_778
10
119.2695367
20
8.7664801
40
1.8099121
50
269.9992529
51
313.6424169
0
LINE
8
DEFAULT_255_2_778
10
120.7197573
20
9.4564171
11
120.5186573
21
9.4564171
0
LINE
8
DEFAULT_255_2_778
10
117.9196573
20
9.3522171
11
117.9196573
21
7.5610171
0
ARC
8
DEFAULT_255_2_778
10
116.169978
20
8.7661801
40
1.809912
50
226.3575831
51
270.0007471
0
ARC
8
DEFAULT_255_2_778
10
116.1699984
20
8.7686923
40
1.8124243
50
270.0001019
51
272.2912402
0
ARC
8
DEFAULT_255_2_778
10
116.1698645
20
8.7660258
40
1.8097651
50
272.2988496
51
318.2406942
0
ARC
8
DEFAULT_255_2_778
10
116.1700067
20
8.1466098
40
1.8096581
50
41.7622724
51
87.7055197
0
ARC
8
DEFAULT_255_2_778
10
116.1696971
20
8.1457376
40
1.8105422
50
87.6968355
51
89.999864
0
ARC
8
DEFAULT_255_2_778
10
116.1698585
20
8.146702
40
1.8095777
50
90.0049724
51
133.6472775
0
LINE
8
DEFAULT_255_2_778
10
117.5198573
20
7.5607171
11
117.5198573
21
9.3519171
0
LINE
8
DEFAULT_255_2_778
10
114.9208573
20
9.4561171
11
114.7197573
21
9.4561171
0
LINE
8
DEFAULT_255_2_778
10
110.2196922
20
69.9565668
11
110.2196922
21
6.5565668
0
LINE
8
DEFAULT_255_2_778
10
108.5697922
20
69.9565668
11
108.5697922
21
69.6565668
0
LINE
8
DEFAULT_255_2_778
10
108.5697922
20
69.6565668
11
109.6696922
21
69.6565668
0
LINE
8
DEFAULT_255_2_778
10
109.6696922
20
69.6565668
11
109.6696922
21
6.8566668
0
LINE
8
DEFAULT_255_2_778
10
109.6696922
20
6.8566668
11
108.5697922
21
6.8566668
0
LINE
8
DEFAULT_255_2_778
10
108.5697922
20
6.8566668
11
108.5697922
21
6.5565668
0
LINE
8
DEFAULT_255_2_778
10
116.4196922
20
4.0364668
11
116.4196922
21
3.3064668
0
LINE
8
DEFAULT_255_2_778
10
116.4196922
20
3.3064668
11
112.8197922
21
3.3064668
0
LINE
8
DEFAULT_255_2_778
10
112.8197922
20
3.3064668
11
112.8197922
21
4.0364668
0
LINE
8
DEFAULT_255_2_778
10
119.0946922
20
4.0364668
11
119.0946922
21
3.3064668
0
LINE
8
DEFAULT_255_2_778
10
119.0946922
20
3.3064668
11
117.1446922
21
3.3064668
0
LINE
8
DEFAULT_255_2_778
10
117.1446922
20
3.3064668
11
117.1446922
21
4.0364668
0
LINE
8
DEFAULT_255_2_778
10
123.0197922
20
3.2564668
11
112.2196922
21
3.2564668
0
LINE
8
DEFAULT_255_2_778
10
112.2196922
20
3.2564668
11
112.2196922
21
4.0364668
0
LINE
8
DEFAULT_255_2_778
10
113.8696922
20
4.0366668
11
113.8696922
21
6.5565668
0
LINE
8
DEFAULT_255_2_778
10
114.1307922
20
4.0366668
11
114.1307922
21
6.5565668
0
LINE
8
DEFAULT_255_2_778
10
114.4448922
20
4.0366668
11
114.4448922
21
6.5565668
0
LINE
8
DEFAULT_255_2_778
10
125.4197922
20
16.2064668
11
123.3197922
21
16.2064668
0
LINE
8
DEFAULT_255_2_778
10
123.3197922
20
14.7065668
11
125.4197922
21
14.7065668
0
LINE
8
DEFAULT_255_2_778
10
125.4197922
20
12.7065668
11
123.3197922
21
12.7065668
0
LINE
8
DEFAULT_255_2_778
10
123.3197922
20
11.2066668
11
125.4197922
21
11.2066668
0
LINE
8
DEFAULT_255_2_778
10
125.4197922
20
9.2066668
11
123.3197922
21
9.2066668
0
LINE
8
DEFAULT_255_2_778
10
123.3197922
20
7.7064668
11
125.4197922
21
7.7064668
0
LINE
8
DEFAULT_255_2_778
10
114.7197922
20
16.0450668
11
112.1196922
21
16.0450668
0
LINE
8
DEFAULT_255_2_778
10
112.1196922
20
16.2064668
11
110.2196922
21
16.2064668
0
LINE
8
DEFAULT_255_2_778
10
110.2196922
20
14.7065668
11
112.1196922
21
14.7065668
0
LINE
8
DEFAULT_255_2_778
10
114.7197922
20
12.5451668
11
112.1196922
21
12.5451668
0
LINE
8
DEFAULT_255_2_778
10
112.1196922
20
12.7065668
11
110.2196922
21
12.7065668
0
LINE
8
DEFAULT_255_2_778
10
110.2196922
20
11.2066668
11
112.1196922
21
11.2066668
0
LINE
8
DEFAULT_255_2_778
10
114.7197922
20
9.0452668
11
112.1196922
21
9.0452668
0
LINE
8
DEFAULT_255_2_778
10
112.1196922
20
9.2066668
11
110.2196922
21
9.2066668
0
LINE
8
DEFAULT_255_2_778
10
110.2196922
20
7.7064668
11
112.1196922
21
7.7064668
0
LINE
8
DEFAULT_255_2_778
10
112.1196922
20
15.1565668
11
114.7197922
21
15.1565668
0
LINE
8
DEFAULT_255_2_778
10
112.1196922
20
14.8679668
11
114.7197922
21
14.8679668
0
LINE
8
DEFAULT_255_2_778
10
112.1196698
20
11.3678
11
114.7197698
21
11.3678
0
LINE
8
DEFAULT_255_2_778
10
114.7197698
20
10.6565302
11
114.7197698
21
13.2566302
0
LINE
8
DEFAULT_255_2_778
10
114.7197698
20
13.2566302
11
112.1196698
21
13.2566302
0
LINE
8
DEFAULT_255_2_778
10
112.1196698
20
13.2566302
11
112.1196698
21
10.6565302
0
LINE
8
DEFAULT_255_2_778
10
112.1196698
20
10.6565302
11
114.7197698
21
10.6565302
0
LINE
8
DEFAULT_255_2_778
10
112.1196698
20
15.7564
11
114.7197698
21
15.7564
0
LINE
8
DEFAULT_255_2_778
10
114.7197698
20
16.7565302
11
112.1196698
21
16.7565302
0
LINE
8
DEFAULT_255_2_778
10
112.1196698
20
16.7565302
11
112.1196698
21
14.1564302
0
LINE
8
DEFAULT_255_2_778
10
112.1196698
20
14.1564302
11
114.7197698
21
14.1564302
0
LINE
8
DEFAULT_255_2_778
10
114.7197698
20
14.1564302
11
114.7197698
21
16.7565302
0
LINE
8
DEFAULT_255_2_778
10
112.1196698
20
8.7566541
11
114.7197698
21
8.7566541
0
LINE
8
DEFAULT_255_2_778
10
112.1196698
20
12.2565541
11
114.7197698
21
12.2565541
0
LINE
8
DEFAULT_255_2_778
10
112.1196698
20
11.6564541
11
114.7197698
21
11.6564541
0
LINE
8
DEFAULT_255_2_778
10
112.1196698
20
8.1565541
11
114.7197698
21
8.1565541
0
LINE
8
DEFAULT_255_2_778
10
114.7197698
20
9.7564302
11
112.1196698
21
9.7564302
0
LINE
8
DEFAULT_255_2_778
10
112.1196698
20
9.7564302
11
112.1196698
21
7.1563302
0
LINE
8
DEFAULT_255_2_778
10
112.1196698
20
7.1563302
11
114.7197698
21
7.1563302
0
LINE
8
DEFAULT_255_2_778
10
114.7197698
20
7.1563302
11
114.7197698
21
9.7564302
0
LINE
8
DEFAULT_255_2_778
10
112.1196484
20
7.8679061
11
114.7197484
21
7.8679061
0
LINE
8
DEFAULT_255_2_778
10
120.7196484
20
15.1566061
11
123.3197484
21
15.1566061
0
LINE
8
DEFAULT_255_2_778
10
120.7196484
20
14.8680061
11
123.3197484
21
14.8680061
0
LINE
8
DEFAULT_255_2_778
10
120.7196484
20
16.0451061
11
123.3197484
21
16.0451061
0
LINE
8
DEFAULT_255_2_778
10
120.7196484
20
15.7564061
11
123.3197484
21
15.7564061
0
LINE
8
DEFAULT_255_2_778
10
120.7196484
20
11.6565061
11
123.3197484
21
11.6565061
0
LINE
8
DEFAULT_255_2_778
10
120.7196484
20
11.3678061
11
123.3197484
21
11.3678061
0
LINE
8
DEFAULT_255_2_778
10
120.7196484
20
12.5452061
11
123.3197484
21
12.5452061
0
LINE
8
DEFAULT_255_2_778
10
120.7196484
20
8.1565061
11
123.3197484
21
8.1565061
0
LINE
8
DEFAULT_255_2_778
10
123.3197698
20
13.2566302
11
120.7196698
21
13.2566302
0
LINE
8
DEFAULT_255_2_778
10
120.7196698
20
13.2566302
11
120.7196698
21
10.6565302
0
LINE
8
DEFAULT_255_2_778
10
120.7196698
20
10.6565302
11
123.3197698
21
10.6565302
0
LINE
8
DEFAULT_255_2_778
10
123.3197698
20
10.6565302
11
123.3197698
21
13.2566302
0
LINE
8
DEFAULT_255_2_778
10
120.7196698
20
12.2565218
11
123.3197698
21
12.2565218
0
LINE
8
DEFAULT_255_2_778
10
120.7196698
20
9.0453218
11
123.3197698
21
9.0453218
0
LINE
8
DEFAULT_255_2_778
10
120.7196698
20
8.7566218
11
123.3197698
21
8.7566218
0
LINE
8
DEFAULT_255_2_778
10
120.7196698
20
7.8679218
11
123.3197698
21
7.8679218
0
LINE
8
DEFAULT_255_2_778
10
123.3197698
20
9.7564302
11
120.7196698
21
9.7564302
0
LINE
8
DEFAULT_255_2_778
10
120.7196698
20
9.7564302
11
120.7196698
21
7.1563302
0
LINE
8
DEFAULT_255_2_778
10
120.7196698
20
7.1563302
11
123.3197698
21
7.1563302
0
LINE
8
DEFAULT_255_2_778
10
123.3197698
20
7.1563302
11
123.3197698
21
9.7564302
0
LINE
8
DEFAULT_255_2_778
10
123.3197698
20
16.7565302
11
120.7196698
21
16.7565302
0
LINE
8
DEFAULT_255_2_778
10
120.7196698
20
16.7565302
11
120.7196698
21
14.1564302
0
LINE
8
DEFAULT_255_2_778
10
120.7196698
20
14.1564302
11
123.3197698
21
14.1564302
0
LINE
8
DEFAULT_255_2_778
10
123.3197698
20
14.1564302
11
123.3197698
21
16.7565302
0
ARC
8
DEFAULT_255_2_778
10
119.2696562
20
18.647002
40
1.8095778
50
46.3527225
51
89.9950276
0
ARC
8
DEFAULT_255_2_778
10
119.2698176
20
18.6460376
40
1.8105421
50
90.000136
51
92.3031645
0
ARC
8
DEFAULT_255_2_778
10
119.2695082
20
18.6469088
40
1.8096592
50
92.294487
51
138.2377086
0
ARC
8
DEFAULT_255_2_778
10
119.2696503
20
19.2663259
40
1.8097652
50
221.759307
51
267.701147
0
ARC
8
DEFAULT_255_2_778
10
119.2695163
20
19.2689923
40
1.8124242
50
267.7087598
51
269.9998981
0
ARC
8
DEFAULT_255_2_778
10
119.2695367
20
19.2664801
40
1.8099121
50
269.9992529
51
313.6424169
0
LINE
8
DEFAULT_255_2_778
10
117.9196573
20
19.8522171
11
117.9196573
21
18.0610171
0
LINE
8
DEFAULT_255_2_778
10
120.5186573
20
17.9567171
11
120.7197573
21
17.9567171
0
ARC
8
DEFAULT_255_2_778
10
119.2696562
20
11.646902
40
1.8095778
50
46.3527225
51
89.9950276
0
ARC
8
DEFAULT_255_2_778
10
119.2698176
20
11.6459376
40
1.8105421
50
90.000136
51
92.3031645
0
ARC
8
DEFAULT_255_2_778
10
119.2695082
20
11.6468088
40
1.8096592
50
92.294487
51
138.2377086
0
ARC
8
DEFAULT_255_2_778
10
119.2696503
20
12.2662259
40
1.8097652
50
221.759307
51
267.701147
0
ARC
8
DEFAULT_255_2_778
10
119.2695163
20
12.2688923
40
1.8124242
50
267.7087598
51
269.9998981
0
ARC
8
DEFAULT_255_2_778
10
119.2695367
20
12.2663801
40
1.8099121
50
269.9992529
51
313.6424169
0
LINE
8
DEFAULT_255_2_778
10
117.9196573
20
12.8521171
11
117.9196573
21
11.0609171
0
LINE
8
DEFAULT_255_2_778
10
120.5186573
20
10.9566171
11
120.7197573
21
10.9566171
0
ARC
8
DEFAULT_255_2_778
10
119.2696562
20
15.147102
40
1.8095778
50
46.3527225
51
89.9950276
0
ARC
8
DEFAULT_255_2_778
10
119.2698176
20
15.1461376
40
1.8105421
50
90.000136
51
92.3031645
0
ARC
8
DEFAULT_255_2_778
10
119.2695082
20
15.1470088
40
1.8096592
50
92.294487
51
138.2377086
0
ARC
8
DEFAULT_255_2_778
10
119.2696503
20
15.7664259
40
1.8097652
50
221.759307
51
267.701147
0
ARC
8
DEFAULT_255_2_778
10
119.2695163
20
15.7690923
40
1.8124242
50
267.7087598
51
269.9998981
0
ARC
8
DEFAULT_255_2_778
10
119.2695367
20
15.7665801
40
1.8099121
50
269.9992529
51
313.6424169
0
LINE
8
DEFAULT_255_2_778
10
120.7197573
20
16.4565171
11
120.5186573
21
16.4565171
0
LINE
8
DEFAULT_255_2_778
10
117.9196573
20
16.3523171
11
117.9196573
21
14.5611171
0
LINE
8
DEFAULT_255_2_778
10
120.5186573
20
14.4568171
11
120.7197573
21
14.4568171
0
ARC
8
DEFAULT_255_2_778
10
116.169978
20
19.2661783
40
1.809912
50
226.3575831
51
270.0007471
0
ARC
8
DEFAULT_255_2_778
10
116.1699984
20
19.2686906
40
1.8124243
50
270.0001019
51
272.2912402
0
ARC
8
DEFAULT_255_2_778
10
116.1698645
20
19.266024
40
1.8097651
50
272.2988496
51
318.2406942
0
ARC
8
DEFAULT_255_2_778
10
116.1700067
20
18.6466081
40
1.8096581
50
41.7622724
51
87.7055197
0
ARC
8
DEFAULT_255_2_778
10
116.1696971
20
18.6457358
40
1.8105422
50
87.6968355
51
89.999864
0
ARC
8
DEFAULT_255_2_778
10
116.1698585
20
18.6467002
40
1.8095777
50
90.0049724
51
133.6472775
0
LINE
8
DEFAULT_255_2_778
10
114.7197573
20
17.9564154
11
114.9208573
21
17.9564154
0
LINE
8
DEFAULT_255_2_778
10
117.5198573
20
18.0607154
11
117.5198573
21
19.8519154
0
ARC
8
DEFAULT_255_2_778
10
116.169978
20
12.2660783
40
1.809912
50
226.3575831
51
270.0007471
0
ARC
8
DEFAULT_255_2_778
10
116.1699984
20
12.2685906
40
1.8124243
50
270.0001019
51
272.2912402
0
ARC
8
DEFAULT_255_2_778
10
116.1698645
20
12.265924
40
1.8097651
50
272.2988496
51
318.2406942
0
ARC
8
DEFAULT_255_2_778
10
116.1700067
20
11.6465081
40
1.8096581
50
41.7622724
51
87.7055197
0
ARC
8
DEFAULT_255_2_778
10
116.1696971
20
11.6456358
40
1.8105422
50
87.6968355
51
89.999864
0
ARC
8
DEFAULT_255_2_778
10
116.1698585
20
11.6466002
40
1.8095777
50
90.0049724
51
133.6472775
0
LINE
8
DEFAULT_255_2_778
10
114.7197573
20
10.9563154
11
114.9208573
21
10.9563154
0
LINE
8
DEFAULT_255_2_778
10
117.5198573
20
11.0606154
11
117.5198573
21
12.8518154
0
ARC
8
DEFAULT_255_2_778
10
116.169978
20
15.7662801
40
1.809912
50
226.3575831
51
270.0007471
0
ARC
8
DEFAULT_255_2_778
10
116.1699984
20
15.7687923
40
1.8124243
50
270.0001019
51
272.2912402
0
ARC
8
DEFAULT_255_2_778
10
116.1698645
20
15.7661258
40
1.8097651
50
272.2988496
51
318.2406942
0
ARC
8
DEFAULT_255_2_778
10
116.1700067
20
15.1467098
40
1.8096581
50
41.7622724
51
87.7055197
0
ARC
8
DEFAULT_255_2_778
10
116.1696971
20
15.1458376
40
1.8105422
50
87.6968355
51
89.999864
0
ARC
8
DEFAULT_255_2_778
10
116.1698585
20
15.146802
40
1.8095777
50
90.0049724
51
133.6472775
0
LINE
8
DEFAULT_255_2_778
10
114.7197573
20
14.4565171
11
114.9208573
21
14.4565171
0
LINE
8
DEFAULT_255_2_778
10
117.5198573
20
14.5608171
11
117.5198573
21
16.3520171
0
LINE
8
DEFAULT_255_2_778
10
114.9208573
20
16.4562171
11
114.7197573
21
16.4562171
0
LINE
8
DEFAULT_255_2_778
10
125.4196763
20
26.7064966
11
123.3196763
21
26.7064966
0
LINE
8
DEFAULT_255_2_778
10
123.3196763
20
25.2065966
11
125.4196763
21
25.2065966
0
LINE
8
DEFAULT_255_2_778
10
125.4196763
20
23.2065966
11
123.3196763
21
23.2065966
0
LINE
8
DEFAULT_255_2_778
10
123.3196763
20
21.7066966
11
125.4196763
21
21.7066966
0
LINE
8
DEFAULT_255_2_778
10
125.4196763
20
19.7063966
11
123.3196763
21
19.7063966
0
LINE
8
DEFAULT_255_2_778
10
123.3196763
20
18.2064966
11
125.4196763
21
18.2064966
0
LINE
8
DEFAULT_255_2_778
10
125.4196763
20
37.2064966
11
123.3196763
21
37.2064966
0
LINE
8
DEFAULT_255_2_778
10
123.3196763
20
35.7065966
11
125.4196763
21
35.7065966
0
LINE
8
DEFAULT_255_2_778
10
125.4196763
20
33.7065966
11
123.3196763
21
33.7065966
0
LINE
8
DEFAULT_255_2_778
10
123.3196763
20
32.2066966
11
125.4196763
21
32.2066966
0
LINE
8
DEFAULT_255_2_778
10
125.4196763
20
30.2066966
11
123.3196763
21
30.2066966
0
LINE
8
DEFAULT_255_2_778
10
123.3196763
20
28.7064966
11
125.4196763
21
28.7064966
0
LINE
8
DEFAULT_255_2_778
10
114.7196763
20
26.5453966
11
112.1196763
21
26.5453966
0
LINE
8
DEFAULT_255_2_778
10
112.1196763
20
26.7064966
11
110.2196763
21
26.7064966
0
LINE
8
DEFAULT_255_2_778
10
110.2196763
20
25.2065966
11
112.1196763
21
25.2065966
0
LINE
8
DEFAULT_255_2_778
10
114.7196763
20
23.0451966
11
112.1196763
21
23.0451966
0
LINE
8
DEFAULT_255_2_778
10
112.1196763
20
23.2065966
11
110.2196763
21
23.2065966
0
LINE
8
DEFAULT_255_2_778
10
110.2196763
20
21.7066966
11
112.1196763
21
21.7066966
0
LINE
8
DEFAULT_255_2_778
10
114.7196763
20
19.5452966
11
112.1196763
21
19.5452966
0
LINE
8
DEFAULT_255_2_778
10
112.1196763
20
19.7066966
11
110.2196763
21
19.7066966
0
LINE
8
DEFAULT_255_2_778
10
110.2196763
20
18.2064966
11
112.1196763
21
18.2064966
0
ARC
8
DEFAULT_255_2_778
10
116.169978
20
26.2662801
40
1.809912
50
226.3575831
51
270.0007471
0
ARC
8
DEFAULT_255_2_778
10
116.1699984
20
26.2687923
40
1.8124243
50
270.0001019
51
272.2912402
0
ARC
8
DEFAULT_255_2_778
10
116.1698645
20
26.2661258
40
1.8097651
50
272.2988496
51
318.2406942
0
ARC
8
DEFAULT_255_2_778
10
116.1700067
20
25.6467098
40
1.8096581
50
41.7622724
51
87.7055197
0
ARC
8
DEFAULT_255_2_778
10
116.1696971
20
25.6458376
40
1.8105422
50
87.6968355
51
89.999864
0
ARC
8
DEFAULT_255_2_778
10
116.1698585
20
25.646802
40
1.8095777
50
90.0049724
51
133.6472775
0
LINE
8
DEFAULT_255_2_778
10
114.7197573
20
24.9565171
11
114.9208573
21
24.9565171
0
LINE
8
DEFAULT_255_2_778
10
117.5198573
20
25.0608171
11
117.5198573
21
26.8520171
0
LINE
8
DEFAULT_255_2_778
10
114.9208573
20
26.9562171
11
114.7197573
21
26.9562171
0
ARC
8
DEFAULT_255_2_778
10
116.169978
20
22.7663801
40
1.809912
50
226.3575831
51
270.0007471
0
ARC
8
DEFAULT_255_2_778
10
116.1699984
20
22.7688923
40
1.8124243
50
270.0001019
51
272.2912402
0
ARC
8
DEFAULT_255_2_778
10
116.1698645
20
22.7662258
40
1.8097651
50
272.2988496
51
318.2406942
0
ARC
8
DEFAULT_255_2_778
10
116.1700067
20
22.1468098
40
1.8096581
50
41.7622724
51
87.7055197
0
ARC
8
DEFAULT_255_2_778
10
116.1696971
20
22.1459376
40
1.8105422
50
87.6968355
51
89.999864
0
ARC
8
DEFAULT_255_2_778
10
116.1698585
20
22.146902
40
1.8095777
50
90.0049724
51
133.6472775
0
LINE
8
DEFAULT_255_2_778
10
114.7197573
20
21.4566171
11
114.9208573
21
21.4566171
0
LINE
8
DEFAULT_255_2_778
10
117.5198573
20
21.5609171
11
117.5198573
21
23.3521171
0
LINE
8
DEFAULT_255_2_778
10
114.9208573
20
23.4563171
11
114.7197573
21
23.4563171
0
LINE
8
DEFAULT_255_2_778
10
112.1196698
20
25.3679
11
114.7197698
21
25.3679
0
LINE
8
DEFAULT_255_2_778
10
114.7197698
20
24.6564302
11
114.7197698
21
27.2565302
0
LINE
8
DEFAULT_255_2_778
10
114.7197698
20
27.2565302
11
112.1196698
21
27.2565302
0
LINE
8
DEFAULT_255_2_778
10
112.1196698
20
27.2565302
11
112.1196698
21
24.6564302
0
LINE
8
DEFAULT_255_2_778
10
112.1196698
20
24.6564302
11
114.7197698
21
24.6564302
0
LINE
8
DEFAULT_255_2_778
10
112.1196698
20
22.1564218
11
114.7197698
21
22.1564218
0
LINE
8
DEFAULT_255_2_778
10
112.1196698
20
21.8678218
11
114.7197698
21
21.8678218
0
LINE
8
DEFAULT_255_2_778
10
112.1196698
20
22.7565218
11
114.7197698
21
22.7565218
0
LINE
8
DEFAULT_255_2_778
10
112.1196698
20
18.6565218
11
114.7197698
21
18.6565218
0
LINE
8
DEFAULT_255_2_778
10
112.1196698
20
18.3679218
11
114.7197698
21
18.3679218
0
LINE
8
DEFAULT_255_2_778
10
112.1196698
20
19.2566218
11
114.7197698
21
19.2566218
0
LINE
8
DEFAULT_255_2_778
10
114.7197698
20
21.1565302
11
114.7197698
21
23.7566302
0
LINE
8
DEFAULT_255_2_778
10
114.7197698
20
23.7566302
11
112.1196698
21
23.7566302
0
LINE
8
DEFAULT_255_2_778
10
112.1196698
20
23.7566302
11
112.1196698
21
21.1565302
0
LINE
8
DEFAULT_255_2_778
10
112.1196698
20
21.1565302
11
114.7197698
21
21.1565302
0
LINE
8
DEFAULT_255_2_778
10
114.7197698
20
20.2564302
11
112.1196698
21
20.2564302
0
LINE
8
DEFAULT_255_2_778
10
112.1196698
20
20.2564302
11
112.1196698
21
17.6563302
0
LINE
8
DEFAULT_255_2_778
10
112.1196698
20
17.6563302
11
114.7197698
21
17.6563302
0
LINE
8
DEFAULT_255_2_778
10
114.7197698
20
17.6563302
11
114.7197698
21
20.2564302
0
ARC
8
DEFAULT_255_2_778
10
119.2696562
20
25.647002
40
1.8095778
50
46.3527225
51
89.9950276
0
ARC
8
DEFAULT_255_2_778
10
119.2698176
20
25.6460376
40
1.8105421
50
90.000136
51
92.3031645
0
ARC
8
DEFAULT_255_2_778
10
119.2695082
20
25.6469088
40
1.8096592
50
92.294487
51
138.2377086
0
ARC
8
DEFAULT_255_2_778
10
119.2696503
20
26.2663259
40
1.8097652
50
221.759307
51
267.701147
0
ARC
8
DEFAULT_255_2_778
10
119.2695163
20
26.2689923
40
1.8124242
50
267.7087598
51
269.9998981
0
ARC
8
DEFAULT_255_2_778
10
119.2695367
20
26.2664801
40
1.8099121
50
269.9992529
51
313.6424169
0
LINE
8
DEFAULT_255_2_778
10
120.7197573
20
26.9564171
11
120.5186573
21
26.9564171
0
LINE
8
DEFAULT_255_2_778
10
117.9196573
20
26.8522171
11
117.9196573
21
25.0610171
0
LINE
8
DEFAULT_255_2_778
10
120.5186573
20
24.9567171
11
120.7197573
21
24.9567171
0
ARC
8
DEFAULT_255_2_778
10
119.2696562
20
22.147102
40
1.8095778
50
46.3527225
51
89.9950276
0
ARC
8
DEFAULT_255_2_778
10
119.2698176
20
22.1461376
40
1.8105421
50
90.000136
51
92.3031645
0
ARC
8
DEFAULT_255_2_778
10
119.2695082
20
22.1470088
40
1.8096592
50
92.294487
51
138.2377086
0
ARC
8
DEFAULT_255_2_778
10
119.2696503
20
22.7664259
40
1.8097652
50
221.759307
51
267.701147
0
ARC
8
DEFAULT_255_2_778
10
119.2695163
20
22.7690923
40
1.8124242
50
267.7087598
51
269.9998981
0
ARC
8
DEFAULT_255_2_778
10
119.2695367
20
22.7665801
40
1.8099121
50
269.9992529
51
313.6424169
0
LINE
8
DEFAULT_255_2_778
10
120.7197573
20
23.4565171
11
120.5186573
21
23.4565171
0
LINE
8
DEFAULT_255_2_778
10
117.9196573
20
23.3523171
11
117.9196573
21
21.5611171
0
LINE
8
DEFAULT_255_2_778
10
120.5186573
20
21.4568171
11
120.7197573
21
21.4568171
0
ARC
8
DEFAULT_255_2_778
10
119.2696562
20
29.147002
40
1.8095778
50
46.3527225
51
89.9950276
0
ARC
8
DEFAULT_255_2_778
10
119.2698176
20
29.1460376
40
1.8105421
50
90.000136
51
92.3031645
0
ARC
8
DEFAULT_255_2_778
10
119.2695082
20
29.1469088
40
1.8096592
50
92.294487
51
138.2377086
0
ARC
8
DEFAULT_255_2_778
10
119.2696503
20
29.7663259
40
1.8097652
50
221.759307
51
267.701147
0
ARC
8
DEFAULT_255_2_778
10
119.2695163
20
29.7689923
40
1.8124242
50
267.7087598
51
269.9998981
0
ARC
8
DEFAULT_255_2_778
10
119.2695367
20
29.7664801
40
1.8099121
50
269.9992529
51
313.6424169
0
LINE
8
DEFAULT_255_2_778
10
120.7197573
20
30.4564171
11
120.5186573
21
30.4564171
0
LINE
8
DEFAULT_255_2_778
10
117.9196573
20
30.3522171
11
117.9196573
21
28.5610171
0
LINE
8
DEFAULT_255_2_778
10
120.5186573
20
28.4567171
11
120.7197573
21
28.4567171
0
ARC
8
DEFAULT_255_2_778
10
119.2696562
20
32.647102
40
1.8095778
50
46.3527225
51
89.9950276
0
ARC
8
DEFAULT_255_2_778
10
119.2698176
20
32.6461376
40
1.8105421
50
90.000136
51
92.3031645
0
ARC
8
DEFAULT_255_2_778
10
119.2695082
20
32.6470088
40
1.8096592
50
92.294487
51
138.2377086
0
ARC
8
DEFAULT_255_2_778
10
119.2696503
20
33.2664259
40
1.8097652
50
221.759307
51
267.701147
0
ARC
8
DEFAULT_255_2_778
10
119.2695163
20
33.2690923
40
1.8124242
50
267.7087598
51
269.9998981
0
ARC
8
DEFAULT_255_2_778
10
119.2695367
20
33.2665801
40
1.8099121
50
269.9992529
51
313.6424169
0
LINE
8
DEFAULT_255_2_778
10
120.7197573
20
33.9565171
11
120.5186573
21
33.9565171
0
LINE
8
DEFAULT_255_2_778
10
117.9196573
20
33.8523171
11
117.9196573
21
32.0611171
0
LINE
8
DEFAULT_255_2_778
10
120.5186573
20
31.9568171
11
120.7197573
21
31.9568171
0
ARC
8
DEFAULT_255_2_778
10
116.169978
20
29.7661801
40
1.809912
50
226.3575831
51
270.0007471
0
ARC
8
DEFAULT_255_2_778
10
116.1699984
20
29.7686923
40
1.8124243
50
270.0001019
51
272.2912402
0
ARC
8
DEFAULT_255_2_778
10
116.1698645
20
29.7660258
40
1.8097651
50
272.2988496
51
318.2406942
0
ARC
8
DEFAULT_255_2_778
10
116.1700067
20
29.1466098
40
1.8096581
50
41.7622724
51
87.7055197
0
ARC
8
DEFAULT_255_2_778
10
116.1696971
20
29.1457376
40
1.8105422
50
87.6968355
51
89.999864
0
ARC
8
DEFAULT_255_2_778
10
116.1698585
20
29.146702
40
1.8095777
50
90.0049724
51
133.6472775
0
LINE
8
DEFAULT_255_2_778
10
114.7197573
20
28.4564171
11
114.9208573
21
28.4564171
0
LINE
8
DEFAULT_255_2_778
10
117.5198573
20
28.5607171
11
117.5198573
21
30.3519171
0
LINE
8
DEFAULT_255_2_778
10
114.9208573
20
30.4561171
11
114.7197573
21
30.4561171
0
ARC
8
DEFAULT_255_2_778
10
116.169978
20
33.2663801
40
1.809912
50
226.3575831
51
270.0007471
0
ARC
8
DEFAULT_255_2_778
10
116.1699984
20
33.2688923
40
1.8124243
50
270.0001019
51
272.2912402
0
ARC
8
DEFAULT_255_2_778
10
116.1698645
20
33.2662258
40
1.8097651
50
272.2988496
51
318.2406942
0
ARC
8
DEFAULT_255_2_778
10
116.1700067
20
32.6468098
40
1.8096581
50
41.7622724
51
87.7055197
0
ARC
8
DEFAULT_255_2_778
10
116.1696971
20
32.6459376
40
1.8105422
50
87.6968355
51
89.999864
0
ARC
8
DEFAULT_255_2_778
10
116.1698585
20
32.646902
40
1.8095777
50
90.0049724
51
133.6472775
0
LINE
8
DEFAULT_255_2_778
10
114.7197573
20
31.9566171
11
114.9208573
21
31.9566171
0
LINE
8
DEFAULT_255_2_778
10
117.5198573
20
32.0609171
11
117.5198573
21
33.8521171
0
LINE
8
DEFAULT_255_2_778
10
114.9208573
20
33.9563171
11
114.7197573
21
33.9563171
0
LINE
8
DEFAULT_255_2_778
10
120.7196698
20
26.5450656
11
123.3197698
21
26.5450656
0
LINE
8
DEFAULT_255_2_778
10
120.7196698
20
25.6565656
11
123.3197698
21
25.6565656
0
LINE
8
DEFAULT_255_2_778
10
120.7196698
20
25.3679656
11
123.3197698
21
25.3679656
0
LINE
8
DEFAULT_255_2_778
10
123.3197698
20
27.2565302
11
120.7196698
21
27.2565302
0
LINE
8
DEFAULT_255_2_778
10
120.7196698
20
27.2565302
11
120.7196698
21
24.6564302
0
LINE
8
DEFAULT_255_2_778
10
120.7196698
20
24.6564302
11
123.3197698
21
24.6564302
0
LINE
8
DEFAULT_255_2_778
10
123.3197698
20
24.6564302
11
123.3197698
21
27.2565302
0
LINE
8
DEFAULT_255_2_778
10
120.7196698
20
23.0451541
11
123.3197698
21
23.0451541
0
LINE
8
DEFAULT_255_2_778
10
120.7196698
20
19.5452541
11
123.3197698
21
19.5452541
0
LINE
8
DEFAULT_255_2_778
10
120.7196698
20
22.1564218
11
123.3197698
21
22.1564218
0
LINE
8
DEFAULT_255_2_778
10
120.7196698
20
21.8678218
11
123.3197698
21
21.8678218
0
LINE
8
DEFAULT_255_2_778
10
120.7196698
20
22.7565218
11
123.3197698
21
22.7565218
0
LINE
8
DEFAULT_255_2_778
10
120.7196698
20
18.6565218
11
123.3197698
21
18.6565218
0
LINE
8
DEFAULT_255_2_778
10
120.7196698
20
18.3679218
11
123.3197698
21
18.3679218
0
LINE
8
DEFAULT_255_2_778
10
120.7196698
20
19.2566218
11
123.3197698
21
19.2566218
0
LINE
8
DEFAULT_255_2_778
10
123.3197698
20
20.2564302
11
120.7196698
21
20.2564302
0
LINE
8
DEFAULT_255_2_778
10
120.7196698
20
20.2564302
11
120.7196698
21
17.6563302
0
LINE
8
DEFAULT_255_2_778
10
120.7196698
20
17.6563302
11
123.3197698
21
17.6563302
0
LINE
8
DEFAULT_255_2_778
10
123.3197698
20
17.6563302
11
123.3197698
21
20.2564302
0
LINE
8
DEFAULT_255_2_778
10
123.3197698
20
23.7566302
11
120.7196698
21
23.7566302
0
LINE
8
DEFAULT_255_2_778
10
120.7196698
20
23.7566302
11
120.7196698
21
21.1565302
0
LINE
8
DEFAULT_255_2_778
10
120.7196698
20
21.1565302
11
123.3197698
21
21.1565302
0
LINE
8
DEFAULT_255_2_778
10
123.3197698
20
21.1565302
11
123.3197698
21
23.7566302
0
LINE
8
DEFAULT_255_2_778
10
112.1196698
20
33.2565457
11
114.7197698
21
33.2565457
0
LINE
8
DEFAULT_255_2_778
10
112.1196698
20
32.6564457
11
114.7197698
21
32.6564457
0
LINE
8
DEFAULT_255_2_778
10
112.1196698
20
25.6566457
11
114.7197698
21
25.6566457
0
LINE
8
DEFAULT_255_2_778
10
112.1196698
20
26.2564728
11
114.7197698
21
26.2564728
0
LINE
8
DEFAULT_255_2_778
10
112.1196698
20
29.7565728
11
114.7197698
21
29.7565728
0
LINE
8
DEFAULT_255_2_778
10
112.1196698
20
32.3677728
11
114.7197698
21
32.3677728
0
LINE
8
DEFAULT_255_2_778
10
114.7197698
20
34.2566302
11
112.1196698
21
34.2566302
0
LINE
8
DEFAULT_255_2_778
10
112.1196698
20
34.2566302
11
112.1196698
21
31.6565302
0
LINE
8
DEFAULT_255_2_778
10
112.1196698
20
31.6565302
11
114.7197698
21
31.6565302
0
LINE
8
DEFAULT_255_2_778
10
114.7197698
20
31.6565302
11
114.7197698
21
34.2566302
0
LINE
8
DEFAULT_255_2_778
10
112.1196698
20
29.1565302
11
114.7197698
21
29.1565302
0
LINE
8
DEFAULT_255_2_778
10
112.1196698
20
28.8678302
11
114.7197698
21
28.8678302
0
LINE
8
DEFAULT_255_2_778
10
114.7197698
20
30.7564302
11
112.1196698
21
30.7564302
0
LINE
8
DEFAULT_255_2_778
10
112.1196698
20
30.7564302
11
112.1196698
21
28.1563302
0
LINE
8
DEFAULT_255_2_778
10
112.1196698
20
28.1563302
11
114.7197698
21
28.1563302
0
LINE
8
DEFAULT_255_2_778
10
114.7197698
20
28.1563302
11
114.7197698
21
30.7564302
0
LINE
8
DEFAULT_255_2_778
10
114.7196752
20
33.5451478
11
112.1196752
21
33.5451478
0
LINE
8
DEFAULT_255_2_778
10
112.1196752
20
33.7065478
11
110.2196752
21
33.7065478
0
LINE
8
DEFAULT_255_2_778
10
110.2196752
20
32.2066478
11
112.1196752
21
32.2066478
0
LINE
8
DEFAULT_255_2_778
10
114.7196752
20
30.0452478
11
112.1196752
21
30.0452478
0
LINE
8
DEFAULT_255_2_778
10
112.1196752
20
30.2066478
11
110.2196752
21
30.2066478
0
LINE
8
DEFAULT_255_2_778
10
110.2196752
20
28.7064478
11
112.1196752
21
28.7064478
0
LINE
8
DEFAULT_255_2_778
10
120.7196752
20
33.2564478
11
123.3196752
21
33.2564478
0
LINE
8
DEFAULT_255_2_778
10
120.7196752
20
32.6564478
11
123.3196752
21
32.6564478
0
LINE
8
DEFAULT_255_2_778
10
120.7196752
20
30.0452478
11
123.3196752
21
30.0452478
0
LINE
8
DEFAULT_255_2_778
10
120.7196698
20
32.3677728
11
123.3197698
21
32.3677728
0
LINE
8
DEFAULT_255_2_778
10
120.7196698
20
29.1565728
11
123.3197698
21
29.1565728
0
LINE
8
DEFAULT_255_2_778
10
120.7196698
20
28.8678728
11
123.3197698
21
28.8678728
0
LINE
8
DEFAULT_255_2_778
10
120.7196698
20
29.7565728
11
123.3197698
21
29.7565728
0
LINE
8
DEFAULT_255_2_778
10
120.7196698
20
26.2564728
11
123.3197698
21
26.2564728
0
LINE
8
DEFAULT_255_2_778
10
123.3197698
20
30.7564302
11
120.7196698
21
30.7564302
0
LINE
8
DEFAULT_255_2_778
10
120.7196698
20
30.7564302
11
120.7196698
21
28.1563302
0
LINE
8
DEFAULT_255_2_778
10
120.7196698
20
28.1563302
11
123.3197698
21
28.1563302
0
LINE
8
DEFAULT_255_2_778
10
123.3197698
20
28.1563302
11
123.3197698
21
30.7564302
0
LINE
8
DEFAULT_255_2_778
10
123.3197698
20
34.2566302
11
120.7196698
21
34.2566302
0
LINE
8
DEFAULT_255_2_778
10
120.7196698
20
34.2566302
11
120.7196698
21
31.6565302
0
LINE
8
DEFAULT_255_2_778
10
120.7196698
20
31.6565302
11
123.3197698
21
31.6565302
0
LINE
8
DEFAULT_255_2_778
10
123.3197698
20
31.6565302
11
123.3197698
21
34.2566302
0
LINE
8
DEFAULT_255_2_778
10
120.7196698
20
33.5451728
11
123.3197698
21
33.5451728
0
LINE
8
DEFAULT_255_2_778
10
120.7196698
20
39.6564728
11
123.3197698
21
39.6564728
0
LINE
8
DEFAULT_255_2_778
10
120.7196698
20
39.3677979
11
123.3197698
21
39.3677979
0
LINE
8
DEFAULT_255_2_778
10
120.7196698
20
40.5451979
11
123.3197698
21
40.5451979
0
LINE
8
DEFAULT_255_2_778
10
120.7196698
20
40.2566218
11
123.3197698
21
40.2566218
0
LINE
8
DEFAULT_255_2_778
10
120.7196698
20
36.1566218
11
123.3197698
21
36.1566218
0
LINE
8
DEFAULT_255_2_778
10
120.7196698
20
35.8680218
11
123.3197698
21
35.8680218
0
LINE
8
DEFAULT_255_2_778
10
120.7196698
20
37.0454218
11
123.3197698
21
37.0454218
0
LINE
8
DEFAULT_255_2_778
10
120.7196698
20
36.7564218
11
123.3197698
21
36.7564218
0
LINE
8
DEFAULT_255_2_778
10
123.3197698
20
37.7565302
11
120.7196698
21
37.7565302
0
LINE
8
DEFAULT_255_2_778
10
120.7196698
20
37.7565302
11
120.7196698
21
35.1564302
0
LINE
8
DEFAULT_255_2_778
10
120.7196698
20
35.1564302
11
123.3197698
21
35.1564302
0
LINE
8
DEFAULT_255_2_778
10
123.3197698
20
35.1564302
11
123.3197698
21
37.7565302
0
LINE
8
DEFAULT_255_2_778
10
123.3197698
20
41.2564302
11
120.7196698
21
41.2564302
0
LINE
8
DEFAULT_255_2_778
10
120.7196698
20
41.2564302
11
120.7196698
21
38.6563302
0
LINE
8
DEFAULT_255_2_778
10
120.7196698
20
38.6563302
11
123.3197698
21
38.6563302
0
LINE
8
DEFAULT_255_2_778
10
123.3197698
20
38.6563302
11
123.3197698
21
41.2564302
0
LINE
8
DEFAULT_255_2_778
10
122.489768
20
69.9565845
11
122.489768
21
72.4764845
0
LINE
8
DEFAULT_255_2_778
10
122.489768
20
72.4764845
11
107.969668
21
72.4764845
0
LINE
8
DEFAULT_255_2_778
10
107.969668
20
72.4764845
11
107.969668
21
69.9565845
0
LINE
8
DEFAULT_255_2_778
10
107.969668
20
69.9565845
11
125.419768
21
69.9565845
0
LINE
8
DEFAULT_255_2_778
10
125.419768
20
69.9565845
11
125.419768
21
6.5565845
0
LINE
8
DEFAULT_255_2_778
10
125.419768
20
6.5565845
11
107.969668
21
6.5565845
0
LINE
8
DEFAULT_255_2_778
10
107.969668
20
6.5565845
11
107.969668
21
4.0366845
0
LINE
8
DEFAULT_255_2_778
10
107.969668
20
4.0366845
11
122.489768
21
4.0366845
0
LINE
8
DEFAULT_255_2_778
10
122.489768
20
4.0366845
11
122.489768
21
6.5565845
0
LINE
8
DEFAULT_255_2_778
10
108.5697711
20
4.0364709
11
108.5697711
21
2.7564709
0
LINE
8
DEFAULT_255_2_778
10
108.5697711
20
2.7564709
11
123.2697711
21
2.7564709
0
LINE
8
DEFAULT_255_2_778
10
123.2697711
20
2.7564709
11
123.2697711
21
6.0562709
0
LINE
8
DEFAULT_255_2_778
10
123.2697711
20
6.0562709
11
125.9698711
21
6.0562709
0
LINE
8
DEFAULT_255_2_778
10
125.9698711
20
6.0562709
11
125.9698711
21
70.4566709
0
LINE
8
DEFAULT_255_2_778
10
125.9698711
20
70.4566709
11
123.2697711
21
70.4566709
0
LINE
8
DEFAULT_255_2_778
10
123.2697711
20
70.4566709
11
123.2697711
21
73.7565709
0
LINE
8
DEFAULT_255_2_778
10
123.2697711
20
73.7565709
11
108.5697711
21
73.7565709
0
LINE
8
DEFAULT_255_2_778
10
108.5697711
20
73.7565709
11
108.5697711
21
72.4764709
0
LINE
8
DEFAULT_255_2_778
10
125.4198011
20
47.706502
11
123.3198011
21
47.706502
0
LINE
8
DEFAULT_255_2_778
10
123.3198011
20
46.206602
11
125.4198011
21
46.206602
0
LINE
8
DEFAULT_255_2_778
10
125.4198011
20
44.206602
11
123.3198011
21
44.206602
0
LINE
8
DEFAULT_255_2_778
10
123.3198011
20
42.706702
11
125.4198011
21
42.706702
0
LINE
8
DEFAULT_255_2_778
10
125.4198011
20
40.706702
11
123.3198011
21
40.706702
0
LINE
8
DEFAULT_255_2_778
10
123.3198011
20
39.206502
11
125.4198011
21
39.206502
0
ARC
8
DEFAULT_255_2_778
10
116.169978
20
43.7663801
40
1.809912
50
226.3575831
51
270.0007471
0
ARC
8
DEFAULT_255_2_778
10
116.1699984
20
43.7688923
40
1.8124243
50
270.0001019
51
272.2912402
0
ARC
8
DEFAULT_255_2_778
10
116.1698645
20
43.7662258
40
1.8097651
50
272.2988496
51
318.2406942
0
ARC
8
DEFAULT_255_2_778
10
116.1700067
20
43.1468098
40
1.8096581
50
41.7622724
51
87.7055197
0
ARC
8
DEFAULT_255_2_778
10
116.1696971
20
43.1459376
40
1.8105422
50
87.6968355
51
89.999864
0
ARC
8
DEFAULT_255_2_778
10
116.1698585
20
43.146902
40
1.8095777
50
90.0049724
51
133.6472775
0
LINE
8
DEFAULT_255_2_778
10
114.7197573
20
42.4566171
11
114.9208573
21
42.4566171
0
LINE
8
DEFAULT_255_2_778
10
117.5198573
20
42.5609171
11
117.5198573
21
44.3521171
0
LINE
8
DEFAULT_255_2_778
10
114.9208573
20
44.4563171
11
114.7197573
21
44.4563171
0
ARC
8
DEFAULT_255_2_778
10
116.1700067
20
46.6469195
40
1.8096581
50
41.7622724
51
87.7055197
0
ARC
8
DEFAULT_255_2_778
10
116.1696971
20
46.6460472
40
1.8105422
50
87.6968355
51
89.999864
0
ARC
8
DEFAULT_255_2_778
10
116.1698585
20
46.6470116
40
1.8095777
50
90.0049724
51
133.6472775
0
ARC
8
DEFAULT_255_2_778
10
116.169978
20
47.2664898
40
1.809912
50
226.3575831
51
270.0007471
0
ARC
8
DEFAULT_255_2_778
10
116.1699984
20
47.269002
40
1.8124243
50
270.0001019
51
272.2912402
0
ARC
8
DEFAULT_255_2_778
10
116.1698645
20
47.2663355
40
1.8097651
50
272.2988496
51
318.2406942
0
LINE
8
DEFAULT_255_2_778
10
117.5198573
20
46.0610268
11
117.5198573
21
47.8522268
0
LINE
8
DEFAULT_255_2_778
10
114.9208573
20
47.9564268
11
114.7197573
21
47.9564268
0
LINE
8
DEFAULT_255_2_778
10
114.7197573
20
45.9567268
11
114.9208573
21
45.9567268
0
ARC
8
DEFAULT_255_2_778
10
116.169978
20
50.7661801
40
1.809912
50
226.3575831
51
270.0007471
0
ARC
8
DEFAULT_255_2_778
10
116.1699984
20
50.7686923
40
1.8124243
50
270.0001019
51
272.2912402
0
ARC
8
DEFAULT_255_2_778
10
116.1698645
20
50.7660258
40
1.8097651
50
272.2988496
51
318.2406942
0
ARC
8
DEFAULT_255_2_778
10
116.1700067
20
50.1466098
40
1.8096581
50
41.7622724
51
87.7055197
0
ARC
8
DEFAULT_255_2_778
10
116.1696971
20
50.1457376
40
1.8105422
50
87.6968355
51
89.999864
0
ARC
8
DEFAULT_255_2_778
10
116.1698585
20
50.146702
40
1.8095777
50
90.0049724
51
133.6472775
0
LINE
8
DEFAULT_255_2_778
10
114.7197573
20
49.4564171
11
114.9208573
21
49.4564171
0
LINE
8
DEFAULT_255_2_778
10
117.5198573
20
49.5607171
11
117.5198573
21
51.3519171
0
LINE
8
DEFAULT_255_2_778
10
114.9208573
20
51.4561171
11
114.7197573
21
51.4561171
0
ARC
8
DEFAULT_255_2_778
10
116.1700067
20
39.6469006
40
1.8096581
50
41.7622724
51
87.7055197
0
ARC
8
DEFAULT_255_2_778
10
116.1696962
20
39.6459866
40
1.8105839
50
87.6968608
51
89.9998641
0
ARC
8
DEFAULT_255_2_778
10
116.1698857
20
39.6466622
40
1.8099083
50
90.0058613
51
133.6384933
0
LINE
8
DEFAULT_255_2_778
10
114.9208573
20
40.9565079
11
114.7197573
21
40.9565079
0
ARC
8
DEFAULT_255_2_778
10
116.169978
20
36.7662801
40
1.809912
50
226.3575831
51
270.0007471
0
ARC
8
DEFAULT_255_2_778
10
116.1699984
20
36.7687923
40
1.8124243
50
270.0001019
51
272.2912402
0
ARC
8
DEFAULT_255_2_778
10
116.1698645
20
36.7661258
40
1.8097651
50
272.2988496
51
318.2406942
0
ARC
8
DEFAULT_255_2_778
10
116.1700067
20
36.1467098
40
1.8096581
50
41.7622724
51
87.7055197
0
ARC
8
DEFAULT_255_2_778
10
116.1696971
20
36.1458376
40
1.8105422
50
87.6968355
51
89.999864
0
ARC
8
DEFAULT_255_2_778
10
116.1698585
20
36.146802
40
1.8095777
50
90.0049724
51
133.6472775
0
LINE
8
DEFAULT_255_2_778
10
114.7197573
20
35.4565171
11
114.9208573
21
35.4565171
0
LINE
8
DEFAULT_255_2_778
10
117.5198573
20
35.5608171
11
117.5198573
21
37.3520171
0
LINE
8
DEFAULT_255_2_778
10
114.9208573
20
37.4562171
11
114.7197573
21
37.4562171
0
ARC
8
DEFAULT_255_2_778
10
116.1699164
20
40.2663153
40
1.8100833
50
226.3597545
51
269.9990006
0
ARC
8
DEFAULT_255_2_778
10
116.1698822
20
40.2679573
40
1.8117254
50
270.0000826
51
272.2916816
0
ARC
8
DEFAULT_255_2_778
10
116.1700034
20
40.2654195
40
1.8091846
50
272.2910612
51
318.2484897
0
LINE
8
DEFAULT_255_2_778
10
114.7197272
20
38.9563811
11
114.9207272
21
38.9563811
0
LINE
8
DEFAULT_255_2_778
10
117.5197272
20
39.0606811
11
117.5197272
21
40.8518811
0
LINE
8
DEFAULT_255_2_778
10
112.1196272
20
43.1563811
11
114.7197272
21
43.1563811
0
LINE
8
DEFAULT_255_2_778
10
112.1196272
20
42.8676811
11
114.7197272
21
42.8676811
0
LINE
8
DEFAULT_255_2_778
10
114.7197698
20
44.7566302
11
112.1196698
21
44.7566302
0
LINE
8
DEFAULT_255_2_778
10
112.1196698
20
44.7566302
11
112.1196698
21
42.1565302
0
LINE
8
DEFAULT_255_2_778
10
112.1196698
20
42.1565302
11
114.7197698
21
42.1565302
0
LINE
8
DEFAULT_255_2_778
10
114.7197698
20
42.1565302
11
114.7197698
21
44.7566302
0
LINE
8
DEFAULT_255_2_778
10
112.1196698
20
40.2565677
11
114.7197698
21
40.2565677
0
LINE
8
DEFAULT_255_2_778
10
112.1196698
20
39.6564677
11
114.7197698
21
39.6564677
0
LINE
8
DEFAULT_255_2_778
10
112.1196698
20
39.3678677
11
114.7197698
21
39.3678677
0
LINE
8
DEFAULT_255_2_778
10
114.7197698
20
41.2564302
11
112.1196698
21
41.2564302
0
LINE
8
DEFAULT_255_2_778
10
112.1196698
20
41.2564302
11
112.1196698
21
38.6563302
0
LINE
8
DEFAULT_255_2_778
10
112.1196698
20
38.6563302
11
114.7197698
21
38.6563302
0
LINE
8
DEFAULT_255_2_778
10
114.7197698
20
38.6563302
11
114.7197698
21
41.2564302
0
LINE
8
DEFAULT_255_2_778
10
112.1196698
20
36.1566302
11
114.7197698
21
36.1566302
0
LINE
8
DEFAULT_255_2_778
10
112.1196698
20
35.8679302
11
114.7197698
21
35.8679302
0
LINE
8
DEFAULT_255_2_778
10
114.7197698
20
37.7565302
11
112.1196698
21
37.7565302
0
LINE
8
DEFAULT_255_2_778
10
112.1196698
20
37.7565302
11
112.1196698
21
35.1564302
0
LINE
8
DEFAULT_255_2_778
10
112.1196698
20
35.1564302
11
114.7197698
21
35.1564302
0
LINE
8
DEFAULT_255_2_778
10
114.7197698
20
35.1564302
11
114.7197698
21
37.7565302
0
LINE
8
DEFAULT_255_2_778
10
112.1196834
20
36.7566364
11
114.7196834
21
36.7566364
0
LINE
8
DEFAULT_255_2_778
10
112.1196834
20
43.7564364
11
114.7196834
21
43.7564364
0
LINE
8
DEFAULT_255_2_778
10
114.7196834
20
44.0451364
11
112.1196834
21
44.0451364
0
LINE
8
DEFAULT_255_2_778
10
112.1196834
20
44.2065364
11
110.2196834
21
44.2065364
0
LINE
8
DEFAULT_255_2_778
10
110.2196834
20
42.7066364
11
112.1196834
21
42.7066364
0
LINE
8
DEFAULT_255_2_778
10
114.7196834
20
40.5452478
11
112.1196834
21
40.5452478
0
LINE
8
DEFAULT_255_2_778
10
112.1196834
20
40.7066478
11
110.2196834
21
40.7066478
0
LINE
8
DEFAULT_255_2_778
10
110.2196834
20
39.2064478
11
112.1196834
21
39.2064478
0
LINE
8
DEFAULT_255_2_778
10
114.7196834
20
37.0453478
11
112.1196834
21
37.0453478
0
LINE
8
DEFAULT_255_2_778
10
112.1196834
20
37.2064478
11
110.2196834
21
37.2064478
0
LINE
8
DEFAULT_255_2_778
10
110.2196834
20
35.7065478
11
112.1196834
21
35.7065478
0
ARC
8
DEFAULT_255_2_778
10
119.2696562
20
43.147102
40
1.8095778
50
46.3527225
51
89.9950276
0
ARC
8
DEFAULT_255_2_778
10
119.2698176
20
43.1461376
40
1.8105421
50
90.000136
51
92.3031645
0
ARC
8
DEFAULT_255_2_778
10
119.2695082
20
43.1470088
40
1.8096592
50
92.294487
51
138.2377086
0
ARC
8
DEFAULT_255_2_778
10
119.2696503
20
43.7664259
40
1.8097652
50
221.759307
51
267.701147
0
ARC
8
DEFAULT_255_2_778
10
119.2695163
20
43.7690923
40
1.8124242
50
267.7087598
51
269.9998981
0
ARC
8
DEFAULT_255_2_778
10
119.2695367
20
43.7665801
40
1.8099121
50
269.9992529
51
313.6424169
0
LINE
8
DEFAULT_255_2_778
10
120.7197573
20
44.4565171
11
120.5186573
21
44.4565171
0
LINE
8
DEFAULT_255_2_778
10
117.9196573
20
44.3523171
11
117.9196573
21
42.5611171
0
LINE
8
DEFAULT_255_2_778
10
120.5186573
20
42.4568171
11
120.7197573
21
42.4568171
0
ARC
8
DEFAULT_255_2_778
10
119.269629
20
39.6466622
40
1.8099082
50
46.3615067
51
89.9941387
0
ARC
8
DEFAULT_255_2_778
10
119.2698184
20
39.6459866
40
1.8105838
50
90.0001359
51
92.3031392
0
ARC
8
DEFAULT_255_2_778
10
119.2695082
20
39.6468996
40
1.8096592
50
92.294487
51
138.2377086
0
LINE
8
DEFAULT_255_2_778
10
120.7197573
20
40.9565079
11
120.5186573
21
40.9565079
0
ARC
8
DEFAULT_255_2_778
10
119.2696562
20
36.147002
40
1.8095778
50
46.3527225
51
89.9950276
0
ARC
8
DEFAULT_255_2_778
10
119.2698176
20
36.1460376
40
1.8105421
50
90.000136
51
92.3031645
0
ARC
8
DEFAULT_255_2_778
10
119.2695082
20
36.1469088
40
1.8096592
50
92.294487
51
138.2377086
0
ARC
8
DEFAULT_255_2_778
10
119.2696503
20
36.7663259
40
1.8097652
50
221.759307
51
267.701147
0
ARC
8
DEFAULT_255_2_778
10
119.2695163
20
36.7689923
40
1.8124242
50
267.7087598
51
269.9998981
0
ARC
8
DEFAULT_255_2_778
10
119.2695367
20
36.7664801
40
1.8099121
50
269.9992529
51
313.6424169
0
LINE
8
DEFAULT_255_2_778
10
120.7197573
20
37.4564171
11
120.5186573
21
37.4564171
0
LINE
8
DEFAULT_255_2_778
10
117.9196573
20
37.3522171
11
117.9196573
21
35.5610171
0
LINE
8
DEFAULT_255_2_778
10
120.5186573
20
35.4567171
11
120.7197573
21
35.4567171
0
ARC
8
DEFAULT_255_2_778
10
119.2698322
20
40.2666498
40
1.8101574
50
221.7645644
51
267.695882
0
ARC
8
DEFAULT_255_2_778
10
119.2694774
20
40.2677353
40
1.8112278
50
267.7084757
51
270.0000567
0
ARC
8
DEFAULT_255_2_778
10
119.2693503
20
40.2668865
40
1.810379
50
270.0040811
51
313.6364713
0
ARC
8
DEFAULT_255_2_778
10
119.2696562
20
46.6470407
40
1.8095778
50
46.3527225
51
89.9950276
0
ARC
8
DEFAULT_255_2_778
10
119.2698176
20
46.6460763
40
1.8105421
50
90.000136
51
92.3031645
0
ARC
8
DEFAULT_255_2_778
10
119.2695081
20
46.646948
40
1.8096588
50
92.2944845
51
138.2377158
0
LINE
8
DEFAULT_255_2_778
10
117.9196573
20
40.8521559
11
117.9196573
21
39.0609559
0
LINE
8
DEFAULT_255_2_778
10
120.5186573
20
38.9566559
11
120.7197573
21
38.9566559
0
LINE
8
DEFAULT_255_2_778
10
120.7197573
20
47.9564559
11
120.5186573
21
47.9564559
0
LINE
8
DEFAULT_255_2_778
10
117.9196573
20
47.8522559
11
117.9196573
21
46.0610559
0
ARC
8
DEFAULT_255_2_778
10
119.2698322
20
47.2664
40
1.8101574
50
221.7645644
51
267.695882
0
ARC
8
DEFAULT_255_2_778
10
119.2694763
20
47.267425
40
1.8111673
50
267.7084363
51
270.0000615
0
ARC
8
DEFAULT_255_2_778
10
119.2693781
20
47.2663057
40
1.8100479
50
270.0031685
51
313.6452504
0
LINE
8
DEFAULT_255_2_778
10
120.5186573
20
45.9565061
11
120.7197573
21
45.9565061
0
ARC
8
DEFAULT_255_2_778
10
119.269629
20
50.1465714
40
1.8099082
50
46.3615067
51
89.9941387
0
ARC
8
DEFAULT_255_2_778
10
119.2698184
20
50.1458958
40
1.8105838
50
90.0001359
51
92.3031392
0
ARC
8
DEFAULT_255_2_778
10
119.2695082
20
50.1468088
40
1.8096592
50
92.294487
51
138.2377086
0
ARC
8
DEFAULT_255_2_778
10
119.2696503
20
50.7662259
40
1.8097652
50
221.759307
51
267.701147
0
ARC
8
DEFAULT_255_2_778
10
119.2695163
20
50.7688923
40
1.8124242
50
267.7087598
51
269.9998981
0
ARC
8
DEFAULT_255_2_778
10
119.2695367
20
50.7663801
40
1.8099121
50
269.9992529
51
313.6424169
0
LINE
8
DEFAULT_255_2_778
10
120.7197573
20
51.4564171
11
120.5186573
21
51.4564171
0
LINE
8
DEFAULT_255_2_778
10
117.9196573
20
51.3521171
11
117.9196573
21
49.5609171
0
LINE
8
DEFAULT_255_2_778
10
120.5186573
20
49.4566171
11
120.7197573
21
49.4566171
0
LINE
8
DEFAULT_255_2_778
10
114.7196834
20
54.545102
11
112.1196834
21
54.545102
0
LINE
8
DEFAULT_255_2_778
10
112.1196834
20
54.706502
11
110.2196834
21
54.706502
0
LINE
8
DEFAULT_255_2_778
10
110.2196834
20
53.206602
11
112.1196834
21
53.206602
0
LINE
8
DEFAULT_255_2_778
10
114.7196834
20
51.045202
11
112.1196834
21
51.045202
0
LINE
8
DEFAULT_255_2_778
10
112.1196834
20
51.206602
11
110.2196834
21
51.206602
0
LINE
8
DEFAULT_255_2_778
10
110.2196834
20
49.706402
11
112.1196834
21
49.706402
0
LINE
8
DEFAULT_255_2_778
10
114.7196834
20
47.545302
11
112.1196834
21
47.545302
0
LINE
8
DEFAULT_255_2_778
10
112.1196834
20
47.706402
11
110.2196834
21
47.706402
0
LINE
8
DEFAULT_255_2_778
10
110.2196834
20
46.206502
11
112.1196834
21
46.206502
0
LINE
8
DEFAULT_255_2_778
10
112.1196834
20
53.656402
11
114.7196834
21
53.656402
0
LINE
8
DEFAULT_255_2_778
10
112.1196698
20
50.1565218
11
114.7197698
21
50.1565218
0
LINE
8
DEFAULT_255_2_778
10
112.1196698
20
49.8679218
11
114.7197698
21
49.8679218
0
LINE
8
DEFAULT_255_2_778
10
112.1196698
20
54.2565218
11
114.7197698
21
54.2565218
0
LINE
8
DEFAULT_255_2_778
10
114.7197698
20
52.6565302
11
114.7197698
21
55.2566302
0
LINE
8
DEFAULT_255_2_778
10
114.7197698
20
55.2566302
11
112.1196698
21
55.2566302
0
LINE
8
DEFAULT_255_2_778
10
112.1196698
20
55.2566302
11
112.1196698
21
52.6565302
0
LINE
8
DEFAULT_255_2_778
10
112.1196698
20
52.6565302
11
114.7197698
21
52.6565302
0
LINE
8
DEFAULT_255_2_778
10
112.1196698
20
50.7566
11
114.7197698
21
50.7566
0
LINE
8
DEFAULT_255_2_778
10
114.7197698
20
49.1563302
11
114.7197698
21
51.7564302
0
LINE
8
DEFAULT_255_2_778
10
114.7197698
20
51.7564302
11
112.1196698
21
51.7564302
0
LINE
8
DEFAULT_255_2_778
10
112.1196698
20
51.7564302
11
112.1196698
21
49.1563302
0
LINE
8
DEFAULT_255_2_778
10
112.1196698
20
49.1563302
11
114.7197698
21
49.1563302
0
LINE
8
DEFAULT_255_2_778
10
112.1196698
20
46.6566302
11
114.7197698
21
46.6566302
0
LINE
8
DEFAULT_255_2_778
10
112.1196698
20
46.3679302
11
114.7197698
21
46.3679302
0
LINE
8
DEFAULT_255_2_778
10
114.7197698
20
48.2565302
11
112.1196698
21
48.2565302
0
LINE
8
DEFAULT_255_2_778
10
112.1196698
20
48.2565302
11
112.1196698
21
45.6564302
0
LINE
8
DEFAULT_255_2_778
10
112.1196698
20
45.6564302
11
114.7197698
21
45.6564302
0
LINE
8
DEFAULT_255_2_778
10
114.7197698
20
45.6564302
11
114.7197698
21
48.2565302
0
LINE
8
DEFAULT_255_2_778
10
112.1196484
20
47.2565843
11
114.7197484
21
47.2565843
0
LINE
8
DEFAULT_255_2_778
10
120.7196484
20
51.0451843
11
123.3197484
21
51.0451843
0
LINE
8
DEFAULT_255_2_778
10
120.7196484
20
50.1564843
11
123.3197484
21
50.1564843
0
LINE
8
DEFAULT_255_2_778
10
120.7196484
20
49.8677843
11
123.3197484
21
49.8677843
0
LINE
8
DEFAULT_255_2_778
10
120.7196484
20
50.7564843
11
123.3197484
21
50.7564843
0
LINE
8
DEFAULT_255_2_778
10
123.3197698
20
51.7564302
11
120.7196698
21
51.7564302
0
LINE
8
DEFAULT_255_2_778
10
120.7196698
20
51.7564302
11
120.7196698
21
49.1563302
0
LINE
8
DEFAULT_255_2_778
10
120.7196698
20
49.1563302
11
123.3197698
21
49.1563302
0
LINE
8
DEFAULT_255_2_778
10
123.3197698
20
49.1563302
11
123.3197698
21
51.7564302
0
LINE
8
DEFAULT_255_2_778
10
120.7196698
20
44.0450864
11
123.3197698
21
44.0450864
0
LINE
8
DEFAULT_255_2_778
10
120.7196698
20
47.5452864
11
123.3197698
21
47.5452864
0
LINE
8
DEFAULT_255_2_778
10
120.7196698
20
46.6565541
11
123.3197698
21
46.6565541
0
LINE
8
DEFAULT_255_2_778
10
120.7196698
20
46.3679541
11
123.3197698
21
46.3679541
0
LINE
8
DEFAULT_255_2_778
10
120.7196698
20
47.2566541
11
123.3197698
21
47.2566541
0
LINE
8
DEFAULT_255_2_778
10
120.7196698
20
43.1564541
11
123.3197698
21
43.1564541
0
LINE
8
DEFAULT_255_2_778
10
120.7196698
20
42.8677541
11
123.3197698
21
42.8677541
0
LINE
8
DEFAULT_255_2_778
10
120.7196698
20
43.7564541
11
123.3197698
21
43.7564541
0
LINE
8
DEFAULT_255_2_778
10
123.3197698
20
48.2565302
11
120.7196698
21
48.2565302
0
LINE
8
DEFAULT_255_2_778
10
120.7196698
20
48.2565302
11
120.7196698
21
45.6564302
0
LINE
8
DEFAULT_255_2_778
10
120.7196698
20
45.6564302
11
123.3197698
21
45.6564302
0
LINE
8
DEFAULT_255_2_778
10
123.3197698
20
45.6564302
11
123.3197698
21
48.2565302
0
LINE
8
DEFAULT_255_2_778
10
123.3197698
20
44.7566302
11
120.7196698
21
44.7566302
0
LINE
8
DEFAULT_255_2_778
10
120.7196698
20
44.7566302
11
120.7196698
21
42.1565302
0
LINE
8
DEFAULT_255_2_778
10
120.7196698
20
42.1565302
11
123.3197698
21
42.1565302
0
LINE
8
DEFAULT_255_2_778
10
123.3197698
20
42.1565302
11
123.3197698
21
44.7566302
0
LINE
8
DEFAULT_255_2_778
10
125.4198011
20
58.2063966
11
123.3198011
21
58.2063966
0
LINE
8
DEFAULT_255_2_778
10
123.3198011
20
56.7064966
11
125.4198011
21
56.7064966
0
LINE
8
DEFAULT_255_2_778
10
125.4198011
20
54.7064966
11
123.3198011
21
54.7064966
0
LINE
8
DEFAULT_255_2_778
10
123.3198011
20
53.2065966
11
125.4198011
21
53.2065966
0
LINE
8
DEFAULT_255_2_778
10
125.4198011
20
51.2065966
11
123.3198011
21
51.2065966
0
LINE
8
DEFAULT_255_2_778
10
123.3198011
20
49.7063966
11
125.4198011
21
49.7063966
0
LINE
8
DEFAULT_255_2_778
10
125.4198011
20
68.7063966
11
123.3198011
21
68.7063966
0
LINE
8
DEFAULT_255_2_778
10
123.3198011
20
67.2064966
11
125.4198011
21
67.2064966
0
LINE
8
DEFAULT_255_2_778
10
125.4198011
20
65.2064966
11
123.3198011
21
65.2064966
0
LINE
8
DEFAULT_255_2_778
10
123.3198011
20
63.7065966
11
125.4198011
21
63.7065966
0
LINE
8
DEFAULT_255_2_778
10
125.4198011
20
61.7065966
11
123.3198011
21
61.7065966
0
LINE
8
DEFAULT_255_2_778
10
123.3198011
20
60.2063966
11
125.4198011
21
60.2063966
0
ARC
8
DEFAULT_255_2_778
10
116.169978
20
64.7662801
40
1.809912
50
226.3575831
51
270.0007471
0
ARC
8
DEFAULT_255_2_778
10
116.1699984
20
64.7687923
40
1.8124243
50
270.0001019
51
272.2912402
0
ARC
8
DEFAULT_255_2_778
10
116.1698645
20
64.7661258
40
1.8097651
50
272.2988496
51
318.2406942
0
ARC
8
DEFAULT_255_2_778
10
116.1700067
20
64.1467098
40
1.8096581
50
41.7622724
51
87.7055197
0
ARC
8
DEFAULT_255_2_778
10
116.1696971
20
64.1458376
40
1.8105422
50
87.6968355
51
89.999864
0
ARC
8
DEFAULT_255_2_778
10
116.1698585
20
64.146802
40
1.8095777
50
90.0049724
51
133.6472775
0
LINE
8
DEFAULT_255_2_778
10
114.7197573
20
63.4565171
11
114.9208573
21
63.4565171
0
LINE
8
DEFAULT_255_2_778
10
117.5198573
20
63.5608171
11
117.5198573
21
65.3520171
0
LINE
8
DEFAULT_255_2_778
10
114.9208573
20
65.4562171
11
114.7197573
21
65.4562171
0
ARC
8
DEFAULT_255_2_778
10
119.2696562
20
64.147102
40
1.8095778
50
46.3527225
51
89.9950276
0
ARC
8
DEFAULT_255_2_778
10
119.2698176
20
64.1461376
40
1.8105421
50
90.000136
51
92.3031645
0
ARC
8
DEFAULT_255_2_778
10
119.2695082
20
64.1470088
40
1.8096592
50
92.294487
51
138.2377086
0
ARC
8
DEFAULT_255_2_778
10
119.2696503
20
64.7664259
40
1.8097652
50
221.759307
51
267.701147
0
ARC
8
DEFAULT_255_2_778
10
119.2695163
20
64.7690923
40
1.8124242
50
267.7087598
51
269.9998981
0
ARC
8
DEFAULT_255_2_778
10
119.2695367
20
64.7665801
40
1.8099121
50
269.9992529
51
313.6424169
0
LINE
8
DEFAULT_255_2_778
10
120.7197573
20
65.4565171
11
120.5186573
21
65.4565171
0
LINE
8
DEFAULT_255_2_778
10
117.9196573
20
65.3523171
11
117.9196573
21
63.5611171
0
LINE
8
DEFAULT_255_2_778
10
120.5186573
20
63.4568171
11
120.7197573
21
63.4568171
0
LINE
8
DEFAULT_255_2_778
10
114.7196834
20
65.045102
11
112.1196834
21
65.045102
0
LINE
8
DEFAULT_255_2_778
10
112.1196834
20
65.206502
11
110.2196834
21
65.206502
0
LINE
8
DEFAULT_255_2_778
10
110.2196834
20
63.706602
11
112.1196834
21
63.706602
0
LINE
8
DEFAULT_255_2_778
10
114.7196834
20
61.545202
11
112.1196834
21
61.545202
0
LINE
8
DEFAULT_255_2_778
10
112.1196834
20
61.706602
11
110.2196834
21
61.706602
0
LINE
8
DEFAULT_255_2_778
10
110.2196834
20
60.206402
11
112.1196834
21
60.206402
0
LINE
8
DEFAULT_255_2_778
10
114.7196834
20
58.045302
11
112.1196834
21
58.045302
0
LINE
8
DEFAULT_255_2_778
10
112.1196834
20
58.206402
11
110.2196834
21
58.206402
0
LINE
8
DEFAULT_255_2_778
10
110.2196834
20
56.706502
11
112.1196834
21
56.706502
0
LINE
8
DEFAULT_255_2_778
10
112.1196698
20
60.3679082
11
114.7197698
21
60.3679082
0
LINE
8
DEFAULT_255_2_778
10
112.1196698
20
61.2566082
11
114.7197698
21
61.2566082
0
LINE
8
DEFAULT_255_2_778
10
112.1196698
20
57.7567082
11
114.7197698
21
57.7567082
0
LINE
8
DEFAULT_255_2_778
10
112.1196698
20
53.3678082
11
114.7197698
21
53.3678082
0
LINE
8
DEFAULT_255_2_778
10
112.1196698
20
57.1565302
11
114.7197698
21
57.1565302
0
LINE
8
DEFAULT_255_2_778
10
112.1196698
20
56.8678302
11
114.7197698
21
56.8678302
0
LINE
8
DEFAULT_255_2_778
10
114.7197698
20
58.7565302
11
112.1196698
21
58.7565302
0
LINE
8
DEFAULT_255_2_778
10
112.1196698
20
58.7565302
11
112.1196698
21
56.1564302
0
LINE
8
DEFAULT_255_2_778
10
112.1196698
20
56.1564302
11
114.7197698
21
56.1564302
0
LINE
8
DEFAULT_255_2_778
10
114.7197698
20
56.1564302
11
114.7197698
21
58.7565302
0
ARC
8
DEFAULT_255_2_778
10
119.269629
20
60.6465714
40
1.8099082
50
46.3615067
51
89.9941387
0
ARC
8
DEFAULT_255_2_778
10
119.2698184
20
60.6458958
40
1.8105838
50
90.0001359
51
92.3031392
0
ARC
8
DEFAULT_255_2_778
10
119.2695082
20
60.6468088
40
1.8096592
50
92.294487
51
138.2377086
0
ARC
8
DEFAULT_255_2_778
10
119.2696503
20
61.2662259
40
1.8097652
50
221.759307
51
267.701147
0
ARC
8
DEFAULT_255_2_778
10
119.2695163
20
61.2688923
40
1.8124242
50
267.7087598
51
269.9998981
0
ARC
8
DEFAULT_255_2_778
10
119.2695367
20
61.2663801
40
1.8099121
50
269.9992529
51
313.6424169
0
LINE
8
DEFAULT_255_2_778
10
120.7197573
20
61.9564171
11
120.5186573
21
61.9564171
0
LINE
8
DEFAULT_255_2_778
10
117.9196573
20
61.8521171
11
117.9196573
21
60.0609171
0
LINE
8
DEFAULT_255_2_778
10
120.5186573
20
59.9566171
11
120.7197573
21
59.9566171
0
ARC
8
DEFAULT_255_2_778
10
119.2696562
20
53.647102
40
1.8095778
50
46.3527225
51
89.9950276
0
ARC
8
DEFAULT_255_2_778
10
119.2698176
20
53.6461376
40
1.8105421
50
90.000136
51
92.3031645
0
ARC
8
DEFAULT_255_2_778
10
119.2695082
20
53.6470088
40
1.8096592
50
92.294487
51
138.2377086
0
ARC
8
DEFAULT_255_2_778
10
119.2696503
20
54.2664259
40
1.8097652
50
221.759307
51
267.701147
0
ARC
8
DEFAULT_255_2_778
10
119.2695163
20
54.2690923
40
1.8124242
50
267.7087598
51
269.9998981
0
ARC
8
DEFAULT_255_2_778
10
119.2695367
20
54.2665801
40
1.8099121
50
269.9992529
51
313.6424169
0
LINE
8
DEFAULT_255_2_778
10
120.7197573
20
54.9565171
11
120.5186573
21
54.9565171
0
LINE
8
DEFAULT_255_2_778
10
117.9196573
20
54.8523171
11
117.9196573
21
53.0611171
0
LINE
8
DEFAULT_255_2_778
10
120.5186573
20
52.9568171
11
120.7197573
21
52.9568171
0
ARC
8
DEFAULT_255_2_778
10
119.2696562
20
57.1470134
40
1.8095778
50
46.3527225
51
89.9950276
0
ARC
8
DEFAULT_255_2_778
10
119.2698176
20
57.146049
40
1.8105421
50
90.000136
51
92.3031645
0
ARC
8
DEFAULT_255_2_778
10
119.2695082
20
57.1469203
40
1.8096592
50
92.294487
51
138.2377086
0
ARC
8
DEFAULT_255_2_778
10
119.2696503
20
57.7663374
40
1.8097652
50
221.759307
51
267.701147
0
ARC
8
DEFAULT_255_2_778
10
119.2695163
20
57.7690038
40
1.8124242
50
267.7087598
51
269.9998981
0
ARC
8
DEFAULT_255_2_778
10
119.2695367
20
57.7664916
40
1.8099121
50
269.9992529
51
313.6424169
0
LINE
8
DEFAULT_255_2_778
10
120.7197573
20
58.4564286
11
120.5186573
21
58.4564286
0
LINE
8
DEFAULT_255_2_778
10
117.9196573
20
58.3522286
11
117.9196573
21
56.5610286
0
LINE
8
DEFAULT_255_2_778
10
120.5186573
20
56.4567286
11
120.7197573
21
56.4567286
0
ARC
8
DEFAULT_255_2_778
10
116.169978
20
61.2661801
40
1.809912
50
226.3575831
51
270.0007471
0
ARC
8
DEFAULT_255_2_778
10
116.1699984
20
61.2686923
40
1.8124243
50
270.0001019
51
272.2912402
0
ARC
8
DEFAULT_255_2_778
10
116.1698645
20
61.2660258
40
1.8097651
50
272.2988496
51
318.2406942
0
ARC
8
DEFAULT_255_2_778
10
116.1700067
20
60.6466098
40
1.8096581
50
41.7622724
51
87.7055197
0
ARC
8
DEFAULT_255_2_778
10
116.1696971
20
60.6457376
40
1.8105422
50
87.6968355
51
89.999864
0
ARC
8
DEFAULT_255_2_778
10
116.1698585
20
60.646702
40
1.8095777
50
90.0049724
51
133.6472775
0
LINE
8
DEFAULT_255_2_778
10
114.7197573
20
59.9564171
11
114.9208573
21
59.9564171
0
LINE
8
DEFAULT_255_2_778
10
117.5198573
20
60.0607171
11
117.5198573
21
61.8519171
0
LINE
8
DEFAULT_255_2_778
10
114.9208573
20
61.9561171
11
114.7197573
21
61.9561171
0
ARC
8
DEFAULT_255_2_778
10
116.169978
20
54.2662801
40
1.809912
50
226.3575831
51
270.0007471
0
ARC
8
DEFAULT_255_2_778
10
116.1699984
20
54.2687923
40
1.8124243
50
270.0001019
51
272.2912402
0
ARC
8
DEFAULT_255_2_778
10
116.1698645
20
54.2661258
40
1.8097651
50
272.2988496
51
318.2406942
0
ARC
8
DEFAULT_255_2_778
10
116.1700067
20
53.6467098
40
1.8096581
50
41.7622724
51
87.7055197
0
ARC
8
DEFAULT_255_2_778
10
116.1696971
20
53.6458376
40
1.8105422
50
87.6968355
51
89.999864
0
ARC
8
DEFAULT_255_2_778
10
116.1698585
20
53.646802
40
1.8095777
50
90.0049724
51
133.6472775
0
LINE
8
DEFAULT_255_2_778
10
114.7197573
20
52.9565171
11
114.9208573
21
52.9565171
0
LINE
8
DEFAULT_255_2_778
10
117.5198573
20
53.0608171
11
117.5198573
21
54.8520171
0
LINE
8
DEFAULT_255_2_778
10
114.9208573
20
54.9562171
11
114.7197573
21
54.9562171
0
ARC
8
DEFAULT_255_2_778
10
116.169978
20
57.7662801
40
1.809912
50
226.3575831
51
270.0007471
0
ARC
8
DEFAULT_255_2_778
10
116.1699984
20
57.7687923
40
1.8124243
50
270.0001019
51
272.2912402
0
ARC
8
DEFAULT_255_2_778
10
116.1698645
20
57.7661258
40
1.8097651
50
272.2988496
51
318.2406942
0
ARC
8
DEFAULT_255_2_778
10
116.1700067
20
57.1467098
40
1.8096581
50
41.7622724
51
87.7055197
0
ARC
8
DEFAULT_255_2_778
10
116.1696962
20
57.1457958
40
1.8105839
50
87.6968608
51
89.9998641
0
ARC
8
DEFAULT_255_2_778
10
116.1698857
20
57.1464714
40
1.8099083
50
90.0058613
51
133.6384933
0
LINE
8
DEFAULT_255_2_778
10
114.7197573
20
56.4565171
11
114.9208573
21
56.4565171
0
LINE
8
DEFAULT_255_2_778
10
117.5198573
20
56.5608171
11
117.5198573
21
58.3520171
0
LINE
8
DEFAULT_255_2_778
10
114.9208573
20
58.4563171
11
114.7197573
21
58.4563171
0
LINE
8
DEFAULT_255_2_778
10
120.7196698
20
60.6564979
11
123.3197698
21
60.6564979
0
LINE
8
DEFAULT_255_2_778
10
120.7196698
20
60.3677979
11
123.3197698
21
60.3677979
0
LINE
8
DEFAULT_255_2_778
10
120.7196698
20
61.5451979
11
123.3197698
21
61.5451979
0
LINE
8
DEFAULT_255_2_778
10
120.7196698
20
61.2564979
11
123.3197698
21
61.2564979
0
LINE
8
DEFAULT_255_2_778
10
123.3197698
20
62.2564302
11
120.7196698
21
62.2564302
0
LINE
8
DEFAULT_255_2_778
10
120.7196698
20
62.2564302
11
120.7196698
21
59.6563302
0
LINE
8
DEFAULT_255_2_778
10
120.7196698
20
59.6563302
11
123.3197698
21
59.6563302
0
LINE
8
DEFAULT_255_2_778
10
123.3197698
20
59.6563302
11
123.3197698
21
62.2564302
0
LINE
8
DEFAULT_255_2_778
10
120.7196698
20
58.0452843
11
123.3197698
21
58.0452843
0
LINE
8
DEFAULT_255_2_778
10
120.7196698
20
57.7565843
11
123.3197698
21
57.7565843
0
LINE
8
DEFAULT_255_2_778
10
120.7196698
20
57.1565843
11
123.3197698
21
57.1565843
0
LINE
8
DEFAULT_255_2_778
10
120.7196698
20
56.8678843
11
123.3197698
21
56.8678843
0
LINE
8
DEFAULT_255_2_778
10
120.7196698
20
53.6563843
11
123.3197698
21
53.6563843
0
LINE
8
DEFAULT_255_2_778
10
120.7196698
20
53.3676843
11
123.3197698
21
53.3676843
0
LINE
8
DEFAULT_255_2_778
10
120.7196698
20
54.5450843
11
123.3197698
21
54.5450843
0
LINE
8
DEFAULT_255_2_778
10
123.3197698
20
55.2566302
11
120.7196698
21
55.2566302
0
LINE
8
DEFAULT_255_2_778
10
120.7196698
20
55.2566302
11
120.7196698
21
52.6565302
0
LINE
8
DEFAULT_255_2_778
10
120.7196698
20
52.6565302
11
123.3197698
21
52.6565302
0
LINE
8
DEFAULT_255_2_778
10
123.3197698
20
52.6565302
11
123.3197698
21
55.2566302
0
LINE
8
DEFAULT_255_2_778
10
120.7196698
20
54.2565
11
123.3197698
21
54.2565
0
LINE
8
DEFAULT_255_2_778
10
123.3197698
20
58.7565302
11
120.7196698
21
58.7565302
0
LINE
8
DEFAULT_255_2_778
10
120.7196698
20
58.7565302
11
120.7196698
21
56.1564302
0
LINE
8
DEFAULT_255_2_778
10
120.7196698
20
56.1564302
11
123.3197698
21
56.1564302
0
LINE
8
DEFAULT_255_2_778
10
123.3197698
20
56.1564302
11
123.3197698
21
58.7565302
0
LINE
8
DEFAULT_255_2_778
10
116.4196804
20
72.4764833
11
116.4196804
21
73.2064833
0
LINE
8
DEFAULT_255_2_778
10
116.4196804
20
73.2064833
11
112.8197804
21
73.2064833
0
LINE
8
DEFAULT_255_2_778
10
112.8197804
20
73.2064833
11
112.8197804
21
72.4764833
0
LINE
8
DEFAULT_255_2_778
10
119.0946804
20
72.4764833
11
119.0946804
21
73.2064833
0
LINE
8
DEFAULT_255_2_778
10
119.0946804
20
73.2064833
11
117.1446804
21
73.2064833
0
LINE
8
DEFAULT_255_2_778
10
117.1446804
20
73.2064833
11
117.1446804
21
72.4764833
0
LINE
8
DEFAULT_255_2_778
10
112.2196804
20
72.4764833
11
112.2196804
21
73.2564833
0
LINE
8
DEFAULT_255_2_778
10
112.2196804
20
73.2564833
11
123.0196804
21
73.2564833
0
LINE
8
DEFAULT_255_2_778
10
112.1196804
20
67.3678833
11
114.7197804
21
67.3678833
0
LINE
8
DEFAULT_255_2_778
10
114.7197698
20
69.2565302
11
112.1196698
21
69.2565302
0
LINE
8
DEFAULT_255_2_778
10
112.1196698
20
69.2565302
11
112.1196698
21
66.6564302
0
LINE
8
DEFAULT_255_2_778
10
112.1196698
20
66.6564302
11
114.7197698
21
66.6564302
0
LINE
8
DEFAULT_255_2_778
10
114.7197698
20
66.6564302
11
114.7197698
21
69.2565302
0
LINE
8
DEFAULT_255_2_778
10
112.1196698
20
68.256678
11
114.7197698
21
68.256678
0
LINE
8
DEFAULT_255_2_778
10
112.1196698
20
67.656578
11
114.7197698
21
67.656578
0
LINE
8
DEFAULT_255_2_778
10
112.1196698
20
60.656478
11
114.7197698
21
60.656478
0
LINE
8
DEFAULT_255_2_778
10
112.1196698
20
64.1566625
11
114.7197698
21
64.1566625
0
LINE
8
DEFAULT_255_2_778
10
112.1196698
20
63.8677625
11
114.7197698
21
63.8677625
0
LINE
8
DEFAULT_255_2_778
10
114.7197698
20
59.6563302
11
114.7197698
21
62.2564302
0
LINE
8
DEFAULT_255_2_778
10
114.7197698
20
62.2564302
11
112.1196698
21
62.2564302
0
LINE
8
DEFAULT_255_2_778
10
112.1196698
20
62.2564302
11
112.1196698
21
59.6563302
0
LINE
8
DEFAULT_255_2_778
10
112.1196698
20
59.6563302
11
114.7197698
21
59.6563302
0
LINE
8
DEFAULT_255_2_778
10
114.7197698
20
65.7566302
11
112.1196698
21
65.7566302
0
LINE
8
DEFAULT_255_2_778
10
112.1196698
20
65.7566302
11
112.1196698
21
63.1565302
0
LINE
8
DEFAULT_255_2_778
10
112.1196698
20
63.1565302
11
114.7197698
21
63.1565302
0
LINE
8
DEFAULT_255_2_778
10
114.7197698
20
63.1565302
11
114.7197698
21
65.7566302
0
LINE
8
DEFAULT_255_2_778
10
112.1196698
20
64.7565061
11
114.7197698
21
64.7565061
0
LINE
8
DEFAULT_255_2_778
10
113.8696698
20
72.4765061
11
113.8696698
21
69.9566061
0
LINE
8
DEFAULT_255_2_778
10
114.1307698
20
72.4764458
11
114.1307698
21
69.9565458
0
LINE
8
DEFAULT_255_2_778
10
114.4448698
20
72.4764458
11
114.4448698
21
69.9565458
0
ARC
8
DEFAULT_255_2_778
10
119.2696562
20
67.647002
40
1.8095778
50
46.3527225
51
89.9950276
0
ARC
8
DEFAULT_255_2_778
10
119.2698176
20
67.6460376
40
1.8105421
50
90.000136
51
92.3031645
0
ARC
8
DEFAULT_255_2_778
10
119.2695082
20
67.6469088
40
1.8096592
50
92.294487
51
138.2377086
0
ARC
8
DEFAULT_255_2_778
10
119.2696503
20
68.2663259
40
1.8097652
50
221.759307
51
267.701147
0
ARC
8
DEFAULT_255_2_778
10
119.2695163
20
68.2689923
40
1.8124242
50
267.7087598
51
269.9998981
0
ARC
8
DEFAULT_255_2_778
10
119.2695367
20
68.2664801
40
1.8099121
50
269.9992529
51
313.6424169
0
LINE
8
DEFAULT_255_2_778
10
120.7197573
20
68.9564171
11
120.5186573
21
68.9564171
0
LINE
8
DEFAULT_255_2_778
10
117.9196573
20
68.8522171
11
117.9196573
21
67.0610171
0
ARC
8
DEFAULT_255_2_778
10
116.169978
20
68.2661801
40
1.809912
50
226.3575831
51
270.0007471
0
ARC
8
DEFAULT_255_2_778
10
116.1699984
20
68.2686923
40
1.8124243
50
270.0001019
51
272.2912402
0
ARC
8
DEFAULT_255_2_778
10
116.1698645
20
68.2660258
40
1.8097651
50
272.2988496
51
318.2406942
0
ARC
8
DEFAULT_255_2_778
10
116.1700067
20
67.6466098
40
1.8096581
50
41.7622724
51
87.7055197
0
ARC
8
DEFAULT_255_2_778
10
116.1696971
20
67.6457376
40
1.8105422
50
87.6968355
51
89.999864
0
ARC
8
DEFAULT_255_2_778
10
116.1698585
20
67.646702
40
1.8095777
50
90.0049724
51
133.6472775
0
LINE
8
DEFAULT_255_2_778
10
117.5198573
20
67.0607171
11
117.5198573
21
68.8519171
0
LINE
8
DEFAULT_255_2_778
10
114.9208573
20
68.9561171
11
114.7197573
21
68.9561171
0
LINE
8
DEFAULT_255_2_778
10
114.7196752
20
68.5453614
11
112.1196752
21
68.5453614
0
LINE
8
DEFAULT_255_2_778
10
112.1196752
20
68.7064614
11
110.2196752
21
68.7064614
0
LINE
8
DEFAULT_255_2_778
10
110.2196752
20
67.2065614
11
112.1196752
21
67.2065614
0
LINE
8
DEFAULT_255_2_778
10
120.7196752
20
68.5453614
11
123.3196752
21
68.5453614
0
LINE
8
DEFAULT_255_2_778
10
120.7196752
20
67.3679614
11
123.3196752
21
67.3679614
0
LINE
8
DEFAULT_255_2_778
10
123.3197698
20
69.2565302
11
120.7196698
21
69.2565302
0
LINE
8
DEFAULT_255_2_778
10
120.7196698
20
69.2565302
11
120.7196698
21
66.6564302
0
LINE
8
DEFAULT_255_2_778
10
120.7196698
20
66.6564302
11
123.3197698
21
66.6564302
0
LINE
8
DEFAULT_255_2_778
10
123.3197698
20
66.6564302
11
123.3197698
21
69.2565302
0
LINE
8
DEFAULT_255_2_778
10
120.7196698
20
68.2566375
11
123.3197698
21
68.2566375
0
LINE
8
DEFAULT_255_2_778
10
120.7196698
20
67.6565375
11
123.3197698
21
67.6565375
0
LINE
8
DEFAULT_255_2_778
10
123.3197698
20
65.7566302
11
120.7196698
21
65.7566302
0
LINE
8
DEFAULT_255_2_778
10
120.7196698
20
65.7566302
11
120.7196698
21
63.1565302
0
LINE
8
DEFAULT_255_2_778
10
120.7196698
20
63.1565302
11
123.3197698
21
63.1565302
0
LINE
8
DEFAULT_255_2_778
10
123.3197698
20
63.1565302
11
123.3197698
21
65.7566302
0
LINE
8
DEFAULT_255_2_778
10
120.7196698
20
63.8680656
11
123.3197698
21
63.8680656
0
LINE
8
DEFAULT_255_2_778
10
120.7196698
20
65.0451656
11
123.3197698
21
65.0451656
0
LINE
8
DEFAULT_255_2_778
10
120.7196698
20
64.7565052
11
123.3197698
21
64.7565052
0
LINE
8
DEFAULT_255_2_778
10
120.7196698
20
64.1567052
11
123.3197698
21
64.1567052
0
ENDSEC
0
EOF