0
SECTION
2
HEADER
9
$MEASUREMENT
70
1
0
ENDSEC
0
SECTION
2
TABLES
0
TABLE
2
LTYPE
0
LTYPE
72
65
70
64
2
CONTINUOUS
3
______
73
0
40
0
0
ENDTAB
0
TABLE
2
LAYER
0
LAYER
2
DEFAULT_255_2_778
70
0
62
255
6
CONTINUOUS
0
ENDTAB
0
ENDSEC
0
SECTION
2
ENTITIES
0
LINE
8
DEFAULT_255_2_778
10
58.4390847
20
8.5108895
11
58.4390847
21
5.5107895
0
LINE
8
DEFAULT_255_2_778
10
58.4390847
20
5.5107895
11
53.4389847
21
5.5107895
0
LINE
8
DEFAULT_255_2_778
10
53.4389847
20
5.5107895
11
53.4389847
21
8.5108895
0
LINE
8
DEFAULT_255_2_778
10
53.4389847
20
8.5108895
11
58.4390847
21
8.5108895
0
LINE
8
DEFAULT_255_2_778
10
79.0889847
20
8.5108895
11
79.0889847
21
5.5107895
0
LINE
8
DEFAULT_255_2_778
10
79.0889847
20
5.5107895
11
74.0888847
21
5.5107895
0
LINE
8
DEFAULT_255_2_778
10
74.0888847
20
5.5107895
11
74.0888847
21
8.5108895
0
LINE
8
DEFAULT_255_2_778
10
74.0888847
20
8.5108895
11
79.0889847
21
8.5108895
0
LINE
8
DEFAULT_255_2_778
10
58.4390847
20
86.5108895
11
58.4390847
21
89.5109895
0
LINE
8
DEFAULT_255_2_778
10
58.4390847
20
89.5109895
11
53.4389847
21
89.5109895
0
LINE
8
DEFAULT_255_2_778
10
53.4389847
20
89.5109895
11
53.4389847
21
86.5108895
0
LINE
8
DEFAULT_255_2_778
10
53.4389847
20
86.5108895
11
58.4390847
21
86.5108895
0
LINE
8
DEFAULT_255_2_778
10
79.0889847
20
86.5108895
11
79.0889847
21
89.5109895
0
LINE
8
DEFAULT_255_2_778
10
79.0889847
20
89.5109895
11
74.0888847
21
89.5109895
0
LINE
8
DEFAULT_255_2_778
10
74.0888847
20
89.5109895
11
74.0888847
21
86.5108895
0
LINE
8
DEFAULT_255_2_778
10
74.0888847
20
86.5108895
11
79.0889847
21
86.5108895
0
LINE
8
DEFAULT_255_2_778
10
78.7889847
20
46.3859895
11
74.5889847
21
46.3859895
0
LINE
8
DEFAULT_255_2_778
10
74.5889847
20
46.3859895
11
74.5889847
21
14.0359895
0
LINE
8
DEFAULT_255_2_778
10
74.5889847
20
14.0359895
11
78.7889847
21
14.0359895
0
LINE
8
DEFAULT_255_2_778
10
78.7889847
20
14.0359895
11
78.7889847
21
46.3859895
0
LINE
8
DEFAULT_255_2_778
10
77.1889375
20
45.9858871
11
76.1888375
21
45.9858871
0
LINE
8
DEFAULT_255_2_778
10
76.1888375
20
45.9858871
11
76.1888375
21
14.4358871
0
LINE
8
DEFAULT_255_2_778
10
76.1888375
20
14.4358871
11
77.1889375
21
14.4358871
0
LINE
8
DEFAULT_255_2_778
10
77.1889375
20
14.4358871
11
77.1889375
21
45.9858871
0
LINE
8
DEFAULT_255_2_778
10
80.863763
20
48.2108452
11
72.513863
21
48.2108452
0
LINE
8
DEFAULT_255_2_778
10
72.513863
20
48.2108452
11
72.513863
21
12.2108452
0
LINE
8
DEFAULT_255_2_778
10
72.513863
20
12.2108452
11
80.863763
21
12.2108452
0
LINE
8
DEFAULT_255_2_778
10
80.863763
20
12.2108452
11
80.863763
21
48.2108452
0
LINE
8
DEFAULT_255_2_778
10
68.838763
20
2.5109452
11
87.938763
21
2.5109452
0
LINE
8
DEFAULT_255_2_778
10
91.938763
20
2.5109452
11
87.938763
21
2.5109452
0
LINE
8
DEFAULT_255_2_778
10
54.838863
20
2.5109452
11
68.838763
21
2.5109452
0
LINE
8
DEFAULT_255_2_778
10
54.838863
20
2.5109912
11
54.838863
21
1.6107912
0
LINE
8
DEFAULT_255_2_778
10
54.838863
20
1.6107912
11
55.638963
21
1.6107912
0
LINE
8
DEFAULT_255_2_778
10
55.638963
20
1.6107912
11
55.638963
21
1.2107912
0
LINE
8
DEFAULT_255_2_778
10
55.638963
20
1.2107912
11
56.639063
21
1.2107912
0
LINE
8
DEFAULT_255_2_778
10
56.639063
20
1.2107912
11
56.639063
21
0.8106912
0
LINE
8
DEFAULT_255_2_778
10
56.639063
20
0.8106912
11
57.838963
21
0.8106912
0
LINE
8
DEFAULT_255_2_778
10
57.838963
20
0.8106912
11
57.838963
21
0.4106912
0
LINE
8
DEFAULT_255_2_778
10
57.838963
20
0.4106912
11
59.338863
21
0.4106912
0
LINE
8
DEFAULT_255_2_778
10
59.338863
20
0.4106912
11
59.338863
21
-0.1894088
0
LINE
8
DEFAULT_255_2_778
10
59.338863
20
-0.1894088
11
64.338963
21
-0.1894088
0
LINE
8
DEFAULT_255_2_778
10
64.338963
20
-0.1894088
11
64.338963
21
0.4106912
0
LINE
8
DEFAULT_255_2_778
10
64.338963
20
0.4106912
11
65.838963
21
0.4106912
0
LINE
8
DEFAULT_255_2_778
10
65.838963
20
0.4106912
11
65.838963
21
0.8106912
0
LINE
8
DEFAULT_255_2_778
10
65.838963
20
0.8106912
11
67.038763
21
0.8106912
0
LINE
8
DEFAULT_255_2_778
10
67.038763
20
0.8106912
11
67.038763
21
1.2107912
0
LINE
8
DEFAULT_255_2_778
10
67.038763
20
1.2107912
11
68.038963
21
1.2107912
0
LINE
8
DEFAULT_255_2_778
10
68.038963
20
1.2107912
11
68.038963
21
1.6107912
0
LINE
8
DEFAULT_255_2_778
10
68.038963
20
1.6107912
11
68.839063
21
1.6107912
0
LINE
8
DEFAULT_255_2_778
10
68.839063
20
1.6107912
11
68.839063
21
2.5109912
0
LINE
8
DEFAULT_255_2_778
10
91.578863
20
30.1109912
11
91.938763
21
30.1109912
0
LINE
8
DEFAULT_255_2_778
10
91.938763
20
30.1109912
11
91.938763
21
2.5109912
0
LINE
8
DEFAULT_255_2_778
10
89.738963
20
30.1109912
11
91.579163
21
30.1109912
0
LINE
8
DEFAULT_255_2_778
10
88.938863
20
30.3109912
11
88.938863
21
32.5109912
0
LINE
8
DEFAULT_255_2_778
10
88.938863
20
32.5109912
11
90.138763
21
32.5109912
0
LINE
8
DEFAULT_255_2_778
10
90.138763
20
32.5109912
11
91.578863
21
30.1109912
0
LINE
8
DEFAULT_255_2_778
10
87.938763
20
30.3109912
11
87.938763
21
30.1109912
0
LINE
8
DEFAULT_255_2_778
10
87.938763
20
30.1109912
11
89.738763
21
30.1109912
0
LINE
8
DEFAULT_255_2_778
10
88.9389451
20
30.310913
11
89.7390451
21
30.310913
0
LINE
8
DEFAULT_255_2_778
10
89.7390451
20
30.310913
11
89.7390451
21
30.110913
0
LINE
8
DEFAULT_255_2_778
10
87.9388451
20
30.310913
11
88.9389451
21
30.310913
0
LINE
8
DEFAULT_255_2_778
10
87.9388451
20
48.010713
11
87.9388451
21
30.310613
0
LINE
8
DEFAULT_255_2_778
10
88.9389451
20
65.510813
11
87.9390451
21
65.510813
0
LINE
8
DEFAULT_255_2_778
10
87.9390451
20
65.510813
11
87.9390451
21
48.010713
0
LINE
8
DEFAULT_255_2_778
10
81.9888451
20
29.310813
11
83.4887451
21
29.310813
0
LINE
8
DEFAULT_255_2_778
10
83.4887451
20
29.310813
11
83.4887451
21
48.010713
0
LINE
8
DEFAULT_255_2_778
10
71.3888451
20
29.310813
11
69.8889451
21
29.310813
0
LINE
8
DEFAULT_255_2_778
10
69.8889451
20
29.310813
11
69.8889451
21
50.510813
0
LINE
8
DEFAULT_255_2_778
10
69.8889451
20
50.510813
11
83.4890451
21
50.510813
0
LINE
8
DEFAULT_255_2_778
10
83.4890451
20
50.510813
11
83.4890451
21
48.010713
0
LINE
8
DEFAULT_255_2_778
10
91.9390451
20
65.510813
11
88.9389451
21
65.510813
0
LINE
8
DEFAULT_255_2_778
10
91.9390448
20
65.5108635
11
91.9390448
21
63.0108635
0
LINE
8
DEFAULT_255_2_778
10
91.9390448
20
63.0108635
11
90.2391448
21
63.0108635
0
LINE
8
DEFAULT_255_2_778
10
90.2391448
20
63.0108635
11
89.4390448
21
64.0109635
0
LINE
8
DEFAULT_255_2_778
10
89.4390448
20
64.0109635
11
88.9389448
21
65.5108635
0
LINE
8
DEFAULT_255_2_778
10
91.7390448
20
68.0109635
11
91.9390448
21
68.0109635
0
LINE
8
DEFAULT_255_2_778
10
91.9390448
20
68.0109635
11
91.9390448
21
65.5108635
0
LINE
8
DEFAULT_255_2_778
10
91.7390448
20
68.2609635
11
91.7390448
21
68.0109635
0
LINE
8
DEFAULT_255_2_778
10
91.7389708
20
90.510777
11
87.1888708
21
90.510777
0
LINE
8
DEFAULT_255_2_778
10
87.1888708
20
90.510777
11
87.1888708
21
68.010877
0
LINE
8
DEFAULT_255_2_778
10
87.1888708
20
68.010877
11
91.7389708
21
68.010877
0
LINE
8
DEFAULT_255_2_778
10
81.9887708
20
26.310677
11
81.9887708
21
29.310577
0
LINE
8
DEFAULT_255_2_778
10
81.9887708
20
48.010777
11
81.9887708
21
29.310777
0
LINE
8
DEFAULT_255_2_778
10
71.3887708
20
26.310977
11
69.8888708
21
26.310977
0
LINE
8
DEFAULT_255_2_778
10
69.8888708
20
26.310977
11
69.8888708
21
9.910977
0
LINE
8
DEFAULT_255_2_778
10
69.8888708
20
9.910977
11
83.4889708
21
9.910977
0
LINE
8
DEFAULT_255_2_778
10
83.4889708
20
9.910977
11
83.4889708
21
26.310977
0
LINE
8
DEFAULT_255_2_778
10
83.4889708
20
26.310977
11
81.9890708
21
26.310977
0
LINE
8
DEFAULT_255_2_778
10
71.3887991
20
26.3109682
11
71.3887991
21
11.4109682
0
LINE
8
DEFAULT_255_2_778
10
71.3887991
20
11.4109682
11
81.9887991
21
11.4109682
0
LINE
8
DEFAULT_255_2_778
10
81.9887991
20
11.4109682
11
81.9887991
21
26.3109682
0
LINE
8
DEFAULT_255_2_778
10
71.3887991
20
29.3107682
11
71.3887991
21
49.0108682
0
LINE
8
DEFAULT_255_2_778
10
71.3887991
20
49.0108682
11
81.9887991
21
49.0108682
0
LINE
8
DEFAULT_255_2_778
10
81.9887991
20
49.0108682
11
81.9887991
21
48.0107682
0
LINE
8
DEFAULT_255_2_778
10
71.3888769
20
26.310772
11
71.3888769
21
29.310572
0
LINE
8
DEFAULT_255_2_778
10
91.7389769
20
90.260772
11
92.0889769
21
90.260772
0
LINE
8
DEFAULT_255_2_778
10
92.0889769
20
90.260772
11
92.0889769
21
68.260672
0
LINE
8
DEFAULT_255_2_778
10
92.0889769
20
68.260672
11
91.7389769
21
68.260672
0
LINE
8
DEFAULT_255_2_778
10
91.7389769
20
90.260772
11
87.4389769
21
90.260772
0
LINE
8
DEFAULT_255_2_778
10
87.4389769
20
90.260772
11
87.4389769
21
68.260672
0
LINE
8
DEFAULT_255_2_778
10
87.4389769
20
68.260672
11
91.7389769
21
68.260672
0
LINE
8
DEFAULT_255_2_778
10
91.7389769
20
90.260772
11
91.7389769
21
90.510772
0
LINE
8
DEFAULT_255_2_778
10
68.8387769
20
92.510772
11
91.9387769
21
92.510772
0
LINE
8
DEFAULT_255_2_778
10
91.9387769
20
92.510772
11
91.9387769
21
90.510772
0
LINE
8
DEFAULT_255_2_778
10
91.9387769
20
90.510772
11
91.7387769
21
90.510772
0
LINE
8
DEFAULT_255_2_778
10
54.8388769
20
92.510772
11
68.8387769
21
92.510772
0
LINE
8
DEFAULT_255_2_778
10
54.8388769
20
92.510772
11
54.8388769
21
93.410872
0
LINE
8
DEFAULT_255_2_778
10
54.8388769
20
93.410872
11
55.6389769
21
93.410872
0
LINE
8
DEFAULT_255_2_778
10
55.6389769
20
93.410872
11
55.6389769
21
93.810972
0
LINE
8
DEFAULT_255_2_778
10
55.6389769
20
93.810972
11
56.6390769
21
93.810972
0
LINE
8
DEFAULT_255_2_778
10
56.6390769
20
93.810972
11
56.6390769
21
94.210772
0
LINE
8
DEFAULT_255_2_778
10
56.6390769
20
94.210772
11
57.8389769
21
94.210772
0
LINE
8
DEFAULT_255_2_778
10
57.8389769
20
94.210772
11
57.8389769
21
94.610772
0
LINE
8
DEFAULT_255_2_778
10
57.8389769
20
94.610772
11
59.3388769
21
94.610772
0
LINE
8
DEFAULT_255_2_778
10
59.3388769
20
94.610772
11
59.3388769
21
95.210872
0
LINE
8
DEFAULT_255_2_778
10
59.3388769
20
95.210872
11
64.3389769
21
95.210872
0
LINE
8
DEFAULT_255_2_778
10
64.3389769
20
95.210872
11
64.3389769
21
94.610772
0
LINE
8
DEFAULT_255_2_778
10
64.3389769
20
94.610772
11
65.8389769
21
94.610772
0
LINE
8
DEFAULT_255_2_778
10
65.8389769
20
94.610772
11
65.8389769
21
94.210772
0
LINE
8
DEFAULT_255_2_778
10
65.8389769
20
94.210772
11
67.0388769
21
94.210772
0
LINE
8
DEFAULT_255_2_778
10
67.0388769
20
94.210772
11
67.0388769
21
93.810672
0
LINE
8
DEFAULT_255_2_778
10
67.0388769
20
93.810672
11
68.0389769
21
93.810672
0
LINE
8
DEFAULT_255_2_778
10
68.0389769
20
93.810672
11
68.0389769
21
93.410672
0
LINE
8
DEFAULT_255_2_778
10
68.0389769
20
93.410672
11
68.8390769
21
93.410672
0
LINE
8
DEFAULT_255_2_778
10
68.8390769
20
93.410672
11
68.8390769
21
92.510572
0
LINE
8
DEFAULT_255_2_778
10
11.9387769
20
84.165572
11
11.9387769
21
92.510772
0
LINE
8
DEFAULT_255_2_778
10
11.9387769
20
92.510772
11
54.8388769
21
92.510772
0
LINE
8
DEFAULT_255_2_778
10
11.9387769
20
82.785772
11
11.9387769
21
84.165572
0
LINE
8
DEFAULT_255_2_778
10
9.1389769
20
82.785772
11
9.1389769
21
84.165572
0
LINE
8
DEFAULT_255_2_778
10
9.1389769
20
84.165572
11
11.9390769
21
84.165572
0
LINE
8
DEFAULT_255_2_778
10
11.9387769
20
78.646072
11
11.9387769
21
77.080872
0
LINE
8
DEFAULT_255_2_778
10
11.9387769
20
75.230872
11
11.9387769
21
77.080872
0
LINE
8
DEFAULT_255_2_778
10
8.9389769
20
75.230872
11
8.9389769
21
77.080872
0
LINE
8
DEFAULT_255_2_778
10
8.9389769
20
77.080872
11
11.9390769
21
77.080872
0
LINE
8
DEFAULT_255_2_778
10
11.9388
20
80.025901
11
11.9388
21
78.646101
0
LINE
8
DEFAULT_255_2_778
10
9.1390032
20
80.025918
11
9.1390032
21
78.646118
0
LINE
8
DEFAULT_255_2_778
10
9.1390032
20
78.646118
11
11.9391032
21
78.646118
0
LINE
8
DEFAULT_255_2_778
10
11.9388032
20
72.711018
11
11.9388032
21
75.230918
0
LINE
8
DEFAULT_255_2_778
10
8.9390032
20
75.230918
11
11.9391032
21
75.230918
0
LINE
8
DEFAULT_255_2_778
10
6.6551032
20
75.230918
11
8.9387032
21
75.230918
0
LINE
8
DEFAULT_255_2_778
10
11.9388032
20
72.711018
11
11.9388032
21
71.810918
0
LINE
8
DEFAULT_255_2_778
10
11.9388032
20
23.210918
11
11.9388032
21
71.810918
0
ARC
8
DEFAULT_255_2_778
10
9.6705335
20
26.4509769
40
3.5700022
50
331.9155999
51
358.2061098
0
ARC
8
DEFAULT_255_2_778
10
9.6701774
20
68.5705698
40
3.5703611
50
1.795237
51
28.0830568
0
LINE
8
DEFAULT_255_2_778
10
11.9388861
20
23.2108209
11
12.8201861
21
24.7703209
0
LINE
8
DEFAULT_255_2_778
10
13.2387861
20
26.3392209
11
13.2387861
21
68.6824209
0
LINE
8
DEFAULT_255_2_778
10
12.8201861
20
70.2513209
11
11.9388861
21
71.8108209
0
LINE
8
DEFAULT_255_2_778
10
6.6550861
20
72.7109209
11
11.9388861
21
72.7109209
0
LINE
8
DEFAULT_255_2_778
10
11.9388861
20
9.3106209
11
11.9388861
21
23.2108209
0
LINE
8
DEFAULT_255_2_778
10
11.9388861
20
6.7910209
11
11.9388861
21
9.3109209
0
LINE
8
DEFAULT_255_2_778
10
6.6550861
20
9.3109209
11
11.9388861
21
9.3109209
0
LINE
8
DEFAULT_255_2_778
10
6.6550861
20
6.7908209
11
11.9388861
21
6.7908209
0
LINE
8
DEFAULT_255_2_778
10
54.8388861
20
2.5109209
11
11.9388861
21
2.5109209
0
LINE
8
DEFAULT_255_2_778
10
11.9388861
20
2.5109209
11
11.9388861
21
6.7908209
0
LINE
8
DEFAULT_255_2_778
10
6.5656861
20
9.3109209
11
6.6550861
21
9.3109209
0
LINE
8
DEFAULT_255_2_778
10
6.6550886
20
6.7910729
11
6.6550886
21
9.3109729
0
LINE
8
DEFAULT_255_2_778
10
6.5656886
20
6.7908729
11
6.6550886
21
6.7908729
0
LINE
8
DEFAULT_255_2_778
10
6.5656886
20
72.7109729
11
6.6550886
21
72.7109729
0
LINE
8
DEFAULT_255_2_778
10
6.6550886
20
75.2308729
11
6.6550886
21
72.7109729
0
LINE
8
DEFAULT_255_2_778
10
11.9388886
20
80.0261729
11
11.9388886
21
82.7857729
0
LINE
8
DEFAULT_255_2_778
10
9.1389886
20
82.7857729
11
11.9390886
21
82.7857729
0
LINE
8
DEFAULT_255_2_778
10
9.1389886
20
80.0258729
11
11.9390886
21
80.0258729
0
LINE
8
DEFAULT_255_2_778
10
9.1390105
20
80.0261809
11
9.1390105
21
82.7857809
0
LINE
8
DEFAULT_255_2_778
10
6.5656105
20
75.2308809
11
6.6551105
21
75.2308809
0
LINE
8
DEFAULT_255_2_778
10
5.5888105
20
55.4109809
11
5.5888105
21
55.2108809
0
LINE
8
DEFAULT_255_2_778
10
5.5888105
20
54.5107809
11
5.5888105
21
55.2108809
0
LINE
8
DEFAULT_255_2_778
10
4.5388501
20
57.7307458
11
1.3088501
21
57.7307458
0
LINE
8
DEFAULT_255_2_778
10
1.3088501
20
57.7307458
11
1.3088501
21
55.2108458
0
LINE
8
DEFAULT_255_2_778
10
1.3088501
20
55.2108458
11
5.5887501
21
55.2108458
0
LINE
8
DEFAULT_255_2_778
10
4.5389667
20
57.7307333
11
4.5389667
21
57.2994333
0
LINE
8
DEFAULT_255_2_778
10
4.5389667
20
57.2994333
11
5.0390667
21
57.0108333
0
LINE
8
DEFAULT_255_2_778
10
5.0390667
20
57.0108333
11
5.0390667
21
56.4107333
0
LINE
8
DEFAULT_255_2_778
10
5.0390667
20
56.4107333
11
4.5389667
21
56.1220333
0
LINE
8
DEFAULT_255_2_778
10
4.5389667
20
56.1220333
11
4.5389667
21
55.4108333
0
LINE
8
DEFAULT_255_2_778
10
4.5389667
20
55.4108333
11
5.5888667
21
55.4108333
0
LINE
8
DEFAULT_255_2_778
10
5.5888261
20
58.0109302
11
5.5888261
21
57.4608302
0
LINE
8
DEFAULT_255_2_778
10
5.5888261
20
57.4608302
11
7.2887261
21
57.4608302
0
LINE
8
DEFAULT_255_2_778
10
7.2887261
20
57.4608302
11
7.2887261
21
55.9609302
0
LINE
8
DEFAULT_255_2_778
10
7.2887261
20
55.9609302
11
5.5888261
21
55.9609302
0
LINE
8
DEFAULT_255_2_778
10
5.5888261
20
55.9609302
11
5.5888261
21
55.4108302
0
LINE
8
DEFAULT_255_2_778
10
5.5888261
20
51.9107302
11
5.5888261
21
52.4608302
0
LINE
8
DEFAULT_255_2_778
10
5.5888261
20
52.4608302
11
7.2887261
21
52.4608302
0
LINE
8
DEFAULT_255_2_778
10
7.2887261
20
52.4608302
11
7.2887261
21
53.9607302
0
LINE
8
DEFAULT_255_2_778
10
7.2887261
20
53.9607302
11
5.5888261
21
53.9607302
0
LINE
8
DEFAULT_255_2_778
10
5.5888261
20
53.9607302
11
5.5888261
21
54.5108302
0
LINE
8
DEFAULT_255_2_778
10
5.5888667
20
51.9106979
11
4.5389667
21
51.9106979
0
LINE
8
DEFAULT_255_2_778
10
4.5389667
20
51.9106979
11
4.5389667
21
52.6218979
0
LINE
8
DEFAULT_255_2_778
10
4.5389667
20
52.6218979
11
5.0390667
21
52.9105979
0
LINE
8
DEFAULT_255_2_778
10
5.0390667
20
52.9105979
11
5.0390667
21
53.5105979
0
LINE
8
DEFAULT_255_2_778
10
5.0390667
20
53.5105979
11
4.5389667
21
53.7992979
0
LINE
8
DEFAULT_255_2_778
10
4.5389667
20
53.7992979
11
4.5389667
21
54.5104979
0
LINE
8
DEFAULT_255_2_778
10
4.5389667
20
54.5104979
11
5.5888667
21
54.5104979
0
LINE
8
DEFAULT_255_2_778
10
5.5888292
20
58.0109029
11
4.5389292
21
58.0109029
0
LINE
8
DEFAULT_255_2_778
10
4.5389292
20
58.0109029
11
4.5389292
21
57.7310029
0
LINE
8
DEFAULT_255_2_778
10
5.5888292
20
58.9108029
11
5.5888292
21
58.0109029
0
LINE
8
DEFAULT_255_2_778
10
5.5888292
20
72.0108029
11
5.5888292
21
72.7109029
0
LINE
8
DEFAULT_255_2_778
10
6.5656292
20
72.7109029
11
5.5888292
21
72.7109029
0
LINE
8
DEFAULT_255_2_778
10
6.5656292
20
75.2308029
11
1.3089292
21
75.2308029
0
LINE
8
DEFAULT_255_2_778
10
1.3089292
20
75.2308029
11
1.3089292
21
72.7109029
0
LINE
8
DEFAULT_255_2_778
10
1.3089292
20
72.7109029
11
5.5888292
21
72.7109029
0
LINE
8
DEFAULT_255_2_778
10
5.5888261
20
69.4107302
11
5.5888261
21
69.9608302
0
LINE
8
DEFAULT_255_2_778
10
5.5888261
20
69.9608302
11
7.2887261
21
69.9608302
0
LINE
8
DEFAULT_255_2_778
10
7.2887261
20
69.9608302
11
7.2887261
21
71.4607302
0
LINE
8
DEFAULT_255_2_778
10
7.2887261
20
71.4607302
11
5.5888261
21
71.4607302
0
LINE
8
DEFAULT_255_2_778
10
5.5888261
20
71.4607302
11
5.5888261
21
72.0108302
0
LINE
8
DEFAULT_255_2_778
10
5.5888667
20
69.4107302
11
4.5389667
21
69.4107302
0
LINE
8
DEFAULT_255_2_778
10
4.5389667
20
69.4107302
11
4.5389667
21
70.1222302
0
LINE
8
DEFAULT_255_2_778
10
4.5389667
20
70.1222302
11
5.0390667
21
70.4109302
0
LINE
8
DEFAULT_255_2_778
10
5.0390667
20
70.4109302
11
5.0390667
21
71.0109302
0
LINE
8
DEFAULT_255_2_778
10
5.0390667
20
71.0109302
11
4.5389667
21
71.2996302
0
LINE
8
DEFAULT_255_2_778
10
4.5389667
20
71.2996302
11
4.5389667
21
72.0108302
0
LINE
8
DEFAULT_255_2_778
10
4.5389667
20
72.0108302
11
5.5888667
21
72.0108302
0
LINE
8
DEFAULT_255_2_778
10
6.5655792
20
75.2308759
11
6.5655792
21
72.7109759
0
LINE
8
DEFAULT_255_2_778
10
5.5887792
20
68.5106759
11
5.5887792
21
69.4105759
0
LINE
8
DEFAULT_255_2_778
10
5.5888261
20
65.9108302
11
5.5888261
21
66.4609302
0
LINE
8
DEFAULT_255_2_778
10
5.5888261
20
66.4609302
11
7.2887261
21
66.4609302
0
LINE
8
DEFAULT_255_2_778
10
7.2887261
20
66.4609302
11
7.2887261
21
67.9608302
0
LINE
8
DEFAULT_255_2_778
10
7.2887261
20
67.9608302
11
5.5888261
21
67.9608302
0
LINE
8
DEFAULT_255_2_778
10
5.5888261
20
67.9608302
11
5.5888261
21
68.5109302
0
LINE
8
DEFAULT_255_2_778
10
5.5888667
20
65.9108979
11
4.5389667
21
65.9108979
0
LINE
8
DEFAULT_255_2_778
10
4.5389667
20
65.9108979
11
4.5389667
21
66.6220979
0
LINE
8
DEFAULT_255_2_778
10
4.5389667
20
66.6220979
11
5.0390667
21
66.9107979
0
LINE
8
DEFAULT_255_2_778
10
5.0390667
20
66.9107979
11
5.0390667
21
67.5107979
0
LINE
8
DEFAULT_255_2_778
10
5.0390667
20
67.5107979
11
4.5389667
21
67.7994979
0
LINE
8
DEFAULT_255_2_778
10
4.5389667
20
67.7994979
11
4.5389667
21
68.5106979
0
LINE
8
DEFAULT_255_2_778
10
4.5389667
20
68.5106979
11
5.5888667
21
68.5106979
0
LINE
8
DEFAULT_255_2_778
10
5.5888
20
65.0107562
11
5.5888
21
65.9108562
0
LINE
8
DEFAULT_255_2_778
10
5.5888261
20
62.4107302
11
5.5888261
21
62.9608302
0
LINE
8
DEFAULT_255_2_778
10
5.5888261
20
62.9608302
11
7.2887261
21
62.9608302
0
LINE
8
DEFAULT_255_2_778
10
7.2887261
20
62.9608302
11
7.2887261
21
64.4607302
0
LINE
8
DEFAULT_255_2_778
10
7.2887261
20
64.4607302
11
5.5888261
21
64.4607302
0
LINE
8
DEFAULT_255_2_778
10
5.5888261
20
64.4607302
11
5.5888261
21
65.0108302
0
LINE
8
DEFAULT_255_2_778
10
5.5888667
20
62.4107302
11
4.5389667
21
62.4107302
0
LINE
8
DEFAULT_255_2_778
10
4.5389667
20
62.4107302
11
4.5389667
21
63.1222302
0
LINE
8
DEFAULT_255_2_778
10
4.5389667
20
63.1222302
11
5.0390667
21
63.4109302
0
LINE
8
DEFAULT_255_2_778
10
5.0390667
20
63.4109302
11
5.0390667
21
64.0109302
0
LINE
8
DEFAULT_255_2_778
10
5.0390667
20
64.0109302
11
4.5389667
21
64.2996302
0
LINE
8
DEFAULT_255_2_778
10
4.5389667
20
64.2996302
11
4.5389667
21
65.0108302
0
LINE
8
DEFAULT_255_2_778
10
4.5389667
20
65.0108302
11
5.5888667
21
65.0108302
0
LINE
8
DEFAULT_255_2_778
10
5.5888
20
61.5106562
11
5.5888
21
62.4107562
0
LINE
8
DEFAULT_255_2_778
10
5.5888261
20
58.9107302
11
5.5888261
21
59.4608302
0
LINE
8
DEFAULT_255_2_778
10
5.5888261
20
59.4608302
11
7.2887261
21
59.4608302
0
LINE
8
DEFAULT_255_2_778
10
7.2887261
20
59.4608302
11
7.2887261
21
60.9607302
0
LINE
8
DEFAULT_255_2_778
10
7.2887261
20
60.9607302
11
5.5888261
21
60.9607302
0
LINE
8
DEFAULT_255_2_778
10
5.5888261
20
60.9607302
11
5.5888261
21
61.5108302
0
LINE
8
DEFAULT_255_2_778
10
5.5888667
20
58.9107302
11
4.5389667
21
58.9107302
0
LINE
8
DEFAULT_255_2_778
10
4.5389667
20
58.9107302
11
4.5389667
21
59.6222302
0
LINE
8
DEFAULT_255_2_778
10
4.5389667
20
59.6222302
11
5.0390667
21
59.9109302
0
LINE
8
DEFAULT_255_2_778
10
5.0390667
20
59.9109302
11
5.0390667
21
60.5109302
0
LINE
8
DEFAULT_255_2_778
10
5.0390667
20
60.5109302
11
4.5389667
21
60.7996302
0
LINE
8
DEFAULT_255_2_778
10
4.5389667
20
60.7996302
11
4.5389667
21
61.5108302
0
LINE
8
DEFAULT_255_2_778
10
4.5389667
20
61.5108302
11
5.5888667
21
61.5108302
0
LINE
8
DEFAULT_255_2_778
10
5.5888
20
51.0107239
11
5.5888
21
51.9105239
0
LINE
8
DEFAULT_255_2_778
10
5.5888261
20
48.4108302
11
5.5888261
21
48.9609302
0
LINE
8
DEFAULT_255_2_778
10
5.5888261
20
48.9609302
11
7.2887261
21
48.9609302
0
LINE
8
DEFAULT_255_2_778
10
7.2887261
20
48.9609302
11
7.2887261
21
50.4608302
0
LINE
8
DEFAULT_255_2_778
10
7.2887261
20
50.4608302
11
5.5888261
21
50.4608302
0
LINE
8
DEFAULT_255_2_778
10
5.5888261
20
50.4608302
11
5.5888261
21
51.0109302
0
LINE
8
DEFAULT_255_2_778
10
5.5888667
20
48.4107979
11
4.5389667
21
48.4107979
0
LINE
8
DEFAULT_255_2_778
10
4.5389667
20
48.4107979
11
4.5389667
21
49.1219979
0
LINE
8
DEFAULT_255_2_778
10
4.5389667
20
49.1219979
11
5.0390667
21
49.4106979
0
LINE
8
DEFAULT_255_2_778
10
5.0390667
20
49.4106979
11
5.0390667
21
50.0106979
0
LINE
8
DEFAULT_255_2_778
10
5.0390667
20
50.0106979
11
4.5389667
21
50.2993979
0
LINE
8
DEFAULT_255_2_778
10
4.5389667
20
50.2993979
11
4.5389667
21
51.0105979
0
LINE
8
DEFAULT_255_2_778
10
4.5389667
20
51.0105979
11
5.5888667
21
51.0105979
0
LINE
8
DEFAULT_255_2_778
10
5.5888
20
47.5107239
11
5.5888
21
48.4105239
0
LINE
8
DEFAULT_255_2_778
10
5.5888261
20
44.9109302
11
5.5888261
21
45.4610302
0
LINE
8
DEFAULT_255_2_778
10
5.5888261
20
45.4610302
11
7.2887261
21
45.4610302
0
LINE
8
DEFAULT_255_2_778
10
7.2887261
20
45.4610302
11
7.2887261
21
46.9609302
0
LINE
8
DEFAULT_255_2_778
10
7.2887261
20
46.9609302
11
5.5888261
21
46.9609302
0
LINE
8
DEFAULT_255_2_778
10
5.5888261
20
46.9609302
11
5.5888261
21
47.5110302
0
LINE
8
DEFAULT_255_2_778
10
5.5888667
20
44.9108979
11
4.5389667
21
44.9108979
0
LINE
8
DEFAULT_255_2_778
10
4.5389667
20
44.9108979
11
4.5389667
21
45.6220979
0
LINE
8
DEFAULT_255_2_778
10
4.5389667
20
45.6220979
11
5.0390667
21
45.9107979
0
LINE
8
DEFAULT_255_2_778
10
5.0390667
20
45.9107979
11
5.0390667
21
46.5107979
0
LINE
8
DEFAULT_255_2_778
10
5.0390667
20
46.5107979
11
4.5389667
21
46.7994979
0
LINE
8
DEFAULT_255_2_778
10
4.5389667
20
46.7994979
11
4.5389667
21
47.5106979
0
LINE
8
DEFAULT_255_2_778
10
4.5389667
20
47.5106979
11
5.5888667
21
47.5106979
0
LINE
8
DEFAULT_255_2_778
10
5.5888
20
44.0108562
11
5.5888
21
44.9109562
0
LINE
8
DEFAULT_255_2_778
10
5.5888261
20
41.4107302
11
5.5888261
21
41.9608302
0
LINE
8
DEFAULT_255_2_778
10
5.5888261
20
41.9608302
11
7.2887261
21
41.9608302
0
LINE
8
DEFAULT_255_2_778
10
7.2887261
20
41.9608302
11
7.2887261
21
43.4607302
0
LINE
8
DEFAULT_255_2_778
10
7.2887261
20
43.4607302
11
5.5888261
21
43.4607302
0
LINE
8
DEFAULT_255_2_778
10
5.5888261
20
43.4607302
11
5.5888261
21
44.0108302
0
LINE
8
DEFAULT_255_2_778
10
5.5888667
20
41.4107302
11
4.5389667
21
41.4107302
0
LINE
8
DEFAULT_255_2_778
10
4.5389667
20
41.4107302
11
4.5389667
21
42.1222302
0
LINE
8
DEFAULT_255_2_778
10
4.5389667
20
42.1222302
11
5.0390667
21
42.4109302
0
LINE
8
DEFAULT_255_2_778
10
5.0390667
20
42.4109302
11
5.0390667
21
43.0109302
0
LINE
8
DEFAULT_255_2_778
10
5.0390667
20
43.0109302
11
4.5389667
21
43.2996302
0
LINE
8
DEFAULT_255_2_778
10
4.5389667
20
43.2996302
11
4.5389667
21
44.0108302
0
LINE
8
DEFAULT_255_2_778
10
4.5389667
20
44.0108302
11
5.5888667
21
44.0108302
0
LINE
8
DEFAULT_255_2_778
10
5.5888
20
40.5107239
11
5.5888
21
41.4105239
0
LINE
8
DEFAULT_255_2_778
10
5.5888261
20
37.9108302
11
5.5888261
21
38.4609302
0
LINE
8
DEFAULT_255_2_778
10
5.5888261
20
38.4609302
11
7.2887261
21
38.4609302
0
LINE
8
DEFAULT_255_2_778
10
7.2887261
20
38.4609302
11
7.2887261
21
39.9608302
0
LINE
8
DEFAULT_255_2_778
10
7.2887261
20
39.9608302
11
5.5888261
21
39.9608302
0
LINE
8
DEFAULT_255_2_778
10
5.5888261
20
39.9608302
11
5.5888261
21
40.5109302
0
LINE
8
DEFAULT_255_2_778
10
5.5888667
20
37.9107979
11
4.5389667
21
37.9107979
0
LINE
8
DEFAULT_255_2_778
10
4.5389667
20
37.9107979
11
4.5389667
21
38.6219979
0
LINE
8
DEFAULT_255_2_778
10
4.5389667
20
38.6219979
11
5.0390667
21
38.9106979
0
LINE
8
DEFAULT_255_2_778
10
5.0390667
20
38.9106979
11
5.0390667
21
39.5106979
0
LINE
8
DEFAULT_255_2_778
10
5.0390667
20
39.5106979
11
4.5389667
21
39.7993979
0
LINE
8
DEFAULT_255_2_778
10
4.5389667
20
39.7993979
11
4.5389667
21
40.5105979
0
LINE
8
DEFAULT_255_2_778
10
4.5389667
20
40.5105979
11
5.5888667
21
40.5105979
0
LINE
8
DEFAULT_255_2_778
10
5.5888
20
37.0107562
11
5.5888
21
37.9108562
0
LINE
8
DEFAULT_255_2_778
10
5.5888261
20
34.4106302
11
5.5888261
21
34.9607302
0
LINE
8
DEFAULT_255_2_778
10
5.5888261
20
34.9607302
11
7.2887261
21
34.9607302
0
LINE
8
DEFAULT_255_2_778
10
7.2887261
20
34.9607302
11
7.2887261
21
36.4606302
0
LINE
8
DEFAULT_255_2_778
10
7.2887261
20
36.4606302
11
5.5888261
21
36.4606302
0
LINE
8
DEFAULT_255_2_778
10
5.5888261
20
36.4606302
11
5.5888261
21
37.0107302
0
LINE
8
DEFAULT_255_2_778
10
5.5888667
20
34.4106302
11
4.5389667
21
34.4106302
0
LINE
8
DEFAULT_255_2_778
10
4.5389667
20
34.4106302
11
4.5389667
21
35.1221302
0
LINE
8
DEFAULT_255_2_778
10
4.5389667
20
35.1221302
11
5.0390667
21
35.4108302
0
LINE
8
DEFAULT_255_2_778
10
5.0390667
20
35.4108302
11
5.0390667
21
36.0108302
0
LINE
8
DEFAULT_255_2_778
10
5.0390667
20
36.0108302
11
4.5389667
21
36.2995302
0
LINE
8
DEFAULT_255_2_778
10
4.5389667
20
36.2995302
11
4.5389667
21
37.0107302
0
LINE
8
DEFAULT_255_2_778
10
4.5389667
20
37.0107302
11
5.5888667
21
37.0107302
0
LINE
8
DEFAULT_255_2_778
10
5.5888
20
33.5111239
11
5.5888
21
34.4109239
0
LINE
8
DEFAULT_255_2_778
10
5.5888261
20
30.9107302
11
5.5888261
21
31.4608302
0
LINE
8
DEFAULT_255_2_778
10
5.5888261
20
31.4608302
11
7.2887261
21
31.4608302
0
LINE
8
DEFAULT_255_2_778
10
7.2887261
20
31.4608302
11
7.2887261
21
32.9607302
0
LINE
8
DEFAULT_255_2_778
10
7.2887261
20
32.9607302
11
5.5888261
21
32.9607302
0
LINE
8
DEFAULT_255_2_778
10
5.5888261
20
32.9607302
11
5.5888261
21
33.5108302
0
LINE
8
DEFAULT_255_2_778
10
5.5888667
20
30.9107979
11
4.5389667
21
30.9107979
0
LINE
8
DEFAULT_255_2_778
10
4.5389667
20
30.9107979
11
4.5389667
21
31.6219979
0
LINE
8
DEFAULT_255_2_778
10
4.5389667
20
31.6219979
11
5.0390667
21
31.9106979
0
LINE
8
DEFAULT_255_2_778
10
5.0390667
20
31.9106979
11
5.0390667
21
32.5106979
0
LINE
8
DEFAULT_255_2_778
10
5.0390667
20
32.5106979
11
4.5389667
21
32.7993979
0
LINE
8
DEFAULT_255_2_778
10
4.5389667
20
32.7993979
11
4.5389667
21
33.5105979
0
LINE
8
DEFAULT_255_2_778
10
4.5389667
20
33.5105979
11
5.5888667
21
33.5105979
0
LINE
8
DEFAULT_255_2_778
10
5.5888
20
30.0106562
11
5.5888
21
30.9107562
0
LINE
8
DEFAULT_255_2_778
10
5.5888261
20
27.4108302
11
5.5888261
21
27.9609302
0
LINE
8
DEFAULT_255_2_778
10
5.5888261
20
27.9609302
11
7.2887261
21
27.9609302
0
LINE
8
DEFAULT_255_2_778
10
7.2887261
20
27.9609302
11
7.2887261
21
29.4608302
0
LINE
8
DEFAULT_255_2_778
10
7.2887261
20
29.4608302
11
5.5888261
21
29.4608302
0
LINE
8
DEFAULT_255_2_778
10
5.5888261
20
29.4608302
11
5.5888261
21
30.0109302
0
LINE
8
DEFAULT_255_2_778
10
5.5888667
20
27.4107979
11
4.5389667
21
27.4107979
0
LINE
8
DEFAULT_255_2_778
10
4.5389667
20
27.4107979
11
4.5389667
21
28.1219979
0
LINE
8
DEFAULT_255_2_778
10
4.5389667
20
28.1219979
11
5.0390667
21
28.4106979
0
LINE
8
DEFAULT_255_2_778
10
5.0390667
20
28.4106979
11
5.0390667
21
29.0106979
0
LINE
8
DEFAULT_255_2_778
10
5.0390667
20
29.0106979
11
4.5389667
21
29.2993979
0
LINE
8
DEFAULT_255_2_778
10
4.5389667
20
29.2993979
11
4.5389667
21
30.0105979
0
LINE
8
DEFAULT_255_2_778
10
4.5389667
20
30.0105979
11
5.5888667
21
30.0105979
0
LINE
8
DEFAULT_255_2_778
10
5.5888
20
26.5107562
11
5.5888
21
27.4108562
0
LINE
8
DEFAULT_255_2_778
10
5.5888261
20
23.9106302
11
5.5888261
21
24.4607302
0
LINE
8
DEFAULT_255_2_778
10
5.5888261
20
24.4607302
11
7.2887261
21
24.4607302
0
LINE
8
DEFAULT_255_2_778
10
7.2887261
20
24.4607302
11
7.2887261
21
25.9606302
0
LINE
8
DEFAULT_255_2_778
10
7.2887261
20
25.9606302
11
5.5888261
21
25.9606302
0
LINE
8
DEFAULT_255_2_778
10
5.5888261
20
25.9606302
11
5.5888261
21
26.5107302
0
LINE
8
DEFAULT_255_2_778
10
5.5888667
20
23.9106979
11
4.5389667
21
23.9106979
0
LINE
8
DEFAULT_255_2_778
10
4.5389667
20
23.9106979
11
4.5389667
21
24.6218979
0
LINE
8
DEFAULT_255_2_778
10
4.5389667
20
24.6218979
11
5.0390667
21
24.9105979
0
LINE
8
DEFAULT_255_2_778
10
5.0390667
20
24.9105979
11
5.0390667
21
25.5105979
0
LINE
8
DEFAULT_255_2_778
10
5.0390667
20
25.5105979
11
4.5389667
21
25.7992979
0
LINE
8
DEFAULT_255_2_778
10
4.5389667
20
25.7992979
11
4.5389667
21
26.5104979
0
LINE
8
DEFAULT_255_2_778
10
4.5389667
20
26.5104979
11
5.5888667
21
26.5104979
0
LINE
8
DEFAULT_255_2_778
10
5.5888
20
23.0109239
11
5.5888
21
23.9107239
0
LINE
8
DEFAULT_255_2_778
10
5.5888261
20
20.4107302
11
5.5888261
21
20.9608302
0
LINE
8
DEFAULT_255_2_778
10
5.5888261
20
20.9608302
11
7.2887261
21
20.9608302
0
LINE
8
DEFAULT_255_2_778
10
7.2887261
20
20.9608302
11
7.2887261
21
22.4607302
0
LINE
8
DEFAULT_255_2_778
10
7.2887261
20
22.4607302
11
5.5888261
21
22.4607302
0
LINE
8
DEFAULT_255_2_778
10
5.5888261
20
22.4607302
11
5.5888261
21
23.0108302
0
LINE
8
DEFAULT_255_2_778
10
5.5888667
20
20.4107979
11
4.5389667
21
20.4107979
0
LINE
8
DEFAULT_255_2_778
10
4.5389667
20
20.4107979
11
4.5389667
21
21.1219979
0
LINE
8
DEFAULT_255_2_778
10
4.5389667
20
21.1219979
11
5.0390667
21
21.4106979
0
LINE
8
DEFAULT_255_2_778
10
5.0390667
20
21.4106979
11
5.0390667
21
22.0106979
0
LINE
8
DEFAULT_255_2_778
10
5.0390667
20
22.0106979
11
4.5389667
21
22.2993979
0
LINE
8
DEFAULT_255_2_778
10
4.5389667
20
22.2993979
11
4.5389667
21
23.0105979
0
LINE
8
DEFAULT_255_2_778
10
4.5389667
20
23.0105979
11
5.5888667
21
23.0105979
0
LINE
8
DEFAULT_255_2_778
10
5.5888
20
19.5107239
11
5.5888
21
20.4105239
0
LINE
8
DEFAULT_255_2_778
10
5.5888261
20
16.9108302
11
5.5888261
21
17.4609302
0
LINE
8
DEFAULT_255_2_778
10
5.5888261
20
17.4609302
11
7.2887261
21
17.4609302
0
LINE
8
DEFAULT_255_2_778
10
7.2887261
20
17.4609302
11
7.2887261
21
18.9608302
0
LINE
8
DEFAULT_255_2_778
10
7.2887261
20
18.9608302
11
5.5888261
21
18.9608302
0
LINE
8
DEFAULT_255_2_778
10
5.5888261
20
18.9608302
11
5.5888261
21
19.5109302
0
LINE
8
DEFAULT_255_2_778
10
5.5888667
20
16.9108979
11
4.5389667
21
16.9108979
0
LINE
8
DEFAULT_255_2_778
10
4.5389667
20
16.9108979
11
4.5389667
21
17.6220979
0
LINE
8
DEFAULT_255_2_778
10
4.5389667
20
17.6220979
11
5.0390667
21
17.9107979
0
LINE
8
DEFAULT_255_2_778
10
5.0390667
20
17.9107979
11
5.0390667
21
18.5107979
0
LINE
8
DEFAULT_255_2_778
10
5.0390667
20
18.5107979
11
4.5389667
21
18.7994979
0
LINE
8
DEFAULT_255_2_778
10
4.5389667
20
18.7994979
11
4.5389667
21
19.5106979
0
LINE
8
DEFAULT_255_2_778
10
4.5389667
20
19.5106979
11
5.5888667
21
19.5106979
0
LINE
8
DEFAULT_255_2_778
10
5.5888
20
16.0107562
11
5.5888
21
16.9108562
0
LINE
8
DEFAULT_255_2_778
10
5.5888261
20
13.4106302
11
5.5888261
21
13.9607302
0
LINE
8
DEFAULT_255_2_778
10
5.5888261
20
13.9607302
11
7.2887261
21
13.9607302
0
LINE
8
DEFAULT_255_2_778
10
7.2887261
20
13.9607302
11
7.2887261
21
15.4606302
0
LINE
8
DEFAULT_255_2_778
10
7.2887261
20
15.4606302
11
5.5888261
21
15.4606302
0
LINE
8
DEFAULT_255_2_778
10
5.5888261
20
15.4606302
11
5.5888261
21
16.0107302
0
LINE
8
DEFAULT_255_2_778
10
5.5888667
20
13.4106979
11
4.5389667
21
13.4106979
0
LINE
8
DEFAULT_255_2_778
10
4.5389667
20
13.4106979
11
4.5389667
21
14.1218979
0
LINE
8
DEFAULT_255_2_778
10
4.5389667
20
14.1218979
11
5.0390667
21
14.4105979
0
LINE
8
DEFAULT_255_2_778
10
5.0390667
20
14.4105979
11
5.0390667
21
15.0105979
0
LINE
8
DEFAULT_255_2_778
10
5.0390667
20
15.0105979
11
4.5389667
21
15.2992979
0
LINE
8
DEFAULT_255_2_778
10
4.5389667
20
15.2992979
11
4.5389667
21
16.0104979
0
LINE
8
DEFAULT_255_2_778
10
4.5389667
20
16.0104979
11
5.5888667
21
16.0104979
0
LINE
8
DEFAULT_255_2_778
10
5.5888
20
12.5109239
11
5.5888
21
13.4107239
0
LINE
8
DEFAULT_255_2_778
10
5.5888261
20
9.9107302
11
5.5888261
21
10.4608302
0
LINE
8
DEFAULT_255_2_778
10
5.5888261
20
10.4608302
11
7.2887261
21
10.4608302
0
LINE
8
DEFAULT_255_2_778
10
7.2887261
20
10.4608302
11
7.2887261
21
11.9607302
0
LINE
8
DEFAULT_255_2_778
10
7.2887261
20
11.9607302
11
5.5888261
21
11.9607302
0
LINE
8
DEFAULT_255_2_778
10
5.5888261
20
11.9607302
11
5.5888261
21
12.5108302
0
LINE
8
DEFAULT_255_2_778
10
5.5888667
20
9.9107979
11
4.5389667
21
9.9107979
0
LINE
8
DEFAULT_255_2_778
10
4.5389667
20
9.9107979
11
4.5389667
21
10.6219979
0
LINE
8
DEFAULT_255_2_778
10
4.5389667
20
10.6219979
11
5.0390667
21
10.9106979
0
LINE
8
DEFAULT_255_2_778
10
5.0390667
20
10.9106979
11
5.0390667
21
11.5106979
0
LINE
8
DEFAULT_255_2_778
10
5.0390667
20
11.5106979
11
4.5389667
21
11.7993979
0
LINE
8
DEFAULT_255_2_778
10
4.5389667
20
11.7993979
11
4.5389667
21
12.5105979
0
LINE
8
DEFAULT_255_2_778
10
4.5389667
20
12.5105979
11
5.5888667
21
12.5105979
0
LINE
8
DEFAULT_255_2_778
10
5.5887792
20
9.3106375
11
5.5887792
21
9.9107375
0
LINE
8
DEFAULT_255_2_778
10
6.5655792
20
9.3109375
11
5.5887792
21
9.3109375
0
LINE
8
DEFAULT_255_2_778
10
6.5656292
20
6.7910458
11
1.3089292
21
6.7910458
0
LINE
8
DEFAULT_255_2_778
10
1.3089292
20
6.7910458
11
1.3089292
21
9.3109458
0
LINE
8
DEFAULT_255_2_778
10
1.3089292
20
9.3109458
11
5.5888292
21
9.3109458
0
LINE
8
DEFAULT_255_2_778
10
6.5657
20
6.7910458
11
6.5657
21
9.3109458
0
ENDSEC
0
EOF