0
SECTION
2
HEADER
9
$MEASUREMENT
70
1
0
ENDSEC
0
SECTION
2
TABLES
0
TABLE
2
LTYPE
0
LTYPE
72
65
70
64
2
CONTINUOUS
3
______
73
0
40
0
0
ENDTAB
0
TABLE
2
LAYER
0
LAYER
2
DEFAULT_255_2_778
70
0
62
255
6
CONTINUOUS
0
LAYER
2
DEFAULT_255_1_234
70
0
62
255
6
CONTINUOUS
0
ENDTAB
0
ENDSEC
0
SECTION
2
ENTITIES
0
ARC
8
DEFAULT_255_2_778
10
3.5700693
20
234.5552008
40
0.7914215
50
129.1312896
51
180.1450914
0
ARC
8
DEFAULT_255_2_778
10
3.5703345
20
234.5556879
40
0.7912112
50
89.854026
51
129.1684493
0
ARC
8
DEFAULT_255_2_778
10
25.7993937
20
234.5553745
40
0.7915249
50
39.4792447
51
90.147911
0
ARC
8
DEFAULT_255_2_778
10
25.7999935
20
234.5552211
40
0.7911595
50
359.8533901
51
39.5154338
0
ARC
8
DEFAULT_255_2_778
10
25.7996693
20
-1.9863514
40
0.7914836
50
309.4761667
51
0.1482649
0
ARC
8
DEFAULT_255_2_778
10
25.799398
20
-1.9867825
40
0.7913235
50
269.8517415
51
309.511178
0
ARC
8
DEFAULT_255_2_778
10
3.570342
20
-1.9867244
40
0.7913815
50
219.1282118
51
270.1454017
0
ARC
8
DEFAULT_255_2_778
10
3.5700247
20
-1.9863419
40
0.7913769
50
179.8524075
51
219.1641908
0
LINE
8
DEFAULT_255_2_778
10
3.5723503
20
235.3468967
11
25.7973503
21
235.3468967
0
LINE
8
DEFAULT_255_2_778
10
26.5911503
20
234.5531967
11
26.5911503
21
-1.9843033
0
LINE
8
DEFAULT_255_2_778
10
25.7973503
20
-2.7781033
11
3.5723503
21
-2.7781033
0
LINE
8
DEFAULT_255_2_778
10
2.7786503
20
-1.9843033
11
2.7786503
21
234.5531967
0
LINE
8
DEFAULT_255_1_234
10
9.146923
20
-0.2802337
11
9.3019355
21
-0.2802337
0
LINE
8
DEFAULT_255_1_234
10
8.4015777
20
-0.1212053
11
8.4015777
21
-0.0087609
0
LINE
8
DEFAULT_255_1_234
10
9.3019355
20
0.1422357
11
9.146923
21
0.1422357
0
LINE
8
DEFAULT_255_1_234
10
8.5565902
20
-0.0127768
11
8.5565902
21
-0.1260243
0
ARC
8
DEFAULT_255_1_234
10
8.7538742
20
-0.2205154
40
0.5513052
50
340.1774281
51
353.7814284
0
ARC
8
DEFAULT_255_1_234
10
8.9110095
20
-0.2790418
40
0.3836379
50
311.4558989
51
340.4421614
0
ARC
8
DEFAULT_255_1_234
10
8.9076763
20
-0.2679472
40
0.3941894
50
282.4333181
51
310.7513653
0
ARC
8
DEFAULT_255_1_234
10
8.8637502
20
-0.0864321
40
0.5809175
50
269.9358511
51
282.809604
0
ARC
8
DEFAULT_255_1_234
10
8.8585568
20
0.0593212
40
0.7266847
50
270.0021091
51
270.3581957
0
ARC
8
DEFAULT_255_1_234
10
8.8532985
20
-0.2007415
40
0.4666519
50
250.7884749
51
270.6489167
0
ARC
8
DEFAULT_255_1_234
10
8.836482
20
-0.2644681
40
0.4009729
50
219.3627325
51
250.0611886
0
ARC
8
DEFAULT_255_1_234
10
8.9194031
20
-0.1939958
40
0.5097822
50
193.5479632
51
219.5756669
0
ARC
8
DEFAULT_255_1_234
10
9.1565652
20
-0.1324081
40
0.7547848
50
181.1218675
51
193.87563
0
ARC
8
DEFAULT_255_1_234
10
9.3635833
20
-0.121342
40
0.9620055
50
179.9918545
51
181.5394234
0
ARC
8
DEFAULT_255_1_234
10
9.1784935
20
-0.0050212
40
0.7769248
50
169.5837241
51
180.2757934
0
ARC
8
DEFAULT_255_1_234
10
8.9947873
20
0.0289229
40
0.590109
50
155.0365899
51
169.6003176
0
ARC
8
DEFAULT_255_1_234
10
8.8812337
20
0.0836677
40
0.4640625
50
136.783148
51
155.2472683
0
ARC
8
DEFAULT_255_1_234
10
8.8422814
20
0.1167562
40
0.4130255
50
121.7633186
51
136.428115
0
ARC
8
DEFAULT_255_1_234
10
8.8557776
20
0.0918227
40
0.4413323
50
95.6459699
51
121.5490577
0
ARC
8
DEFAULT_255_1_234
10
8.8715058
20
-0.0190051
40
0.55319
50
89.924208
51
96.1377933
0
ARC
8
DEFAULT_255_1_234
10
8.8765491
20
-0.0071458
40
0.5413475
50
76.6779277
51
90.4563316
0
ARC
8
DEFAULT_255_1_234
10
8.9159114
20
0.1519114
40
0.3775041
50
47.485847
51
76.9287264
0
ARC
8
DEFAULT_255_1_234
10
8.9012087
20
0.1419159
40
0.3948286
50
16.5424086
51
46.8933463
0
ARC
8
DEFAULT_255_1_234
10
8.7404244
20
0.0890861
40
0.564021
50
5.4072051
51
17.0365086
0
ARC
8
DEFAULT_255_1_234
10
8.5965261
20
0.0659679
40
0.5556559
50
7.8891745
51
15.9239216
0
ARC
8
DEFAULT_255_1_234
10
8.7952274
20
0.1236631
40
0.3487515
50
15.7653144
51
27.9410532
0
ARC
8
DEFAULT_255_1_234
10
8.9056492
20
0.182779
40
0.2235026
50
27.8166557
51
46.4008329
0
ARC
8
DEFAULT_255_1_234
10
8.9106135
20
0.1822082
40
0.2205286
50
47.4371857
51
75.0698205
0
ARC
8
DEFAULT_255_1_234
10
8.8797529
20
0.0747765
40
0.3322915
50
74.7008593
51
87.8124495
0
ARC
8
DEFAULT_255_1_234
10
8.8724217
20
-0.0308156
40
0.4380987
50
87.3814673
51
90.0240855
0
ARC
8
DEFAULT_255_1_234
10
8.868576
20
0.0869291
40
0.3203749
50
89.3451631
51
108.5745436
0
ARC
8
DEFAULT_255_1_234
10
8.8548865
20
0.1382908
40
0.2673494
50
109.2998449
51
143.3037509
0
ARC
8
DEFAULT_255_1_234
10
8.9310938
20
0.0796881
40
0.3634757
50
143.0753173
51
163.1916937
0
ARC
8
DEFAULT_255_1_234
10
9.1262666
20
0.0180967
40
0.5681262
50
162.9373603
51
174.6208611
0
ARC
8
DEFAULT_255_1_234
10
9.3888708
20
-0.010699
40
0.8322832
50
174.3419979
51
180.1430411
0
ARC
8
DEFAULT_255_1_234
10
9.2957864
20
-0.1301302
40
0.7392076
50
179.6817502
51
189.150529
0
ARC
8
DEFAULT_255_1_234
10
9.0457112
20
-0.171781
40
0.4856932
50
188.9910863
51
203.5773039
0
ARC
8
DEFAULT_255_1_234
10
8.9377445
20
-0.2165789
40
0.3688271
50
203.9077269
51
215.1312379
0
ARC
8
DEFAULT_255_1_234
10
8.8454539
20
-0.2881059
40
0.2522457
50
213.9071664
51
263.8849284
0
ARC
8
DEFAULT_255_1_234
10
8.8579868
20
-0.2096482
40
0.3316174
50
263.1758525
51
270.1031083
0
ARC
8
DEFAULT_255_1_234
10
8.861196
20
-0.0849635
40
0.4563091
50
269.6719807
51
279.0609165
0
ARC
8
DEFAULT_255_1_234
10
8.8878728
20
-0.2462093
40
0.2928759
50
278.8750225
51
293.6346586
0
ARC
8
DEFAULT_255_1_234
10
8.9198936
20
-0.32141
40
0.2111472
50
293.8553404
51
310.0518804
0
ARC
8
DEFAULT_255_1_234
10
8.920379
20
-0.3276484
40
0.2060917
50
311.0646779
51
332.0108348
0
ARC
8
DEFAULT_255_1_234
10
8.8011517
20
-0.2619022
40
0.3422352
50
331.6588543
51
343.2878891
0
ARC
8
DEFAULT_255_1_234
10
8.5949032
20
-0.1985202
40
0.5580003
50
343.1446044
51
351.010618
0
ARC
8
DEFAULT_255_1_234
10
8.4407678
20
-0.1704129
40
0.7146438
50
350.7157277
51
351.1602153
0
LINE
8
DEFAULT_255_1_234
10
10.2239791
20
-0.6513
11
9.8095414
21
-0.1075513
0
LINE
8
DEFAULT_255_1_234
10
9.8095414
20
-0.1075513
11
9.6665765
21
-0.2561385
0
LINE
8
DEFAULT_255_1_234
10
9.6665765
20
-0.2561385
11
9.6665765
21
-0.6513
0
LINE
8
DEFAULT_255_1_234
10
9.6665765
20
-0.6513
11
9.5123671
21
-0.6513
0
LINE
8
DEFAULT_255_1_234
10
9.5123671
20
-0.6513
11
9.5123671
21
0.5181211
0
LINE
8
DEFAULT_255_1_234
10
9.5123671
20
0.5181211
11
9.6665765
21
0.5181211
0
LINE
8
DEFAULT_255_1_234
10
9.6665765
20
0.5181211
11
9.6665765
21
-0.0601641
0
LINE
8
DEFAULT_255_1_234
10
9.6665765
20
-0.0601641
11
10.1862299
21
0.5181211
0
LINE
8
DEFAULT_255_1_234
10
10.1862299
20
0.5181211
11
10.3725663
21
0.5181211
0
LINE
8
DEFAULT_255_1_234
10
10.3725663
20
0.5181211
11
9.9123477
21
0.0016803
0
LINE
8
DEFAULT_255_1_234
10
9.9123477
20
0.0016803
11
10.4087091
21
-0.6513
0
LINE
8
DEFAULT_255_1_234
10
10.4087091
20
-0.6513
11
10.2239791
21
-0.6513
0
LINE
8
DEFAULT_255_1_234
10
10.7211437
20
-0.1155831
11
10.7211437
21
0.0056962
0
LINE
8
DEFAULT_255_1_234
10
10.7211437
20
0.0056962
11
10.8327849
21
0.0056962
0
LINE
8
DEFAULT_255_1_234
10
10.6424327
20
0.2113087
11
10.4938455
21
0.2113087
0
LINE
8
DEFAULT_255_1_234
10
10.4834042
20
-0.3428812
11
10.6327946
21
-0.3428812
0
LINE
8
DEFAULT_255_1_234
10
10.8327849
20
-0.1155831
11
10.7211437
21
-0.1155831
0
ARC
8
DEFAULT_255_1_234
10
10.8298715
20
0.3449713
40
0.3392876
50
270.4919872
51
281.8951556
0
ARC
8
DEFAULT_255_1_234
10
10.8539977
20
0.2347702
40
0.2264817
50
281.6691735
51
301.2943132
0
ARC
8
DEFAULT_255_1_234
10
10.8710187
20
0.2036304
40
0.1910381
50
301.7833094
51
311.7545298
0
ARC
8
DEFAULT_255_1_234
10
10.8801763
20
0.1934748
40
0.1773635
50
311.7323931
51
354.2802411
0
ARC
8
DEFAULT_255_1_234
10
10.8075388
20
0.2059722
40
0.2509385
50
353.0937916
51
0.1181479
0
ARC
8
DEFAULT_255_1_234
10
10.7614173
20
0.2107386
40
0.2970898
50
359.1805295
51
15.0453146
0
ARC
8
DEFAULT_255_1_234
10
10.896001
20
0.2499992
40
0.1569564
50
13.9577229
51
77.6713066
0
ARC
8
DEFAULT_255_1_234
10
10.8573539
20
0.1114949
40
0.3006298
50
76.1116566
51
90.7026153
0
ARC
8
DEFAULT_255_1_234
10
10.8514377
20
0.1388545
40
0.2732568
50
89.5324876
51
103.531937
0
ARC
8
DEFAULT_255_1_234
10
10.8313822
20
0.2187884
40
0.1908508
50
103.2931773
51
133.5619022
0
ARC
8
DEFAULT_255_1_234
10
10.826931
20
0.2247375
40
0.1834746
50
133.8349307
51
173.5344437
0
ARC
8
DEFAULT_255_1_234
10
10.8992353
20
0.2119213
40
0.2568033
50
172.5096846
51
180.1366907
0
ARC
8
DEFAULT_255_1_234
10
10.8041247
20
0.2153622
40
0.3103056
50
155.3484492
51
180.7484736
0
ARC
8
DEFAULT_255_1_234
10
10.7992336
20
0.2124846
40
0.3070957
50
131.5744599
51
154.4798489
0
ARC
8
DEFAULT_255_1_234
10
10.8305483
20
0.180831
40
0.3515643
50
96.9875458
51
131.9690667
0
ARC
8
DEFAULT_255_1_234
10
10.8524963
20
0.0562636
40
0.4779224
50
89.8596053
51
97.7825159
0
ARC
8
DEFAULT_255_1_234
10
10.8573026
20
0.0300616
40
0.5041361
50
78.3655447
51
90.4131539
0
ARC
8
DEFAULT_255_1_234
10
10.8930944
20
0.1959887
40
0.3344039
50
56.6229102
51
78.638727
0
ARC
8
DEFAULT_255_1_234
10
10.9145888
20
0.2335805
40
0.2912001
50
47.0253525
51
56.0854072
0
ARC
8
DEFAULT_255_1_234
10
10.9165668
20
0.2375223
40
0.2869704
50
10.9208013
51
46.7778124
0
ARC
8
DEFAULT_255_1_234
10
10.7801734
20
0.2059857
40
0.426899
50
359.6364486
51
11.6087304
0
ARC
8
DEFAULT_255_1_234
10
10.9636578
20
0.2044752
40
0.243409
50
332.3549906
51
359.7179418
0
ARC
8
DEFAULT_255_1_234
10
10.898618
20
0.2353142
40
0.3153459
50
325.2333722
51
332.8745602
0
ARC
8
DEFAULT_255_1_234
10
10.9138804
20
0.2246828
40
0.2967456
50
292.9802137
51
325.2392345
0
ARC
8
DEFAULT_255_1_234
10
10.8864178
20
0.2780863
40
0.3566604
50
292.5402179
51
293.6924929
0
ARC
8
DEFAULT_255_1_234
10
10.9256773
20
-0.3673909
40
0.3307468
50
57.6435486
51
72.8625112
0
ARC
8
DEFAULT_255_1_234
10
10.9611273
20
-0.3099451
40
0.2632492
50
36.7248896
51
57.4697979
0
ARC
8
DEFAULT_255_1_234
10
10.9599906
20
-0.308678
40
0.2634081
50
8.0545065
51
36.356114
0
ARC
8
DEFAULT_255_1_234
10
10.8737091
20
-0.3241826
40
0.3510261
50
359.8320645
51
8.5869982
0
ARC
8
DEFAULT_255_1_234
10
10.8361867
20
-0.3289899
40
0.3885653
50
343.9829931
51
0.5571613
0
ARC
8
DEFAULT_255_1_234
10
10.9248064
20
-0.3532562
40
0.2966924
50
311.6359546
51
343.7651759
0
ARC
8
DEFAULT_255_1_234
10
10.8869634
20
-0.3105898
40
0.3537231
50
279.7829875
51
311.6255694
0
ARC
8
DEFAULT_255_1_234
10
10.856841
20
-0.166872
40
0.5004971
50
269.7286406
51
280.3856417
0
ARC
8
DEFAULT_255_1_234
10
10.8506482
20
-0.1710004
40
0.4963778
50
256.6828919
51
270.4412052
0
ARC
8
DEFAULT_255_1_234
10
10.8167778
20
-0.3094606
40
0.3538406
50
229.4223008
51
256.8556159
0
ARC
8
DEFAULT_255_1_234
10
10.7753171
20
-0.3561264
40
0.2914296
50
181.818294
51
229.6455059
0
ARC
8
DEFAULT_255_1_234
10
10.8793127
20
-0.3430504
40
0.3959084
50
179.9755256
51
183.2323064
0
ARC
8
DEFAULT_255_1_234
10
10.8620873
20
-0.3450963
40
0.2293034
50
179.4465117
51
196.2869258
0
ARC
8
DEFAULT_255_1_234
10
10.8133281
20
-0.3584349
40
0.1787621
50
196.5661473
51
227.705904
0
ARC
8
DEFAULT_255_1_234
10
10.8297376
20
-0.3400845
40
0.2033784
50
227.7652068
51
257.8762805
0
ARC
8
DEFAULT_255_1_234
10
10.8522346
20
-0.2457844
40
0.3003081
50
257.4584385
51
270.426602
0
ARC
8
DEFAULT_255_1_234
10
10.8567912
20
-0.2168004
40
0.329292
50
269.5962073
51
280.8789248
0
ARC
8
DEFAULT_255_1_234
10
10.8797441
20
-0.3314315
40
0.2123908
50
280.6346389
51
299.8595945
0
ARC
8
DEFAULT_255_1_234
10
10.8988348
20
-0.3676788
40
0.171457
50
300.3576302
51
314.5517981
0
ARC
8
DEFAULT_255_1_234
10
10.8905408
20
-0.3616081
40
0.1816095
50
315.0728369
51
345.0431014
0
ARC
8
DEFAULT_255_1_234
10
10.7982222
20
-0.3347159
40
0.2777492
50
344.5986631
51
357.9269593
0
ARC
8
DEFAULT_255_1_234
10
10.7086549
20
-0.3285724
40
0.3674917
50
357.4748886
51
0.0231117
0
ARC
8
DEFAULT_255_1_234
10
10.8109658
20
-0.3261321
40
0.2651907
50
359.5047933
51
13.4239635
0
ARC
8
DEFAULT_255_1_234
10
10.8976302
20
-0.3039522
40
0.1757509
50
12.9498199
51
48.7551375
0
ARC
8
DEFAULT_255_1_234
10
10.8794035
20
-0.32886
40
0.2065134
50
49.5088623
51
72.1836453
0
ARC
8
DEFAULT_255_1_234
10
10.8436188
20
-0.4350709
40
0.3185836
50
71.9010081
51
84.3554254
0
ARC
8
DEFAULT_255_1_234
10
10.827482
20
-0.5711674
40
0.4556151
50
84.0193428
51
89.333121
0
LINE
8
DEFAULT_255_1_234
10
11.5347588
20
0.5181211
11
11.7194888
21
-0.2826432
0
LINE
8
DEFAULT_255_1_234
10
11.7194888
20
-0.2826432
11
11.7419776
21
-0.4368526
0
LINE
8
DEFAULT_255_1_234
10
11.7419776
20
-0.4368526
11
11.7749078
21
-0.2979035
0
LINE
8
DEFAULT_255_1_234
10
11.7749078
20
-0.2979035
11
12.0062218
21
0.5181211
0
LINE
8
DEFAULT_255_1_234
10
12.0062218
20
0.5181211
11
12.136336
21
0.5181211
0
LINE
8
DEFAULT_255_1_234
10
12.136336
20
0.5181211
11
12.3620278
21
-0.2979035
0
LINE
8
DEFAULT_255_1_234
10
12.3620278
20
-0.2979035
11
12.3941548
21
-0.4392621
0
LINE
8
DEFAULT_255_1_234
10
12.3941548
20
-0.4392621
11
12.4190532
21
-0.28184
0
LINE
8
DEFAULT_255_1_234
10
12.4190532
20
-0.28184
11
12.6005705
21
0.5181211
0
LINE
8
DEFAULT_255_1_234
10
12.6005705
20
0.5181211
11
12.755583
21
0.5181211
0
LINE
8
DEFAULT_255_1_234
10
12.755583
20
0.5181211
11
12.4720626
21
-0.6513
0
LINE
8
DEFAULT_255_1_234
10
12.4720626
20
-0.6513
11
12.3315072
21
-0.6513
0
LINE
8
DEFAULT_255_1_234
10
12.3315072
20
-0.6513
11
12.0905551
21
0.2008674
0
LINE
8
DEFAULT_255_1_234
10
12.0905551
20
0.2008674
11
12.0720821
21
0.2900197
0
LINE
8
DEFAULT_255_1_234
10
12.0720821
20
0.2900197
11
12.0536091
21
0.2008674
0
LINE
8
DEFAULT_255_1_234
10
12.0536091
20
0.2008674
11
11.803822
21
-0.6513
0
LINE
8
DEFAULT_255_1_234
10
11.803822
20
-0.6513
11
11.6632666
21
-0.6513
0
LINE
8
DEFAULT_255_1_234
10
11.6632666
20
-0.6513
11
11.3805494
21
0.5181211
0
LINE
8
DEFAULT_255_1_234
10
11.3805494
20
0.5181211
11
11.5347588
21
0.5181211
0
LINE
8
DEFAULT_255_1_234
10
13.1643985
20
-0.0938974
11
13.1643985
21
-0.2151766
0
LINE
8
DEFAULT_255_1_234
10
13.1643985
20
-0.2151766
11
12.7724497
21
-0.2151766
0
LINE
8
DEFAULT_255_1_234
10
12.7724497
20
-0.2151766
11
12.7724497
21
-0.0938974
0
LINE
8
DEFAULT_255_1_234
10
12.7724497
20
-0.0938974
11
13.1643985
21
-0.0938974
0
LINE
8
DEFAULT_255_1_234
10
14.0896547
20
-0.6513
11
13.9780136
21
-0.3460939
0
LINE
8
DEFAULT_255_1_234
10
13.9780136
20
-0.3460939
11
13.4880775
21
-0.3460939
0
LINE
8
DEFAULT_255_1_234
10
13.4880775
20
-0.3460939
11
13.3780427
21
-0.6513
0
LINE
8
DEFAULT_255_1_234
10
13.3780427
20
-0.6513
11
13.2190143
21
-0.6513
0
LINE
8
DEFAULT_255_1_234
10
13.2190143
20
-0.6513
11
13.665579
21
0.5181211
0
LINE
8
DEFAULT_255_1_234
10
13.665579
20
0.5181211
11
13.8005122
21
0.5181211
0
LINE
8
DEFAULT_255_1_234
10
13.8005122
20
0.5181211
11
14.24788
21
-0.6513
0
LINE
8
DEFAULT_255_1_234
10
14.24788
20
-0.6513
11
14.0896547
21
-0.6513
0
LINE
8
DEFAULT_255_1_234
10
13.7330456
20
0.3277689
11
13.5346616
21
-0.2191925
0
LINE
8
DEFAULT_255_1_234
10
13.5346616
20
-0.2191925
11
13.9322327
21
-0.2191925
0
LINE
8
DEFAULT_255_1_234
10
13.9322327
20
-0.2191925
11
13.7330456
21
0.3277689
0
LINE
8
DEFAULT_255_1_234
10
14.5048956
20
0.5181211
11
14.7868096
21
0.0699501
0
LINE
8
DEFAULT_255_1_234
10
14.7868096
20
0.0699501
11
15.0671173
21
0.5181211
0
LINE
8
DEFAULT_255_1_234
10
15.0671173
20
0.5181211
11
15.2486346
21
0.5181211
0
LINE
8
DEFAULT_255_1_234
10
15.2486346
20
0.5181211
11
14.8791746
21
-0.0617704
0
LINE
8
DEFAULT_255_1_234
10
14.8791746
20
-0.0617704
11
15.2574695
21
-0.6513
0
LINE
8
DEFAULT_255_1_234
10
15.2574695
20
-0.6513
11
15.0743458
21
-0.6513
0
LINE
8
DEFAULT_255_1_234
10
15.0743458
20
-0.6513
11
14.7868096
21
-0.1950973
0
LINE
8
DEFAULT_255_1_234
10
14.7868096
20
-0.1950973
11
14.497667
21
-0.6513
0
LINE
8
DEFAULT_255_1_234
10
14.497667
20
-0.6513
11
14.3153466
21
-0.6513
0
LINE
8
DEFAULT_255_1_234
10
14.3153466
20
-0.6513
11
14.6944446
21
-0.0617704
0
LINE
8
DEFAULT_255_1_234
10
14.6944446
20
-0.0617704
11
14.3241815
21
0.5181211
0
LINE
8
DEFAULT_255_1_234
10
14.3241815
20
0.5181211
11
14.5048956
21
0.5181211
0
LINE
8
DEFAULT_255_1_234
10
15.8863546
20
0.5237433
11
15.8863546
21
-0.6513
0
LINE
8
DEFAULT_255_1_234
10
15.8863546
20
-0.6513
11
15.7369643
21
-0.6513
0
LINE
8
DEFAULT_255_1_234
10
15.7369643
20
-0.6513
11
15.7369643
21
0.3390133
0
LINE
8
DEFAULT_255_1_234
10
15.7369643
20
0.3390133
11
15.4373804
21
0.2289785
0
LINE
8
DEFAULT_255_1_234
10
15.4373804
20
0.2289785
11
15.4373804
21
0.3639117
0
LINE
8
DEFAULT_255_1_234
10
15.4373804
20
0.3639117
11
15.8630625
21
0.5237433
0
LINE
8
DEFAULT_255_1_234
10
15.8630625
20
0.5237433
11
15.8863546
21
0.5237433
0
LINE
8
DEFAULT_255_1_234
10
16.9489536
20
0.5181211
11
16.9489536
21
-0.258548
0
LINE
8
DEFAULT_255_1_234
10
16.9489536
20
-0.258548
11
17.1111947
21
-0.258548
0
LINE
8
DEFAULT_255_1_234
10
17.1111947
20
-0.258548
11
17.1111947
21
-0.3798272
0
LINE
8
DEFAULT_255_1_234
10
17.1111947
20
-0.3798272
11
16.9489536
21
-0.3798272
0
LINE
8
DEFAULT_255_1_234
10
16.9489536
20
-0.3798272
11
16.9489536
21
-0.6513
0
LINE
8
DEFAULT_255_1_234
10
16.9489536
20
-0.6513
11
16.7995632
21
-0.6513
0
LINE
8
DEFAULT_255_1_234
10
16.7995632
20
-0.6513
11
16.7995632
21
-0.3798272
0
LINE
8
DEFAULT_255_1_234
10
16.7995632
20
-0.3798272
11
16.267059
21
-0.3798272
0
LINE
8
DEFAULT_255_1_234
10
16.267059
20
-0.3798272
11
16.267059
21
-0.2922813
0
LINE
8
DEFAULT_255_1_234
10
16.267059
20
-0.2922813
11
16.7907283
21
0.5181211
0
LINE
8
DEFAULT_255_1_234
10
16.7907283
20
0.5181211
11
16.9489536
21
0.5181211
0
LINE
8
DEFAULT_255_1_234
10
16.7818934
20
0.2827912
11
16.4357255
21
-0.258548
0
LINE
8
DEFAULT_255_1_234
10
16.4357255
20
-0.258548
11
16.7995632
21
-0.258548
0
LINE
8
DEFAULT_255_1_234
10
16.7995632
20
-0.258548
11
16.7995632
21
0.3149181
0
LINE
8
DEFAULT_255_1_234
10
16.7995632
20
0.3149181
11
16.7818934
21
0.2827912
0
LINE
8
DEFAULT_255_1_234
10
17.7336544
20
0.5237433
11
17.7336544
21
-0.6513
0
LINE
8
DEFAULT_255_1_234
10
17.7336544
20
-0.6513
11
17.5842641
21
-0.6513
0
LINE
8
DEFAULT_255_1_234
10
17.5842641
20
-0.6513
11
17.5842641
21
0.3390133
0
LINE
8
DEFAULT_255_1_234
10
17.5842641
20
0.3390133
11
17.2846802
21
0.2289785
0
LINE
8
DEFAULT_255_1_234
10
17.2846802
20
0.2289785
11
17.2846802
21
0.3639117
0
LINE
8
DEFAULT_255_1_234
10
17.2846802
20
0.3639117
11
17.7103624
21
0.5237433
0
LINE
8
DEFAULT_255_1_234
10
17.7103624
20
0.5237433
11
17.7336544
21
0.5237433
0
LINE
8
DEFAULT_255_1_234
10
18.7962534
20
0.5181211
11
18.7962534
21
-0.258548
0
LINE
8
DEFAULT_255_1_234
10
18.7962534
20
-0.258548
11
18.9584945
21
-0.258548
0
LINE
8
DEFAULT_255_1_234
10
18.9584945
20
-0.258548
11
18.9584945
21
-0.3798272
0
LINE
8
DEFAULT_255_1_234
10
18.9584945
20
-0.3798272
11
18.7962534
21
-0.3798272
0
LINE
8
DEFAULT_255_1_234
10
18.7962534
20
-0.3798272
11
18.7962534
21
-0.6513
0
LINE
8
DEFAULT_255_1_234
10
18.7962534
20
-0.6513
11
18.646863
21
-0.6513
0
LINE
8
DEFAULT_255_1_234
10
18.646863
20
-0.6513
11
18.646863
21
-0.3798272
0
LINE
8
DEFAULT_255_1_234
10
18.646863
20
-0.3798272
11
18.1143588
21
-0.3798272
0
LINE
8
DEFAULT_255_1_234
10
18.1143588
20
-0.3798272
11
18.1143588
21
-0.2922813
0
LINE
8
DEFAULT_255_1_234
10
18.1143588
20
-0.2922813
11
18.6380281
21
0.5181211
0
LINE
8
DEFAULT_255_1_234
10
18.6380281
20
0.5181211
11
18.7962534
21
0.5181211
0
LINE
8
DEFAULT_255_1_234
10
18.6291932
20
0.2827912
11
18.2830253
21
-0.258548
0
LINE
8
DEFAULT_255_1_234
10
18.2830253
20
-0.258548
11
18.646863
21
-0.258548
0
LINE
8
DEFAULT_255_1_234
10
18.646863
20
-0.258548
11
18.646863
21
0.3149181
0
LINE
8
DEFAULT_255_1_234
10
18.646863
20
0.3149181
11
18.6291932
21
0.2827912
0
LINE
8
DEFAULT_255_1_234
10
19.5608749
20
-0.1934909
11
19.2853862
21
-0.1934909
0
LINE
8
DEFAULT_255_1_234
10
19.2853862
20
-0.1934909
11
19.2853862
21
-0.6513
0
LINE
8
DEFAULT_255_1_234
10
19.2853862
20
-0.6513
11
19.1311769
21
-0.6513
0
LINE
8
DEFAULT_255_1_234
10
19.1311769
20
-0.6513
11
19.1311769
21
0.5181211
0
LINE
8
DEFAULT_255_1_234
10
19.1311769
20
0.5181211
11
19.5624812
21
0.5181211
0
LINE
8
DEFAULT_255_1_234
10
19.2853862
20
0.3912196
11
19.2853862
21
-0.0673926
0
LINE
8
DEFAULT_255_1_234
10
19.2853862
20
-0.0673926
11
19.5624812
21
-0.0673926
0
LINE
8
DEFAULT_255_1_234
10
19.5713161
20
0.3912196
11
19.2853862
21
0.3912196
0
ARC
8
DEFAULT_255_1_234
10
19.5666939
20
-0.0877805
40
0.6059162
50
78.8378113
51
90.3983573
0
ARC
8
DEFAULT_255_1_234
10
19.6082952
20
0.1142879
40
0.3996205
50
58.9632738
51
79.0810598
0
ARC
8
DEFAULT_255_1_234
10
19.6384495
20
0.1702721
40
0.3361177
50
48.0197965
51
58.447194
0
ARC
8
DEFAULT_255_1_234
10
19.6473356
20
0.1788225
40
0.3238191
50
3.3375044
51
48.1766626
0
ARC
8
DEFAULT_255_1_234
10
19.5243195
20
0.1611171
40
0.4477806
50
359.9477528
51
4.6829065
0
ARC
8
DEFAULT_255_1_234
10
19.5366512
20
0.1568628
40
0.4354656
50
346.1877825
51
0.5060252
0
ARC
8
DEFAULT_255_1_234
10
19.672538
20
0.1215731
40
0.295089
50
310.8831995
51
346.5426355
0
ARC
8
DEFAULT_255_1_234
10
19.64168
20
0.1632695
40
0.3468331
50
286.6925341
51
310.2288297
0
ARC
8
DEFAULT_255_1_234
10
19.584763
20
0.3422882
40
0.5346654
50
274.6850312
51
287.0245141
0
ARC
8
DEFAULT_255_1_234
10
19.5622353
20
0.5631932
40
0.7566852
50
269.8969846
51
275.018904
0
ARC
8
DEFAULT_255_1_234
10
19.5649945
20
0.3552707
40
0.4226708
50
269.6593078
51
279.4153575
0
ARC
8
DEFAULT_255_1_234
10
19.590722
20
0.2062133
40
0.2714146
50
279.2049762
51
294.9900808
0
ARC
8
DEFAULT_255_1_234
10
19.6197546
20
0.1414508
40
0.2004525
50
295.2888114
51
311.2911209
0
ARC
8
DEFAULT_255_1_234
10
19.626844
20
0.130922
40
0.1878703
50
311.7854996
51
347.2861051
0
ARC
8
DEFAULT_255_1_234
10
19.5284599
20
0.1562092
40
0.2894234
50
346.6893224
51
0.1059443
0
ARC
8
DEFAULT_255_1_234
10
19.4529494
20
0.1590685
40
0.3649409
50
359.6350983
51
0.0053152
0
ARC
8
DEFAULT_255_1_234
10
19.5499822
20
0.1615937
40
0.2679199
50
359.4672059
51
15.5933957
0
ARC
8
DEFAULT_255_1_234
10
19.6124711
20
0.1784779
40
0.2031932
50
15.7442113
51
46.6203375
0
ARC
8
DEFAULT_255_1_234
10
19.5976931
20
0.1614484
40
0.2257226
50
46.8628658
51
75.6676503
0
ARC
8
DEFAULT_255_1_234
10
19.5682752
20
0.0555718
40
0.3355939
50
75.276167
51
88.2915297
0
ARC
8
DEFAULT_255_1_234
10
19.5624458
20
-0.0322476
40
0.4235602
50
87.8575022
51
88.8000139
0
ARC
8
DEFAULT_255_2_778
10
15.2718323
20
233.111689
40
0.3782009
50
0.4397807
51
91.3045231
0
ARC
8
DEFAULT_255_2_778
10
15.2696879
20
233.1094064
40
0.3803695
50
269.0259909
51
0.7811192
0
ARC
8
DEFAULT_255_2_778
10
15.4288293
20
233.0969643
40
0.7639615
50
290.7362057
51
357.8000295
0
ARC
8
DEFAULT_255_2_778
10
15.3436031
20
233.1145235
40
0.8499188
50
356.8376875
51
0.0046095
0
ARC
8
DEFAULT_255_2_778
10
15.3422443
20
233.1145748
40
0.8512778
50
0.0011515
51
85.3589632
0
ARC
8
DEFAULT_255_2_778
10
15.3422371
20
233.0955092
40
0.8702827
50
85.4600549
51
90.0075769
0
ARC
8
DEFAULT_255_2_778
10
20.173385
20
233.1052426
40
0.3845507
50
1.3931151
51
90.158378
0
ARC
8
DEFAULT_255_2_778
10
20.2329096
20
233.0988635
40
0.8684198
50
359.7643557
51
42.1181505
0
ARC
8
DEFAULT_255_2_778
10
20.2353156
20
233.0992931
40
0.866348
50
42.2037872
51
87.9292218
0
ARC
8
DEFAULT_255_2_778
10
20.2305626
20
233.0580097
40
0.9077821
50
87.7235759
51
90.0025578
0
ARC
8
DEFAULT_255_2_778
10
12.9264947
20
233.1121344
40
0.3777354
50
0.3727528
51
91.1638813
0
ARC
8
DEFAULT_255_2_778
10
12.9805692
20
233.0988595
40
0.8684602
50
359.7646302
51
42.1161032
0
ARC
8
DEFAULT_255_2_778
10
12.9830774
20
233.0994127
40
0.8662296
50
42.2002176
51
87.9268901
0
ARC
8
DEFAULT_255_2_778
10
12.9783626
20
233.0583749
40
0.9074169
50
87.7231194
51
90.002558
0
ARC
8
DEFAULT_255_2_778
10
17.559042
20
232.7070858
40
1.2841942
50
233.3100129
51
270.0348017
0
ARC
8
DEFAULT_255_2_778
10
17.5711133
20
232.7274622
40
1.3077482
50
187.7860459
51
233.4193197
0
ARC
8
DEFAULT_255_2_778
10
17.5893588
20
232.7290185
40
1.3260368
50
179.9838663
51
187.7458681
0
ARC
8
DEFAULT_255_2_778
10
17.5478523
20
232.7296375
40
1.2845303
50
143.7084173
51
180.0109545
0
ARC
8
DEFAULT_255_2_778
10
17.5629238
20
232.7245899
40
1.2996747
50
94.9692901
51
143.9223324
0
ARC
8
DEFAULT_255_2_778
10
17.5597032
20
232.7252347
40
1.2987573
50
89.9947559
51
94.8302073
0
ARC
8
DEFAULT_255_2_778
10
17.5619339
20
232.7194304
40
1.3045632
50
58.1407344
51
90.0927508
0
ARC
8
DEFAULT_255_2_778
10
17.5700831
20
232.7250662
40
1.2954809
50
3.5056409
51
58.315291
0
ARC
8
DEFAULT_255_2_778
10
17.5711163
20
232.7291563
40
1.2942058
50
359.9971467
51
3.3277024
0
ARC
8
DEFAULT_255_2_778
10
17.3826088
20
232.7270483
40
1.4827147
50
0.006083
51
0.0789681
0
ARC
8
DEFAULT_255_2_778
10
17.5604187
20
232.7272022
40
1.3049047
50
315.0308293
51
0.0001529
0
ARC
8
DEFAULT_255_2_778
10
17.5609377
20
232.7269521
40
1.3043608
50
270.000667
51
315.0224921
0
LINE
8
DEFAULT_255_2_778
10
17.5609529
20
231.4225914
11
17.5598221
21
231.4225919
0
ARC
8
DEFAULT_255_2_778
10
17.5640812
20
232.7254112
40
0.7580313
50
269.6780691
51
315.5292436
0
ARC
8
DEFAULT_255_2_778
10
17.5610107
20
232.7246878
40
0.7597205
50
315.7303962
51
0.2857903
0
ARC
8
DEFAULT_255_2_778
10
17.8487376
20
232.7289382
40
0.4719845
50
359.944048
51
0.0186519
0
ARC
8
DEFAULT_255_2_778
10
17.5687772
20
232.7279605
40
0.7519457
50
0.086204
51
85.4319233
0
ARC
8
DEFAULT_255_2_778
10
17.5599609
20
232.6855338
40
0.7949581
50
85.0420495
51
90.0100075
0
ARC
8
DEFAULT_255_2_778
10
17.5579396
20
232.7422519
40
0.7382424
50
89.8538973
51
89.9999976
0
ARC
8
DEFAULT_255_2_778
10
17.558077
20
232.7293044
40
0.7511899
50
90.01048
51
134.9443097
0
ARC
8
DEFAULT_255_2_778
10
17.5582947
20
232.7291222
40
0.7514726
50
134.9462486
51
180.0023145
0
ARC
8
DEFAULT_255_2_778
10
17.5708624
20
232.7251875
40
0.7640503
50
179.7072119
51
222.5790813
0
ARC
8
DEFAULT_255_2_778
10
17.5579296
20
232.7141475
40
0.7470579
50
222.6267201
51
270.1451401
0
ARC
8
DEFAULT_255_2_778
10
9.564442
20
232.7070858
40
1.2841942
50
233.3100129
51
270.0348017
0
ARC
8
DEFAULT_255_2_778
10
9.5765133
20
232.7274622
40
1.3077482
50
187.7860459
51
233.4193197
0
ARC
8
DEFAULT_255_2_778
10
9.5947588
20
232.7290185
40
1.3260368
50
179.9838663
51
187.7458681
0
ARC
8
DEFAULT_255_2_778
10
9.5535129
20
232.7294961
40
1.2847909
50
143.1940819
51
180.0046489
0
ARC
8
DEFAULT_255_2_778
10
9.5683078
20
232.7248006
40
1.2994598
50
94.9233187
51
143.4191345
0
ARC
8
DEFAULT_255_2_778
10
9.5651008
20
232.725512
40
1.2984798
50
89.9946509
51
94.7850278
0
ARC
8
DEFAULT_255_2_778
10
9.5673902
20
232.7193441
40
1.3046496
50
58.1428905
51
90.0952196
0
ARC
8
DEFAULT_255_2_778
10
9.5758177
20
232.7254453
40
1.2950254
50
3.2656058
51
58.3171105
0
ARC
8
DEFAULT_255_2_778
10
9.5763693
20
232.7294485
40
1.2942527
50
359.997494
51
3.0900664
0
ARC
8
DEFAULT_255_2_778
10
9.5936718
20
232.7272448
40
1.276952
50
359.9949307
51
0.0963391
0
ARC
8
DEFAULT_255_2_778
10
9.5663093
20
232.7272585
40
1.3043147
50
315.0200668
51
359.994431
0
ARC
8
DEFAULT_255_2_778
10
9.5663338
20
232.72702
40
1.3041287
50
270.0008363
51
315.026719
0
LINE
8
DEFAULT_255_2_778
10
9.5663529
20
231.4228914
11
9.5652221
21
231.4228919
0
ARC
8
DEFAULT_255_2_778
10
9.5694412
20
232.7254135
40
0.7580334
50
269.6810953
51
315.6152252
0
ARC
8
DEFAULT_255_2_778
10
9.5663839
20
232.7247381
40
0.7597504
50
315.8129036
51
0.3254485
0
ARC
8
DEFAULT_255_2_778
10
9.5738176
20
232.7276565
40
0.7523058
50
0.1093155
51
85.7820321
0
ARC
8
DEFAULT_255_2_778
10
9.5653381
20
232.6861263
40
0.7943655
50
85.3923987
51
90.0083732
0
ARC
8
DEFAULT_255_2_778
10
9.5633385
20
232.7413348
40
0.7391595
50
89.8539942
51
89.9999859
0
ARC
8
DEFAULT_255_2_778
10
9.563405
20
232.7294783
40
0.7510159
50
90.0050654
51
134.9497993
0
ARC
8
DEFAULT_255_2_778
10
9.5632746
20
232.7292963
40
0.7510526
50
134.9329452
51
180.0155944
0
ARC
8
DEFAULT_255_2_778
10
9.5762945
20
232.7251612
40
0.7640826
50
179.7052536
51
222.5741919
0
ARC
8
DEFAULT_255_2_778
10
9.5632805
20
232.7141163
40
0.7470269
50
222.6256588
51
270.1489141
0
LINE
8
DEFAULT_255_2_778
10
14.0768221
20
233.9451919
11
14.0768221
21
231.4823919
0
LINE
8
DEFAULT_255_2_778
10
14.0768221
20
231.4823919
11
14.6203221
21
231.4823919
0
LINE
8
DEFAULT_255_2_778
10
14.6203221
20
231.4823919
11
14.6203221
21
233.4897919
0
LINE
8
DEFAULT_255_2_778
10
14.6203221
20
233.4897919
11
15.2632221
21
233.4897919
0
LINE
8
DEFAULT_255_2_778
10
15.2632221
20
232.7290919
11
14.7986221
21
232.7290919
0
LINE
8
DEFAULT_255_2_778
10
14.7986221
20
232.7290919
11
15.6397221
21
231.4820919
0
LINE
8
DEFAULT_255_2_778
10
15.6397221
20
231.4820919
11
16.3126221
21
231.4820919
0
LINE
8
DEFAULT_255_2_778
10
16.3126221
20
231.4820919
11
15.6993221
21
232.3824919
0
LINE
8
DEFAULT_255_2_778
10
15.3421221
20
233.9657919
11
14.6200221
21
233.9657919
0
LINE
8
DEFAULT_255_2_778
10
14.6200221
20
233.9657919
11
14.0766221
21
233.9451919
0
LINE
8
DEFAULT_255_2_778
10
14.0766221
20
233.9451919
11
14.0768221
21
233.9451919
0
LINE
8
DEFAULT_255_2_778
10
19.0142221
20
233.9451919
11
19.0142221
21
231.4823919
0
LINE
8
DEFAULT_255_2_778
10
19.0142221
20
231.4823919
11
19.5577221
21
231.4823919
0
LINE
8
DEFAULT_255_2_778
10
19.5577221
20
231.4823919
11
19.5577221
21
233.4897919
0
LINE
8
DEFAULT_255_2_778
10
19.5577221
20
233.4897919
11
20.1723221
21
233.4897919
0
LINE
8
DEFAULT_255_2_778
10
20.5578221
20
233.1145919
11
20.5578221
21
231.4823919
0
LINE
8
DEFAULT_255_2_778
10
20.5578221
20
231.4823919
11
21.1013221
21
231.4823919
0
LINE
8
DEFAULT_255_2_778
10
21.1013221
20
231.4823919
11
21.1013221
21
233.0952919
0
LINE
8
DEFAULT_255_2_778
10
20.2305221
20
233.9657919
11
19.5577221
21
233.9657919
0
LINE
8
DEFAULT_255_2_778
10
19.5577221
20
233.9657919
11
19.0142221
21
233.9451919
0
LINE
8
DEFAULT_255_2_778
10
19.0142221
20
233.9451919
11
19.0142221
21
233.9451919
0
LINE
8
DEFAULT_255_2_778
10
11.0196221
20
233.9451919
11
11.0196221
21
231.4823919
0
LINE
8
DEFAULT_255_2_778
10
11.0196221
20
231.4823919
11
11.5628221
21
231.4823919
0
LINE
8
DEFAULT_255_2_778
10
11.5628221
20
231.4823919
11
11.5628221
21
233.4897919
0
LINE
8
DEFAULT_255_2_778
10
11.5628221
20
233.4897919
11
12.1671221
21
233.4897919
0
LINE
8
DEFAULT_255_2_778
10
12.1671221
20
233.4897919
11
12.1671221
21
231.4823919
0
LINE
8
DEFAULT_255_2_778
10
12.1671221
20
231.4823919
11
12.7105221
21
231.4823919
0
LINE
8
DEFAULT_255_2_778
10
12.7105221
20
231.4823919
11
12.7105221
21
233.4897919
0
LINE
8
DEFAULT_255_2_778
10
12.7105221
20
233.4897919
11
12.9188221
21
233.4897919
0
LINE
8
DEFAULT_255_2_778
10
13.3042221
20
233.1145919
11
13.3042221
21
231.4823919
0
LINE
8
DEFAULT_255_2_778
10
13.3042221
20
231.4823919
11
13.8490221
21
231.4823919
0
LINE
8
DEFAULT_255_2_778
10
13.8490221
20
231.4823919
11
13.8490221
21
233.0952919
0
LINE
8
DEFAULT_255_2_778
10
12.9783221
20
233.9657919
11
11.5731221
21
233.9657919
0
LINE
8
DEFAULT_255_2_778
10
11.5731221
20
233.9657919
11
11.0193221
21
233.9451919
0
LINE
8
DEFAULT_255_2_778
10
11.0193221
20
233.9451919
11
11.0196221
21
233.9451919
0
LINE
8
DEFAULT_255_2_778
10
17.5598221
20
231.4225919
11
17.5598221
21
231.4228919
0
LINE
8
DEFAULT_255_2_778
10
9.5652221
20
231.4228919
11
9.5652221
21
231.4228919
0
LINE
8
DEFAULT_255_1_234
10
12.760123
20
229.2457663
11
12.9151355
21
229.2457663
0
LINE
8
DEFAULT_255_1_234
10
12.0147777
20
229.4047947
11
12.0147777
21
229.5172391
0
LINE
8
DEFAULT_255_1_234
10
12.9151355
20
229.6682357
11
12.760123
21
229.6682357
0
LINE
8
DEFAULT_255_1_234
10
12.1697902
20
229.5132232
11
12.1697902
21
229.3999757
0
ARC
8
DEFAULT_255_1_234
10
12.3670742
20
229.3054846
40
0.5513052
50
340.1774281
51
353.7814284
0
ARC
8
DEFAULT_255_1_234
10
12.5242095
20
229.2469582
40
0.3836379
50
311.4558989
51
340.4421614
0
ARC
8
DEFAULT_255_1_234
10
12.5208763
20
229.2580528
40
0.3941894
50
282.4333181
51
310.7513653
0
ARC
8
DEFAULT_255_1_234
10
12.4769502
20
229.4395679
40
0.5809175
50
269.9358511
51
282.809604
0
ARC
8
DEFAULT_255_1_234
10
12.4717568
20
229.5853212
40
0.7266847
50
270.0021091
51
270.3581957
0
ARC
8
DEFAULT_255_1_234
10
12.4664985
20
229.3252585
40
0.4666519
50
250.7884749
51
270.6489167
0
ARC
8
DEFAULT_255_1_234
10
12.449682
20
229.2615319
40
0.4009729
50
219.3627325
51
250.0611886
0
ARC
8
DEFAULT_255_1_234
10
12.5326031
20
229.3320042
40
0.5097822
50
193.5479632
51
219.5756669
0
ARC
8
DEFAULT_255_1_234
10
12.7697652
20
229.3935919
40
0.7547848
50
181.1218675
51
193.87563
0
ARC
8
DEFAULT_255_1_234
10
12.9767833
20
229.404658
40
0.9620055
50
179.9918545
51
181.5394234
0
ARC
8
DEFAULT_255_1_234
10
12.7916935
20
229.5209788
40
0.7769248
50
169.5837241
51
180.2757934
0
ARC
8
DEFAULT_255_1_234
10
12.6079873
20
229.5549229
40
0.590109
50
155.0365899
51
169.6003176
0
ARC
8
DEFAULT_255_1_234
10
12.4944337
20
229.6096677
40
0.4640625
50
136.783148
51
155.2472683
0
ARC
8
DEFAULT_255_1_234
10
12.4554814
20
229.6427562
40
0.4130255
50
121.7633186
51
136.428115
0
ARC
8
DEFAULT_255_1_234
10
12.4689776
20
229.6178227
40
0.4413323
50
95.6459699
51
121.5490577
0
ARC
8
DEFAULT_255_1_234
10
12.4847058
20
229.5069949
40
0.55319
50
89.924208
51
96.1377933
0
ARC
8
DEFAULT_255_1_234
10
12.4897491
20
229.5188542
40
0.5413475
50
76.6779277
51
90.4563316
0
ARC
8
DEFAULT_255_1_234
10
12.5291114
20
229.6779114
40
0.3775041
50
47.485847
51
76.9287264
0
ARC
8
DEFAULT_255_1_234
10
12.5144087
20
229.6679159
40
0.3948286
50
16.5424086
51
46.8933463
0
ARC
8
DEFAULT_255_1_234
10
12.3536244
20
229.6150861
40
0.564021
50
5.4072051
51
17.0365086
0
ARC
8
DEFAULT_255_1_234
10
12.2097261
20
229.5919679
40
0.5556559
50
7.8891745
51
15.9239216
0
ARC
8
DEFAULT_255_1_234
10
12.4084274
20
229.6496631
40
0.3487515
50
15.7653144
51
27.9410532
0
ARC
8
DEFAULT_255_1_234
10
12.5188492
20
229.708779
40
0.2235026
50
27.8166557
51
46.4008329
0
ARC
8
DEFAULT_255_1_234
10
12.5238135
20
229.7082082
40
0.2205286
50
47.4371857
51
75.0698205
0
ARC
8
DEFAULT_255_1_234
10
12.4929529
20
229.6007765
40
0.3322915
50
74.7008593
51
87.8124495
0
ARC
8
DEFAULT_255_1_234
10
12.4856217
20
229.4951844
40
0.4380987
50
87.3814673
51
90.0240855
0
ARC
8
DEFAULT_255_1_234
10
12.481776
20
229.6129291
40
0.3203749
50
89.3451631
51
108.5745436
0
ARC
8
DEFAULT_255_1_234
10
12.4680865
20
229.6642908
40
0.2673494
50
109.2998449
51
143.3037509
0
ARC
8
DEFAULT_255_1_234
10
12.5442938
20
229.6056881
40
0.3634757
50
143.0753173
51
163.1916937
0
ARC
8
DEFAULT_255_1_234
10
12.7394666
20
229.5440967
40
0.5681262
50
162.9373603
51
174.6208611
0
ARC
8
DEFAULT_255_1_234
10
13.0020708
20
229.515301
40
0.8322832
50
174.3419979
51
180.1430411
0
ARC
8
DEFAULT_255_1_234
10
12.9089864
20
229.3958698
40
0.7392076
50
179.6817502
51
189.150529
0
ARC
8
DEFAULT_255_1_234
10
12.6589112
20
229.354219
40
0.4856932
50
188.9910863
51
203.5773039
0
ARC
8
DEFAULT_255_1_234
10
12.5509445
20
229.3094211
40
0.3688271
50
203.9077269
51
215.1312379
0
ARC
8
DEFAULT_255_1_234
10
12.4586539
20
229.2378941
40
0.2522457
50
213.9071664
51
263.8849284
0
ARC
8
DEFAULT_255_1_234
10
12.4711868
20
229.3163518
40
0.3316174
50
263.1758525
51
270.1031083
0
ARC
8
DEFAULT_255_1_234
10
12.474396
20
229.4410365
40
0.4563091
50
269.6719807
51
279.0609165
0
ARC
8
DEFAULT_255_1_234
10
12.5010728
20
229.2797907
40
0.2928759
50
278.8750225
51
293.6346586
0
ARC
8
DEFAULT_255_1_234
10
12.5330936
20
229.20459
40
0.2111472
50
293.8553404
51
310.0518804
0
ARC
8
DEFAULT_255_1_234
10
12.533579
20
229.1983516
40
0.2060917
50
311.0646779
51
332.0108348
0
ARC
8
DEFAULT_255_1_234
10
12.4143517
20
229.2640978
40
0.3422352
50
331.6588543
51
343.2878891
0
ARC
8
DEFAULT_255_1_234
10
12.2081032
20
229.3274798
40
0.5580003
50
343.1446044
51
351.010618
0
ARC
8
DEFAULT_255_1_234
10
12.0539678
20
229.3555871
40
0.7146438
50
350.7157277
51
351.1602153
0
LINE
8
DEFAULT_255_1_234
10
13.8371791
20
228.8747
11
13.4227414
21
229.4184487
0
LINE
8
DEFAULT_255_1_234
10
13.4227414
20
229.4184487
11
13.2797765
21
229.2698615
0
LINE
8
DEFAULT_255_1_234
10
13.2797765
20
229.2698615
11
13.2797765
21
228.8747
0
LINE
8
DEFAULT_255_1_234
10
13.2797765
20
228.8747
11
13.1255671
21
228.8747
0
LINE
8
DEFAULT_255_1_234
10
13.1255671
20
228.8747
11
13.1255671
21
230.0441211
0
LINE
8
DEFAULT_255_1_234
10
13.1255671
20
230.0441211
11
13.2797765
21
230.0441211
0
LINE
8
DEFAULT_255_1_234
10
13.2797765
20
230.0441211
11
13.2797765
21
229.4658359
0
LINE
8
DEFAULT_255_1_234
10
13.2797765
20
229.4658359
11
13.7994299
21
230.0441211
0
LINE
8
DEFAULT_255_1_234
10
13.7994299
20
230.0441211
11
13.9857663
21
230.0441211
0
LINE
8
DEFAULT_255_1_234
10
13.9857663
20
230.0441211
11
13.5255477
21
229.5276803
0
LINE
8
DEFAULT_255_1_234
10
13.5255477
20
229.5276803
11
14.0219091
21
228.8747
0
LINE
8
DEFAULT_255_1_234
10
14.0219091
20
228.8747
11
13.8371791
21
228.8747
0
LINE
8
DEFAULT_255_1_234
10
14.3343437
20
229.4104169
11
14.3343437
21
229.5316962
0
LINE
8
DEFAULT_255_1_234
10
14.3343437
20
229.5316962
11
14.4459849
21
229.5316962
0
LINE
8
DEFAULT_255_1_234
10
14.2556327
20
229.7373087
11
14.1070455
21
229.7373087
0
LINE
8
DEFAULT_255_1_234
10
14.0966042
20
229.1831188
11
14.2459946
21
229.1831188
0
LINE
8
DEFAULT_255_1_234
10
14.4459849
20
229.4104169
11
14.3343437
21
229.4104169
0
ARC
8
DEFAULT_255_1_234
10
14.4430715
20
229.8709713
40
0.3392876
50
270.4919872
51
281.8951556
0
ARC
8
DEFAULT_255_1_234
10
14.4671977
20
229.7607702
40
0.2264817
50
281.6691735
51
301.2943132
0
ARC
8
DEFAULT_255_1_234
10
14.4842187
20
229.7296304
40
0.1910381
50
301.7833094
51
311.7545298
0
ARC
8
DEFAULT_255_1_234
10
14.4933763
20
229.7194748
40
0.1773635
50
311.7323931
51
354.2802411
0
ARC
8
DEFAULT_255_1_234
10
14.4207388
20
229.7319722
40
0.2509385
50
353.0937916
51
0.1181479
0
ARC
8
DEFAULT_255_1_234
10
14.3746173
20
229.7367386
40
0.2970898
50
359.1805295
51
15.0453146
0
ARC
8
DEFAULT_255_1_234
10
14.509201
20
229.7759992
40
0.1569564
50
13.9577229
51
77.6713066
0
ARC
8
DEFAULT_255_1_234
10
14.4705539
20
229.6374949
40
0.3006298
50
76.1116566
51
90.7026153
0
ARC
8
DEFAULT_255_1_234
10
14.4646377
20
229.6648545
40
0.2732568
50
89.5324876
51
103.531937
0
ARC
8
DEFAULT_255_1_234
10
14.4445822
20
229.7447884
40
0.1908508
50
103.2931773
51
133.5619022
0
ARC
8
DEFAULT_255_1_234
10
14.440131
20
229.7507375
40
0.1834746
50
133.8349307
51
173.5344437
0
ARC
8
DEFAULT_255_1_234
10
14.5124353
20
229.7379213
40
0.2568033
50
172.5096846
51
180.1366907
0
ARC
8
DEFAULT_255_1_234
10
14.4173247
20
229.7413622
40
0.3103056
50
155.3484492
51
180.7484736
0
ARC
8
DEFAULT_255_1_234
10
14.4124336
20
229.7384846
40
0.3070957
50
131.5744599
51
154.4798489
0
ARC
8
DEFAULT_255_1_234
10
14.4437483
20
229.706831
40
0.3515643
50
96.9875458
51
131.9690667
0
ARC
8
DEFAULT_255_1_234
10
14.4656963
20
229.5822636
40
0.4779224
50
89.8596053
51
97.7825159
0
ARC
8
DEFAULT_255_1_234
10
14.4705026
20
229.5560616
40
0.5041361
50
78.3655447
51
90.4131539
0
ARC
8
DEFAULT_255_1_234
10
14.5062944
20
229.7219887
40
0.3344039
50
56.6229102
51
78.638727
0
ARC
8
DEFAULT_255_1_234
10
14.5277888
20
229.7595805
40
0.2912001
50
47.0253525
51
56.0854072
0
ARC
8
DEFAULT_255_1_234
10
14.5297668
20
229.7635223
40
0.2869704
50
10.9208013
51
46.7778124
0
ARC
8
DEFAULT_255_1_234
10
14.3933734
20
229.7319857
40
0.426899
50
359.6364486
51
11.6087304
0
ARC
8
DEFAULT_255_1_234
10
14.5768578
20
229.7304752
40
0.243409
50
332.3549906
51
359.7179418
0
ARC
8
DEFAULT_255_1_234
10
14.511818
20
229.7613142
40
0.3153459
50
325.2333722
51
332.8745602
0
ARC
8
DEFAULT_255_1_234
10
14.5270804
20
229.7506828
40
0.2967456
50
292.9802137
51
325.2392345
0
ARC
8
DEFAULT_255_1_234
10
14.4996178
20
229.8040863
40
0.3566604
50
292.5402179
51
293.6924929
0
ARC
8
DEFAULT_255_1_234
10
14.5388773
20
229.1586091
40
0.3307468
50
57.6435486
51
72.8625112
0
ARC
8
DEFAULT_255_1_234
10
14.5743273
20
229.2160549
40
0.2632492
50
36.7248896
51
57.4697979
0
ARC
8
DEFAULT_255_1_234
10
14.5731906
20
229.217322
40
0.2634081
50
8.0545065
51
36.356114
0
ARC
8
DEFAULT_255_1_234
10
14.4869091
20
229.2018174
40
0.3510261
50
359.8320645
51
8.5869982
0
ARC
8
DEFAULT_255_1_234
10
14.4493867
20
229.1970101
40
0.3885653
50
343.9829931
51
0.5571613
0
ARC
8
DEFAULT_255_1_234
10
14.5380064
20
229.1727438
40
0.2966924
50
311.6359546
51
343.7651759
0
ARC
8
DEFAULT_255_1_234
10
14.5001634
20
229.2154102
40
0.3537231
50
279.7829875
51
311.6255694
0
ARC
8
DEFAULT_255_1_234
10
14.470041
20
229.359128
40
0.5004971
50
269.7286406
51
280.3856417
0
ARC
8
DEFAULT_255_1_234
10
14.4638482
20
229.3549996
40
0.4963778
50
256.6828919
51
270.4412052
0
ARC
8
DEFAULT_255_1_234
10
14.4299778
20
229.2165394
40
0.3538406
50
229.4223008
51
256.8556159
0
ARC
8
DEFAULT_255_1_234
10
14.3885171
20
229.1698736
40
0.2914296
50
181.818294
51
229.6455059
0
ARC
8
DEFAULT_255_1_234
10
14.4925127
20
229.1829496
40
0.3959084
50
179.9755256
51
183.2323064
0
ARC
8
DEFAULT_255_1_234
10
14.4752873
20
229.1809037
40
0.2293034
50
179.4465117
51
196.2869258
0
ARC
8
DEFAULT_255_1_234
10
14.4265281
20
229.1675651
40
0.1787621
50
196.5661473
51
227.705904
0
ARC
8
DEFAULT_255_1_234
10
14.4429376
20
229.1859155
40
0.2033784
50
227.7652068
51
257.8762805
0
ARC
8
DEFAULT_255_1_234
10
14.4654346
20
229.2802156
40
0.3003081
50
257.4584385
51
270.426602
0
ARC
8
DEFAULT_255_1_234
10
14.4699912
20
229.3091996
40
0.329292
50
269.5962073
51
280.8789248
0
ARC
8
DEFAULT_255_1_234
10
14.4929441
20
229.1945685
40
0.2123908
50
280.6346389
51
299.8595945
0
ARC
8
DEFAULT_255_1_234
10
14.5120348
20
229.1583212
40
0.171457
50
300.3576302
51
314.5517981
0
ARC
8
DEFAULT_255_1_234
10
14.5037408
20
229.1643919
40
0.1816095
50
315.0728369
51
345.0431014
0
ARC
8
DEFAULT_255_1_234
10
14.4114222
20
229.1912841
40
0.2777492
50
344.5986631
51
357.9269593
0
ARC
8
DEFAULT_255_1_234
10
14.3218549
20
229.1974276
40
0.3674917
50
357.4748886
51
0.0231117
0
ARC
8
DEFAULT_255_1_234
10
14.4241658
20
229.1998679
40
0.2651907
50
359.5047933
51
13.4239635
0
ARC
8
DEFAULT_255_1_234
10
14.5108302
20
229.2220478
40
0.1757509
50
12.9498199
51
48.7551375
0
ARC
8
DEFAULT_255_1_234
10
14.4926035
20
229.19714
40
0.2065134
50
49.5088623
51
72.1836453
0
ARC
8
DEFAULT_255_1_234
10
14.4568188
20
229.0909291
40
0.3185836
50
71.9010081
51
84.3554254
0
ARC
8
DEFAULT_255_1_234
10
14.440682
20
228.9548326
40
0.4556151
50
84.0193428
51
89.333121
0
LINE
8
DEFAULT_255_1_234
10
15.1479588
20
230.0441211
11
15.3326888
21
229.2433568
0
LINE
8
DEFAULT_255_1_234
10
15.3326888
20
229.2433568
11
15.3551776
21
229.0891474
0
LINE
8
DEFAULT_255_1_234
10
15.3551776
20
229.0891474
11
15.3881078
21
229.2280965
0
LINE
8
DEFAULT_255_1_234
10
15.3881078
20
229.2280965
11
15.6194218
21
230.0441211
0
LINE
8
DEFAULT_255_1_234
10
15.6194218
20
230.0441211
11
15.749536
21
230.0441211
0
LINE
8
DEFAULT_255_1_234
10
15.749536
20
230.0441211
11
15.9752278
21
229.2280965
0
LINE
8
DEFAULT_255_1_234
10
15.9752278
20
229.2280965
11
16.0073548
21
229.0867379
0
LINE
8
DEFAULT_255_1_234
10
16.0073548
20
229.0867379
11
16.0322532
21
229.24416
0
LINE
8
DEFAULT_255_1_234
10
16.0322532
20
229.24416
11
16.2137705
21
230.0441211
0
LINE
8
DEFAULT_255_1_234
10
16.2137705
20
230.0441211
11
16.368783
21
230.0441211
0
LINE
8
DEFAULT_255_1_234
10
16.368783
20
230.0441211
11
16.0852626
21
228.8747
0
LINE
8
DEFAULT_255_1_234
10
16.0852626
20
228.8747
11
15.9447072
21
228.8747
0
LINE
8
DEFAULT_255_1_234
10
15.9447072
20
228.8747
11
15.7037551
21
229.7268674
0
LINE
8
DEFAULT_255_1_234
10
15.7037551
20
229.7268674
11
15.6852821
21
229.8160197
0
LINE
8
DEFAULT_255_1_234
10
15.6852821
20
229.8160197
11
15.6668091
21
229.7268674
0
LINE
8
DEFAULT_255_1_234
10
15.6668091
20
229.7268674
11
15.417022
21
228.8747
0
LINE
8
DEFAULT_255_1_234
10
15.417022
20
228.8747
11
15.2764666
21
228.8747
0
LINE
8
DEFAULT_255_1_234
10
15.2764666
20
228.8747
11
14.9937494
21
230.0441211
0
LINE
8
DEFAULT_255_1_234
10
14.9937494
20
230.0441211
11
15.1479588
21
230.0441211
0
LINE
8
DEFAULT_255_2_778
10
19.9765417
20
219.4718483
11
18.6536417
21
219.4718483
0
LINE
8
DEFAULT_255_2_778
10
18.6536417
20
219.4718483
11
18.6536417
21
162.5864483
0
LINE
8
DEFAULT_255_2_778
10
18.6536417
20
157.2947483
11
18.6536417
21
100.4093483
0
LINE
8
DEFAULT_255_2_778
10
18.6536417
20
100.4093483
11
19.9765417
21
100.4093483
0
LINE
8
DEFAULT_255_2_778
10
17.3307834
20
162.5864333
11
19.9765834
21
162.5864333
0
LINE
8
DEFAULT_255_2_778
10
19.9765834
20
162.5864333
11
19.9765834
21
157.2947333
0
LINE
8
DEFAULT_255_2_778
10
19.9765834
20
157.2947333
11
17.3307834
21
157.2947333
0
LINE
8
DEFAULT_255_2_778
10
17.3307834
20
157.2947333
11
17.3307834
21
162.5864333
0
LINE
8
DEFAULT_255_2_778
10
18.1245
20
157.8239666
11
18.1245
21
162.0572666
0
LINE
8
DEFAULT_255_2_778
10
17.8599167
20
161.263575
11
18.1245167
21
162.057275
0
LINE
8
DEFAULT_255_2_778
10
18.1245167
20
162.057275
11
18.3891167
21
161.263575
0
LINE
8
DEFAULT_255_2_778
10
18.3891167
20
161.263575
11
17.8599167
21
161.263575
0
LINE
8
DEFAULT_255_2_778
10
19.1828
20
162.0572666
11
19.1828
21
157.8239666
0
LINE
8
DEFAULT_255_2_778
10
18.9182167
20
158.617675
11
19.1828167
21
157.823975
0
LINE
8
DEFAULT_255_2_778
10
19.1828167
20
157.823975
11
19.4474167
21
158.617675
0
LINE
8
DEFAULT_255_2_778
10
19.4474167
20
158.617675
11
18.9182167
21
158.617675
0
LINE
8
DEFAULT_255_2_778
10
9.3932417
20
219.4718483
11
10.7161417
21
219.4718483
0
LINE
8
DEFAULT_255_2_778
10
10.7161417
20
219.4718483
11
10.7161417
21
162.5864483
0
LINE
8
DEFAULT_255_2_778
10
10.7161417
20
157.2947483
11
10.7161417
21
100.4093483
0
LINE
8
DEFAULT_255_2_778
10
10.7161417
20
100.4093483
11
9.3932417
21
100.4093483
0
LINE
8
DEFAULT_255_2_778
10
9.3932834
20
162.5864333
11
12.0390834
21
162.5864333
0
LINE
8
DEFAULT_255_2_778
10
12.0390834
20
162.5864333
11
12.0390834
21
157.2947333
0
LINE
8
DEFAULT_255_2_778
10
12.0390834
20
157.2947333
11
9.3932834
21
157.2947333
0
LINE
8
DEFAULT_255_2_778
10
9.3932834
20
157.2947333
11
9.3932834
21
162.5864333
0
LINE
8
DEFAULT_255_2_778
10
10.187
20
157.8239666
11
10.187
21
162.0572666
0
LINE
8
DEFAULT_255_2_778
10
9.9224167
20
161.263575
11
10.1870167
21
162.057275
0
LINE
8
DEFAULT_255_2_778
10
10.1870167
20
162.057275
11
10.4516167
21
161.263575
0
LINE
8
DEFAULT_255_2_778
10
10.4516167
20
161.263575
11
9.9224167
21
161.263575
0
LINE
8
DEFAULT_255_2_778
10
11.2453
20
162.0572666
11
11.2453
21
157.8239666
0
LINE
8
DEFAULT_255_2_778
10
10.9807167
20
158.617675
11
11.2453167
21
157.823975
0
LINE
8
DEFAULT_255_2_778
10
11.2453167
20
157.823975
11
11.5099167
21
158.617675
0
LINE
8
DEFAULT_255_2_778
10
11.5099167
20
158.617675
11
10.9807167
21
158.617675
0
LINE
8
DEFAULT_255_1_234
10
4.9274119
20
227.0116792
11
4.9274119
21
226.8904
0
LINE
8
DEFAULT_255_1_234
10
4.9274119
20
226.8904
11
4.161184
21
226.8904
0
LINE
8
DEFAULT_255_1_234
10
4.161184
20
226.8904
11
4.161184
21
226.9972221
0
LINE
8
DEFAULT_255_1_234
10
4.161184
20
226.9972221
11
4.5659836
21
227.4469995
0
LINE
8
DEFAULT_255_1_234
10
4.2872823
20
227.7152595
11
4.1386952
21
227.7152595
0
LINE
8
DEFAULT_255_1_234
10
4.6535296
20
227.3514218
11
4.3402918
21
227.0116792
0
LINE
8
DEFAULT_255_1_234
10
4.3402918
20
227.0116792
11
4.9274119
21
227.0116792
0
ARC
8
DEFAULT_255_1_234
10
3.216967
20
228.6399527
40
1.8008286
50
318.5132453
51
320.7828378
0
ARC
8
DEFAULT_255_1_234
10
3.7456644
20
228.2096426
40
1.1191493
50
320.7372736
51
323.9737074
0
ARC
8
DEFAULT_255_1_234
10
4.1376501
20
227.9256361
40
0.6350923
50
323.8961724
51
328.6421089
0
ARC
8
DEFAULT_255_1_234
10
4.3423096
20
227.7994031
40
0.3946393
50
328.8299013
51
331.789948
0
ARC
8
DEFAULT_255_1_234
10
4.4420274
20
227.7479509
40
0.2824501
50
331.4255242
51
352.9364833
0
ARC
8
DEFAULT_255_1_234
10
4.4556775
20
227.7448976
40
0.2685315
50
353.2248685
51
0.0169286
0
ARC
8
DEFAULT_255_1_234
10
4.4766652
20
227.747195
40
0.2475536
50
359.4866256
51
15.9339782
0
ARC
8
DEFAULT_255_1_234
10
4.5273637
20
227.7608286
40
0.1950618
50
16.1714718
51
43.5284424
0
ARC
8
DEFAULT_255_1_234
10
4.5350946
20
227.7685573
40
0.184134
50
43.4415429
51
83.1661404
0
ARC
8
DEFAULT_255_1_234
10
4.5216864
20
227.6948771
40
0.258926
50
82.160215
51
90.1505798
0
ARC
8
DEFAULT_255_1_234
10
4.5185291
20
227.6411865
40
0.3126255
50
89.5460705
51
102.5418777
0
ARC
8
DEFAULT_255_1_234
10
4.4942377
20
227.7442665
40
0.2067346
50
102.1739365
51
129.2061916
0
ARC
8
DEFAULT_255_1_234
10
4.4863449
20
227.7567094
40
0.1921118
50
129.7279328
51
135.7542026
0
ARC
8
DEFAULT_255_1_234
10
4.4984977
20
227.7470045
40
0.2075944
50
136.175737
51
166.3674722
0
ARC
8
DEFAULT_255_1_234
10
4.5991896
20
227.7200182
40
0.3118201
50
165.9092917
51
178.8683903
0
ARC
8
DEFAULT_255_1_234
10
4.6856757
20
227.7153179
40
0.3983935
50
178.438168
51
180.0083905
0
ARC
8
DEFAULT_255_1_234
10
4.5455359
20
227.7192231
40
0.4068601
50
163.2878735
51
180.5581814
0
ARC
8
DEFAULT_255_1_234
10
4.4653621
20
227.741284
40
0.3237344
50
133.454115
51
162.9470031
0
ARC
8
DEFAULT_255_1_234
10
4.4832162
20
227.7223
40
0.349795
50
100.7869394
51
133.4384016
0
ARC
8
DEFAULT_255_1_234
10
4.5179934
20
227.5674319
40
0.5084616
50
89.6605301
51
101.3704185
0
ARC
8
DEFAULT_255_1_234
10
4.5246273
20
227.5735496
40
0.502348
50
78.2171172
51
90.4130393
0
ARC
8
DEFAULT_255_1_234
10
4.5601351
20
227.7359637
40
0.3361092
50
55.9268222
51
78.4888551
0
ARC
8
DEFAULT_255_1_234
10
4.5797791
20
227.7698324
40
0.2970617
50
47.9292255
51
55.4054003
0
ARC
8
DEFAULT_255_1_234
10
4.5899352
20
227.7801502
40
0.2825983
50
4.3347696
51
48.0560701
0
ARC
8
DEFAULT_255_1_234
10
4.4803745
20
227.7631601
40
0.393225
50
359.925209
51
5.5967654
0
ARC
8
DEFAULT_255_1_234
10
4.5232637
20
227.7687816
40
0.3503892
50
337.8914096
51
358.9967724
0
ARC
8
DEFAULT_255_1_234
10
4.2519049
20
227.8734706
40
0.6412172
50
326.9135351
51
338.3505194
0
ARC
8
DEFAULT_255_1_234
10
3.8533353
20
228.1289284
40
1.1146189
50
319.6472867
51
327.095818
0
ARC
8
DEFAULT_255_1_234
10
3.4700356
20
228.4451
40
1.6114559
50
317.2586784
51
319.9046139
0
LINE
8
DEFAULT_255_1_234
10
5.7121127
20
228.0598211
11
5.7121127
21
227.283152
0
LINE
8
DEFAULT_255_1_234
10
5.7121127
20
227.283152
11
5.8743538
21
227.283152
0
LINE
8
DEFAULT_255_1_234
10
5.8743538
20
227.283152
11
5.8743538
21
227.1618728
0
LINE
8
DEFAULT_255_1_234
10
5.8743538
20
227.1618728
11
5.7121127
21
227.1618728
0
LINE
8
DEFAULT_255_1_234
10
5.7121127
20
227.1618728
11
5.7121127
21
226.8904
0
LINE
8
DEFAULT_255_1_234
10
5.7121127
20
226.8904
11
5.5627224
21
226.8904
0
LINE
8
DEFAULT_255_1_234
10
5.5627224
20
226.8904
11
5.5627224
21
227.1618728
0
LINE
8
DEFAULT_255_1_234
10
5.5627224
20
227.1618728
11
5.0302181
21
227.1618728
0
LINE
8
DEFAULT_255_1_234
10
5.0302181
20
227.1618728
11
5.0302181
21
227.2494187
0
LINE
8
DEFAULT_255_1_234
10
5.0302181
20
227.2494187
11
5.5538875
21
228.0598211
0
LINE
8
DEFAULT_255_1_234
10
5.5538875
20
228.0598211
11
5.7121127
21
228.0598211
0
LINE
8
DEFAULT_255_1_234
10
5.5450525
20
227.8244912
11
5.1988846
21
227.283152
0
LINE
8
DEFAULT_255_1_234
10
5.1988846
20
227.283152
11
5.5627224
21
227.283152
0
LINE
8
DEFAULT_255_1_234
10
5.5627224
20
227.283152
11
5.5627224
21
227.8566181
0
LINE
8
DEFAULT_255_1_234
10
5.5627224
20
227.8566181
11
5.5450525
21
227.8244912
0
LINE
8
DEFAULT_255_1_234
10
6.101652
20
228.0598211
11
6.434166
21
227.0952093
0
LINE
8
DEFAULT_255_1_234
10
6.434166
20
227.0952093
11
6.7682863
21
228.0598211
0
LINE
8
DEFAULT_255_1_234
10
6.7682863
20
228.0598211
11
6.9369528
21
228.0598211
0
LINE
8
DEFAULT_255_1_234
10
6.9369528
20
228.0598211
11
6.5032389
21
226.8904
0
LINE
8
DEFAULT_255_1_234
10
6.5032389
20
226.8904
11
6.3666994
21
226.8904
0
LINE
8
DEFAULT_255_1_234
10
6.3666994
20
226.8904
11
5.9337887
21
228.0598211
0
LINE
8
DEFAULT_255_1_234
10
5.9337887
20
228.0598211
11
6.101652
21
228.0598211
0
LINE
8
DEFAULT_255_1_234
10
5.2342293
20
4.6404
11
5.1225881
21
4.9456061
0
LINE
8
DEFAULT_255_1_234
10
5.1225881
20
4.9456061
11
4.6326521
21
4.9456061
0
LINE
8
DEFAULT_255_1_234
10
4.6326521
20
4.9456061
11
4.5226173
21
4.6404
0
LINE
8
DEFAULT_255_1_234
10
4.5226173
20
4.6404
11
4.3635889
21
4.6404
0
LINE
8
DEFAULT_255_1_234
10
4.3635889
20
4.6404
11
4.8101535
21
5.8098211
0
LINE
8
DEFAULT_255_1_234
10
4.8101535
20
5.8098211
11
4.9450867
21
5.8098211
0
LINE
8
DEFAULT_255_1_234
10
4.9450867
20
5.8098211
11
5.3924545
21
4.6404
0
LINE
8
DEFAULT_255_1_234
10
5.3924545
20
4.6404
11
5.2342293
21
4.6404
0
LINE
8
DEFAULT_255_1_234
10
4.8776201
20
5.6194689
11
4.6792362
21
5.0725075
0
LINE
8
DEFAULT_255_1_234
10
4.6792362
20
5.0725075
11
5.0768072
21
5.0725075
0
LINE
8
DEFAULT_255_1_234
10
5.0768072
20
5.0725075
11
4.8776201
21
5.6194689
0
LINE
8
DEFAULT_255_1_234
10
5.5498766
20
5.8098211
11
5.7490637
21
5.8098211
0
LINE
8
DEFAULT_255_1_234
10
5.7490637
20
5.8098211
11
6.1313745
21
4.8556506
0
LINE
8
DEFAULT_255_1_234
10
6.1313745
20
4.8556506
11
6.5136852
21
5.8098211
0
LINE
8
DEFAULT_255_1_234
10
6.5136852
20
5.8098211
11
6.7136755
21
5.8098211
0
LINE
8
DEFAULT_255_1_234
10
6.7136755
20
5.8098211
11
6.7136755
21
4.6404
0
LINE
8
DEFAULT_255_1_234
10
6.7136755
20
4.6404
11
6.5594661
21
4.6404
0
LINE
8
DEFAULT_255_1_234
10
6.5594661
20
4.6404
11
6.5594661
21
5.0957996
0
LINE
8
DEFAULT_255_1_234
10
6.5594661
20
5.0957996
11
6.5739232
21
5.5873419
0
LINE
8
DEFAULT_255_1_234
10
6.5739232
20
5.5873419
11
6.1900062
21
4.6404
0
LINE
8
DEFAULT_255_1_234
10
6.1900062
20
4.6404
11
6.0719396
21
4.6404
0
LINE
8
DEFAULT_255_1_234
10
6.0719396
20
4.6404
11
5.6888257
21
5.5849324
0
LINE
8
DEFAULT_255_1_234
10
5.6888257
20
5.5849324
11
5.704086
21
5.0957996
0
LINE
8
DEFAULT_255_1_234
10
5.704086
20
5.0957996
11
5.704086
21
4.6404
0
LINE
8
DEFAULT_255_1_234
10
5.704086
20
4.6404
11
5.5498766
21
4.6404
0
LINE
8
DEFAULT_255_1_234
10
5.5498766
20
4.6404
11
5.5498766
21
5.8098211
0
LINE
8
DEFAULT_255_1_234
10
7.4156494
20
5.0982091
11
7.1401608
21
5.0982091
0
LINE
8
DEFAULT_255_1_234
10
7.1401608
20
5.0982091
11
7.1401608
21
4.6404
0
LINE
8
DEFAULT_255_1_234
10
7.1401608
20
4.6404
11
6.9859514
21
4.6404
0
LINE
8
DEFAULT_255_1_234
10
6.9859514
20
4.6404
11
6.9859514
21
5.8098211
0
LINE
8
DEFAULT_255_1_234
10
6.9859514
20
5.8098211
11
7.4172558
21
5.8098211
0
LINE
8
DEFAULT_255_1_234
10
7.1401608
20
5.6829196
11
7.1401608
21
5.2243074
0
LINE
8
DEFAULT_255_1_234
10
7.1401608
20
5.2243074
11
7.4172558
21
5.2243074
0
LINE
8
DEFAULT_255_1_234
10
7.4260907
20
5.6829196
11
7.1401608
21
5.6829196
0
ARC
8
DEFAULT_255_1_234
10
7.4214684
20
5.2039195
40
0.6059162
50
78.8378113
51
90.3983573
0
ARC
8
DEFAULT_255_1_234
10
7.4630698
20
5.4059879
40
0.3996205
50
58.9632738
51
79.0810598
0
ARC
8
DEFAULT_255_1_234
10
7.493224
20
5.4619721
40
0.3361177
50
48.0197965
51
58.447194
0
ARC
8
DEFAULT_255_1_234
10
7.5021101
20
5.4705225
40
0.3238191
50
3.3375044
51
48.1766626
0
ARC
8
DEFAULT_255_1_234
10
7.3790941
20
5.4528171
40
0.4477806
50
359.9477528
51
4.6829065
0
ARC
8
DEFAULT_255_1_234
10
7.3914258
20
5.4485628
40
0.4354656
50
346.1877825
51
0.5060252
0
ARC
8
DEFAULT_255_1_234
10
7.5273125
20
5.4132731
40
0.295089
50
310.8831995
51
346.5426355
0
ARC
8
DEFAULT_255_1_234
10
7.4964545
20
5.4549695
40
0.3468331
50
286.6925341
51
310.2288297
0
ARC
8
DEFAULT_255_1_234
10
7.4395376
20
5.6339882
40
0.5346654
50
274.6850312
51
287.0245141
0
ARC
8
DEFAULT_255_1_234
10
7.4170099
20
5.8548932
40
0.7566852
50
269.8969846
51
275.018904
0
ARC
8
DEFAULT_255_1_234
10
7.419769
20
5.6469707
40
0.4226708
50
269.6593078
51
279.4153575
0
ARC
8
DEFAULT_255_1_234
10
7.4454966
20
5.4979133
40
0.2714146
50
279.2049762
51
294.9900808
0
ARC
8
DEFAULT_255_1_234
10
7.4745291
20
5.4331508
40
0.2004525
50
295.2888114
51
311.2911209
0
ARC
8
DEFAULT_255_1_234
10
7.4816186
20
5.422622
40
0.1878703
50
311.7854996
51
347.2861051
0
ARC
8
DEFAULT_255_1_234
10
7.3832344
20
5.4479092
40
0.2894234
50
346.6893224
51
0.1059443
0
ARC
8
DEFAULT_255_1_234
10
7.3077239
20
5.4507685
40
0.3649409
50
359.6350983
51
0.0053152
0
ARC
8
DEFAULT_255_1_234
10
7.4047568
20
5.4532937
40
0.2679199
50
359.4672059
51
15.5933957
0
ARC
8
DEFAULT_255_1_234
10
7.4672456
20
5.4701779
40
0.2031932
50
15.7442113
51
46.6203375
0
ARC
8
DEFAULT_255_1_234
10
7.4524677
20
5.4531484
40
0.2257226
50
46.8628658
51
75.6676503
0
ARC
8
DEFAULT_255_1_234
10
7.4230498
20
5.3472718
40
0.3355939
50
75.276167
51
88.2915297
0
ARC
8
DEFAULT_255_1_234
10
7.4172204
20
5.2594524
40
0.4235602
50
87.8575022
51
88.8000139
0
LINE
8
DEFAULT_255_1_234
10
8.6123784
20
5.8098211
11
8.6123784
21
5.033152
0
LINE
8
DEFAULT_255_1_234
10
8.6123784
20
5.033152
11
8.7746195
21
5.033152
0
LINE
8
DEFAULT_255_1_234
10
8.7746195
20
5.033152
11
8.7746195
21
4.9118728
0
LINE
8
DEFAULT_255_1_234
10
8.7746195
20
4.9118728
11
8.6123784
21
4.9118728
0
LINE
8
DEFAULT_255_1_234
10
8.6123784
20
4.9118728
11
8.6123784
21
4.6404
0
LINE
8
DEFAULT_255_1_234
10
8.6123784
20
4.6404
11
8.4629881
21
4.6404
0
LINE
8
DEFAULT_255_1_234
10
8.4629881
20
4.6404
11
8.4629881
21
4.9118728
0
LINE
8
DEFAULT_255_1_234
10
8.4629881
20
4.9118728
11
7.9304838
21
4.9118728
0
LINE
8
DEFAULT_255_1_234
10
7.9304838
20
4.9118728
11
7.9304838
21
4.9994187
0
LINE
8
DEFAULT_255_1_234
10
7.9304838
20
4.9994187
11
8.4541532
21
5.8098211
0
LINE
8
DEFAULT_255_1_234
10
8.4541532
20
5.8098211
11
8.6123784
21
5.8098211
0
LINE
8
DEFAULT_255_1_234
10
8.4453183
20
5.5744912
11
8.0991503
21
5.033152
0
LINE
8
DEFAULT_255_1_234
10
8.0991503
20
5.033152
11
8.4629881
21
5.033152
0
LINE
8
DEFAULT_255_1_234
10
8.4629881
20
5.033152
11
8.4629881
21
5.6066181
0
LINE
8
DEFAULT_255_1_234
10
8.4629881
20
5.6066181
11
8.4453183
21
5.5744912
0
LINE
8
DEFAULT_255_1_234
10
5.1284293
20
12.5779
11
5.0167881
21
12.8831061
0
LINE
8
DEFAULT_255_1_234
10
5.0167881
20
12.8831061
11
4.5268521
21
12.8831061
0
LINE
8
DEFAULT_255_1_234
10
4.5268521
20
12.8831061
11
4.4168173
21
12.5779
0
LINE
8
DEFAULT_255_1_234
10
4.4168173
20
12.5779
11
4.2577889
21
12.5779
0
LINE
8
DEFAULT_255_1_234
10
4.2577889
20
12.5779
11
4.7043535
21
13.7473211
0
LINE
8
DEFAULT_255_1_234
10
4.7043535
20
13.7473211
11
4.8392867
21
13.7473211
0
LINE
8
DEFAULT_255_1_234
10
4.8392867
20
13.7473211
11
5.2866545
21
12.5779
0
LINE
8
DEFAULT_255_1_234
10
5.2866545
20
12.5779
11
5.1284293
21
12.5779
0
LINE
8
DEFAULT_255_1_234
10
4.7718201
20
13.5569689
11
4.5734362
21
13.0100075
0
LINE
8
DEFAULT_255_1_234
10
4.5734362
20
13.0100075
11
4.9710072
21
13.0100075
0
LINE
8
DEFAULT_255_1_234
10
4.9710072
20
13.0100075
11
4.7718201
21
13.5569689
0
LINE
8
DEFAULT_255_1_234
10
5.4440766
20
13.7473211
11
5.6432637
21
13.7473211
0
LINE
8
DEFAULT_255_1_234
10
5.6432637
20
13.7473211
11
6.0255745
21
12.7931506
0
LINE
8
DEFAULT_255_1_234
10
6.0255745
20
12.7931506
11
6.4078852
21
13.7473211
0
LINE
8
DEFAULT_255_1_234
10
6.4078852
20
13.7473211
11
6.6078755
21
13.7473211
0
LINE
8
DEFAULT_255_1_234
10
6.6078755
20
13.7473211
11
6.6078755
21
12.5779
0
LINE
8
DEFAULT_255_1_234
10
6.6078755
20
12.5779
11
6.4536661
21
12.5779
0
LINE
8
DEFAULT_255_1_234
10
6.4536661
20
12.5779
11
6.4536661
21
13.0332996
0
LINE
8
DEFAULT_255_1_234
10
6.4536661
20
13.0332996
11
6.4681232
21
13.5248419
0
LINE
8
DEFAULT_255_1_234
10
6.4681232
20
13.5248419
11
6.0842062
21
12.5779
0
LINE
8
DEFAULT_255_1_234
10
6.0842062
20
12.5779
11
5.9661396
21
12.5779
0
LINE
8
DEFAULT_255_1_234
10
5.9661396
20
12.5779
11
5.5830257
21
13.5224324
0
LINE
8
DEFAULT_255_1_234
10
5.5830257
20
13.5224324
11
5.598286
21
13.0332996
0
LINE
8
DEFAULT_255_1_234
10
5.598286
20
13.0332996
11
5.598286
21
12.5779
0
LINE
8
DEFAULT_255_1_234
10
5.598286
20
12.5779
11
5.4440766
21
12.5779
0
LINE
8
DEFAULT_255_1_234
10
5.4440766
20
12.5779
11
5.4440766
21
13.7473211
0
LINE
8
DEFAULT_255_1_234
10
7.3098494
20
13.0357091
11
7.0343608
21
13.0357091
0
LINE
8
DEFAULT_255_1_234
10
7.0343608
20
13.0357091
11
7.0343608
21
12.5779
0
LINE
8
DEFAULT_255_1_234
10
7.0343608
20
12.5779
11
6.8801514
21
12.5779
0
LINE
8
DEFAULT_255_1_234
10
6.8801514
20
12.5779
11
6.8801514
21
13.7473211
0
LINE
8
DEFAULT_255_1_234
10
6.8801514
20
13.7473211
11
7.3114558
21
13.7473211
0
LINE
8
DEFAULT_255_1_234
10
7.0343608
20
13.6204196
11
7.0343608
21
13.1618074
0
LINE
8
DEFAULT_255_1_234
10
7.0343608
20
13.1618074
11
7.3114558
21
13.1618074
0
LINE
8
DEFAULT_255_1_234
10
7.3202907
20
13.6204196
11
7.0343608
21
13.6204196
0
ARC
8
DEFAULT_255_1_234
10
7.3156684
20
13.1414195
40
0.6059162
50
78.8378113
51
90.3983573
0
ARC
8
DEFAULT_255_1_234
10
7.3572698
20
13.3434879
40
0.3996205
50
58.9632738
51
79.0810598
0
ARC
8
DEFAULT_255_1_234
10
7.387424
20
13.3994721
40
0.3361177
50
48.0197965
51
58.447194
0
ARC
8
DEFAULT_255_1_234
10
7.3963101
20
13.4080225
40
0.3238191
50
3.3375044
51
48.1766626
0
ARC
8
DEFAULT_255_1_234
10
7.2732941
20
13.3903171
40
0.4477806
50
359.9477528
51
4.6829065
0
ARC
8
DEFAULT_255_1_234
10
7.2856258
20
13.3860628
40
0.4354656
50
346.1877825
51
0.5060252
0
ARC
8
DEFAULT_255_1_234
10
7.4215125
20
13.3507731
40
0.295089
50
310.8831995
51
346.5426355
0
ARC
8
DEFAULT_255_1_234
10
7.3906545
20
13.3924695
40
0.3468331
50
286.6925341
51
310.2288297
0
ARC
8
DEFAULT_255_1_234
10
7.3337376
20
13.5714882
40
0.5346654
50
274.6850312
51
287.0245141
0
ARC
8
DEFAULT_255_1_234
10
7.3112099
20
13.7923932
40
0.7566852
50
269.8969846
51
275.018904
0
ARC
8
DEFAULT_255_1_234
10
7.313969
20
13.5844707
40
0.4226708
50
269.6593078
51
279.4153575
0
ARC
8
DEFAULT_255_1_234
10
7.3396966
20
13.4354133
40
0.2714146
50
279.2049762
51
294.9900808
0
ARC
8
DEFAULT_255_1_234
10
7.3687291
20
13.3706508
40
0.2004525
50
295.2888114
51
311.2911209
0
ARC
8
DEFAULT_255_1_234
10
7.3758186
20
13.360122
40
0.1878703
50
311.7854996
51
347.2861051
0
ARC
8
DEFAULT_255_1_234
10
7.2774344
20
13.3854092
40
0.2894234
50
346.6893224
51
0.1059443
0
ARC
8
DEFAULT_255_1_234
10
7.2019239
20
13.3882685
40
0.3649409
50
359.6350983
51
0.0053152
0
ARC
8
DEFAULT_255_1_234
10
7.2989568
20
13.3907937
40
0.2679199
50
359.4672059
51
15.5933957
0
ARC
8
DEFAULT_255_1_234
10
7.3614456
20
13.4076779
40
0.2031932
50
15.7442113
51
46.6203375
0
ARC
8
DEFAULT_255_1_234
10
7.3466677
20
13.3906484
40
0.2257226
50
46.8628658
51
75.6676503
0
ARC
8
DEFAULT_255_1_234
10
7.3172498
20
13.2847718
40
0.3355939
50
75.276167
51
88.2915297
0
ARC
8
DEFAULT_255_1_234
10
7.3114204
20
13.1969524
40
0.4235602
50
87.8575022
51
88.8000139
0
LINE
8
DEFAULT_255_1_234
10
8.0953534
20
13.1136169
11
8.0953534
21
13.2348962
0
LINE
8
DEFAULT_255_1_234
10
8.0953534
20
13.2348962
11
8.2069946
21
13.2348962
0
LINE
8
DEFAULT_255_1_234
10
8.0166424
20
13.4405087
11
7.8680552
21
13.4405087
0
LINE
8
DEFAULT_255_1_234
10
7.857614
20
12.8863188
11
8.0070043
21
12.8863188
0
LINE
8
DEFAULT_255_1_234
10
8.2069946
20
13.1136169
11
8.0953534
21
13.1136169
0
ARC
8
DEFAULT_255_1_234
10
8.2040812
20
13.5741713
40
0.3392876
50
270.4919872
51
281.8951556
0
ARC
8
DEFAULT_255_1_234
10
8.2282074
20
13.4639702
40
0.2264817
50
281.6691735
51
301.2943132
0
ARC
8
DEFAULT_255_1_234
10
8.2452284
20
13.4328304
40
0.1910381
50
301.7833094
51
311.7545298
0
ARC
8
DEFAULT_255_1_234
10
8.254386
20
13.4226748
40
0.1773635
50
311.7323931
51
354.2802411
0
ARC
8
DEFAULT_255_1_234
10
8.1817485
20
13.4351722
40
0.2509385
50
353.0937916
51
0.1181479
0
ARC
8
DEFAULT_255_1_234
10
8.135627
20
13.4399386
40
0.2970898
50
359.1805295
51
15.0453146
0
ARC
8
DEFAULT_255_1_234
10
8.2702107
20
13.4791992
40
0.1569564
50
13.9577229
51
77.6713066
0
ARC
8
DEFAULT_255_1_234
10
8.2315636
20
13.3406949
40
0.3006298
50
76.1116566
51
90.7026153
0
ARC
8
DEFAULT_255_1_234
10
8.2256475
20
13.3680545
40
0.2732568
50
89.5324876
51
103.531937
0
ARC
8
DEFAULT_255_1_234
10
8.2055919
20
13.4479884
40
0.1908508
50
103.2931773
51
133.5619022
0
ARC
8
DEFAULT_255_1_234
10
8.2011407
20
13.4539375
40
0.1834746
50
133.8349307
51
173.5344437
0
ARC
8
DEFAULT_255_1_234
10
8.273445
20
13.4411213
40
0.2568033
50
172.5096846
51
180.1366907
0
ARC
8
DEFAULT_255_1_234
10
8.1783344
20
13.4445622
40
0.3103056
50
155.3484492
51
180.7484736
0
ARC
8
DEFAULT_255_1_234
10
8.1734433
20
13.4416846
40
0.3070957
50
131.5744599
51
154.4798489
0
ARC
8
DEFAULT_255_1_234
10
8.204758
20
13.410031
40
0.3515643
50
96.9875458
51
131.9690667
0
ARC
8
DEFAULT_255_1_234
10
8.226706
20
13.2854636
40
0.4779224
50
89.8596053
51
97.7825159
0
ARC
8
DEFAULT_255_1_234
10
8.2315123
20
13.2592616
40
0.5041361
50
78.3655447
51
90.4131539
0
ARC
8
DEFAULT_255_1_234
10
8.2673041
20
13.4251887
40
0.3344039
50
56.6229102
51
78.638727
0
ARC
8
DEFAULT_255_1_234
10
8.2887985
20
13.4627805
40
0.2912001
50
47.0253525
51
56.0854072
0
ARC
8
DEFAULT_255_1_234
10
8.2907765
20
13.4667223
40
0.2869704
50
10.9208013
51
46.7778124
0
ARC
8
DEFAULT_255_1_234
10
8.1543832
20
13.4351857
40
0.426899
50
359.6364486
51
11.6087304
0
ARC
8
DEFAULT_255_1_234
10
8.3378676
20
13.4336752
40
0.243409
50
332.3549906
51
359.7179418
0
ARC
8
DEFAULT_255_1_234
10
8.2728277
20
13.4645142
40
0.3153459
50
325.2333722
51
332.8745602
0
ARC
8
DEFAULT_255_1_234
10
8.2880901
20
13.4538828
40
0.2967456
50
292.9802137
51
325.2392345
0
ARC
8
DEFAULT_255_1_234
10
8.2606275
20
13.5072863
40
0.3566604
50
292.5402179
51
293.6924929
0
ARC
8
DEFAULT_255_1_234
10
8.2998871
20
12.8618091
40
0.3307468
50
57.6435486
51
72.8625112
0
ARC
8
DEFAULT_255_1_234
10
8.335337
20
12.9192549
40
0.2632492
50
36.7248896
51
57.4697979
0
ARC
8
DEFAULT_255_1_234
10
8.3342003
20
12.920522
40
0.2634081
50
8.0545065
51
36.356114
0
ARC
8
DEFAULT_255_1_234
10
8.2479188
20
12.9050174
40
0.3510261
50
359.8320645
51
8.5869982
0
ARC
8
DEFAULT_255_1_234
10
8.2103964
20
12.9002101
40
0.3885653
50
343.9829931
51
0.5571613
0
ARC
8
DEFAULT_255_1_234
10
8.2990162
20
12.8759438
40
0.2966924
50
311.6359546
51
343.7651759
0
ARC
8
DEFAULT_255_1_234
10
8.2611731
20
12.9186102
40
0.3537231
50
279.7829875
51
311.6255694
0
ARC
8
DEFAULT_255_1_234
10
8.2310507
20
13.062328
40
0.5004971
50
269.7286406
51
280.3856417
0
ARC
8
DEFAULT_255_1_234
10
8.224858
20
13.0581996
40
0.4963778
50
256.6828919
51
270.4412052
0
ARC
8
DEFAULT_255_1_234
10
8.1909875
20
12.9197394
40
0.3538406
50
229.4223008
51
256.8556159
0
ARC
8
DEFAULT_255_1_234
10
8.1495268
20
12.8730736
40
0.2914296
50
181.818294
51
229.6455059
0
ARC
8
DEFAULT_255_1_234
10
8.2535224
20
12.8861496
40
0.3959084
50
179.9755256
51
183.2323064
0
ARC
8
DEFAULT_255_1_234
10
8.236297
20
12.8841037
40
0.2293034
50
179.4465117
51
196.2869258
0
ARC
8
DEFAULT_255_1_234
10
8.1875378
20
12.8707651
40
0.1787621
50
196.5661473
51
227.705904
0
ARC
8
DEFAULT_255_1_234
10
8.2039473
20
12.8891155
40
0.2033784
50
227.7652068
51
257.8762805
0
ARC
8
DEFAULT_255_1_234
10
8.2264443
20
12.9834156
40
0.3003081
50
257.4584385
51
270.426602
0
ARC
8
DEFAULT_255_1_234
10
8.2310009
20
13.0123996
40
0.329292
50
269.5962073
51
280.8789248
0
ARC
8
DEFAULT_255_1_234
10
8.2539538
20
12.8977685
40
0.2123908
50
280.6346389
51
299.8595945
0
ARC
8
DEFAULT_255_1_234
10
8.2730445
20
12.8615212
40
0.171457
50
300.3576302
51
314.5517981
0
ARC
8
DEFAULT_255_1_234
10
8.2647505
20
12.8675919
40
0.1816095
50
315.0728369
51
345.0431014
0
ARC
8
DEFAULT_255_1_234
10
8.1724319
20
12.8944841
40
0.2777492
50
344.5986631
51
357.9269593
0
ARC
8
DEFAULT_255_1_234
10
8.0828646
20
12.9006276
40
0.3674917
50
357.4748886
51
0.0231117
0
ARC
8
DEFAULT_255_1_234
10
8.1851755
20
12.9030679
40
0.2651907
50
359.5047933
51
13.4239635
0
ARC
8
DEFAULT_255_1_234
10
8.2718399
20
12.9252478
40
0.1757509
50
12.9498199
51
48.7551375
0
ARC
8
DEFAULT_255_1_234
10
8.2536133
20
12.90034
40
0.2065134
50
49.5088623
51
72.1836453
0
ARC
8
DEFAULT_255_1_234
10
8.2178285
20
12.7941291
40
0.3185836
50
71.9010081
51
84.3554254
0
ARC
8
DEFAULT_255_1_234
10
8.2016917
20
12.6580326
40
0.4556151
50
84.0193428
51
89.333121
0
LINE
8
DEFAULT_255_1_234
10
5.1284293
20
20.5154
11
5.0167881
21
20.8206061
0
LINE
8
DEFAULT_255_1_234
10
5.0167881
20
20.8206061
11
4.5268521
21
20.8206061
0
LINE
8
DEFAULT_255_1_234
10
4.5268521
20
20.8206061
11
4.4168173
21
20.5154
0
LINE
8
DEFAULT_255_1_234
10
4.4168173
20
20.5154
11
4.2577889
21
20.5154
0
LINE
8
DEFAULT_255_1_234
10
4.2577889
20
20.5154
11
4.7043535
21
21.6848211
0
LINE
8
DEFAULT_255_1_234
10
4.7043535
20
21.6848211
11
4.8392867
21
21.6848211
0
LINE
8
DEFAULT_255_1_234
10
4.8392867
20
21.6848211
11
5.2866545
21
20.5154
0
LINE
8
DEFAULT_255_1_234
10
5.2866545
20
20.5154
11
5.1284293
21
20.5154
0
LINE
8
DEFAULT_255_1_234
10
4.7718201
20
21.4944689
11
4.5734362
21
20.9475075
0
LINE
8
DEFAULT_255_1_234
10
4.5734362
20
20.9475075
11
4.9710072
21
20.9475075
0
LINE
8
DEFAULT_255_1_234
10
4.9710072
20
20.9475075
11
4.7718201
21
21.4944689
0
LINE
8
DEFAULT_255_1_234
10
5.4440766
20
21.6848211
11
5.6432637
21
21.6848211
0
LINE
8
DEFAULT_255_1_234
10
5.6432637
20
21.6848211
11
6.0255745
21
20.7306506
0
LINE
8
DEFAULT_255_1_234
10
6.0255745
20
20.7306506
11
6.4078852
21
21.6848211
0
LINE
8
DEFAULT_255_1_234
10
6.4078852
20
21.6848211
11
6.6078755
21
21.6848211
0
LINE
8
DEFAULT_255_1_234
10
6.6078755
20
21.6848211
11
6.6078755
21
20.5154
0
LINE
8
DEFAULT_255_1_234
10
6.6078755
20
20.5154
11
6.4536661
21
20.5154
0
LINE
8
DEFAULT_255_1_234
10
6.4536661
20
20.5154
11
6.4536661
21
20.9707996
0
LINE
8
DEFAULT_255_1_234
10
6.4536661
20
20.9707996
11
6.4681232
21
21.4623419
0
LINE
8
DEFAULT_255_1_234
10
6.4681232
20
21.4623419
11
6.0842062
21
20.5154
0
LINE
8
DEFAULT_255_1_234
10
6.0842062
20
20.5154
11
5.9661396
21
20.5154
0
LINE
8
DEFAULT_255_1_234
10
5.9661396
20
20.5154
11
5.5830257
21
21.4599324
0
LINE
8
DEFAULT_255_1_234
10
5.5830257
20
21.4599324
11
5.598286
21
20.9707996
0
LINE
8
DEFAULT_255_1_234
10
5.598286
20
20.9707996
11
5.598286
21
20.5154
0
LINE
8
DEFAULT_255_1_234
10
5.598286
20
20.5154
11
5.4440766
21
20.5154
0
LINE
8
DEFAULT_255_1_234
10
5.4440766
20
20.5154
11
5.4440766
21
21.6848211
0
LINE
8
DEFAULT_255_1_234
10
7.3098494
20
20.9732091
11
7.0343608
21
20.9732091
0
LINE
8
DEFAULT_255_1_234
10
7.0343608
20
20.9732091
11
7.0343608
21
20.5154
0
LINE
8
DEFAULT_255_1_234
10
7.0343608
20
20.5154
11
6.8801514
21
20.5154
0
LINE
8
DEFAULT_255_1_234
10
6.8801514
20
20.5154
11
6.8801514
21
21.6848211
0
LINE
8
DEFAULT_255_1_234
10
6.8801514
20
21.6848211
11
7.3114558
21
21.6848211
0
LINE
8
DEFAULT_255_1_234
10
7.0343608
20
21.5579196
11
7.0343608
21
21.0993074
0
LINE
8
DEFAULT_255_1_234
10
7.0343608
20
21.0993074
11
7.3114558
21
21.0993074
0
LINE
8
DEFAULT_255_1_234
10
7.3202907
20
21.5579196
11
7.0343608
21
21.5579196
0
ARC
8
DEFAULT_255_1_234
10
7.3156684
20
21.0789195
40
0.6059162
50
78.8378113
51
90.3983573
0
ARC
8
DEFAULT_255_1_234
10
7.3572698
20
21.2809879
40
0.3996205
50
58.9632738
51
79.0810598
0
ARC
8
DEFAULT_255_1_234
10
7.387424
20
21.3369721
40
0.3361177
50
48.0197965
51
58.447194
0
ARC
8
DEFAULT_255_1_234
10
7.3963101
20
21.3455225
40
0.3238191
50
3.3375044
51
48.1766626
0
ARC
8
DEFAULT_255_1_234
10
7.2732941
20
21.3278171
40
0.4477806
50
359.9477528
51
4.6829065
0
ARC
8
DEFAULT_255_1_234
10
7.2856258
20
21.3235628
40
0.4354656
50
346.1877825
51
0.5060252
0
ARC
8
DEFAULT_255_1_234
10
7.4215125
20
21.2882731
40
0.295089
50
310.8831995
51
346.5426355
0
ARC
8
DEFAULT_255_1_234
10
7.3906545
20
21.3299695
40
0.3468331
50
286.6925341
51
310.2288297
0
ARC
8
DEFAULT_255_1_234
10
7.3337376
20
21.5089882
40
0.5346654
50
274.6850312
51
287.0245141
0
ARC
8
DEFAULT_255_1_234
10
7.3112099
20
21.7298932
40
0.7566852
50
269.8969846
51
275.018904
0
ARC
8
DEFAULT_255_1_234
10
7.313969
20
21.5219707
40
0.4226708
50
269.6593078
51
279.4153575
0
ARC
8
DEFAULT_255_1_234
10
7.3396966
20
21.3729133
40
0.2714146
50
279.2049762
51
294.9900808
0
ARC
8
DEFAULT_255_1_234
10
7.3687291
20
21.3081508
40
0.2004525
50
295.2888114
51
311.2911209
0
ARC
8
DEFAULT_255_1_234
10
7.3758186
20
21.297622
40
0.1878703
50
311.7854996
51
347.2861051
0
ARC
8
DEFAULT_255_1_234
10
7.2774344
20
21.3229092
40
0.2894234
50
346.6893224
51
0.1059443
0
ARC
8
DEFAULT_255_1_234
10
7.2019239
20
21.3257685
40
0.3649409
50
359.6350983
51
0.0053152
0
ARC
8
DEFAULT_255_1_234
10
7.2989568
20
21.3282937
40
0.2679199
50
359.4672059
51
15.5933957
0
ARC
8
DEFAULT_255_1_234
10
7.3614456
20
21.3451779
40
0.2031932
50
15.7442113
51
46.6203375
0
ARC
8
DEFAULT_255_1_234
10
7.3466677
20
21.3281484
40
0.2257226
50
46.8628658
51
75.6676503
0
ARC
8
DEFAULT_255_1_234
10
7.3172498
20
21.2222718
40
0.3355939
50
75.276167
51
88.2915297
0
ARC
8
DEFAULT_255_1_234
10
7.3114204
20
21.1344524
40
0.4235602
50
87.8575022
51
88.8000139
0
LINE
8
DEFAULT_255_1_234
10
8.6455275
20
20.6366792
11
8.6455275
21
20.5154
0
LINE
8
DEFAULT_255_1_234
10
8.6455275
20
20.5154
11
7.8792997
21
20.5154
0
LINE
8
DEFAULT_255_1_234
10
7.8792997
20
20.5154
11
7.8792997
21
20.6222221
0
LINE
8
DEFAULT_255_1_234
10
7.8792997
20
20.6222221
11
8.2840993
21
21.0719995
0
LINE
8
DEFAULT_255_1_234
10
8.0053979
20
21.3402595
11
7.8568108
21
21.3402595
0
LINE
8
DEFAULT_255_1_234
10
8.3716452
20
20.9764218
11
8.0584074
21
20.6366792
0
LINE
8
DEFAULT_255_1_234
10
8.0584074
20
20.6366792
11
8.6455275
21
20.6366792
0
ARC
8
DEFAULT_255_1_234
10
6.9350826
20
22.2649527
40
1.8008286
50
318.5132453
51
320.7828378
0
ARC
8
DEFAULT_255_1_234
10
7.46378
20
21.8346426
40
1.1191493
50
320.7372736
51
323.9737074
0
ARC
8
DEFAULT_255_1_234
10
7.8557657
20
21.5506361
40
0.6350923
50
323.8961724
51
328.6421089
0
ARC
8
DEFAULT_255_1_234
10
8.0604252
20
21.4244031
40
0.3946393
50
328.8299013
51
331.789948
0
ARC
8
DEFAULT_255_1_234
10
8.1601431
20
21.3729509
40
0.2824501
50
331.4255242
51
352.9364833
0
ARC
8
DEFAULT_255_1_234
10
8.1737931
20
21.3698976
40
0.2685315
50
353.2248685
51
0.0169286
0
ARC
8
DEFAULT_255_1_234
10
8.1947808
20
21.372195
40
0.2475536
50
359.4866256
51
15.9339782
0
ARC
8
DEFAULT_255_1_234
10
8.2454794
20
21.3858286
40
0.1950618
50
16.1714718
51
43.5284424
0
ARC
8
DEFAULT_255_1_234
10
8.2532102
20
21.3935573
40
0.184134
50
43.4415429
51
83.1661404
0
ARC
8
DEFAULT_255_1_234
10
8.239802
20
21.3198771
40
0.258926
50
82.160215
51
90.1505798
0
ARC
8
DEFAULT_255_1_234
10
8.2366448
20
21.2661865
40
0.3126255
50
89.5460705
51
102.5418777
0
ARC
8
DEFAULT_255_1_234
10
8.2123534
20
21.3692665
40
0.2067346
50
102.1739365
51
129.2061916
0
ARC
8
DEFAULT_255_1_234
10
8.2044606
20
21.3817094
40
0.1921118
50
129.7279328
51
135.7542026
0
ARC
8
DEFAULT_255_1_234
10
8.2166133
20
21.3720045
40
0.2075944
50
136.175737
51
166.3674722
0
ARC
8
DEFAULT_255_1_234
10
8.3173052
20
21.3450182
40
0.3118201
50
165.9092917
51
178.8683903
0
ARC
8
DEFAULT_255_1_234
10
8.4037914
20
21.3403179
40
0.3983935
50
178.438168
51
180.0083905
0
ARC
8
DEFAULT_255_1_234
10
8.2636516
20
21.3442231
40
0.4068601
50
163.2878735
51
180.5581814
0
ARC
8
DEFAULT_255_1_234
10
8.1834777
20
21.366284
40
0.3237344
50
133.454115
51
162.9470031
0
ARC
8
DEFAULT_255_1_234
10
8.2013319
20
21.3473
40
0.349795
50
100.7869394
51
133.4384016
0
ARC
8
DEFAULT_255_1_234
10
8.236109
20
21.1924319
40
0.5084616
50
89.6605301
51
101.3704185
0
ARC
8
DEFAULT_255_1_234
10
8.2427429
20
21.1985496
40
0.502348
50
78.2171172
51
90.4130393
0
ARC
8
DEFAULT_255_1_234
10
8.2782507
20
21.3609637
40
0.3361092
50
55.9268222
51
78.4888551
0
ARC
8
DEFAULT_255_1_234
10
8.2978947
20
21.3948324
40
0.2970617
50
47.9292255
51
55.4054003
0
ARC
8
DEFAULT_255_1_234
10
8.3080508
20
21.4051502
40
0.2825983
50
4.3347696
51
48.0560701
0
ARC
8
DEFAULT_255_1_234
10
8.1984902
20
21.3881601
40
0.393225
50
359.925209
51
5.5967654
0
ARC
8
DEFAULT_255_1_234
10
8.2413793
20
21.3937816
40
0.3503892
50
337.8914096
51
358.9967724
0
ARC
8
DEFAULT_255_1_234
10
7.9700205
20
21.4984706
40
0.6412172
50
326.9135351
51
338.3505194
0
ARC
8
DEFAULT_255_1_234
10
7.5714509
20
21.7539284
40
1.1146189
50
319.6472867
51
327.095818
0
ARC
8
DEFAULT_255_1_234
10
7.1881512
20
22.0701
40
1.6114559
50
317.2586784
51
319.9046139
0
LINE
8
DEFAULT_255_1_234
10
5.1193293
20
28.4529
11
5.0076881
21
28.7581061
0
LINE
8
DEFAULT_255_1_234
10
5.0076881
20
28.7581061
11
4.5177521
21
28.7581061
0
LINE
8
DEFAULT_255_1_234
10
4.5177521
20
28.7581061
11
4.4077173
21
28.4529
0
LINE
8
DEFAULT_255_1_234
10
4.4077173
20
28.4529
11
4.2486889
21
28.4529
0
LINE
8
DEFAULT_255_1_234
10
4.2486889
20
28.4529
11
4.6952535
21
29.6223211
0
LINE
8
DEFAULT_255_1_234
10
4.6952535
20
29.6223211
11
4.8301867
21
29.6223211
0
LINE
8
DEFAULT_255_1_234
10
4.8301867
20
29.6223211
11
5.2775545
21
28.4529
0
LINE
8
DEFAULT_255_1_234
10
5.2775545
20
28.4529
11
5.1193293
21
28.4529
0
LINE
8
DEFAULT_255_1_234
10
4.7627201
20
29.4319689
11
4.5643362
21
28.8850075
0
LINE
8
DEFAULT_255_1_234
10
4.5643362
20
28.8850075
11
4.9619072
21
28.8850075
0
LINE
8
DEFAULT_255_1_234
10
4.9619072
20
28.8850075
11
4.7627201
21
29.4319689
0
LINE
8
DEFAULT_255_1_234
10
5.4349766
20
29.6223211
11
5.6341637
21
29.6223211
0
LINE
8
DEFAULT_255_1_234
10
5.6341637
20
29.6223211
11
6.0164745
21
28.6681506
0
LINE
8
DEFAULT_255_1_234
10
6.0164745
20
28.6681506
11
6.3987852
21
29.6223211
0
LINE
8
DEFAULT_255_1_234
10
6.3987852
20
29.6223211
11
6.5987755
21
29.6223211
0
LINE
8
DEFAULT_255_1_234
10
6.5987755
20
29.6223211
11
6.5987755
21
28.4529
0
LINE
8
DEFAULT_255_1_234
10
6.5987755
20
28.4529
11
6.4445661
21
28.4529
0
LINE
8
DEFAULT_255_1_234
10
6.4445661
20
28.4529
11
6.4445661
21
28.9082996
0
LINE
8
DEFAULT_255_1_234
10
6.4445661
20
28.9082996
11
6.4590232
21
29.3998419
0
LINE
8
DEFAULT_255_1_234
10
6.4590232
20
29.3998419
11
6.0751062
21
28.4529
0
LINE
8
DEFAULT_255_1_234
10
6.0751062
20
28.4529
11
5.9570396
21
28.4529
0
LINE
8
DEFAULT_255_1_234
10
5.9570396
20
28.4529
11
5.5739257
21
29.3974324
0
LINE
8
DEFAULT_255_1_234
10
5.5739257
20
29.3974324
11
5.589186
21
28.9082996
0
LINE
8
DEFAULT_255_1_234
10
5.589186
20
28.9082996
11
5.589186
21
28.4529
0
LINE
8
DEFAULT_255_1_234
10
5.589186
20
28.4529
11
5.4349766
21
28.4529
0
LINE
8
DEFAULT_255_1_234
10
5.4349766
20
28.4529
11
5.4349766
21
29.6223211
0
LINE
8
DEFAULT_255_1_234
10
7.3007494
20
28.9107091
11
7.0252608
21
28.9107091
0
LINE
8
DEFAULT_255_1_234
10
7.0252608
20
28.9107091
11
7.0252608
21
28.4529
0
LINE
8
DEFAULT_255_1_234
10
7.0252608
20
28.4529
11
6.8710514
21
28.4529
0
LINE
8
DEFAULT_255_1_234
10
6.8710514
20
28.4529
11
6.8710514
21
29.6223211
0
LINE
8
DEFAULT_255_1_234
10
6.8710514
20
29.6223211
11
7.3023558
21
29.6223211
0
LINE
8
DEFAULT_255_1_234
10
7.0252608
20
29.4954196
11
7.0252608
21
29.0368074
0
LINE
8
DEFAULT_255_1_234
10
7.0252608
20
29.0368074
11
7.3023558
21
29.0368074
0
LINE
8
DEFAULT_255_1_234
10
7.3111907
20
29.4954196
11
7.0252608
21
29.4954196
0
ARC
8
DEFAULT_255_1_234
10
7.3065684
20
29.0164195
40
0.6059162
50
78.8378113
51
90.3983573
0
ARC
8
DEFAULT_255_1_234
10
7.3481698
20
29.2184879
40
0.3996205
50
58.9632738
51
79.0810598
0
ARC
8
DEFAULT_255_1_234
10
7.378324
20
29.2744721
40
0.3361177
50
48.0197965
51
58.447194
0
ARC
8
DEFAULT_255_1_234
10
7.3872101
20
29.2830225
40
0.3238191
50
3.3375044
51
48.1766626
0
ARC
8
DEFAULT_255_1_234
10
7.2641941
20
29.2653171
40
0.4477806
50
359.9477528
51
4.6829065
0
ARC
8
DEFAULT_255_1_234
10
7.2765258
20
29.2610628
40
0.4354656
50
346.1877825
51
0.5060252
0
ARC
8
DEFAULT_255_1_234
10
7.4124125
20
29.2257731
40
0.295089
50
310.8831995
51
346.5426355
0
ARC
8
DEFAULT_255_1_234
10
7.3815545
20
29.2674695
40
0.3468331
50
286.6925341
51
310.2288297
0
ARC
8
DEFAULT_255_1_234
10
7.3246376
20
29.4464882
40
0.5346654
50
274.6850312
51
287.0245141
0
ARC
8
DEFAULT_255_1_234
10
7.3021099
20
29.6673932
40
0.7566852
50
269.8969846
51
275.018904
0
ARC
8
DEFAULT_255_1_234
10
7.304869
20
29.4594707
40
0.4226708
50
269.6593078
51
279.4153575
0
ARC
8
DEFAULT_255_1_234
10
7.3305966
20
29.3104133
40
0.2714146
50
279.2049762
51
294.9900808
0
ARC
8
DEFAULT_255_1_234
10
7.3596291
20
29.2456508
40
0.2004525
50
295.2888114
51
311.2911209
0
ARC
8
DEFAULT_255_1_234
10
7.3667186
20
29.235122
40
0.1878703
50
311.7854996
51
347.2861051
0
ARC
8
DEFAULT_255_1_234
10
7.2683344
20
29.2604092
40
0.2894234
50
346.6893224
51
0.1059443
0
ARC
8
DEFAULT_255_1_234
10
7.1928239
20
29.2632685
40
0.3649409
50
359.6350983
51
0.0053152
0
ARC
8
DEFAULT_255_1_234
10
7.2898568
20
29.2657937
40
0.2679199
50
359.4672059
51
15.5933957
0
ARC
8
DEFAULT_255_1_234
10
7.3523456
20
29.2826779
40
0.2031932
50
15.7442113
51
46.6203375
0
ARC
8
DEFAULT_255_1_234
10
7.3375677
20
29.2656484
40
0.2257226
50
46.8628658
51
75.6676503
0
ARC
8
DEFAULT_255_1_234
10
7.3081498
20
29.1597718
40
0.3355939
50
75.276167
51
88.2915297
0
ARC
8
DEFAULT_255_1_234
10
7.3023204
20
29.0719524
40
0.4235602
50
87.8575022
51
88.8000139
0
LINE
8
DEFAULT_255_1_234
10
8.3585293
20
29.6279433
11
8.3585293
21
28.4529
0
LINE
8
DEFAULT_255_1_234
10
8.3585293
20
28.4529
11
8.209139
21
28.4529
0
LINE
8
DEFAULT_255_1_234
10
8.209139
20
28.4529
11
8.209139
21
29.4432133
0
LINE
8
DEFAULT_255_1_234
10
8.209139
20
29.4432133
11
7.9095552
21
29.3331785
0
LINE
8
DEFAULT_255_1_234
10
7.9095552
20
29.3331785
11
7.9095552
21
29.4681117
0
LINE
8
DEFAULT_255_1_234
10
7.9095552
20
29.4681117
11
8.3352373
21
29.6279433
0
LINE
8
DEFAULT_255_1_234
10
8.3352373
20
29.6279433
11
8.3585293
21
29.6279433
0
LINE
8
DEFAULT_255_1_234
10
5.0105484
20
37.0570343
11
5.0105484
21
36.930936
0
LINE
8
DEFAULT_255_1_234
10
5.0105484
20
36.930936
11
4.5037458
21
36.930936
0
LINE
8
DEFAULT_255_1_234
10
4.5037458
20
36.930936
11
4.5037458
21
36.5164983
0
LINE
8
DEFAULT_255_1_234
10
4.5037458
20
36.5164983
11
5.0924722
21
36.5164983
0
LINE
8
DEFAULT_255_1_234
10
5.0924722
20
36.5164983
11
5.0924722
21
36.3904
0
LINE
8
DEFAULT_255_1_234
10
5.0924722
20
36.3904
11
4.3495364
21
36.3904
0
LINE
8
DEFAULT_255_1_234
10
4.3495364
20
36.3904
11
4.3495364
21
37.5598211
0
LINE
8
DEFAULT_255_1_234
10
4.3495364
20
37.5598211
11
5.0844404
21
37.5598211
0
LINE
8
DEFAULT_255_1_234
10
5.0844404
20
37.5598211
11
5.0844404
21
37.4329196
0
LINE
8
DEFAULT_255_1_234
10
5.0844404
20
37.4329196
11
4.5037458
21
37.4329196
0
LINE
8
DEFAULT_255_1_234
10
4.5037458
20
37.4329196
11
4.5037458
21
37.0570343
0
LINE
8
DEFAULT_255_1_234
10
4.5037458
20
37.0570343
11
5.0105484
21
37.0570343
0
LINE
8
DEFAULT_255_1_234
10
6.1831822
20
37.5598211
11
6.1831822
21
36.3904
0
LINE
8
DEFAULT_255_1_234
10
6.1831822
20
36.3904
11
6.0281697
21
36.3904
0
LINE
8
DEFAULT_255_1_234
10
6.0281697
20
36.3904
11
5.4394433
21
37.291561
0
LINE
8
DEFAULT_255_1_234
10
5.4394433
20
37.291561
11
5.4394433
21
36.3904
0
LINE
8
DEFAULT_255_1_234
10
5.4394433
20
36.3904
11
5.2844307
21
36.3904
0
LINE
8
DEFAULT_255_1_234
10
5.2844307
20
36.3904
11
5.2844307
21
37.5598211
0
LINE
8
DEFAULT_255_1_234
10
5.2844307
20
37.5598211
11
5.4394433
21
37.5598211
0
LINE
8
DEFAULT_255_1_234
10
5.4394433
20
37.5598211
11
6.029776
21
36.6546442
0
LINE
8
DEFAULT_255_1_234
10
6.029776
20
36.6546442
11
6.029776
21
37.5598211
0
LINE
8
DEFAULT_255_1_234
10
6.029776
20
37.5598211
11
6.1831822
21
37.5598211
0
LINE
8
DEFAULT_255_1_234
10
7.1622511
20
36.7614663
11
7.3172637
21
36.7614663
0
LINE
8
DEFAULT_255_1_234
10
6.4169058
20
36.9204947
11
6.4169058
21
37.0329391
0
LINE
8
DEFAULT_255_1_234
10
7.3172637
20
37.1839357
11
7.1622511
21
37.1839357
0
LINE
8
DEFAULT_255_1_234
10
6.5719184
20
37.0289232
11
6.5719184
21
36.9156757
0
ARC
8
DEFAULT_255_1_234
10
6.7692024
20
36.8211846
40
0.5513052
50
340.1774281
51
353.7814284
0
ARC
8
DEFAULT_255_1_234
10
6.9263376
20
36.7626582
40
0.3836379
50
311.4558989
51
340.4421614
0
ARC
8
DEFAULT_255_1_234
10
6.9230044
20
36.7737528
40
0.3941894
50
282.4333181
51
310.7513653
0
ARC
8
DEFAULT_255_1_234
10
6.8790784
20
36.9552679
40
0.5809175
50
269.9358511
51
282.809604
0
ARC
8
DEFAULT_255_1_234
10
6.873885
20
37.1010212
40
0.7266847
50
270.0021091
51
270.3581957
0
ARC
8
DEFAULT_255_1_234
10
6.8686267
20
36.8409585
40
0.4666519
50
250.7884749
51
270.6489167
0
ARC
8
DEFAULT_255_1_234
10
6.8518101
20
36.7772319
40
0.4009729
50
219.3627325
51
250.0611886
0
ARC
8
DEFAULT_255_1_234
10
6.9347312
20
36.8477042
40
0.5097822
50
193.5479632
51
219.5756669
0
ARC
8
DEFAULT_255_1_234
10
7.1718933
20
36.9092919
40
0.7547848
50
181.1218675
51
193.87563
0
ARC
8
DEFAULT_255_1_234
10
7.3789114
20
36.920358
40
0.9620055
50
179.9918545
51
181.5394234
0
ARC
8
DEFAULT_255_1_234
10
7.1938216
20
37.0366788
40
0.7769248
50
169.5837241
51
180.2757934
0
ARC
8
DEFAULT_255_1_234
10
7.0101154
20
37.0706229
40
0.590109
50
155.0365899
51
169.6003176
0
ARC
8
DEFAULT_255_1_234
10
6.8965618
20
37.1253677
40
0.4640625
50
136.783148
51
155.2472683
0
ARC
8
DEFAULT_255_1_234
10
6.8576095
20
37.1584562
40
0.4130255
50
121.7633186
51
136.428115
0
ARC
8
DEFAULT_255_1_234
10
6.8711057
20
37.1335227
40
0.4413323
50
95.6459699
51
121.5490577
0
ARC
8
DEFAULT_255_1_234
10
6.8868339
20
37.0226949
40
0.55319
50
89.924208
51
96.1377933
0
ARC
8
DEFAULT_255_1_234
10
6.8918772
20
37.0345542
40
0.5413475
50
76.6779277
51
90.4563316
0
ARC
8
DEFAULT_255_1_234
10
6.9312395
20
37.1936114
40
0.3775041
50
47.485847
51
76.9287264
0
ARC
8
DEFAULT_255_1_234
10
6.9165368
20
37.1836159
40
0.3948286
50
16.5424086
51
46.8933463
0
ARC
8
DEFAULT_255_1_234
10
6.7557525
20
37.1307861
40
0.564021
50
5.4072051
51
17.0365086
0
ARC
8
DEFAULT_255_1_234
10
6.6118542
20
37.1076679
40
0.5556559
50
7.8891745
51
15.9239216
0
ARC
8
DEFAULT_255_1_234
10
6.8105556
20
37.1653631
40
0.3487515
50
15.7653144
51
27.9410532
0
ARC
8
DEFAULT_255_1_234
10
6.9209774
20
37.224479
40
0.2235026
50
27.8166557
51
46.4008329
0
ARC
8
DEFAULT_255_1_234
10
6.9259416
20
37.2239082
40
0.2205286
50
47.4371857
51
75.0698205
0
ARC
8
DEFAULT_255_1_234
10
6.8950811
20
37.1164765
40
0.3322915
50
74.7008593
51
87.8124495
0
ARC
8
DEFAULT_255_1_234
10
6.8877498
20
37.0108844
40
0.4380987
50
87.3814673
51
90.0240855
0
ARC
8
DEFAULT_255_1_234
10
6.8839042
20
37.1286291
40
0.3203749
50
89.3451631
51
108.5745436
0
ARC
8
DEFAULT_255_1_234
10
6.8702147
20
37.1799908
40
0.2673494
50
109.2998449
51
143.3037509
0
ARC
8
DEFAULT_255_1_234
10
6.946422
20
37.1213881
40
0.3634757
50
143.0753173
51
163.1916937
0
ARC
8
DEFAULT_255_1_234
10
7.1415947
20
37.0597967
40
0.5681262
50
162.9373603
51
174.6208611
0
ARC
8
DEFAULT_255_1_234
10
7.4041989
20
37.031001
40
0.8322832
50
174.3419979
51
180.1430411
0
ARC
8
DEFAULT_255_1_234
10
7.3111146
20
36.9115698
40
0.7392076
50
179.6817502
51
189.150529
0
ARC
8
DEFAULT_255_1_234
10
7.0610394
20
36.869919
40
0.4856932
50
188.9910863
51
203.5773039
0
ARC
8
DEFAULT_255_1_234
10
6.9530727
20
36.8251211
40
0.3688271
50
203.9077269
51
215.1312379
0
ARC
8
DEFAULT_255_1_234
10
6.860782
20
36.7535941
40
0.2522457
50
213.9071664
51
263.8849284
0
ARC
8
DEFAULT_255_1_234
10
6.8733149
20
36.8320518
40
0.3316174
50
263.1758525
51
270.1031083
0
ARC
8
DEFAULT_255_1_234
10
6.8765241
20
36.9567365
40
0.4563091
50
269.6719807
51
279.0609165
0
ARC
8
DEFAULT_255_1_234
10
6.9032009
20
36.7954907
40
0.2928759
50
278.8750225
51
293.6346586
0
ARC
8
DEFAULT_255_1_234
10
6.9352217
20
36.72029
40
0.2111472
50
293.8553404
51
310.0518804
0
ARC
8
DEFAULT_255_1_234
10
6.9357071
20
36.7140516
40
0.2060917
50
311.0646779
51
332.0108348
0
ARC
8
DEFAULT_255_1_234
10
6.8164798
20
36.7797978
40
0.3422352
50
331.6588543
51
343.2878891
0
ARC
8
DEFAULT_255_1_234
10
6.6102313
20
36.8431798
40
0.5580003
50
343.1446044
51
351.010618
0
ARC
8
DEFAULT_255_1_234
10
6.4560959
20
36.8712871
40
0.7146438
50
350.7157277
51
351.1602153
0
LINE
8
DEFAULT_255_1_234
10
8.1164216
20
37.5598211
11
8.1164216
21
36.783152
0
LINE
8
DEFAULT_255_1_234
10
8.1164216
20
36.783152
11
8.2786627
21
36.783152
0
LINE
8
DEFAULT_255_1_234
10
8.2786627
20
36.783152
11
8.2786627
21
36.6618728
0
LINE
8
DEFAULT_255_1_234
10
8.2786627
20
36.6618728
11
8.1164216
21
36.6618728
0
LINE
8
DEFAULT_255_1_234
10
8.1164216
20
36.6618728
11
8.1164216
21
36.3904
0
LINE
8
DEFAULT_255_1_234
10
8.1164216
20
36.3904
11
7.9670313
21
36.3904
0
LINE
8
DEFAULT_255_1_234
10
7.9670313
20
36.3904
11
7.9670313
21
36.6618728
0
LINE
8
DEFAULT_255_1_234
10
7.9670313
20
36.6618728
11
7.4345271
21
36.6618728
0
LINE
8
DEFAULT_255_1_234
10
7.4345271
20
36.6618728
11
7.4345271
21
36.7494187
0
LINE
8
DEFAULT_255_1_234
10
7.4345271
20
36.7494187
11
7.9581964
21
37.5598211
0
LINE
8
DEFAULT_255_1_234
10
7.9581964
20
37.5598211
11
8.1164216
21
37.5598211
0
LINE
8
DEFAULT_255_1_234
10
7.9493615
20
37.3244912
11
7.6031936
21
36.783152
0
LINE
8
DEFAULT_255_1_234
10
7.6031936
20
36.783152
11
7.9670313
21
36.783152
0
LINE
8
DEFAULT_255_1_234
10
7.9670313
20
36.783152
11
7.9670313
21
37.3566181
0
LINE
8
DEFAULT_255_1_234
10
7.9670313
20
37.3566181
11
7.9493615
21
37.3244912
0
LINE
8
DEFAULT_255_1_234
10
4.9047484
20
44.9945343
11
4.9047484
21
44.868436
0
LINE
8
DEFAULT_255_1_234
10
4.9047484
20
44.868436
11
4.3979458
21
44.868436
0
LINE
8
DEFAULT_255_1_234
10
4.3979458
20
44.868436
11
4.3979458
21
44.4539983
0
LINE
8
DEFAULT_255_1_234
10
4.3979458
20
44.4539983
11
4.9866722
21
44.4539983
0
LINE
8
DEFAULT_255_1_234
10
4.9866722
20
44.4539983
11
4.9866722
21
44.3279
0
LINE
8
DEFAULT_255_1_234
10
4.9866722
20
44.3279
11
4.2437364
21
44.3279
0
LINE
8
DEFAULT_255_1_234
10
4.2437364
20
44.3279
11
4.2437364
21
45.4973211
0
LINE
8
DEFAULT_255_1_234
10
4.2437364
20
45.4973211
11
4.9786404
21
45.4973211
0
LINE
8
DEFAULT_255_1_234
10
4.9786404
20
45.4973211
11
4.9786404
21
45.3704196
0
LINE
8
DEFAULT_255_1_234
10
4.9786404
20
45.3704196
11
4.3979458
21
45.3704196
0
LINE
8
DEFAULT_255_1_234
10
4.3979458
20
45.3704196
11
4.3979458
21
44.9945343
0
LINE
8
DEFAULT_255_1_234
10
4.3979458
20
44.9945343
11
4.9047484
21
44.9945343
0
LINE
8
DEFAULT_255_1_234
10
6.0773822
20
45.4973211
11
6.0773822
21
44.3279
0
LINE
8
DEFAULT_255_1_234
10
6.0773822
20
44.3279
11
5.9223697
21
44.3279
0
LINE
8
DEFAULT_255_1_234
10
5.9223697
20
44.3279
11
5.3336433
21
45.229061
0
LINE
8
DEFAULT_255_1_234
10
5.3336433
20
45.229061
11
5.3336433
21
44.3279
0
LINE
8
DEFAULT_255_1_234
10
5.3336433
20
44.3279
11
5.1786307
21
44.3279
0
LINE
8
DEFAULT_255_1_234
10
5.1786307
20
44.3279
11
5.1786307
21
45.4973211
0
LINE
8
DEFAULT_255_1_234
10
5.1786307
20
45.4973211
11
5.3336433
21
45.4973211
0
LINE
8
DEFAULT_255_1_234
10
5.3336433
20
45.4973211
11
5.923976
21
44.5921442
0
LINE
8
DEFAULT_255_1_234
10
5.923976
20
44.5921442
11
5.923976
21
45.4973211
0
LINE
8
DEFAULT_255_1_234
10
5.923976
20
45.4973211
11
6.0773822
21
45.4973211
0
LINE
8
DEFAULT_255_1_234
10
7.0564511
20
44.6989663
11
7.2114637
21
44.6989663
0
LINE
8
DEFAULT_255_1_234
10
6.3111058
20
44.8579947
11
6.3111058
21
44.9704391
0
LINE
8
DEFAULT_255_1_234
10
7.2114637
20
45.1214357
11
7.0564511
21
45.1214357
0
LINE
8
DEFAULT_255_1_234
10
6.4661184
20
44.9664232
11
6.4661184
21
44.8531757
0
ARC
8
DEFAULT_255_1_234
10
6.6634024
20
44.7586846
40
0.5513052
50
340.1774281
51
353.7814284
0
ARC
8
DEFAULT_255_1_234
10
6.8205376
20
44.7001582
40
0.3836379
50
311.4558989
51
340.4421614
0
ARC
8
DEFAULT_255_1_234
10
6.8172044
20
44.7112528
40
0.3941894
50
282.4333181
51
310.7513653
0
ARC
8
DEFAULT_255_1_234
10
6.7732784
20
44.8927679
40
0.5809175
50
269.9358511
51
282.809604
0
ARC
8
DEFAULT_255_1_234
10
6.768085
20
45.0385212
40
0.7266847
50
270.0021091
51
270.3581957
0
ARC
8
DEFAULT_255_1_234
10
6.7628267
20
44.7784585
40
0.4666519
50
250.7884749
51
270.6489167
0
ARC
8
DEFAULT_255_1_234
10
6.7460101
20
44.7147319
40
0.4009729
50
219.3627325
51
250.0611886
0
ARC
8
DEFAULT_255_1_234
10
6.8289312
20
44.7852042
40
0.5097822
50
193.5479632
51
219.5756669
0
ARC
8
DEFAULT_255_1_234
10
7.0660933
20
44.8467919
40
0.7547848
50
181.1218675
51
193.87563
0
ARC
8
DEFAULT_255_1_234
10
7.2731114
20
44.857858
40
0.9620055
50
179.9918545
51
181.5394234
0
ARC
8
DEFAULT_255_1_234
10
7.0880216
20
44.9741788
40
0.7769248
50
169.5837241
51
180.2757934
0
ARC
8
DEFAULT_255_1_234
10
6.9043154
20
45.0081229
40
0.590109
50
155.0365899
51
169.6003176
0
ARC
8
DEFAULT_255_1_234
10
6.7907618
20
45.0628677
40
0.4640625
50
136.783148
51
155.2472683
0
ARC
8
DEFAULT_255_1_234
10
6.7518095
20
45.0959562
40
0.4130255
50
121.7633186
51
136.428115
0
ARC
8
DEFAULT_255_1_234
10
6.7653057
20
45.0710227
40
0.4413323
50
95.6459699
51
121.5490577
0
ARC
8
DEFAULT_255_1_234
10
6.7810339
20
44.9601949
40
0.55319
50
89.924208
51
96.1377933
0
ARC
8
DEFAULT_255_1_234
10
6.7860772
20
44.9720542
40
0.5413475
50
76.6779277
51
90.4563316
0
ARC
8
DEFAULT_255_1_234
10
6.8254395
20
45.1311114
40
0.3775041
50
47.485847
51
76.9287264
0
ARC
8
DEFAULT_255_1_234
10
6.8107368
20
45.1211159
40
0.3948286
50
16.5424086
51
46.8933463
0
ARC
8
DEFAULT_255_1_234
10
6.6499525
20
45.0682861
40
0.564021
50
5.4072051
51
17.0365086
0
ARC
8
DEFAULT_255_1_234
10
6.5060542
20
45.0451679
40
0.5556559
50
7.8891745
51
15.9239216
0
ARC
8
DEFAULT_255_1_234
10
6.7047556
20
45.1028631
40
0.3487515
50
15.7653144
51
27.9410532
0
ARC
8
DEFAULT_255_1_234
10
6.8151774
20
45.161979
40
0.2235026
50
27.8166557
51
46.4008329
0
ARC
8
DEFAULT_255_1_234
10
6.8201416
20
45.1614082
40
0.2205286
50
47.4371857
51
75.0698205
0
ARC
8
DEFAULT_255_1_234
10
6.7892811
20
45.0539765
40
0.3322915
50
74.7008593
51
87.8124495
0
ARC
8
DEFAULT_255_1_234
10
6.7819498
20
44.9483844
40
0.4380987
50
87.3814673
51
90.0240855
0
ARC
8
DEFAULT_255_1_234
10
6.7781042
20
45.0661291
40
0.3203749
50
89.3451631
51
108.5745436
0
ARC
8
DEFAULT_255_1_234
10
6.7644147
20
45.1174908
40
0.2673494
50
109.2998449
51
143.3037509
0
ARC
8
DEFAULT_255_1_234
10
6.840622
20
45.0588881
40
0.3634757
50
143.0753173
51
163.1916937
0
ARC
8
DEFAULT_255_1_234
10
7.0357947
20
44.9972967
40
0.5681262
50
162.9373603
51
174.6208611
0
ARC
8
DEFAULT_255_1_234
10
7.2983989
20
44.968501
40
0.8322832
50
174.3419979
51
180.1430411
0
ARC
8
DEFAULT_255_1_234
10
7.2053146
20
44.8490698
40
0.7392076
50
179.6817502
51
189.150529
0
ARC
8
DEFAULT_255_1_234
10
6.9552394
20
44.807419
40
0.4856932
50
188.9910863
51
203.5773039
0
ARC
8
DEFAULT_255_1_234
10
6.8472727
20
44.7626211
40
0.3688271
50
203.9077269
51
215.1312379
0
ARC
8
DEFAULT_255_1_234
10
6.754982
20
44.6910941
40
0.2522457
50
213.9071664
51
263.8849284
0
ARC
8
DEFAULT_255_1_234
10
6.7675149
20
44.7695518
40
0.3316174
50
263.1758525
51
270.1031083
0
ARC
8
DEFAULT_255_1_234
10
6.7707241
20
44.8942365
40
0.4563091
50
269.6719807
51
279.0609165
0
ARC
8
DEFAULT_255_1_234
10
6.7974009
20
44.7329907
40
0.2928759
50
278.8750225
51
293.6346586
0
ARC
8
DEFAULT_255_1_234
10
6.8294217
20
44.65779
40
0.2111472
50
293.8553404
51
310.0518804
0
ARC
8
DEFAULT_255_1_234
10
6.8299071
20
44.6515516
40
0.2060917
50
311.0646779
51
332.0108348
0
ARC
8
DEFAULT_255_1_234
10
6.7106798
20
44.7172978
40
0.3422352
50
331.6588543
51
343.2878891
0
ARC
8
DEFAULT_255_1_234
10
6.5044313
20
44.7806798
40
0.5580003
50
343.1446044
51
351.010618
0
ARC
8
DEFAULT_255_1_234
10
6.3502959
20
44.8087871
40
0.7146438
50
350.7157277
51
351.1602153
0
LINE
8
DEFAULT_255_1_234
10
7.5993966
20
44.8636169
11
7.5993966
21
44.9848962
0
LINE
8
DEFAULT_255_1_234
10
7.5993966
20
44.9848962
11
7.7110378
21
44.9848962
0
LINE
8
DEFAULT_255_1_234
10
7.5206856
20
45.1905087
11
7.3720984
21
45.1905087
0
LINE
8
DEFAULT_255_1_234
10
7.3616572
20
44.6363188
11
7.5110475
21
44.6363188
0
LINE
8
DEFAULT_255_1_234
10
7.7110378
20
44.8636169
11
7.5993966
21
44.8636169
0
ARC
8
DEFAULT_255_1_234
10
7.7081244
20
45.3241713
40
0.3392876
50
270.4919872
51
281.8951556
0
ARC
8
DEFAULT_255_1_234
10
7.7322506
20
45.2139702
40
0.2264817
50
281.6691735
51
301.2943132
0
ARC
8
DEFAULT_255_1_234
10
7.7492716
20
45.1828304
40
0.1910381
50
301.7833094
51
311.7545298
0
ARC
8
DEFAULT_255_1_234
10
7.7584292
20
45.1726748
40
0.1773635
50
311.7323931
51
354.2802411
0
ARC
8
DEFAULT_255_1_234
10
7.6857917
20
45.1851722
40
0.2509385
50
353.0937916
51
0.1181479
0
ARC
8
DEFAULT_255_1_234
10
7.6396702
20
45.1899386
40
0.2970898
50
359.1805295
51
15.0453146
0
ARC
8
DEFAULT_255_1_234
10
7.7742539
20
45.2291992
40
0.1569564
50
13.9577229
51
77.6713066
0
ARC
8
DEFAULT_255_1_234
10
7.7356068
20
45.0906949
40
0.3006298
50
76.1116566
51
90.7026153
0
ARC
8
DEFAULT_255_1_234
10
7.7296907
20
45.1180545
40
0.2732568
50
89.5324876
51
103.531937
0
ARC
8
DEFAULT_255_1_234
10
7.7096351
20
45.1979884
40
0.1908508
50
103.2931773
51
133.5619022
0
ARC
8
DEFAULT_255_1_234
10
7.7051839
20
45.2039375
40
0.1834746
50
133.8349307
51
173.5344437
0
ARC
8
DEFAULT_255_1_234
10
7.7774882
20
45.1911213
40
0.2568033
50
172.5096846
51
180.1366907
0
ARC
8
DEFAULT_255_1_234
10
7.6823776
20
45.1945622
40
0.3103056
50
155.3484492
51
180.7484736
0
ARC
8
DEFAULT_255_1_234
10
7.6774865
20
45.1916846
40
0.3070957
50
131.5744599
51
154.4798489
0
ARC
8
DEFAULT_255_1_234
10
7.7088013
20
45.160031
40
0.3515643
50
96.9875458
51
131.9690667
0
ARC
8
DEFAULT_255_1_234
10
7.7307492
20
45.0354636
40
0.4779224
50
89.8596053
51
97.7825159
0
ARC
8
DEFAULT_255_1_234
10
7.7355556
20
45.0092616
40
0.5041361
50
78.3655447
51
90.4131539
0
ARC
8
DEFAULT_255_1_234
10
7.7713473
20
45.1751887
40
0.3344039
50
56.6229102
51
78.638727
0
ARC
8
DEFAULT_255_1_234
10
7.7928417
20
45.2127805
40
0.2912001
50
47.0253525
51
56.0854072
0
ARC
8
DEFAULT_255_1_234
10
7.7948197
20
45.2167223
40
0.2869704
50
10.9208013
51
46.7778124
0
ARC
8
DEFAULT_255_1_234
10
7.6584264
20
45.1851857
40
0.426899
50
359.6364486
51
11.6087304
0
ARC
8
DEFAULT_255_1_234
10
7.8419108
20
45.1836752
40
0.243409
50
332.3549906
51
359.7179418
0
ARC
8
DEFAULT_255_1_234
10
7.7768709
20
45.2145142
40
0.3153459
50
325.2333722
51
332.8745602
0
ARC
8
DEFAULT_255_1_234
10
7.7921333
20
45.2038828
40
0.2967456
50
292.9802137
51
325.2392345
0
ARC
8
DEFAULT_255_1_234
10
7.7646707
20
45.2572863
40
0.3566604
50
292.5402179
51
293.6924929
0
ARC
8
DEFAULT_255_1_234
10
7.8039303
20
44.6118091
40
0.3307468
50
57.6435486
51
72.8625112
0
ARC
8
DEFAULT_255_1_234
10
7.8393802
20
44.6692549
40
0.2632492
50
36.7248896
51
57.4697979
0
ARC
8
DEFAULT_255_1_234
10
7.8382435
20
44.670522
40
0.2634081
50
8.0545065
51
36.356114
0
ARC
8
DEFAULT_255_1_234
10
7.751962
20
44.6550174
40
0.3510261
50
359.8320645
51
8.5869982
0
ARC
8
DEFAULT_255_1_234
10
7.7144397
20
44.6502101
40
0.3885653
50
343.9829931
51
0.5571613
0
ARC
8
DEFAULT_255_1_234
10
7.8030594
20
44.6259438
40
0.2966924
50
311.6359546
51
343.7651759
0
ARC
8
DEFAULT_255_1_234
10
7.7652163
20
44.6686102
40
0.3537231
50
279.7829875
51
311.6255694
0
ARC
8
DEFAULT_255_1_234
10
7.7350939
20
44.812328
40
0.5004971
50
269.7286406
51
280.3856417
0
ARC
8
DEFAULT_255_1_234
10
7.7289012
20
44.8081996
40
0.4963778
50
256.6828919
51
270.4412052
0
ARC
8
DEFAULT_255_1_234
10
7.6950308
20
44.6697394
40
0.3538406
50
229.4223008
51
256.8556159
0
ARC
8
DEFAULT_255_1_234
10
7.65357
20
44.6230736
40
0.2914296
50
181.818294
51
229.6455059
0
ARC
8
DEFAULT_255_1_234
10
7.7575657
20
44.6361496
40
0.3959084
50
179.9755256
51
183.2323064
0
ARC
8
DEFAULT_255_1_234
10
7.7403402
20
44.6341037
40
0.2293034
50
179.4465117
51
196.2869258
0
ARC
8
DEFAULT_255_1_234
10
7.691581
20
44.6207651
40
0.1787621
50
196.5661473
51
227.705904
0
ARC
8
DEFAULT_255_1_234
10
7.7079905
20
44.6391155
40
0.2033784
50
227.7652068
51
257.8762805
0
ARC
8
DEFAULT_255_1_234
10
7.7304875
20
44.7334156
40
0.3003081
50
257.4584385
51
270.426602
0
ARC
8
DEFAULT_255_1_234
10
7.7350442
20
44.7623996
40
0.329292
50
269.5962073
51
280.8789248
0
ARC
8
DEFAULT_255_1_234
10
7.757997
20
44.6477685
40
0.2123908
50
280.6346389
51
299.8595945
0
ARC
8
DEFAULT_255_1_234
10
7.7770877
20
44.6115212
40
0.171457
50
300.3576302
51
314.5517981
0
ARC
8
DEFAULT_255_1_234
10
7.7687937
20
44.6175919
40
0.1816095
50
315.0728369
51
345.0431014
0
ARC
8
DEFAULT_255_1_234
10
7.6764752
20
44.6444841
40
0.2777492
50
344.5986631
51
357.9269593
0
ARC
8
DEFAULT_255_1_234
10
7.5869078
20
44.6506276
40
0.3674917
50
357.4748886
51
0.0231117
0
ARC
8
DEFAULT_255_1_234
10
7.6892187
20
44.6530679
40
0.2651907
50
359.5047933
51
13.4239635
0
ARC
8
DEFAULT_255_1_234
10
7.7758831
20
44.6752478
40
0.1757509
50
12.9498199
51
48.7551375
0
ARC
8
DEFAULT_255_1_234
10
7.7576565
20
44.65034
40
0.2065134
50
49.5088623
51
72.1836453
0
ARC
8
DEFAULT_255_1_234
10
7.7218717
20
44.5441291
40
0.3185836
50
71.9010081
51
84.3554254
0
ARC
8
DEFAULT_255_1_234
10
7.7057349
20
44.4080326
40
0.4556151
50
84.0193428
51
89.333121
0
LINE
8
DEFAULT_255_1_234
10
4.9047484
20
52.9320343
11
4.9047484
21
52.805936
0
LINE
8
DEFAULT_255_1_234
10
4.9047484
20
52.805936
11
4.3979458
21
52.805936
0
LINE
8
DEFAULT_255_1_234
10
4.3979458
20
52.805936
11
4.3979458
21
52.3914983
0
LINE
8
DEFAULT_255_1_234
10
4.3979458
20
52.3914983
11
4.9866722
21
52.3914983
0
LINE
8
DEFAULT_255_1_234
10
4.9866722
20
52.3914983
11
4.9866722
21
52.2654
0
LINE
8
DEFAULT_255_1_234
10
4.9866722
20
52.2654
11
4.2437364
21
52.2654
0
LINE
8
DEFAULT_255_1_234
10
4.2437364
20
52.2654
11
4.2437364
21
53.4348211
0
LINE
8
DEFAULT_255_1_234
10
4.2437364
20
53.4348211
11
4.9786404
21
53.4348211
0
LINE
8
DEFAULT_255_1_234
10
4.9786404
20
53.4348211
11
4.9786404
21
53.3079196
0
LINE
8
DEFAULT_255_1_234
10
4.9786404
20
53.3079196
11
4.3979458
21
53.3079196
0
LINE
8
DEFAULT_255_1_234
10
4.3979458
20
53.3079196
11
4.3979458
21
52.9320343
0
LINE
8
DEFAULT_255_1_234
10
4.3979458
20
52.9320343
11
4.9047484
21
52.9320343
0
LINE
8
DEFAULT_255_1_234
10
6.0773822
20
53.4348211
11
6.0773822
21
52.2654
0
LINE
8
DEFAULT_255_1_234
10
6.0773822
20
52.2654
11
5.9223697
21
52.2654
0
LINE
8
DEFAULT_255_1_234
10
5.9223697
20
52.2654
11
5.3336433
21
53.166561
0
LINE
8
DEFAULT_255_1_234
10
5.3336433
20
53.166561
11
5.3336433
21
52.2654
0
LINE
8
DEFAULT_255_1_234
10
5.3336433
20
52.2654
11
5.1786307
21
52.2654
0
LINE
8
DEFAULT_255_1_234
10
5.1786307
20
52.2654
11
5.1786307
21
53.4348211
0
LINE
8
DEFAULT_255_1_234
10
5.1786307
20
53.4348211
11
5.3336433
21
53.4348211
0
LINE
8
DEFAULT_255_1_234
10
5.3336433
20
53.4348211
11
5.923976
21
52.5296442
0
LINE
8
DEFAULT_255_1_234
10
5.923976
20
52.5296442
11
5.923976
21
53.4348211
0
LINE
8
DEFAULT_255_1_234
10
5.923976
20
53.4348211
11
6.0773822
21
53.4348211
0
LINE
8
DEFAULT_255_1_234
10
7.0564511
20
52.6364663
11
7.2114637
21
52.6364663
0
LINE
8
DEFAULT_255_1_234
10
6.3111058
20
52.7954947
11
6.3111058
21
52.9079391
0
LINE
8
DEFAULT_255_1_234
10
7.2114637
20
53.0589357
11
7.0564511
21
53.0589357
0
LINE
8
DEFAULT_255_1_234
10
6.4661184
20
52.9039232
11
6.4661184
21
52.7906757
0
ARC
8
DEFAULT_255_1_234
10
6.6634024
20
52.6961846
40
0.5513052
50
340.1774281
51
353.7814284
0
ARC
8
DEFAULT_255_1_234
10
6.8205376
20
52.6376582
40
0.3836379
50
311.4558989
51
340.4421614
0
ARC
8
DEFAULT_255_1_234
10
6.8172044
20
52.6487528
40
0.3941894
50
282.4333181
51
310.7513653
0
ARC
8
DEFAULT_255_1_234
10
6.7732784
20
52.8302679
40
0.5809175
50
269.9358511
51
282.809604
0
ARC
8
DEFAULT_255_1_234
10
6.768085
20
52.9760212
40
0.7266847
50
270.0021091
51
270.3581957
0
ARC
8
DEFAULT_255_1_234
10
6.7628267
20
52.7159585
40
0.4666519
50
250.7884749
51
270.6489167
0
ARC
8
DEFAULT_255_1_234
10
6.7460101
20
52.6522319
40
0.4009729
50
219.3627325
51
250.0611886
0
ARC
8
DEFAULT_255_1_234
10
6.8289312
20
52.7227042
40
0.5097822
50
193.5479632
51
219.5756669
0
ARC
8
DEFAULT_255_1_234
10
7.0660933
20
52.7842919
40
0.7547848
50
181.1218675
51
193.87563
0
ARC
8
DEFAULT_255_1_234
10
7.2731114
20
52.795358
40
0.9620055
50
179.9918545
51
181.5394234
0
ARC
8
DEFAULT_255_1_234
10
7.0880216
20
52.9116788
40
0.7769248
50
169.5837241
51
180.2757934
0
ARC
8
DEFAULT_255_1_234
10
6.9043154
20
52.9456229
40
0.590109
50
155.0365899
51
169.6003176
0
ARC
8
DEFAULT_255_1_234
10
6.7907618
20
53.0003677
40
0.4640625
50
136.783148
51
155.2472683
0
ARC
8
DEFAULT_255_1_234
10
6.7518095
20
53.0334562
40
0.4130255
50
121.7633186
51
136.428115
0
ARC
8
DEFAULT_255_1_234
10
6.7653057
20
53.0085227
40
0.4413323
50
95.6459699
51
121.5490577
0
ARC
8
DEFAULT_255_1_234
10
6.7810339
20
52.8976949
40
0.55319
50
89.924208
51
96.1377933
0
ARC
8
DEFAULT_255_1_234
10
6.7860772
20
52.9095542
40
0.5413475
50
76.6779277
51
90.4563316
0
ARC
8
DEFAULT_255_1_234
10
6.8254395
20
53.0686114
40
0.3775041
50
47.485847
51
76.9287264
0
ARC
8
DEFAULT_255_1_234
10
6.8107368
20
53.0586159
40
0.3948286
50
16.5424086
51
46.8933463
0
ARC
8
DEFAULT_255_1_234
10
6.6499525
20
53.0057861
40
0.564021
50
5.4072051
51
17.0365086
0
ARC
8
DEFAULT_255_1_234
10
6.5060542
20
52.9826679
40
0.5556559
50
7.8891745
51
15.9239216
0
ARC
8
DEFAULT_255_1_234
10
6.7047556
20
53.0403631
40
0.3487515
50
15.7653144
51
27.9410532
0
ARC
8
DEFAULT_255_1_234
10
6.8151774
20
53.099479
40
0.2235026
50
27.8166557
51
46.4008329
0
ARC
8
DEFAULT_255_1_234
10
6.8201416
20
53.0989082
40
0.2205286
50
47.4371857
51
75.0698205
0
ARC
8
DEFAULT_255_1_234
10
6.7892811
20
52.9914765
40
0.3322915
50
74.7008593
51
87.8124495
0
ARC
8
DEFAULT_255_1_234
10
6.7819498
20
52.8858844
40
0.4380987
50
87.3814673
51
90.0240855
0
ARC
8
DEFAULT_255_1_234
10
6.7781042
20
53.0036291
40
0.3203749
50
89.3451631
51
108.5745436
0
ARC
8
DEFAULT_255_1_234
10
6.7644147
20
53.0549908
40
0.2673494
50
109.2998449
51
143.3037509
0
ARC
8
DEFAULT_255_1_234
10
6.840622
20
52.9963881
40
0.3634757
50
143.0753173
51
163.1916937
0
ARC
8
DEFAULT_255_1_234
10
7.0357947
20
52.9347967
40
0.5681262
50
162.9373603
51
174.6208611
0
ARC
8
DEFAULT_255_1_234
10
7.2983989
20
52.906001
40
0.8322832
50
174.3419979
51
180.1430411
0
ARC
8
DEFAULT_255_1_234
10
7.2053146
20
52.7865698
40
0.7392076
50
179.6817502
51
189.150529
0
ARC
8
DEFAULT_255_1_234
10
6.9552394
20
52.744919
40
0.4856932
50
188.9910863
51
203.5773039
0
ARC
8
DEFAULT_255_1_234
10
6.8472727
20
52.7001211
40
0.3688271
50
203.9077269
51
215.1312379
0
ARC
8
DEFAULT_255_1_234
10
6.754982
20
52.6285941
40
0.2522457
50
213.9071664
51
263.8849284
0
ARC
8
DEFAULT_255_1_234
10
6.7675149
20
52.7070518
40
0.3316174
50
263.1758525
51
270.1031083
0
ARC
8
DEFAULT_255_1_234
10
6.7707241
20
52.8317365
40
0.4563091
50
269.6719807
51
279.0609165
0
ARC
8
DEFAULT_255_1_234
10
6.7974009
20
52.6704907
40
0.2928759
50
278.8750225
51
293.6346586
0
ARC
8
DEFAULT_255_1_234
10
6.8294217
20
52.59529
40
0.2111472
50
293.8553404
51
310.0518804
0
ARC
8
DEFAULT_255_1_234
10
6.8299071
20
52.5890516
40
0.2060917
50
311.0646779
51
332.0108348
0
ARC
8
DEFAULT_255_1_234
10
6.7106798
20
52.6547978
40
0.3422352
50
331.6588543
51
343.2878891
0
ARC
8
DEFAULT_255_1_234
10
6.5044313
20
52.7181798
40
0.5580003
50
343.1446044
51
351.010618
0
ARC
8
DEFAULT_255_1_234
10
6.3502959
20
52.7462871
40
0.7146438
50
350.7157277
51
351.1602153
0
LINE
8
DEFAULT_255_1_234
10
8.1495707
20
52.3866792
11
8.1495707
21
52.2654
0
LINE
8
DEFAULT_255_1_234
10
8.1495707
20
52.2654
11
7.3833429
21
52.2654
0
LINE
8
DEFAULT_255_1_234
10
7.3833429
20
52.2654
11
7.3833429
21
52.3722221
0
LINE
8
DEFAULT_255_1_234
10
7.3833429
20
52.3722221
11
7.7881425
21
52.8219995
0
LINE
8
DEFAULT_255_1_234
10
7.5094412
20
53.0902595
11
7.360854
21
53.0902595
0
LINE
8
DEFAULT_255_1_234
10
7.8756884
20
52.7264218
11
7.5624506
21
52.3866792
0
LINE
8
DEFAULT_255_1_234
10
7.5624506
20
52.3866792
11
8.1495707
21
52.3866792
0
ARC
8
DEFAULT_255_1_234
10
6.4391258
20
54.0149527
40
1.8008286
50
318.5132453
51
320.7828378
0
ARC
8
DEFAULT_255_1_234
10
6.9678233
20
53.5846426
40
1.1191493
50
320.7372736
51
323.9737074
0
ARC
8
DEFAULT_255_1_234
10
7.3598089
20
53.3006361
40
0.6350923
50
323.8961724
51
328.6421089
0
ARC
8
DEFAULT_255_1_234
10
7.5644684
20
53.1744031
40
0.3946393
50
328.8299013
51
331.789948
0
ARC
8
DEFAULT_255_1_234
10
7.6641863
20
53.1229509
40
0.2824501
50
331.4255242
51
352.9364833
0
ARC
8
DEFAULT_255_1_234
10
7.6778364
20
53.1198976
40
0.2685315
50
353.2248685
51
0.0169286
0
ARC
8
DEFAULT_255_1_234
10
7.698824
20
53.122195
40
0.2475536
50
359.4866256
51
15.9339782
0
ARC
8
DEFAULT_255_1_234
10
7.7495226
20
53.1358286
40
0.1950618
50
16.1714718
51
43.5284424
0
ARC
8
DEFAULT_255_1_234
10
7.7572534
20
53.1435573
40
0.184134
50
43.4415429
51
83.1661404
0
ARC
8
DEFAULT_255_1_234
10
7.7438452
20
53.0698771
40
0.258926
50
82.160215
51
90.1505798
0
ARC
8
DEFAULT_255_1_234
10
7.740688
20
53.0161865
40
0.3126255
50
89.5460705
51
102.5418777
0
ARC
8
DEFAULT_255_1_234
10
7.7163966
20
53.1192665
40
0.2067346
50
102.1739365
51
129.2061916
0
ARC
8
DEFAULT_255_1_234
10
7.7085038
20
53.1317094
40
0.1921118
50
129.7279328
51
135.7542026
0
ARC
8
DEFAULT_255_1_234
10
7.7206565
20
53.1220045
40
0.2075944
50
136.175737
51
166.3674722
0
ARC
8
DEFAULT_255_1_234
10
7.8213484
20
53.0950182
40
0.3118201
50
165.9092917
51
178.8683903
0
ARC
8
DEFAULT_255_1_234
10
7.9078346
20
53.0903179
40
0.3983935
50
178.438168
51
180.0083905
0
ARC
8
DEFAULT_255_1_234
10
7.7676948
20
53.0942231
40
0.4068601
50
163.2878735
51
180.5581814
0
ARC
8
DEFAULT_255_1_234
10
7.6875209
20
53.116284
40
0.3237344
50
133.454115
51
162.9470031
0
ARC
8
DEFAULT_255_1_234
10
7.7053751
20
53.0973
40
0.349795
50
100.7869394
51
133.4384016
0
ARC
8
DEFAULT_255_1_234
10
7.7401522
20
52.9424319
40
0.5084616
50
89.6605301
51
101.3704185
0
ARC
8
DEFAULT_255_1_234
10
7.7467861
20
52.9485496
40
0.502348
50
78.2171172
51
90.4130393
0
ARC
8
DEFAULT_255_1_234
10
7.7822939
20
53.1109637
40
0.3361092
50
55.9268222
51
78.4888551
0
ARC
8
DEFAULT_255_1_234
10
7.8019379
20
53.1448324
40
0.2970617
50
47.9292255
51
55.4054003
0
ARC
8
DEFAULT_255_1_234
10
7.812094
20
53.1551502
40
0.2825983
50
4.3347696
51
48.0560701
0
ARC
8
DEFAULT_255_1_234
10
7.7025334
20
53.1381601
40
0.393225
50
359.925209
51
5.5967654
0
ARC
8
DEFAULT_255_1_234
10
7.7454225
20
53.1437816
40
0.3503892
50
337.8914096
51
358.9967724
0
ARC
8
DEFAULT_255_1_234
10
7.4740638
20
53.2484706
40
0.6412172
50
326.9135351
51
338.3505194
0
ARC
8
DEFAULT_255_1_234
10
7.0754941
20
53.5039284
40
1.1146189
50
319.6472867
51
327.095818
0
ARC
8
DEFAULT_255_1_234
10
6.6921944
20
53.8201
40
1.6114559
50
317.2586784
51
319.9046139
0
LINE
8
DEFAULT_255_1_234
10
4.8964484
20
60.8695343
11
4.8964484
21
60.743436
0
LINE
8
DEFAULT_255_1_234
10
4.8964484
20
60.743436
11
4.3896458
21
60.743436
0
LINE
8
DEFAULT_255_1_234
10
4.3896458
20
60.743436
11
4.3896458
21
60.3289983
0
LINE
8
DEFAULT_255_1_234
10
4.3896458
20
60.3289983
11
4.9783722
21
60.3289983
0
LINE
8
DEFAULT_255_1_234
10
4.9783722
20
60.3289983
11
4.9783722
21
60.2029
0
LINE
8
DEFAULT_255_1_234
10
4.9783722
20
60.2029
11
4.2354364
21
60.2029
0
LINE
8
DEFAULT_255_1_234
10
4.2354364
20
60.2029
11
4.2354364
21
61.3723211
0
LINE
8
DEFAULT_255_1_234
10
4.2354364
20
61.3723211
11
4.9703404
21
61.3723211
0
LINE
8
DEFAULT_255_1_234
10
4.9703404
20
61.3723211
11
4.9703404
21
61.2454196
0
LINE
8
DEFAULT_255_1_234
10
4.9703404
20
61.2454196
11
4.3896458
21
61.2454196
0
LINE
8
DEFAULT_255_1_234
10
4.3896458
20
61.2454196
11
4.3896458
21
60.8695343
0
LINE
8
DEFAULT_255_1_234
10
4.3896458
20
60.8695343
11
4.8964484
21
60.8695343
0
LINE
8
DEFAULT_255_1_234
10
6.0690822
20
61.3723211
11
6.0690822
21
60.2029
0
LINE
8
DEFAULT_255_1_234
10
6.0690822
20
60.2029
11
5.9140697
21
60.2029
0
LINE
8
DEFAULT_255_1_234
10
5.9140697
20
60.2029
11
5.3253433
21
61.104061
0
LINE
8
DEFAULT_255_1_234
10
5.3253433
20
61.104061
11
5.3253433
21
60.2029
0
LINE
8
DEFAULT_255_1_234
10
5.3253433
20
60.2029
11
5.1703307
21
60.2029
0
LINE
8
DEFAULT_255_1_234
10
5.1703307
20
60.2029
11
5.1703307
21
61.3723211
0
LINE
8
DEFAULT_255_1_234
10
5.1703307
20
61.3723211
11
5.3253433
21
61.3723211
0
LINE
8
DEFAULT_255_1_234
10
5.3253433
20
61.3723211
11
5.915676
21
60.4671442
0
LINE
8
DEFAULT_255_1_234
10
5.915676
20
60.4671442
11
5.915676
21
61.3723211
0
LINE
8
DEFAULT_255_1_234
10
5.915676
20
61.3723211
11
6.0690822
21
61.3723211
0
LINE
8
DEFAULT_255_1_234
10
7.0481511
20
60.5739663
11
7.2031637
21
60.5739663
0
LINE
8
DEFAULT_255_1_234
10
6.3028058
20
60.7329947
11
6.3028058
21
60.8454391
0
LINE
8
DEFAULT_255_1_234
10
7.2031637
20
60.9964357
11
7.0481511
21
60.9964357
0
LINE
8
DEFAULT_255_1_234
10
6.4578184
20
60.8414232
11
6.4578184
21
60.7281757
0
ARC
8
DEFAULT_255_1_234
10
6.6551024
20
60.6336846
40
0.5513052
50
340.1774281
51
353.7814284
0
ARC
8
DEFAULT_255_1_234
10
6.8122376
20
60.5751582
40
0.3836379
50
311.4558989
51
340.4421614
0
ARC
8
DEFAULT_255_1_234
10
6.8089044
20
60.5862528
40
0.3941894
50
282.4333181
51
310.7513653
0
ARC
8
DEFAULT_255_1_234
10
6.7649784
20
60.7677679
40
0.5809175
50
269.9358511
51
282.809604
0
ARC
8
DEFAULT_255_1_234
10
6.759785
20
60.9135212
40
0.7266847
50
270.0021091
51
270.3581957
0
ARC
8
DEFAULT_255_1_234
10
6.7545267
20
60.6534585
40
0.4666519
50
250.7884749
51
270.6489167
0
ARC
8
DEFAULT_255_1_234
10
6.7377101
20
60.5897319
40
0.4009729
50
219.3627325
51
250.0611886
0
ARC
8
DEFAULT_255_1_234
10
6.8206312
20
60.6602042
40
0.5097822
50
193.5479632
51
219.5756669
0
ARC
8
DEFAULT_255_1_234
10
7.0577933
20
60.7217919
40
0.7547848
50
181.1218675
51
193.87563
0
ARC
8
DEFAULT_255_1_234
10
7.2648114
20
60.732858
40
0.9620055
50
179.9918545
51
181.5394234
0
ARC
8
DEFAULT_255_1_234
10
7.0797216
20
60.8491788
40
0.7769248
50
169.5837241
51
180.2757934
0
ARC
8
DEFAULT_255_1_234
10
6.8960154
20
60.8831229
40
0.590109
50
155.0365899
51
169.6003176
0
ARC
8
DEFAULT_255_1_234
10
6.7824618
20
60.9378677
40
0.4640625
50
136.783148
51
155.2472683
0
ARC
8
DEFAULT_255_1_234
10
6.7435095
20
60.9709562
40
0.4130255
50
121.7633186
51
136.428115
0
ARC
8
DEFAULT_255_1_234
10
6.7570057
20
60.9460227
40
0.4413323
50
95.6459699
51
121.5490577
0
ARC
8
DEFAULT_255_1_234
10
6.7727339
20
60.8351949
40
0.55319
50
89.924208
51
96.1377933
0
ARC
8
DEFAULT_255_1_234
10
6.7777772
20
60.8470542
40
0.5413475
50
76.6779277
51
90.4563316
0
ARC
8
DEFAULT_255_1_234
10
6.8171395
20
61.0061114
40
0.3775041
50
47.485847
51
76.9287264
0
ARC
8
DEFAULT_255_1_234
10
6.8024368
20
60.9961159
40
0.3948286
50
16.5424086
51
46.8933463
0
ARC
8
DEFAULT_255_1_234
10
6.6416525
20
60.9432861
40
0.564021
50
5.4072051
51
17.0365086
0
ARC
8
DEFAULT_255_1_234
10
6.4977542
20
60.9201679
40
0.5556559
50
7.8891745
51
15.9239216
0
ARC
8
DEFAULT_255_1_234
10
6.6964556
20
60.9778631
40
0.3487515
50
15.7653144
51
27.9410532
0
ARC
8
DEFAULT_255_1_234
10
6.8068774
20
61.036979
40
0.2235026
50
27.8166557
51
46.4008329
0
ARC
8
DEFAULT_255_1_234
10
6.8118416
20
61.0364082
40
0.2205286
50
47.4371857
51
75.0698205
0
ARC
8
DEFAULT_255_1_234
10
6.7809811
20
60.9289765
40
0.3322915
50
74.7008593
51
87.8124495
0
ARC
8
DEFAULT_255_1_234
10
6.7736498
20
60.8233844
40
0.4380987
50
87.3814673
51
90.0240855
0
ARC
8
DEFAULT_255_1_234
10
6.7698042
20
60.9411291
40
0.3203749
50
89.3451631
51
108.5745436
0
ARC
8
DEFAULT_255_1_234
10
6.7561147
20
60.9924908
40
0.2673494
50
109.2998449
51
143.3037509
0
ARC
8
DEFAULT_255_1_234
10
6.832322
20
60.9338881
40
0.3634757
50
143.0753173
51
163.1916937
0
ARC
8
DEFAULT_255_1_234
10
7.0274947
20
60.8722967
40
0.5681262
50
162.9373603
51
174.6208611
0
ARC
8
DEFAULT_255_1_234
10
7.2900989
20
60.843501
40
0.8322832
50
174.3419979
51
180.1430411
0
ARC
8
DEFAULT_255_1_234
10
7.1970146
20
60.7240698
40
0.7392076
50
179.6817502
51
189.150529
0
ARC
8
DEFAULT_255_1_234
10
6.9469394
20
60.682419
40
0.4856932
50
188.9910863
51
203.5773039
0
ARC
8
DEFAULT_255_1_234
10
6.8389727
20
60.6376211
40
0.3688271
50
203.9077269
51
215.1312379
0
ARC
8
DEFAULT_255_1_234
10
6.746682
20
60.5660941
40
0.2522457
50
213.9071664
51
263.8849284
0
ARC
8
DEFAULT_255_1_234
10
6.7592149
20
60.6445518
40
0.3316174
50
263.1758525
51
270.1031083
0
ARC
8
DEFAULT_255_1_234
10
6.7624241
20
60.7692365
40
0.4563091
50
269.6719807
51
279.0609165
0
ARC
8
DEFAULT_255_1_234
10
6.7891009
20
60.6079907
40
0.2928759
50
278.8750225
51
293.6346586
0
ARC
8
DEFAULT_255_1_234
10
6.8211217
20
60.53279
40
0.2111472
50
293.8553404
51
310.0518804
0
ARC
8
DEFAULT_255_1_234
10
6.8216071
20
60.5265516
40
0.2060917
50
311.0646779
51
332.0108348
0
ARC
8
DEFAULT_255_1_234
10
6.7023798
20
60.5922978
40
0.3422352
50
331.6588543
51
343.2878891
0
ARC
8
DEFAULT_255_1_234
10
6.4961313
20
60.6556798
40
0.5580003
50
343.1446044
51
351.010618
0
ARC
8
DEFAULT_255_1_234
10
6.3419959
20
60.6837871
40
0.7146438
50
350.7157277
51
351.1602153
0
LINE
8
DEFAULT_255_1_234
10
7.8633726
20
61.3779433
11
7.8633726
21
60.2029
0
LINE
8
DEFAULT_255_1_234
10
7.8633726
20
60.2029
11
7.7139822
21
60.2029
0
LINE
8
DEFAULT_255_1_234
10
7.7139822
20
60.2029
11
7.7139822
21
61.1932133
0
LINE
8
DEFAULT_255_1_234
10
7.7139822
20
61.1932133
11
7.4143984
21
61.0831785
0
LINE
8
DEFAULT_255_1_234
10
7.4143984
20
61.0831785
11
7.4143984
21
61.2181117
0
LINE
8
DEFAULT_255_1_234
10
7.4143984
20
61.2181117
11
7.8400805
21
61.3779433
0
LINE
8
DEFAULT_255_1_234
10
7.8400805
20
61.3779433
11
7.8633726
21
61.3779433
0
LINE
8
DEFAULT_255_1_234
10
4.958477
20
69.3098211
11
5.1134896
21
69.3098211
0
LINE
8
DEFAULT_255_1_234
10
5.1134896
20
69.3098211
11
5.1134896
21
68.514679
0
LINE
8
DEFAULT_255_1_234
10
4.7295725
20
68.1259429
11
4.6886106
21
68.1243365
0
LINE
8
DEFAULT_255_1_234
10
4.2669443
20
68.5130727
11
4.2669443
21
69.3098211
0
LINE
8
DEFAULT_255_1_234
10
4.2669443
20
69.3098211
11
4.4195474
21
69.3098211
0
LINE
8
DEFAULT_255_1_234
10
4.4195474
20
69.3098211
11
4.4195474
21
68.5178917
0
LINE
8
DEFAULT_255_1_234
10
4.958477
20
68.5170885
11
4.958477
21
69.3098211
0
ARC
8
DEFAULT_255_1_234
10
4.6781794
20
68.5126928
40
0.4353147
50
343.0898354
51
0.2614217
0
ARC
8
DEFAULT_255_1_234
10
4.7610195
20
68.4895837
40
0.3493402
50
315.3345598
51
342.7641223
0
ARC
8
DEFAULT_255_1_234
10
4.7386644
20
68.5127682
40
0.3815385
50
284.6606969
51
315.2182466
0
ARC
8
DEFAULT_255_1_234
10
4.6931357
20
68.6673755
40
0.5426573
50
273.8500273
51
285.1797701
0
ARC
8
DEFAULT_255_1_234
10
4.6843408
20
68.7015475
40
0.5772268
50
257.6317484
51
270.4238298
0
ARC
8
DEFAULT_255_1_234
10
4.6418606
20
68.5194198
40
0.3902347
50
230.6087562
51
257.9964012
0
ARC
8
DEFAULT_255_1_234
10
4.6286608
20
68.4987802
40
0.3659186
50
227.7440991
51
230.1551448
0
ARC
8
DEFAULT_255_1_234
10
4.6152439
20
68.4826471
40
0.3449568
50
189.2524587
51
227.5916061
0
ARC
8
DEFAULT_255_1_234
10
4.7674126
20
68.5154013
40
0.5004737
50
180.2665968
51
190.1525252
0
ARC
8
DEFAULT_255_1_234
10
4.7896146
20
68.5150918
40
0.3700778
50
179.5665184
51
191.9952995
0
ARC
8
DEFAULT_255_1_234
10
4.6668252
20
68.4877043
40
0.2442808
50
191.6974072
51
215.1404042
0
ARC
8
DEFAULT_255_1_234
10
4.6430167
20
68.4735108
40
0.2166522
50
215.6950207
51
224.8513522
0
ARC
8
DEFAULT_255_1_234
10
4.648591
20
68.4814697
40
0.2262237
50
225.2846858
51
255.0111758
0
ARC
8
DEFAULT_255_1_234
10
4.680987
20
68.5928455
40
0.3421979
50
254.5944985
51
267.9129803
0
ARC
8
DEFAULT_255_1_234
10
4.6884351
20
68.7012903
40
0.4508556
50
267.4689655
51
270.0223026
0
ARC
8
DEFAULT_255_1_234
10
4.6914496
20
68.6423849
40
0.3919604
50
269.5849941
51
281.1843768
0
ARC
8
DEFAULT_255_1_234
10
4.7193261
20
68.5071059
40
0.2538457
50
280.9344262
51
300.9743589
0
ARC
8
DEFAULT_255_1_234
10
4.7405866
20
68.4679688
40
0.2093566
50
301.4980046
51
315.1466847
0
ARC
8
DEFAULT_255_1_234
10
4.7261405
20
68.4798236
40
0.2279656
50
315.5952539
51
345.6678731
0
ARC
8
DEFAULT_255_1_234
10
4.6141921
20
68.5110009
40
0.3441564
50
345.2524969
51
358.6304371
0
ARC
8
DEFAULT_255_1_234
10
4.5124275
20
68.5169916
40
0.4460494
50
358.1735671
51
0.0124524
0
LINE
8
DEFAULT_255_1_234
10
6.1327171
20
68.9716849
11
5.9777046
21
68.9716849
0
LINE
8
DEFAULT_255_1_234
10
5.2853688
20
68.4793394
11
5.4403813
21
68.4793394
0
ARC
8
DEFAULT_255_1_234
10
6.0435859
20
69.8663768
40
1.252368
50
248.9199003
51
254.1439814
0
ARC
8
DEFAULT_255_1_234
10
5.8755354
20
69.4337234
40
0.788226
50
241.633709
51
249.0064503
0
ARC
8
DEFAULT_255_1_234
10
5.7226748
20
69.1536317
40
0.4691427
50
230.498225
51
241.8087113
0
ARC
8
DEFAULT_255_1_234
10
5.6442322
20
69.0536906
40
0.3421437
50
227.4064532
51
229.9881192
0
ARC
8
DEFAULT_255_1_234
10
5.5954843
20
69.0061088
40
0.2741476
50
200.6781896
51
228.1763934
0
ARC
8
DEFAULT_255_1_234
10
5.6027154
20
69.0046077
40
0.2804109
50
179.5061581
51
199.8694617
0
ARC
8
DEFAULT_255_1_234
10
5.6017905
20
69.012021
40
0.2795204
50
132.4834203
51
181.0242172
0
ARC
8
DEFAULT_255_1_234
10
5.6613488
20
68.9557704
40
0.3612768
50
129.2532479
51
133.4242687
0
ARC
8
DEFAULT_255_1_234
10
5.6759937
20
68.9337965
40
0.3875675
50
101.98776
51
128.8742646
0
ARC
8
DEFAULT_255_1_234
10
5.7158548
20
68.7616741
40
0.5642249
50
89.5906553
51
102.3169264
0
ARC
8
DEFAULT_255_1_234
10
5.722904
20
68.7935148
40
0.5323783
50
77.2360837
51
90.3248275
0
ARC
8
DEFAULT_255_1_234
10
5.7436119
20
68.89024
40
0.4334697
50
63.837784
51
77.0809408
0
ARC
8
DEFAULT_255_1_234
10
5.7713881
20
68.9419911
40
0.3747796
50
45.9864267
51
64.1607727
0
ARC
8
DEFAULT_255_1_234
10
5.7974762
20
68.9717866
40
0.3352302
50
32.2747395
51
45.6547121
0
ARC
8
DEFAULT_255_1_234
10
5.8041203
20
68.973688
40
0.328603
50
359.6507365
51
32.6130309
0
ARC
8
DEFAULT_255_1_234
10
5.7098298
20
68.974166
40
0.2678863
50
359.469343
51
14.9832209
0
ARC
8
DEFAULT_255_1_234
10
5.7803361
20
68.9930539
40
0.1948938
50
14.9781179
51
48.2004265
0
ARC
8
DEFAULT_255_1_234
10
5.7639005
20
68.9723983
40
0.2212521
50
48.5927837
51
74.1241538
0
ARC
8
DEFAULT_255_1_234
10
5.7305494
20
68.8623248
40
0.3362561
50
73.7888341
51
86.6652678
0
ARC
8
DEFAULT_255_1_234
10
5.720306
20
68.7415881
40
0.4573953
50
86.2640471
51
90.0526343
0
ARC
8
DEFAULT_255_1_234
10
5.7174772
20
68.7811192
40
0.4178709
50
89.6697524
51
99.2309573
0
ARC
8
DEFAULT_255_1_234
10
5.6932223
20
68.9255964
40
0.2713749
50
99.069534
51
113.7658566
0
ARC
8
DEFAULT_255_1_234
10
5.6658414
20
68.9901677
40
0.2012469
50
114.0401004
51
127.9850673
0
ARC
8
DEFAULT_255_1_234
10
5.6417978
20
69.019773
40
0.1631167
50
127.7287463
51
176.7105154
0
ARC
8
DEFAULT_255_1_234
10
5.7096696
20
69.0096693
40
0.2315392
50
175.1779447
51
180.0581938
0
ARC
8
DEFAULT_255_1_234
10
5.6253542
20
69.0084428
40
0.1472271
50
179.6142195
51
228.1246017
0
ARC
8
DEFAULT_255_1_234
10
5.6695211
20
69.0493308
40
0.2072299
50
226.5779593
51
230.8800004
0
ARC
8
DEFAULT_255_1_234
10
5.716629
20
69.1118636
40
0.2854818
50
231.4635071
51
241.9260842
0
ARC
8
DEFAULT_255_1_234
10
5.8363468
20
69.33218
40
0.53622
50
241.7178533
51
248.3259551
0
ARC
8
DEFAULT_255_1_234
10
5.974884
20
69.6754064
40
0.9063478
50
248.2007737
51
252.4528373
0
ARC
8
DEFAULT_255_1_234
10
6.0952565
20
70.0475441
40
1.2974635
50
252.3391078
51
254.3469452
0
ARC
8
DEFAULT_255_1_234
10
5.3410267
20
67.3498148
40
1.5037162
50
71.0197183
51
74.4087047
0
ARC
8
DEFAULT_255_1_234
10
5.5104952
20
67.8390111
40
0.9859993
50
66.1847285
51
71.086374
0
ARC
8
DEFAULT_255_1_234
10
5.6661265
20
68.18942
40
0.6025855
50
59.3536294
51
66.2691831
0
ARC
8
DEFAULT_255_1_234
10
5.7549917
20
68.3397609
40
0.4279449
50
49.1020879
51
59.3293958
0
ARC
8
DEFAULT_255_1_234
10
5.8368657
20
68.4330834
40
0.3038015
50
32.7919921
51
49.2505539
0
ARC
8
DEFAULT_255_1_234
10
5.8689747
20
68.4559191
40
0.264448
50
31.1181161
51
32.4005348
0
ARC
8
DEFAULT_255_1_234
10
5.8601285
20
68.4523779
40
0.2738556
50
8.1116974
51
30.7958831
0
ARC
8
DEFAULT_255_1_234
10
5.7790953
20
68.4385753
40
0.3560327
50
359.8389159
51
8.4706516
0
ARC
8
DEFAULT_255_1_234
10
5.8416744
20
68.4337137
40
0.2934776
50
337.4731098
51
0.7537279
0
ARC
8
DEFAULT_255_1_234
10
5.8595439
20
68.4317387
40
0.2762607
50
307.5917067
51
336.4315538
0
ARC
8
DEFAULT_255_1_234
10
5.8135267
20
68.4830102
40
0.3449979
50
307.6551545
51
308.4529766
0
ARC
8
DEFAULT_255_1_234
10
5.7904986
20
68.518525
40
0.3871988
50
284.3734338
51
307.1424381
0
ARC
8
DEFAULT_255_1_234
10
5.7409816
20
68.7006932
40
0.5759636
50
272.4382747
51
284.646547
0
ARC
8
DEFAULT_255_1_234
10
5.7283025
20
68.8806893
40
0.7563528
50
269.9708387
51
272.8178037
0
ARC
8
DEFAULT_255_1_234
10
5.7240064
20
68.6768716
40
0.5525489
50
248.2707594
51
270.4055579
0
ARC
8
DEFAULT_255_1_234
10
5.7185806
20
68.6578192
40
0.5328452
50
246.1383403
51
248.0542782
0
ARC
8
DEFAULT_255_1_234
10
5.6767185
20
68.5698843
40
0.4355005
50
233.1670131
51
246.4950969
0
ARC
8
DEFAULT_255_1_234
10
5.6213089
20
68.4950812
40
0.3424126
50
215.3403242
51
233.0843104
0
ARC
8
DEFAULT_255_1_234
10
5.5940521
20
68.4752549
40
0.3087104
50
179.2419209
51
215.2648451
0
ARC
8
DEFAULT_255_1_234
10
5.6708115
20
68.4766666
40
0.2304457
50
179.335461
51
199.1045811
0
ARC
8
DEFAULT_255_1_234
10
5.6375791
20
68.4679766
40
0.1962176
50
199.8828939
51
232.7063202
0
ARC
8
DEFAULT_255_1_234
10
5.6848059
20
68.5273788
40
0.2720938
50
232.3738199
51
255.5136649
0
ARC
8
DEFAULT_255_1_234
10
5.7188926
20
68.6517835
40
0.4010747
50
255.2446292
51
267.5320849
0
ARC
8
DEFAULT_255_1_234
10
5.7276549
20
68.7750702
40
0.5246356
50
267.1557994
51
270.0286766
0
ARC
8
DEFAULT_255_1_234
10
5.7304322
20
68.730695
40
0.4802668
50
269.7000017
51
278.1660162
0
ARC
8
DEFAULT_255_1_234
10
5.7560327
20
68.5576515
40
0.3053425
50
278.0231263
51
290.625471
0
ARC
8
DEFAULT_255_1_234
10
5.7908014
20
68.4649025
40
0.206291
50
290.6619762
51
307.0370976
0
ARC
8
DEFAULT_255_1_234
10
5.8208403
20
68.4280504
40
0.1587906
50
306.3943566
51
355.3030547
0
ARC
8
DEFAULT_255_1_234
10
5.7696334
20
68.4357113
40
0.2104809
50
354.3660432
51
0.0698737
0
ARC
8
DEFAULT_255_1_234
10
5.783868
20
68.4379617
40
0.1962563
50
359.417946
51
16.1971788
0
ARC
8
DEFAULT_255_1_234
10
5.829399
20
68.4504418
40
0.149053
50
16.4723299
51
52.6262157
0
ARC
8
DEFAULT_255_1_234
10
5.7473044
20
68.3420433
40
0.2850296
50
52.7386432
51
62.4979148
0
ARC
8
DEFAULT_255_1_234
10
5.6088121
20
68.0814283
40
0.5801521
50
62.2515216
51
68.1220564
0
ARC
8
DEFAULT_255_1_234
10
5.4368031
20
67.6586872
40
1.0365451
50
68.0062803
51
71.8053402
0
ARC
8
DEFAULT_255_1_234
10
5.2572403
20
67.1201758
40
1.6042013
50
71.7183119
51
73.9258742
0
LINE
8
DEFAULT_255_1_234
10
6.9937195
20
68.8070343
11
6.9937195
21
68.680936
0
LINE
8
DEFAULT_255_1_234
10
6.9937195
20
68.680936
11
6.4869168
21
68.680936
0
LINE
8
DEFAULT_255_1_234
10
6.4869168
20
68.680936
11
6.4869168
21
68.2664983
0
LINE
8
DEFAULT_255_1_234
10
6.4869168
20
68.2664983
11
7.0756432
21
68.2664983
0
LINE
8
DEFAULT_255_1_234
10
7.0756432
20
68.2664983
11
7.0756432
21
68.1404
0
LINE
8
DEFAULT_255_1_234
10
7.0756432
20
68.1404
11
6.3327074
21
68.1404
0
LINE
8
DEFAULT_255_1_234
10
6.3327074
20
68.1404
11
6.3327074
21
69.3098211
0
LINE
8
DEFAULT_255_1_234
10
6.3327074
20
69.3098211
11
7.0676115
21
69.3098211
0
LINE
8
DEFAULT_255_1_234
10
7.0676115
20
69.3098211
11
7.0676115
21
69.1829196
0
LINE
8
DEFAULT_255_1_234
10
7.0676115
20
69.1829196
11
6.4869168
21
69.1829196
0
LINE
8
DEFAULT_255_1_234
10
6.4869168
20
69.1829196
11
6.4869168
21
68.8070343
0
LINE
8
DEFAULT_255_1_234
10
6.4869168
20
68.8070343
11
6.9937195
21
68.8070343
0
LINE
8
DEFAULT_255_1_234
10
7.9502995
20
68.1404
11
7.6964966
21
68.6134694
0
LINE
8
DEFAULT_255_1_234
10
7.6964966
20
68.6134694
11
7.4218111
21
68.6134694
0
LINE
8
DEFAULT_255_1_234
10
7.4218111
20
68.6134694
11
7.4218111
21
68.1404
0
LINE
8
DEFAULT_255_1_234
10
7.4218111
20
68.1404
11
7.2667986
21
68.1404
0
LINE
8
DEFAULT_255_1_234
10
7.2667986
20
68.1404
11
7.2667986
21
69.3098211
0
LINE
8
DEFAULT_255_1_234
10
7.2667986
20
69.3098211
11
7.6539284
21
69.3098211
0
LINE
8
DEFAULT_255_1_234
10
7.8410679
20
68.6463995
11
8.1157533
21
68.1500381
0
LINE
8
DEFAULT_255_1_234
10
8.1157533
20
68.1500381
11
8.1157533
21
68.1404
0
LINE
8
DEFAULT_255_1_234
10
8.1157533
20
68.1404
11
7.9502995
21
68.1404
0
LINE
8
DEFAULT_255_1_234
10
7.4218111
20
69.1829196
11
7.4218111
21
68.7395677
0
LINE
8
DEFAULT_255_1_234
10
7.4218111
20
68.7395677
11
7.6587474
21
68.7395677
0
LINE
8
DEFAULT_255_1_234
10
7.6579442
20
69.1829196
11
7.4218111
21
69.1829196
0
ARC
8
DEFAULT_255_1_234
10
7.6580923
20
68.6136761
40
0.6961575
50
80.653586
51
90.3427061
0
ARC
8
DEFAULT_255_1_234
10
7.7000398
20
68.8599348
40
0.4463577
50
65.6987447
51
80.8329603
0
ARC
8
DEFAULT_255_1_234
10
7.7478038
20
68.9694322
40
0.3269094
50
50.0017161
51
65.4305835
0
ARC
8
DEFAULT_255_1_234
10
7.7696503
20
68.9989482
40
0.2902647
50
11.628416
51
49.5603263
0
ARC
8
DEFAULT_255_1_234
10
7.6160839
20
68.9614299
40
0.4482792
50
359.5655735
51
12.3691
0
ARC
8
DEFAULT_255_1_234
10
7.7237699
20
68.9551644
40
0.3405924
50
341.9983148
51
0.4822259
0
ARC
8
DEFAULT_255_1_234
10
7.7632539
20
68.9444471
40
0.2997359
50
323.8609373
51
341.61416
0
ARC
8
DEFAULT_255_1_234
10
7.7330783
20
68.9677484
40
0.3378487
50
296.7018614
51
323.6876402
0
ARC
8
DEFAULT_255_1_234
10
7.6889678
20
69.0466235
40
0.4281516
50
290.8086567
51
297.2323311
0
ARC
8
DEFAULT_255_1_234
10
7.6613207
20
69.0989351
40
0.3593766
50
269.589728
51
281.8058135
0
ARC
8
DEFAULT_255_1_234
10
7.6864107
20
68.9841743
40
0.2419125
50
281.5501019
51
303.9357432
0
ARC
8
DEFAULT_255_1_234
10
7.7001294
20
68.9603936
40
0.2145323
50
304.4415616
51
311.2106213
0
ARC
8
DEFAULT_255_1_234
10
7.71334
20
68.9464632
40
0.1953505
50
310.9875673
51
356.2715578
0
ARC
8
DEFAULT_255_1_234
10
7.6377048
20
68.9577422
40
0.2716331
50
354.9348262
51
0.0609027
0
ARC
8
DEFAULT_255_1_234
10
7.6189923
20
68.9604435
40
0.2903554
50
359.5239371
51
12.8808918
0
ARC
8
DEFAULT_255_1_234
10
7.7167478
20
68.9843728
40
0.1897315
50
12.4173452
51
43.1022135
0
ARC
8
DEFAULT_255_1_234
10
7.7229083
20
68.9880724
40
0.1827118
50
43.5751728
51
48.203944
0
ARC
8
DEFAULT_255_1_234
10
7.7059575
20
68.9659302
40
0.2105272
50
48.7809703
51
72.6969569
0
ARC
8
DEFAULT_255_1_234
10
7.6705199
20
68.858382
40
0.3237537
50
72.3702241
51
84.8791103
0
ARC
8
DEFAULT_255_1_234
10
7.6557676
20
68.7241769
40
0.4587478
50
84.5400526
51
89.7281406
0
LINE
8
DEFAULT_255_1_234
10
5.1595879
20
77.2473211
11
5.1595879
21
76.0779
0
LINE
8
DEFAULT_255_1_234
10
5.1595879
20
76.0779
11
5.0045753
21
76.0779
0
LINE
8
DEFAULT_255_1_234
10
5.0045753
20
76.0779
11
4.4158489
21
76.979061
0
LINE
8
DEFAULT_255_1_234
10
4.4158489
20
76.979061
11
4.4158489
21
76.0779
0
LINE
8
DEFAULT_255_1_234
10
4.4158489
20
76.0779
11
4.2608364
21
76.0779
0
LINE
8
DEFAULT_255_1_234
10
4.2608364
20
76.0779
11
4.2608364
21
77.2473211
0
LINE
8
DEFAULT_255_1_234
10
4.2608364
20
77.2473211
11
4.4158489
21
77.2473211
0
LINE
8
DEFAULT_255_1_234
10
4.4158489
20
77.2473211
11
5.0061817
21
76.3421442
0
LINE
8
DEFAULT_255_1_234
10
5.0061817
20
76.3421442
11
5.0061817
21
77.2473211
0
LINE
8
DEFAULT_255_1_234
10
5.0061817
20
77.2473211
11
5.1595879
21
77.2473211
0
LINE
8
DEFAULT_255_1_234
10
5.5884827
20
77.2473211
11
5.5884827
21
76.2039983
0
LINE
8
DEFAULT_255_1_234
10
5.5884827
20
76.2039983
11
6.1426727
21
76.2039983
0
LINE
8
DEFAULT_255_1_234
10
6.1426727
20
76.2039983
11
6.1426727
21
76.0779
0
LINE
8
DEFAULT_255_1_234
10
6.1426727
20
76.0779
11
5.4334702
21
76.0779
0
LINE
8
DEFAULT_255_1_234
10
5.4334702
20
76.0779
11
5.4334702
21
77.2473211
0
LINE
8
DEFAULT_255_1_234
10
5.4334702
20
77.2473211
11
5.5884827
21
77.2473211
0
LINE
8
DEFAULT_255_1_234
10
6.4840215
20
77.2473211
11
6.4840215
21
76.0779
0
LINE
8
DEFAULT_255_1_234
10
6.4840215
20
76.0779
11
6.3298122
21
76.0779
0
LINE
8
DEFAULT_255_1_234
10
6.3298122
20
76.0779
11
6.3298122
21
77.2473211
0
LINE
8
DEFAULT_255_1_234
10
6.3298122
20
77.2473211
11
6.4840215
21
77.2473211
0
LINE
8
DEFAULT_255_1_234
10
6.7659355
20
77.2473211
11
6.9651227
21
77.2473211
0
LINE
8
DEFAULT_255_1_234
10
6.9651227
20
77.2473211
11
7.3474334
21
76.2931506
0
LINE
8
DEFAULT_255_1_234
10
7.3474334
20
76.2931506
11
7.7297441
21
77.2473211
0
LINE
8
DEFAULT_255_1_234
10
7.7297441
20
77.2473211
11
7.9297344
21
77.2473211
0
LINE
8
DEFAULT_255_1_234
10
7.9297344
20
77.2473211
11
7.9297344
21
76.0779
0
LINE
8
DEFAULT_255_1_234
10
7.9297344
20
76.0779
11
7.775525
21
76.0779
0
LINE
8
DEFAULT_255_1_234
10
7.775525
20
76.0779
11
7.775525
21
76.5332996
0
LINE
8
DEFAULT_255_1_234
10
7.775525
20
76.5332996
11
7.7899822
21
77.0248419
0
LINE
8
DEFAULT_255_1_234
10
7.7899822
20
77.0248419
11
7.4060651
21
76.0779
0
LINE
8
DEFAULT_255_1_234
10
7.4060651
20
76.0779
11
7.2879985
21
76.0779
0
LINE
8
DEFAULT_255_1_234
10
7.2879985
20
76.0779
11
6.9048846
21
77.0224324
0
LINE
8
DEFAULT_255_1_234
10
6.9048846
20
77.0224324
11
6.9201449
21
76.5332996
0
LINE
8
DEFAULT_255_1_234
10
6.9201449
20
76.5332996
11
6.9201449
21
76.0779
0
LINE
8
DEFAULT_255_1_234
10
6.9201449
20
76.0779
11
6.7659355
21
76.0779
0
LINE
8
DEFAULT_255_1_234
10
6.7659355
20
76.0779
11
6.7659355
21
77.2473211
0
LINE
8
DEFAULT_255_1_234
10
4.6806344
20
84.4732091
11
4.4051458
21
84.4732091
0
LINE
8
DEFAULT_255_1_234
10
4.4051458
20
84.4732091
11
4.4051458
21
84.0154
0
LINE
8
DEFAULT_255_1_234
10
4.4051458
20
84.0154
11
4.2509364
21
84.0154
0
LINE
8
DEFAULT_255_1_234
10
4.2509364
20
84.0154
11
4.2509364
21
85.1848211
0
LINE
8
DEFAULT_255_1_234
10
4.2509364
20
85.1848211
11
4.6822407
21
85.1848211
0
LINE
8
DEFAULT_255_1_234
10
4.4051458
20
85.0579196
11
4.4051458
21
84.5993074
0
LINE
8
DEFAULT_255_1_234
10
4.4051458
20
84.5993074
11
4.6822407
21
84.5993074
0
LINE
8
DEFAULT_255_1_234
10
4.6910756
20
85.0579196
11
4.4051458
21
85.0579196
0
ARC
8
DEFAULT_255_1_234
10
4.6864534
20
84.5789195
40
0.6059162
50
78.8378113
51
90.3983573
0
ARC
8
DEFAULT_255_1_234
10
4.7280548
20
84.7809879
40
0.3996205
50
58.9632738
51
79.0810598
0
ARC
8
DEFAULT_255_1_234
10
4.758209
20
84.8369721
40
0.3361177
50
48.0197965
51
58.447194
0
ARC
8
DEFAULT_255_1_234
10
4.7670951
20
84.8455225
40
0.3238191
50
3.3375044
51
48.1766626
0
ARC
8
DEFAULT_255_1_234
10
4.644079
20
84.8278171
40
0.4477806
50
359.9477528
51
4.6829065
0
ARC
8
DEFAULT_255_1_234
10
4.6564107
20
84.8235628
40
0.4354656
50
346.1877825
51
0.5060252
0
ARC
8
DEFAULT_255_1_234
10
4.7922975
20
84.7882731
40
0.295089
50
310.8831995
51
346.5426355
0
ARC
8
DEFAULT_255_1_234
10
4.7614395
20
84.8299695
40
0.3468331
50
286.6925341
51
310.2288297
0
ARC
8
DEFAULT_255_1_234
10
4.7045226
20
85.0089882
40
0.5346654
50
274.6850312
51
287.0245141
0
ARC
8
DEFAULT_255_1_234
10
4.6819949
20
85.2298932
40
0.7566852
50
269.8969846
51
275.018904
0
ARC
8
DEFAULT_255_1_234
10
4.684754
20
85.0219707
40
0.4226708
50
269.6593078
51
279.4153575
0
ARC
8
DEFAULT_255_1_234
10
4.7104815
20
84.8729133
40
0.2714146
50
279.2049762
51
294.9900808
0
ARC
8
DEFAULT_255_1_234
10
4.7395141
20
84.8081508
40
0.2004525
50
295.2888114
51
311.2911209
0
ARC
8
DEFAULT_255_1_234
10
4.7466035
20
84.797622
40
0.1878703
50
311.7854996
51
347.2861051
0
ARC
8
DEFAULT_255_1_234
10
4.6482194
20
84.8229092
40
0.2894234
50
346.6893224
51
0.1059443
0
ARC
8
DEFAULT_255_1_234
10
4.5727089
20
84.8257685
40
0.3649409
50
359.6350983
51
0.0053152
0
ARC
8
DEFAULT_255_1_234
10
4.6697417
20
84.8282937
40
0.2679199
50
359.4672059
51
15.5933957
0
ARC
8
DEFAULT_255_1_234
10
4.7322306
20
84.8451779
40
0.2031932
50
15.7442113
51
46.6203375
0
ARC
8
DEFAULT_255_1_234
10
4.7174527
20
84.8281484
40
0.2257226
50
46.8628658
51
75.6676503
0
ARC
8
DEFAULT_255_1_234
10
4.6880347
20
84.7222718
40
0.3355939
50
75.276167
51
88.2915297
0
ARC
8
DEFAULT_255_1_234
10
4.6822054
20
84.6344524
40
0.4235602
50
87.8575022
51
88.8000139
0
LINE
8
DEFAULT_255_1_234
10
5.4436495
20
85.1848211
11
5.4436495
21
84.1414983
0
LINE
8
DEFAULT_255_1_234
10
5.4436495
20
84.1414983
11
5.9978395
21
84.1414983
0
LINE
8
DEFAULT_255_1_234
10
5.9978395
20
84.1414983
11
5.9978395
21
84.0154
0
LINE
8
DEFAULT_255_1_234
10
5.9978395
20
84.0154
11
5.288637
21
84.0154
0
LINE
8
DEFAULT_255_1_234
10
5.288637
20
84.0154
11
5.288637
21
85.1848211
0
LINE
8
DEFAULT_255_1_234
10
5.288637
20
85.1848211
11
5.4436495
21
85.1848211
0
LINE
8
DEFAULT_255_1_234
10
6.3391883
20
85.1848211
11
6.3391883
21
84.0154
0
LINE
8
DEFAULT_255_1_234
10
6.3391883
20
84.0154
11
6.184979
21
84.0154
0
LINE
8
DEFAULT_255_1_234
10
6.184979
20
84.0154
11
6.184979
21
85.1848211
0
LINE
8
DEFAULT_255_1_234
10
6.184979
20
85.1848211
11
6.3391883
21
85.1848211
0
LINE
8
DEFAULT_255_1_234
10
6.6211023
20
85.1848211
11
6.8202895
21
85.1848211
0
LINE
8
DEFAULT_255_1_234
10
6.8202895
20
85.1848211
11
7.2026002
21
84.2306506
0
LINE
8
DEFAULT_255_1_234
10
7.2026002
20
84.2306506
11
7.5849109
21
85.1848211
0
LINE
8
DEFAULT_255_1_234
10
7.5849109
20
85.1848211
11
7.7849012
21
85.1848211
0
LINE
8
DEFAULT_255_1_234
10
7.7849012
20
85.1848211
11
7.7849012
21
84.0154
0
LINE
8
DEFAULT_255_1_234
10
7.7849012
20
84.0154
11
7.6306918
21
84.0154
0
LINE
8
DEFAULT_255_1_234
10
7.6306918
20
84.0154
11
7.6306918
21
84.4707996
0
LINE
8
DEFAULT_255_1_234
10
7.6306918
20
84.4707996
11
7.645149
21
84.9623419
0
LINE
8
DEFAULT_255_1_234
10
7.645149
20
84.9623419
11
7.2612319
21
84.0154
0
LINE
8
DEFAULT_255_1_234
10
7.2612319
20
84.0154
11
7.1431653
21
84.0154
0
LINE
8
DEFAULT_255_1_234
10
7.1431653
20
84.0154
11
6.7600514
21
84.9599324
0
LINE
8
DEFAULT_255_1_234
10
6.7600514
20
84.9599324
11
6.7753117
21
84.4707996
0
LINE
8
DEFAULT_255_1_234
10
6.7753117
20
84.4707996
11
6.7753117
21
84.0154
0
LINE
8
DEFAULT_255_1_234
10
6.7753117
20
84.0154
11
6.6211023
21
84.0154
0
LINE
8
DEFAULT_255_1_234
10
6.6211023
20
84.0154
11
6.6211023
21
85.1848211
0
LINE
8
DEFAULT_255_1_234
10
5.2790879
20
93.1223211
11
5.2790879
21
91.9529
0
LINE
8
DEFAULT_255_1_234
10
5.2790879
20
91.9529
11
5.1240753
21
91.9529
0
LINE
8
DEFAULT_255_1_234
10
5.1240753
20
91.9529
11
5.1240753
21
92.493436
0
LINE
8
DEFAULT_255_1_234
10
5.1240753
20
92.493436
11
4.5345458
21
92.493436
0
LINE
8
DEFAULT_255_1_234
10
4.5345458
20
92.493436
11
4.5345458
21
91.9529
0
LINE
8
DEFAULT_255_1_234
10
4.5345458
20
91.9529
11
4.3803364
21
91.9529
0
LINE
8
DEFAULT_255_1_234
10
4.3803364
20
91.9529
11
4.3803364
21
93.1223211
0
LINE
8
DEFAULT_255_1_234
10
4.3803364
20
93.1223211
11
4.5345458
21
93.1223211
0
LINE
8
DEFAULT_255_1_234
10
4.5345458
20
93.1223211
11
4.5345458
21
92.6195343
0
LINE
8
DEFAULT_255_1_234
10
4.5345458
20
92.6195343
11
5.1240753
21
92.6195343
0
LINE
8
DEFAULT_255_1_234
10
5.1240753
20
92.6195343
11
5.1240753
21
93.1223211
0
LINE
8
DEFAULT_255_1_234
10
5.1240753
20
93.1223211
11
5.2790879
21
93.1223211
0
LINE
8
DEFAULT_255_1_234
10
6.4525249
20
92.5737534
11
6.4525249
21
92.4998614
0
LINE
8
DEFAULT_255_1_234
10
5.5120083
20
92.4894201
11
5.5120083
21
92.5737534
0
LINE
8
DEFAULT_255_1_234
10
6.2991187
20
92.4886169
11
6.2991187
21
92.5753597
0
LINE
8
DEFAULT_255_1_234
10
5.6654145
20
92.585801
11
5.6654145
21
92.4998614
0
ARC
8
DEFAULT_255_1_234
10
5.5883275
20
92.4959015
40
0.8642064
50
350.487711
51
0.2625388
0
ARC
8
DEFAULT_255_1_234
10
5.8176516
20
92.4564578
40
0.631518
50
336.0277639
51
350.5787438
0
ARC
8
DEFAULT_255_1_234
10
5.952134
20
92.3956892
40
0.4839466
50
319.8877444
51
336.1328423
0
ARC
8
DEFAULT_255_1_234
10
6.012398
20
92.347458
40
0.4067874
50
302.4806467
51
319.6143626
0
ARC
8
DEFAULT_255_1_234
10
6.0008991
20
92.3696202
40
0.4316636
50
275.8195682
51
302.1884709
0
ARC
8
DEFAULT_255_1_234
10
5.9842624
20
92.4838665
40
0.5470306
50
269.9171439
51
276.3397983
0
ARC
8
DEFAULT_255_1_234
10
5.9797834
20
92.4152681
40
0.4784458
50
252.5219675
51
270.4416499
0
ARC
8
DEFAULT_255_1_234
10
5.9654093
20
92.3613592
40
0.422716
50
237.5352116
51
252.1857531
0
ARC
8
DEFAULT_255_1_234
10
5.9743289
20
92.3727363
40
0.4371052
50
209.063312
51
237.3492538
0
ARC
8
DEFAULT_255_1_234
10
6.0613137
20
92.4273685
40
0.5397041
50
205.1183774
51
209.6470015
0
ARC
8
DEFAULT_255_1_234
10
6.1410174
20
92.461183
40
0.6262326
50
188.7215458
51
204.8240747
0
ARC
8
DEFAULT_255_1_234
10
6.3407702
20
92.4948067
40
0.8287794
50
180.3723947
51
188.9252049
0
ARC
8
DEFAULT_255_1_234
10
6.3380453
20
92.5777402
40
0.8260467
50
169.5253763
51
180.2765336
0
ARC
8
DEFAULT_255_1_234
10
6.1477902
20
92.6127309
40
0.6326007
50
155.8315255
51
169.5089989
0
ARC
8
DEFAULT_255_1_234
10
6.0197404
20
92.6721348
40
0.4914567
50
139.6258461
51
156.0379525
0
ARC
8
DEFAULT_255_1_234
10
5.9607737
20
92.7195799
40
0.4158054
50
122.6416387
51
139.3430715
0
ARC
8
DEFAULT_255_1_234
10
5.9708357
20
92.7012451
40
0.4366739
50
93.0223692
51
122.455762
0
ARC
8
DEFAULT_255_1_234
10
5.9816353
20
92.6047709
40
0.5336137
50
89.975342
51
93.6341897
0
ARC
8
DEFAULT_255_1_234
10
5.9855133
20
92.6446242
40
0.4937738
50
73.746375
51
90.4233405
0
ARC
8
DEFAULT_255_1_234
10
6.0030711
20
92.7126287
40
0.4235786
50
57.662753
51
73.4518111
0
ARC
8
DEFAULT_255_1_234
10
6.0022718
20
92.7147832
40
0.4221899
50
29.1440151
51
57.414694
0
ARC
8
DEFAULT_255_1_234
10
5.9087912
20
92.6564005
40
0.5322966
50
24.0982783
51
29.7323517
0
ARC
8
DEFAULT_255_1_234
10
5.8054188
20
92.6135399
40
0.6441673
50
8.6655297
51
23.8241346
0
ARC
8
DEFAULT_255_1_234
10
5.5819926
20
92.5770854
40
0.8705386
50
359.7806941
51
8.8218784
0
ARC
8
DEFAULT_255_1_234
10
5.4672924
20
92.5796345
40
0.8318373
50
359.7055579
51
8.036044
0
ARC
8
DEFAULT_255_1_234
10
5.767293
20
92.6233239
40
0.5286768
50
7.8928306
51
20.2962107
0
ARC
8
DEFAULT_255_1_234
10
5.93005
20
92.6833395
40
0.3552073
50
20.3231126
51
36.4992797
0
ARC
8
DEFAULT_255_1_234
10
5.9986046
20
92.7361402
40
0.2686974
50
36.1437156
51
85.6627023
0
ARC
8
DEFAULT_255_1_234
10
5.9823592
20
92.6321221
40
0.373739
50
84.3852322
51
90.0757696
0
ARC
8
DEFAULT_255_1_234
10
5.9781265
20
92.6981839
40
0.3076997
50
89.3038458
51
109.9045693
0
ARC
8
DEFAULT_255_1_234
10
5.9688656
20
92.7364062
40
0.2686424
50
110.8228367
51
143.9179474
0
ARC
8
DEFAULT_255_1_234
10
6.0622316
20
92.6651236
40
0.3860887
50
143.5289163
51
163.2980757
0
ARC
8
DEFAULT_255_1_234
10
6.2530137
20
92.6051433
40
0.5860659
50
163.0418846
51
174.3140048
0
ARC
8
DEFAULT_255_1_234
10
6.4934249
20
92.5773854
40
0.8280531
50
174.0509143
51
179.4176892
0
ARC
8
DEFAULT_255_1_234
10
6.4429988
20
92.4956954
40
0.7775954
50
179.6930361
51
188.7906598
0
ARC
8
DEFAULT_255_1_234
10
6.1766467
20
92.4530935
40
0.5078633
50
188.6331305
51
202.5629587
0
ARC
8
DEFAULT_255_1_234
10
6.0512058
20
92.4026996
40
0.3726913
50
202.8081362
51
216.1193925
0
ARC
8
DEFAULT_255_1_234
10
5.9702629
20
92.3375676
40
0.2689577
50
215.0755913
51
264.6379694
0
ARC
8
DEFAULT_255_1_234
10
5.9829578
20
92.4206513
40
0.3528978
50
263.846392
51
270.0833719
0
ARC
8
DEFAULT_255_1_234
10
5.9870969
20
92.3948374
40
0.3271036
50
269.3649385
51
287.5152008
0
ARC
8
DEFAULT_255_1_234
10
6.0049126
20
92.3301238
40
0.2600406
50
288.0630309
51
323.8113348
0
ARC
8
DEFAULT_255_1_234
10
5.9177968
20
92.3951049
40
0.3687189
50
323.6547608
51
342.6590488
0
ARC
8
DEFAULT_255_1_234
10
5.7146583
20
92.4611952
40
0.5823286
50
342.4091907
51
353.6451149
0
ARC
8
DEFAULT_255_1_234
10
5.4315094
20
92.496419
40
0.8676442
50
353.4029884
51
359.4847795
0
LINE
8
DEFAULT_255_1_234
10
6.6838389
20
93.1223211
11
6.883026
21
93.1223211
0
LINE
8
DEFAULT_255_1_234
10
6.883026
20
93.1223211
11
7.2653368
21
92.1681506
0
LINE
8
DEFAULT_255_1_234
10
7.2653368
20
92.1681506
11
7.6476475
21
93.1223211
0
LINE
8
DEFAULT_255_1_234
10
7.6476475
20
93.1223211
11
7.8476378
21
93.1223211
0
LINE
8
DEFAULT_255_1_234
10
7.8476378
20
93.1223211
11
7.8476378
21
91.9529
0
LINE
8
DEFAULT_255_1_234
10
7.8476378
20
91.9529
11
7.6934284
21
91.9529
0
LINE
8
DEFAULT_255_1_234
10
7.6934284
20
91.9529
11
7.6934284
21
92.4082996
0
LINE
8
DEFAULT_255_1_234
10
7.6934284
20
92.4082996
11
7.7078855
21
92.8998419
0
LINE
8
DEFAULT_255_1_234
10
7.7078855
20
92.8998419
11
7.3239685
21
91.9529
0
LINE
8
DEFAULT_255_1_234
10
7.3239685
20
91.9529
11
7.2059019
21
91.9529
0
LINE
8
DEFAULT_255_1_234
10
7.2059019
20
91.9529
11
6.822788
21
92.8974324
0
LINE
8
DEFAULT_255_1_234
10
6.822788
20
92.8974324
11
6.8380483
21
92.4082996
0
LINE
8
DEFAULT_255_1_234
10
6.8380483
20
92.4082996
11
6.8380483
21
91.9529
0
LINE
8
DEFAULT_255_1_234
10
6.8380483
20
91.9529
11
6.6838389
21
91.9529
0
LINE
8
DEFAULT_255_1_234
10
6.6838389
20
91.9529
11
6.6838389
21
93.1223211
0
LINE
8
DEFAULT_255_1_234
10
8.7809258
20
92.6195343
11
8.7809258
21
92.493436
0
LINE
8
DEFAULT_255_1_234
10
8.7809258
20
92.493436
11
8.2741231
21
92.493436
0
LINE
8
DEFAULT_255_1_234
10
8.2741231
20
92.493436
11
8.2741231
21
92.0789983
0
LINE
8
DEFAULT_255_1_234
10
8.2741231
20
92.0789983
11
8.8628495
21
92.0789983
0
LINE
8
DEFAULT_255_1_234
10
8.8628495
20
92.0789983
11
8.8628495
21
91.9529
0
LINE
8
DEFAULT_255_1_234
10
8.8628495
20
91.9529
11
8.1199137
21
91.9529
0
LINE
8
DEFAULT_255_1_234
10
8.1199137
20
91.9529
11
8.1199137
21
93.1223211
0
LINE
8
DEFAULT_255_1_234
10
8.1199137
20
93.1223211
11
8.8548178
21
93.1223211
0
LINE
8
DEFAULT_255_1_234
10
8.8548178
20
93.1223211
11
8.8548178
21
92.9954196
0
LINE
8
DEFAULT_255_1_234
10
8.8548178
20
92.9954196
11
8.2741231
21
92.9954196
0
LINE
8
DEFAULT_255_1_234
10
8.2741231
20
92.9954196
11
8.2741231
21
92.6195343
0
LINE
8
DEFAULT_255_1_234
10
8.2741231
20
92.6195343
11
8.7809258
21
92.6195343
0
LINE
8
DEFAULT_255_1_234
10
4.2929902
20
101.0598211
11
4.2929902
21
99.8904
0
LINE
8
DEFAULT_255_1_234
10
4.2929902
20
99.8904
11
4.1387808
21
99.8904
0
LINE
8
DEFAULT_255_1_234
10
4.1387808
20
99.8904
11
4.1387808
21
101.0598211
0
LINE
8
DEFAULT_255_1_234
10
4.1387808
20
101.0598211
11
4.2929902
21
101.0598211
0
LINE
8
DEFAULT_255_1_234
10
5.0246815
20
101.0654433
11
5.0246815
21
99.8904
0
LINE
8
DEFAULT_255_1_234
10
5.0246815
20
99.8904
11
4.8752912
21
99.8904
0
LINE
8
DEFAULT_255_1_234
10
4.8752912
20
99.8904
11
4.8752912
21
100.8807133
0
LINE
8
DEFAULT_255_1_234
10
4.8752912
20
100.8807133
11
4.5757074
21
100.7706785
0
LINE
8
DEFAULT_255_1_234
10
4.5757074
20
100.7706785
11
4.5757074
21
100.9056117
0
LINE
8
DEFAULT_255_1_234
10
4.5757074
20
100.9056117
11
5.0013895
21
101.0654433
0
LINE
8
DEFAULT_255_1_234
10
5.0013895
20
101.0654433
11
5.0246815
21
101.0654433
0
LINE
8
DEFAULT_255_1_234
10
5.6471413
20
100.4461963
11
5.5282715
21
100.4767169
0
LINE
8
DEFAULT_255_1_234
10
5.5282715
20
100.4767169
11
5.5877064
21
101.0598211
0
LINE
8
DEFAULT_255_1_234
10
5.5877064
20
101.0598211
11
6.1868741
21
101.0598211
0
LINE
8
DEFAULT_255_1_234
10
6.1868741
20
101.0598211
11
6.1868741
21
100.9224784
0
LINE
8
DEFAULT_255_1_234
10
6.1868741
20
100.9224784
11
5.7138047
21
100.9224784
0
LINE
8
DEFAULT_255_1_234
10
5.7138047
20
100.9224784
11
5.678465
21
100.6036184
0
LINE
8
DEFAULT_255_1_234
10
5.4865065
20
100.1980156
11
5.6270619
21
100.1980156
0
LINE
8
DEFAULT_255_1_234
10
5.6864968
20
100.4783232
11
5.6471413
21
100.4461963
0
ARC
8
DEFAULT_255_1_234
10
5.8639434
20
100.285623
40
0.3681349
50
93.7182161
51
120.2538958
0
ARC
8
DEFAULT_255_1_234
10
5.8733697
20
100.2048394
40
0.449379
50
89.9660152
51
94.2496022
0
ARC
8
DEFAULT_255_1_234
10
5.8774431
20
100.2637549
40
0.390482
50
73.8043271
51
90.5585896
0
ARC
8
DEFAULT_255_1_234
10
5.9009328
20
100.3495602
40
0.3015334
50
41.3071453
51
73.5430202
0
ARC
8
DEFAULT_255_1_234
10
5.8593156
20
100.3137324
40
0.3564457
50
13.5075983
51
41.2174222
0
ARC
8
DEFAULT_255_1_234
10
5.6951359
20
100.2707486
40
0.5261351
50
1.1331335
51
13.8829381
0
ARC
8
DEFAULT_255_1_234
10
5.5539728
20
100.2631665
40
0.6674378
50
359.9919444
51
1.544251
0
ARC
8
DEFAULT_255_1_234
10
5.6816555
20
100.259028
40
0.5397702
50
347.8572367
51
0.4293338
0
ARC
8
DEFAULT_255_1_234
10
5.8566872
20
100.2193736
40
0.3603188
50
323.673004
51
348.1672506
0
ARC
8
DEFAULT_255_1_234
10
5.886138
20
100.2014168
40
0.3259678
50
316.8171152
51
323.1492751
0
ARC
8
DEFAULT_255_1_234
10
5.8922569
20
100.197746
40
0.3189975
50
281.8396411
51
316.5457803
0
ARC
8
DEFAULT_255_1_234
10
5.8546833
20
100.3532762
40
0.4789527
50
269.5770101
51
282.4214771
0
ARC
8
DEFAULT_255_1_234
10
5.8475645
20
100.3319125
40
0.45759
50
256.2427136
51
270.4486331
0
ARC
8
DEFAULT_255_1_234
10
5.8176547
20
100.2119229
40
0.3339303
50
228.9023911
51
256.3314342
0
ARC
8
DEFAULT_255_1_234
10
5.810278
20
100.2002746
40
0.32031
50
193.753695
51
228.5271154
0
ARC
8
DEFAULT_255_1_234
10
5.9340733
20
100.23658
40
0.4492253
50
184.924711
51
194.497588
0
ARC
8
DEFAULT_255_1_234
10
5.95333
20
100.2401591
40
0.3289787
50
187.3600538
51
198.6732863
0
ARC
8
DEFAULT_255_1_234
10
5.8483594
20
100.2037674
40
0.217884
50
198.4451669
51
217.794479
0
ARC
8
DEFAULT_255_1_234
10
5.8187769
20
100.1828085
40
0.1816698
50
218.2887171
51
228.5612368
0
ARC
8
DEFAULT_255_1_234
10
5.8285556
20
100.1959963
40
0.1980329
50
228.9654866
51
258.1234728
0
ARC
8
DEFAULT_255_1_234
10
5.8491266
20
100.2840833
40
0.2884748
50
257.7258293
51
270.401361
0
ARC
8
DEFAULT_255_1_234
10
5.8536153
20
100.2395821
40
0.2439788
50
269.4204404
51
286.4209037
0
ARC
8
DEFAULT_255_1_234
10
5.868464
20
100.1856657
40
0.1880666
50
286.7251356
51
320.600362
0
ARC
8
DEFAULT_255_1_234
10
5.8301465
20
100.2167595
40
0.2374121
50
320.6712579
51
344.5441685
0
ARC
8
DEFAULT_255_1_234
10
5.7144791
20
100.2507045
40
0.3579479
50
344.2412205
51
356.7357071
0
ARC
8
DEFAULT_255_1_234
10
5.589594
20
100.2610444
40
0.4832297
50
356.3548756
51
0.0500261
0
ARC
8
DEFAULT_255_1_234
10
5.7232449
20
100.264165
40
0.3495889
50
359.5576869
51
12.953486
0
ARC
8
DEFAULT_255_1_234
10
5.8287347
20
100.2897434
40
0.2410532
50
12.6490276
51
41.6081334
0
ARC
8
DEFAULT_255_1_234
10
5.8517717
20
100.3093321
40
0.2108218
50
41.7850273
51
85.9892764
0
ARC
8
DEFAULT_255_1_234
10
5.8394454
20
100.2280462
40
0.2928454
50
84.6957577
51
90.0676183
0
ARC
8
DEFAULT_255_1_234
10
5.8370938
20
100.1611716
40
0.3597255
50
89.6804936
51
99.1614436
0
ARC
8
DEFAULT_255_1_234
10
5.8165569
20
100.2839131
40
0.235281
50
98.9830931
51
113.8908934
0
ARC
8
DEFAULT_255_1_234
10
5.793598
20
100.3380587
40
0.176479
50
114.1950727
51
127.3641004
0
LINE
8
DEFAULT_255_1_234
10
4.3987902
20
108.9973211
11
4.3987902
21
107.8279
0
LINE
8
DEFAULT_255_1_234
10
4.3987902
20
107.8279
11
4.2445808
21
107.8279
0
LINE
8
DEFAULT_255_1_234
10
4.2445808
20
107.8279
11
4.2445808
21
108.9973211
0
LINE
8
DEFAULT_255_1_234
10
4.2445808
20
108.9973211
11
4.3987902
21
108.9973211
0
LINE
8
DEFAULT_255_1_234
10
5.1304815
20
109.0029433
11
5.1304815
21
107.8279
0
LINE
8
DEFAULT_255_1_234
10
5.1304815
20
107.8279
11
4.9810912
21
107.8279
0
LINE
8
DEFAULT_255_1_234
10
4.9810912
20
107.8279
11
4.9810912
21
108.8182133
0
LINE
8
DEFAULT_255_1_234
10
4.9810912
20
108.8182133
11
4.6815074
21
108.7081785
0
LINE
8
DEFAULT_255_1_234
10
4.6815074
20
108.7081785
11
4.6815074
21
108.8431117
0
LINE
8
DEFAULT_255_1_234
10
4.6815074
20
108.8431117
11
5.1071895
21
109.0029433
0
LINE
8
DEFAULT_255_1_234
10
5.1071895
20
109.0029433
11
5.1304815
21
109.0029433
0
LINE
8
DEFAULT_255_1_234
10
6.1930805
20
108.9973211
11
6.1930805
21
108.220652
0
LINE
8
DEFAULT_255_1_234
10
6.1930805
20
108.220652
11
6.3553216
21
108.220652
0
LINE
8
DEFAULT_255_1_234
10
6.3553216
20
108.220652
11
6.3553216
21
108.0993728
0
LINE
8
DEFAULT_255_1_234
10
6.3553216
20
108.0993728
11
6.1930805
21
108.0993728
0
LINE
8
DEFAULT_255_1_234
10
6.1930805
20
108.0993728
11
6.1930805
21
107.8279
0
LINE
8
DEFAULT_255_1_234
10
6.1930805
20
107.8279
11
6.0436902
21
107.8279
0
LINE
8
DEFAULT_255_1_234
10
6.0436902
20
107.8279
11
6.0436902
21
108.0993728
0
LINE
8
DEFAULT_255_1_234
10
6.0436902
20
108.0993728
11
5.5111859
21
108.0993728
0
LINE
8
DEFAULT_255_1_234
10
5.5111859
20
108.0993728
11
5.5111859
21
108.1869187
0
LINE
8
DEFAULT_255_1_234
10
5.5111859
20
108.1869187
11
6.0348553
21
108.9973211
0
LINE
8
DEFAULT_255_1_234
10
6.0348553
20
108.9973211
11
6.1930805
21
108.9973211
0
LINE
8
DEFAULT_255_1_234
10
6.0260204
20
108.7619912
11
5.6798524
21
108.220652
0
LINE
8
DEFAULT_255_1_234
10
5.6798524
20
108.220652
11
6.0436902
21
108.220652
0
LINE
8
DEFAULT_255_1_234
10
6.0436902
20
108.220652
11
6.0436902
21
108.7941181
0
LINE
8
DEFAULT_255_1_234
10
6.0436902
20
108.7941181
11
6.0260204
21
108.7619912
0
LINE
8
DEFAULT_255_1_234
10
4.2929902
20
116.9348211
11
4.2929902
21
115.7654
0
LINE
8
DEFAULT_255_1_234
10
4.2929902
20
115.7654
11
4.1387808
21
115.7654
0
LINE
8
DEFAULT_255_1_234
10
4.1387808
20
115.7654
11
4.1387808
21
116.9348211
0
LINE
8
DEFAULT_255_1_234
10
4.1387808
20
116.9348211
11
4.2929902
21
116.9348211
0
LINE
8
DEFAULT_255_1_234
10
5.0246815
20
116.9404433
11
5.0246815
21
115.7654
0
LINE
8
DEFAULT_255_1_234
10
5.0246815
20
115.7654
11
4.8752912
21
115.7654
0
LINE
8
DEFAULT_255_1_234
10
4.8752912
20
115.7654
11
4.8752912
21
116.7557133
0
LINE
8
DEFAULT_255_1_234
10
4.8752912
20
116.7557133
11
4.5757074
21
116.6456785
0
LINE
8
DEFAULT_255_1_234
10
4.5757074
20
116.6456785
11
4.5757074
21
116.7806117
0
LINE
8
DEFAULT_255_1_234
10
4.5757074
20
116.7806117
11
5.0013895
21
116.9404433
0
LINE
8
DEFAULT_255_1_234
10
5.0013895
20
116.9404433
11
5.0246815
21
116.9404433
0
LINE
8
DEFAULT_255_1_234
10
5.6760555
20
116.3011169
11
5.6760555
21
116.4223962
0
LINE
8
DEFAULT_255_1_234
10
5.6760555
20
116.4223962
11
5.7876967
21
116.4223962
0
LINE
8
DEFAULT_255_1_234
10
5.5973445
20
116.6280087
11
5.4487573
21
116.6280087
0
LINE
8
DEFAULT_255_1_234
10
5.4383161
20
116.0738188
11
5.5877064
21
116.0738188
0
LINE
8
DEFAULT_255_1_234
10
5.7876967
20
116.3011169
11
5.6760555
21
116.3011169
0
ARC
8
DEFAULT_255_1_234
10
5.7847833
20
116.7616713
40
0.3392876
50
270.4919872
51
281.8951556
0
ARC
8
DEFAULT_255_1_234
10
5.8089095
20
116.6514702
40
0.2264817
50
281.6691735
51
301.2943132
0
ARC
8
DEFAULT_255_1_234
10
5.8259305
20
116.6203304
40
0.1910381
50
301.7833094
51
311.7545298
0
ARC
8
DEFAULT_255_1_234
10
5.8350881
20
116.6101748
40
0.1773635
50
311.7323931
51
354.2802411
0
ARC
8
DEFAULT_255_1_234
10
5.7624506
20
116.6226722
40
0.2509385
50
353.0937916
51
0.1181479
0
ARC
8
DEFAULT_255_1_234
10
5.7163291
20
116.6274386
40
0.2970898
50
359.1805295
51
15.0453146
0
ARC
8
DEFAULT_255_1_234
10
5.8509128
20
116.6666992
40
0.1569564
50
13.9577229
51
77.6713066
0
ARC
8
DEFAULT_255_1_234
10
5.8122657
20
116.5281949
40
0.3006298
50
76.1116566
51
90.7026153
0
ARC
8
DEFAULT_255_1_234
10
5.8063495
20
116.5555545
40
0.2732568
50
89.5324876
51
103.531937
0
ARC
8
DEFAULT_255_1_234
10
5.786294
20
116.6354884
40
0.1908508
50
103.2931773
51
133.5619022
0
ARC
8
DEFAULT_255_1_234
10
5.7818428
20
116.6414375
40
0.1834746
50
133.8349307
51
173.5344437
0
ARC
8
DEFAULT_255_1_234
10
5.8541471
20
116.6286213
40
0.2568033
50
172.5096846
51
180.1366907
0
ARC
8
DEFAULT_255_1_234
10
5.7590365
20
116.6320622
40
0.3103056
50
155.3484492
51
180.7484736
0
ARC
8
DEFAULT_255_1_234
10
5.7541454
20
116.6291846
40
0.3070957
50
131.5744599
51
154.4798489
0
ARC
8
DEFAULT_255_1_234
10
5.7854601
20
116.597531
40
0.3515643
50
96.9875458
51
131.9690667
0
ARC
8
DEFAULT_255_1_234
10
5.8074081
20
116.4729636
40
0.4779224
50
89.8596053
51
97.7825159
0
ARC
8
DEFAULT_255_1_234
10
5.8122144
20
116.4467616
40
0.5041361
50
78.3655447
51
90.4131539
0
ARC
8
DEFAULT_255_1_234
10
5.8480062
20
116.6126887
40
0.3344039
50
56.6229102
51
78.638727
0
ARC
8
DEFAULT_255_1_234
10
5.8695006
20
116.6502805
40
0.2912001
50
47.0253525
51
56.0854072
0
ARC
8
DEFAULT_255_1_234
10
5.8714786
20
116.6542223
40
0.2869704
50
10.9208013
51
46.7778124
0
ARC
8
DEFAULT_255_1_234
10
5.7350853
20
116.6226857
40
0.426899
50
359.6364486
51
11.6087304
0
ARC
8
DEFAULT_255_1_234
10
5.9185697
20
116.6211752
40
0.243409
50
332.3549906
51
359.7179418
0
ARC
8
DEFAULT_255_1_234
10
5.8535298
20
116.6520142
40
0.3153459
50
325.2333722
51
332.8745602
0
ARC
8
DEFAULT_255_1_234
10
5.8687922
20
116.6413828
40
0.2967456
50
292.9802137
51
325.2392345
0
ARC
8
DEFAULT_255_1_234
10
5.8413296
20
116.6947863
40
0.3566604
50
292.5402179
51
293.6924929
0
ARC
8
DEFAULT_255_1_234
10
5.8805892
20
116.0493091
40
0.3307468
50
57.6435486
51
72.8625112
0
ARC
8
DEFAULT_255_1_234
10
5.9160391
20
116.1067549
40
0.2632492
50
36.7248896
51
57.4697979
0
ARC
8
DEFAULT_255_1_234
10
5.9149024
20
116.108022
40
0.2634081
50
8.0545065
51
36.356114
0
ARC
8
DEFAULT_255_1_234
10
5.8286209
20
116.0925174
40
0.3510261
50
359.8320645
51
8.5869982
0
ARC
8
DEFAULT_255_1_234
10
5.7910985
20
116.0877101
40
0.3885653
50
343.9829931
51
0.5571613
0
ARC
8
DEFAULT_255_1_234
10
5.8797183
20
116.0634438
40
0.2966924
50
311.6359546
51
343.7651759
0
ARC
8
DEFAULT_255_1_234
10
5.8418752
20
116.1061102
40
0.3537231
50
279.7829875
51
311.6255694
0
ARC
8
DEFAULT_255_1_234
10
5.8117528
20
116.249828
40
0.5004971
50
269.7286406
51
280.3856417
0
ARC
8
DEFAULT_255_1_234
10
5.8055601
20
116.2456996
40
0.4963778
50
256.6828919
51
270.4412052
0
ARC
8
DEFAULT_255_1_234
10
5.7716896
20
116.1072394
40
0.3538406
50
229.4223008
51
256.8556159
0
ARC
8
DEFAULT_255_1_234
10
5.7302289
20
116.0605736
40
0.2914296
50
181.818294
51
229.6455059
0
ARC
8
DEFAULT_255_1_234
10
5.8342245
20
116.0736496
40
0.3959084
50
179.9755256
51
183.2323064
0
ARC
8
DEFAULT_255_1_234
10
5.8169991
20
116.0716037
40
0.2293034
50
179.4465117
51
196.2869258
0
ARC
8
DEFAULT_255_1_234
10
5.7682399
20
116.0582651
40
0.1787621
50
196.5661473
51
227.705904
0
ARC
8
DEFAULT_255_1_234
10
5.7846494
20
116.0766155
40
0.2033784
50
227.7652068
51
257.8762805
0
ARC
8
DEFAULT_255_1_234
10
5.8071464
20
116.1709156
40
0.3003081
50
257.4584385
51
270.426602
0
ARC
8
DEFAULT_255_1_234
10
5.811703
20
116.1998996
40
0.329292
50
269.5962073
51
280.8789248
0
ARC
8
DEFAULT_255_1_234
10
5.8346559
20
116.0852685
40
0.2123908
50
280.6346389
51
299.8595945
0
ARC
8
DEFAULT_255_1_234
10
5.8537466
20
116.0490212
40
0.171457
50
300.3576302
51
314.5517981
0
ARC
8
DEFAULT_255_1_234
10
5.8454526
20
116.0550919
40
0.1816095
50
315.0728369
51
345.0431014
0
ARC
8
DEFAULT_255_1_234
10
5.753134
20
116.0819841
40
0.2777492
50
344.5986631
51
357.9269593
0
ARC
8
DEFAULT_255_1_234
10
5.6635667
20
116.0881276
40
0.3674917
50
357.4748886
51
0.0231117
0
ARC
8
DEFAULT_255_1_234
10
5.7658776
20
116.0905679
40
0.2651907
50
359.5047933
51
13.4239635
0
ARC
8
DEFAULT_255_1_234
10
5.852542
20
116.1127478
40
0.1757509
50
12.9498199
51
48.7551375
0
ARC
8
DEFAULT_255_1_234
10
5.8343154
20
116.08784
40
0.2065134
50
49.5088623
51
72.1836453
0
ARC
8
DEFAULT_255_1_234
10
5.7985306
20
115.9816291
40
0.3185836
50
71.9010081
51
84.3554254
0
ARC
8
DEFAULT_255_1_234
10
5.7823938
20
115.8455326
40
0.4556151
50
84.0193428
51
89.333121
0
LINE
8
DEFAULT_255_1_234
10
4.2929902
20
124.8723211
11
4.2929902
21
123.7029
0
LINE
8
DEFAULT_255_1_234
10
4.2929902
20
123.7029
11
4.1387808
21
123.7029
0
LINE
8
DEFAULT_255_1_234
10
4.1387808
20
123.7029
11
4.1387808
21
124.8723211
0
LINE
8
DEFAULT_255_1_234
10
4.1387808
20
124.8723211
11
4.2929902
21
124.8723211
0
LINE
8
DEFAULT_255_1_234
10
5.0246815
20
124.8779433
11
5.0246815
21
123.7029
0
LINE
8
DEFAULT_255_1_234
10
5.0246815
20
123.7029
11
4.8752912
21
123.7029
0
LINE
8
DEFAULT_255_1_234
10
4.8752912
20
123.7029
11
4.8752912
21
124.6932133
0
LINE
8
DEFAULT_255_1_234
10
4.8752912
20
124.6932133
11
4.5757074
21
124.5831785
0
LINE
8
DEFAULT_255_1_234
10
4.5757074
20
124.5831785
11
4.5757074
21
124.7181117
0
LINE
8
DEFAULT_255_1_234
10
4.5757074
20
124.7181117
11
5.0013895
21
124.8779433
0
LINE
8
DEFAULT_255_1_234
10
5.0013895
20
124.8779433
11
5.0246815
21
124.8779433
0
LINE
8
DEFAULT_255_1_234
10
6.2262296
20
123.8241792
11
6.2262296
21
123.7029
0
LINE
8
DEFAULT_255_1_234
10
6.2262296
20
123.7029
11
5.4600018
21
123.7029
0
LINE
8
DEFAULT_255_1_234
10
5.4600018
20
123.7029
11
5.4600018
21
123.8097221
0
LINE
8
DEFAULT_255_1_234
10
5.4600018
20
123.8097221
11
5.8648014
21
124.2594995
0
LINE
8
DEFAULT_255_1_234
10
5.5861
20
124.5277595
11
5.4375129
21
124.5277595
0
LINE
8
DEFAULT_255_1_234
10
5.9523473
20
124.1639218
11
5.6391095
21
123.8241792
0
LINE
8
DEFAULT_255_1_234
10
5.6391095
20
123.8241792
11
6.2262296
21
123.8241792
0
ARC
8
DEFAULT_255_1_234
10
4.5157847
20
125.4524527
40
1.8008286
50
318.5132453
51
320.7828378
0
ARC
8
DEFAULT_255_1_234
10
5.0444821
20
125.0221426
40
1.1191493
50
320.7372736
51
323.9737074
0
ARC
8
DEFAULT_255_1_234
10
5.4364678
20
124.7381361
40
0.6350923
50
323.8961724
51
328.6421089
0
ARC
8
DEFAULT_255_1_234
10
5.6411273
20
124.6119031
40
0.3946393
50
328.8299013
51
331.789948
0
ARC
8
DEFAULT_255_1_234
10
5.7408452
20
124.5604509
40
0.2824501
50
331.4255242
51
352.9364833
0
ARC
8
DEFAULT_255_1_234
10
5.7544952
20
124.5573976
40
0.2685315
50
353.2248685
51
0.0169286
0
ARC
8
DEFAULT_255_1_234
10
5.7754829
20
124.559695
40
0.2475536
50
359.4866256
51
15.9339782
0
ARC
8
DEFAULT_255_1_234
10
5.8261815
20
124.5733286
40
0.1950618
50
16.1714718
51
43.5284424
0
ARC
8
DEFAULT_255_1_234
10
5.8339123
20
124.5810573
40
0.184134
50
43.4415429
51
83.1661404
0
ARC
8
DEFAULT_255_1_234
10
5.8205041
20
124.5073771
40
0.258926
50
82.160215
51
90.1505798
0
ARC
8
DEFAULT_255_1_234
10
5.8173469
20
124.4536865
40
0.3126255
50
89.5460705
51
102.5418777
0
ARC
8
DEFAULT_255_1_234
10
5.7930555
20
124.5567665
40
0.2067346
50
102.1739365
51
129.2061916
0
ARC
8
DEFAULT_255_1_234
10
5.7851627
20
124.5692094
40
0.1921118
50
129.7279328
51
135.7542026
0
ARC
8
DEFAULT_255_1_234
10
5.7973154
20
124.5595045
40
0.2075944
50
136.175737
51
166.3674722
0
ARC
8
DEFAULT_255_1_234
10
5.8980073
20
124.5325182
40
0.3118201
50
165.9092917
51
178.8683903
0
ARC
8
DEFAULT_255_1_234
10
5.9844935
20
124.5278179
40
0.3983935
50
178.438168
51
180.0083905
0
ARC
8
DEFAULT_255_1_234
10
5.8443537
20
124.5317231
40
0.4068601
50
163.2878735
51
180.5581814
0
ARC
8
DEFAULT_255_1_234
10
5.7641798
20
124.553784
40
0.3237344
50
133.454115
51
162.9470031
0
ARC
8
DEFAULT_255_1_234
10
5.782034
20
124.5348
40
0.349795
50
100.7869394
51
133.4384016
0
ARC
8
DEFAULT_255_1_234
10
5.8168111
20
124.3799319
40
0.5084616
50
89.6605301
51
101.3704185
0
ARC
8
DEFAULT_255_1_234
10
5.823445
20
124.3860496
40
0.502348
50
78.2171172
51
90.4130393
0
ARC
8
DEFAULT_255_1_234
10
5.8589528
20
124.5484637
40
0.3361092
50
55.9268222
51
78.4888551
0
ARC
8
DEFAULT_255_1_234
10
5.8785968
20
124.5823324
40
0.2970617
50
47.9292255
51
55.4054003
0
ARC
8
DEFAULT_255_1_234
10
5.8887529
20
124.5926502
40
0.2825983
50
4.3347696
51
48.0560701
0
ARC
8
DEFAULT_255_1_234
10
5.7791923
20
124.5756601
40
0.393225
50
359.925209
51
5.5967654
0
ARC
8
DEFAULT_255_1_234
10
5.8220814
20
124.5812816
40
0.3503892
50
337.8914096
51
358.9967724
0
ARC
8
DEFAULT_255_1_234
10
5.5507226
20
124.6859706
40
0.6412172
50
326.9135351
51
338.3505194
0
ARC
8
DEFAULT_255_1_234
10
5.152153
20
124.9414284
40
1.1146189
50
319.6472867
51
327.095818
0
ARC
8
DEFAULT_255_1_234
10
4.7688533
20
125.2576
40
1.6114559
50
317.2586784
51
319.9046139
0
LINE
8
DEFAULT_255_1_234
10
4.2850902
20
132.8098211
11
4.2850902
21
131.6404
0
LINE
8
DEFAULT_255_1_234
10
4.2850902
20
131.6404
11
4.1308808
21
131.6404
0
LINE
8
DEFAULT_255_1_234
10
4.1308808
20
131.6404
11
4.1308808
21
132.8098211
0
LINE
8
DEFAULT_255_1_234
10
4.1308808
20
132.8098211
11
4.2850902
21
132.8098211
0
LINE
8
DEFAULT_255_1_234
10
5.0167815
20
132.8154433
11
5.0167815
21
131.6404
0
LINE
8
DEFAULT_255_1_234
10
5.0167815
20
131.6404
11
4.8673912
21
131.6404
0
LINE
8
DEFAULT_255_1_234
10
4.8673912
20
131.6404
11
4.8673912
21
132.6307133
0
LINE
8
DEFAULT_255_1_234
10
4.8673912
20
132.6307133
11
4.5678074
21
132.5206785
0
LINE
8
DEFAULT_255_1_234
10
4.5678074
20
132.5206785
11
4.5678074
21
132.6556117
0
LINE
8
DEFAULT_255_1_234
10
4.5678074
20
132.6556117
11
4.9934895
21
132.8154433
0
LINE
8
DEFAULT_255_1_234
10
4.9934895
20
132.8154433
11
5.0167815
21
132.8154433
0
LINE
8
DEFAULT_255_1_234
10
5.9404314
20
132.8154433
11
5.9404314
21
131.6404
0
LINE
8
DEFAULT_255_1_234
10
5.9404314
20
131.6404
11
5.7910411
21
131.6404
0
LINE
8
DEFAULT_255_1_234
10
5.7910411
20
131.6404
11
5.7910411
21
132.6307133
0
LINE
8
DEFAULT_255_1_234
10
5.7910411
20
132.6307133
11
5.4914573
21
132.5206785
0
LINE
8
DEFAULT_255_1_234
10
5.4914573
20
132.5206785
11
5.4914573
21
132.6556117
0
LINE
8
DEFAULT_255_1_234
10
5.4914573
20
132.6556117
11
5.9171394
21
132.8154433
0
LINE
8
DEFAULT_255_1_234
10
5.9171394
20
132.8154433
11
5.9404314
21
132.8154433
0
LINE
8
DEFAULT_255_1_234
10
4.2929902
20
140.7473211
11
4.2929902
21
139.5779
0
LINE
8
DEFAULT_255_1_234
10
4.2929902
20
139.5779
11
4.1387808
21
139.5779
0
LINE
8
DEFAULT_255_1_234
10
4.1387808
20
139.5779
11
4.1387808
21
140.7473211
0
LINE
8
DEFAULT_255_1_234
10
4.1387808
20
140.7473211
11
4.2929902
21
140.7473211
0
LINE
8
DEFAULT_255_1_234
10
5.0246815
20
140.7529433
11
5.0246815
21
139.5779
0
LINE
8
DEFAULT_255_1_234
10
5.0246815
20
139.5779
11
4.8752912
21
139.5779
0
LINE
8
DEFAULT_255_1_234
10
4.8752912
20
139.5779
11
4.8752912
21
140.5682133
0
LINE
8
DEFAULT_255_1_234
10
4.8752912
20
140.5682133
11
4.5757074
21
140.4581785
0
LINE
8
DEFAULT_255_1_234
10
4.5757074
20
140.4581785
11
4.5757074
21
140.5931117
0
LINE
8
DEFAULT_255_1_234
10
4.5757074
20
140.5931117
11
5.0013895
21
140.7529433
0
LINE
8
DEFAULT_255_1_234
10
5.0013895
20
140.7529433
11
5.0246815
21
140.7529433
0
LINE
8
DEFAULT_255_1_234
10
6.1932995
20
140.2694327
11
6.1932995
21
140.0766709
0
LINE
8
DEFAULT_255_1_234
10
5.4551827
20
140.0565916
11
5.4551827
21
140.2549755
0
LINE
8
DEFAULT_255_1_234
10
6.0447123
20
140.0365123
11
6.0447123
21
140.2798739
0
LINE
8
DEFAULT_255_1_234
10
5.6037699
20
140.2911184
11
5.6037699
21
140.0533789
0
ARC
8
DEFAULT_255_1_234
10
4.9685884
20
140.0717805
40
1.2247208
50
353.8441951
51
0.2287902
0
ARC
8
DEFAULT_255_1_234
10
5.4325388
20
140.0199806
40
0.7578929
50
344.4934747
51
353.9765454
0
ARC
8
DEFAULT_255_1_234
10
5.7317978
20
139.9348981
40
0.4467846
50
329.2803592
51
344.7472793
0
ARC
8
DEFAULT_255_1_234
10
5.8310803
20
139.8804018
40
0.3336173
50
324.9352394
51
328.6160465
0
ARC
8
DEFAULT_255_1_234
10
5.8687912
20
139.8540427
40
0.2876076
50
280.580143
51
324.9173126
0
ARC
8
DEFAULT_255_1_234
10
5.8286704
20
140.0211099
40
0.4592847
50
269.5977311
51
281.6734359
0
ARC
8
DEFAULT_255_1_234
10
5.821461
20
140.0091173
40
0.4472986
50
256.6228859
51
270.51044
0
ARC
8
DEFAULT_255_1_234
10
5.7812588
20
139.8542877
40
0.2873874
50
215.8618325
51
257.2788573
0
ARC
8
DEFAULT_255_1_234
10
5.8833619
20
139.9227977
40
0.4102928
50
197.9693508
51
215.2623606
0
ARC
8
DEFAULT_255_1_234
10
6.1318735
20
140.0066709
40
0.6725652
50
187.8816417
51
198.2346507
0
ARC
8
DEFAULT_255_1_234
10
6.5276943
20
140.0638079
40
1.0724845
50
180.8976217
51
188.0055519
0
ARC
8
DEFAULT_255_1_234
10
6.8077131
20
140.0741777
40
1.3526448
50
180.7449369
51
181.1510016
0
ARC
8
DEFAULT_255_1_234
10
6.649986
20
140.2598042
40
1.1948131
50
173.7675579
51
180.231553
0
ARC
8
DEFAULT_255_1_234
10
6.1982007
20
140.3108666
40
0.7401564
50
164.3058563
51
173.9002247
0
ARC
8
DEFAULT_255_1_234
10
5.9070076
20
140.3947656
40
0.4371288
50
148.7922025
51
164.568378
0
ARC
8
DEFAULT_255_1_234
10
5.8118528
20
140.4478929
40
0.3282386
50
144.5883898
51
148.1176286
0
ARC
8
DEFAULT_255_1_234
10
5.7775426
20
140.4718315
40
0.2864044
50
101.6440918
51
144.514236
0
ARC
8
DEFAULT_255_1_234
10
5.8200493
20
140.3029069
40
0.4604934
50
89.5284041
51
102.5819763
0
ARC
8
DEFAULT_255_1_234
10
5.827958
20
140.2990018
40
0.464401
50
77.0437873
51
90.5081339
0
ARC
8
DEFAULT_255_1_234
10
5.8681582
20
140.4632615
40
0.2953195
50
48.2778575
51
77.4994676
0
ARC
8
DEFAULT_255_1_234
10
5.8754213
20
140.4761746
40
0.2808655
50
36.3142134
51
47.6305865
0
ARC
8
DEFAULT_255_1_234
10
5.788552
20
140.4176515
40
0.3855453
50
18.2931786
51
35.6769206
0
ARC
8
DEFAULT_255_1_234
10
5.5342279
20
140.3303593
40
0.654423
50
8.024666
51
18.5605216
0
ARC
8
DEFAULT_255_1_234
10
5.1179199
20
140.2688792
40
1.0752407
50
1.1274072
51
8.1718305
0
ARC
8
DEFAULT_255_1_234
10
4.794339
20
140.2561885
40
1.3990231
50
0.5424119
51
1.3863029
0
ARC
8
DEFAULT_255_1_234
10
4.9764768
20
140.2834342
40
1.0682415
50
359.8090433
51
4.9407866
0
ARC
8
DEFAULT_255_1_234
10
5.3974782
20
140.3210113
40
0.6455691
50
4.8362157
51
12.2904523
0
ARC
8
DEFAULT_255_1_234
10
5.6729897
20
140.3823965
40
0.3633074
50
12.0805627
51
23.8173984
0
ARC
8
DEFAULT_255_1_234
10
5.7903602
20
140.4320919
40
0.2358723
50
24.2871213
51
31.3935614
0
ARC
8
DEFAULT_255_1_234
10
5.8428299
20
140.4664233
40
0.1732111
50
30.7407893
51
82.4657128
0
ARC
8
DEFAULT_255_1_234
10
5.8248433
20
140.3780691
40
0.263235
50
81.1060089
51
90.2184952
0
ARC
8
DEFAULT_255_1_234
10
5.8212732
20
140.4038924
40
0.2374236
50
89.3806855
51
105.6762551
0
ARC
8
DEFAULT_255_1_234
10
5.8029363
20
140.4705567
40
0.1682847
50
105.7981136
51
149.7388061
0
ARC
8
DEFAULT_255_1_234
10
5.9093441
20
140.406595
40
0.2924306
50
149.4208916
51
163.6286378
0
ARC
8
DEFAULT_255_1_234
10
6.1184329
20
140.342825
40
0.5110213
50
163.3763315
51
172.1410975
0
ARC
8
DEFAULT_255_1_234
10
6.4485048
20
140.2955518
40
0.8444586
50
172.0259487
51
178.0703232
0
ARC
8
DEFAULT_255_1_234
10
6.7515138
20
140.2811906
40
1.1477868
50
177.8631668
51
179.5044149
0
ARC
8
DEFAULT_255_1_234
10
6.6442542
20
140.0497389
40
1.0404907
50
179.7995573
51
185.2460446
0
ARC
8
DEFAULT_255_1_234
10
6.2399582
20
140.0114513
40
0.6343885
50
185.1411642
51
193.0079639
0
ARC
8
DEFAULT_255_1_234
10
5.9756054
20
139.9489641
40
0.3627568
50
192.7897626
51
205.2507664
0
ARC
8
DEFAULT_255_1_234
10
5.8709601
20
139.9022415
40
0.2481908
50
205.8005384
51
211.2537509
0
ARC
8
DEFAULT_255_1_234
10
5.8186042
20
139.867158
40
0.1852521
50
210.3789793
51
238.4008143
0
ARC
8
DEFAULT_255_1_234
10
5.8166563
20
139.8718376
40
0.1882621
50
239.6520629
51
265.9793761
0
ARC
8
DEFAULT_255_1_234
10
5.8251764
20
139.9390427
40
0.2559272
50
265.1315437
51
270.060332
0
ARC
8
DEFAULT_255_1_234
10
5.8280542
20
139.9066534
40
0.2235528
50
269.3314664
51
287.2178029
0
ARC
8
DEFAULT_255_1_234
10
5.8418394
20
139.8563279
40
0.1714108
50
287.7958004
51
329.080874
0
ARC
8
DEFAULT_255_1_234
10
5.7460851
20
139.916093
40
0.2842745
50
328.6634704
51
343.3325132
0
ARC
8
DEFAULT_255_1_234
10
5.5287871
20
139.9837863
40
0.5118644
50
343.0499468
51
351.9393422
0
ARC
8
DEFAULT_255_1_234
10
5.1821171
20
140.0348949
40
0.8622784
50
351.8069023
51
357.7959224
0
ARC
8
DEFAULT_255_1_234
10
4.8585727
20
140.0516721
40
1.1862365
50
357.5871873
51
359.2677531
0
LINE
8
DEFAULT_255_1_234
10
4.2318902
20
148.6848211
11
4.2318902
21
147.5154
0
LINE
8
DEFAULT_255_1_234
10
4.2318902
20
147.5154
11
4.0776808
21
147.5154
0
LINE
8
DEFAULT_255_1_234
10
4.0776808
20
147.5154
11
4.0776808
21
148.6848211
0
LINE
8
DEFAULT_255_1_234
10
4.0776808
20
148.6848211
11
4.2318902
21
148.6848211
0
LINE
8
DEFAULT_255_1_234
10
5.1940924
20
148.2173739
11
5.1940924
21
148.1740025
0
LINE
8
DEFAULT_255_1_234
10
4.6519501
20
147.5145968
11
4.6230358
21
147.5145968
0
LINE
8
DEFAULT_255_1_234
10
4.6230358
20
147.5145968
11
4.6230358
21
147.6398919
0
LINE
8
DEFAULT_255_1_234
10
4.6230358
20
147.6398919
11
4.6543596
21
147.6398919
0
LINE
8
DEFAULT_255_1_234
10
5.0455053
20
148.1884597
11
5.0455053
21
148.2478945
0
ARC
8
DEFAULT_255_1_234
10
4.7661322
20
148.2630403
40
0.3635579
50
297.4037347
51
320.016758
0
ARC
8
DEFAULT_255_1_234
10
4.7951271
20
148.207324
40
0.3007486
50
270.2633101
51
297.3851877
0
ARC
8
DEFAULT_255_1_234
10
4.7917227
20
148.2536904
40
0.3471448
50
269.9966443
51
270.7900392
0
ARC
8
DEFAULT_255_1_234
10
4.7891708
20
148.2535143
40
0.3469779
50
254.5999133
51
270.4180344
0
ARC
8
DEFAULT_255_1_234
10
4.7749068
20
148.1970647
40
0.2887697
50
236.4717942
51
254.3541279
0
ARC
8
DEFAULT_255_1_234
10
4.7905285
20
148.2180711
40
0.3149125
50
208.4727207
51
236.2134933
0
ARC
8
DEFAULT_255_1_234
10
4.854406
20
148.2571455
40
0.3897115
50
204.3447514
51
209.0453999
0
ARC
8
DEFAULT_255_1_234
10
4.9223636
20
148.2859656
40
0.4635101
50
183.9375985
51
204.1276318
0
ARC
8
DEFAULT_255_1_234
10
5.0131888
20
148.2957482
40
0.5548037
50
179.9652252
51
184.3013875
0
ARC
8
DEFAULT_255_1_234
10
4.9891934
20
148.2990507
40
0.5308164
50
166.7585989
51
180.3201225
0
ARC
8
DEFAULT_255_1_234
10
4.9045547
20
148.3174488
40
0.4442163
50
154.6955053
51
166.5679793
0
ARC
8
DEFAULT_255_1_234
10
4.8192417
20
148.360421
40
0.3487299
50
136.3324195
51
155.0871442
0
ARC
8
DEFAULT_255_1_234
10
4.791149
20
148.3844954
40
0.3117924
50
121.236733
51
135.9680508
0
ARC
8
DEFAULT_255_1_234
10
4.8051988
20
148.3584743
40
0.3413302
50
96.845628
51
120.9881519
0
ARC
8
DEFAULT_255_1_234
10
4.819757
20
148.2649515
40
0.4359341
50
89.8870174
51
97.2802754
0
ARC
8
DEFAULT_255_1_234
10
4.8250008
20
148.3287095
40
0.3722009
50
70.6505584
51
90.6749113
0
ARC
8
DEFAULT_255_1_234
10
4.8381287
20
148.3800361
40
0.3194571
50
36.7492984
51
69.8219918
0
ARC
8
DEFAULT_255_1_234
10
4.7382452
20
148.3021993
40
0.4460685
50
15.39587
51
37.0840084
0
ARC
8
DEFAULT_255_1_234
10
4.5252885
20
148.2401242
40
0.6678714
50
3.9488873
51
15.6798563
0
ARC
8
DEFAULT_255_1_234
10
4.2851513
20
148.2184964
40
0.9089418
50
359.929245
51
4.2665314
0
ARC
8
DEFAULT_255_1_234
10
3.824595
20
148.1673513
40
1.3695135
50
352.8366322
51
0.2782669
0
ARC
8
DEFAULT_255_1_234
10
4.3533629
20
148.0986629
40
0.8363105
50
341.8359505
51
352.9884176
0
ARC
8
DEFAULT_255_1_234
10
4.6752348
20
147.99017
40
0.4966642
50
322.8578092
51
342.1527901
0
ARC
8
DEFAULT_255_1_234
10
4.7616304
20
147.9312384
40
0.3922466
50
319.334325
51
322.0998941
0
ARC
8
DEFAULT_255_1_234
10
4.7306641
20
147.9623209
40
0.4360033
50
285.9541367
51
318.8878087
0
ARC
8
DEFAULT_255_1_234
10
4.6579902
20
148.19336
40
0.678149
50
272.9281676
51
286.4922826
0
ARC
8
DEFAULT_255_1_234
10
4.639002
20
148.4184587
40
0.9039547
50
270.8207226
51
273.4012994
0
ARC
8
DEFAULT_255_1_234
10
4.6478871
20
148.2365666
40
0.5967098
50
270.6214993
51
281.4062806
0
ARC
8
DEFAULT_255_1_234
10
4.6908852
20
148.0309833
40
0.3866861
50
281.1852553
51
299.0621114
0
ARC
8
DEFAULT_255_1_234
10
4.7282423
20
147.9588798
40
0.3055236
50
299.5067782
51
313.1200873
0
ARC
8
DEFAULT_255_1_234
10
4.730439
20
147.9509554
40
0.2982623
50
313.8526205
51
338.5989322
0
ARC
8
DEFAULT_255_1_234
10
4.5680464
20
148.0176781
40
0.4738131
50
338.2523585
51
351.2430902
0
ARC
8
DEFAULT_255_1_234
10
4.326976
20
148.0586447
40
0.7183203
50
350.9409515
51
357.6691871
0
ARC
8
DEFAULT_255_1_234
10
4.816019
20
148.2588764
40
0.2294452
50
269.9447023
51
306.8248917
0
ARC
8
DEFAULT_255_1_234
10
4.7923105
20
148.3011898
40
0.2775994
50
305.5072438
51
327.0773448
0
ARC
8
DEFAULT_255_1_234
10
4.8041546
20
148.2917025
40
0.2625056
50
327.4104943
51
336.840169
0
ARC
8
DEFAULT_255_1_234
10
4.4947611
20
148.2511302
40
0.5507537
50
359.6633817
51
10.117533
0
ARC
8
DEFAULT_255_1_234
10
4.6701409
20
148.2835777
40
0.372403
50
9.9430141
51
26.7700076
0
ARC
8
DEFAULT_255_1_234
10
4.7298622
20
148.3111187
40
0.3066865
50
27.2015464
51
34.6829435
0
ARC
8
DEFAULT_255_1_234
10
4.7788102
20
148.3478977
40
0.245519
50
34.1250343
51
50.3070065
0
ARC
8
DEFAULT_255_1_234
10
4.8234781
20
148.4013385
40
0.1758693
50
50.3851167
51
90.6705993
0
ARC
8
DEFAULT_255_1_234
10
4.8188014
20
148.3708799
40
0.2063326
50
89.272901
51
111.9140407
0
ARC
8
DEFAULT_255_1_234
10
4.8168542
20
148.384944
40
0.1925887
50
112.9382311
51
142.5320782
0
ARC
8
DEFAULT_255_1_234
10
4.8714722
20
148.3405969
40
0.2629232
50
142.1021256
51
166.3835592
0
ARC
8
DEFAULT_255_1_234
10
4.9896027
20
148.3100915
40
0.3849193
50
166.1100289
51
178.665427
0
ARC
8
DEFAULT_255_1_234
10
5.0943617
20
148.3042117
40
0.4897989
50
178.2632126
51
180.0111093
0
ARC
8
DEFAULT_255_1_234
10
5.0141737
20
148.3013728
40
0.40962
50
179.6161962
51
191.8787166
0
ARC
8
DEFAULT_255_1_234
10
4.8921576
20
148.2743896
40
0.2846655
50
191.6191692
51
215.2972286
0
ARC
8
DEFAULT_255_1_234
10
4.8724767
20
148.2628918
40
0.2619665
50
215.7320102
51
216.5355409
0
ARC
8
DEFAULT_255_1_234
10
4.8185854
20
148.2196647
40
0.1929497
50
215.7486685
51
239.9727502
0
ARC
8
DEFAULT_255_1_234
10
4.8115769
20
148.2145894
40
0.1850822
50
241.0650169
51
269.2810483
0
ARC
8
DEFAULT_255_1_234
10
4.8157684
20
148.2636371
40
0.2342059
50
268.4062526
51
270.0071348
0
LINE
8
DEFAULT_255_1_234
10
4.2318902
20
156.6223211
11
4.2318902
21
155.4529
0
LINE
8
DEFAULT_255_1_234
10
4.2318902
20
155.4529
11
4.0776808
21
155.4529
0
LINE
8
DEFAULT_255_1_234
10
4.0776808
20
155.4529
11
4.0776808
21
156.6223211
0
LINE
8
DEFAULT_255_1_234
10
4.0776808
20
156.6223211
11
4.2318902
21
156.6223211
0
ARC
8
DEFAULT_255_1_234
10
4.9022302
20
156.3145703
40
0.2822356
50
338.8763615
51
0.5166041
0
ARC
8
DEFAULT_255_1_234
10
4.9190957
20
156.3100208
40
0.2648703
50
325.8412414
51
338.4795939
0
ARC
8
DEFAULT_255_1_234
10
4.8800324
20
156.3371042
40
0.3124019
50
296.7586019
51
325.753654
0
ARC
8
DEFAULT_255_1_234
10
4.8512433
20
156.3855789
40
0.368668
50
296.0902311
51
297.3618122
0
ARC
8
DEFAULT_255_1_234
10
4.876989
20
155.7301041
40
0.3518806
50
47.9009248
51
67.1946869
0
ARC
8
DEFAULT_255_1_234
10
4.8966132
20
155.7547395
40
0.320451
50
35.236241
51
47.551371
0
ARC
8
DEFAULT_255_1_234
10
4.922775
20
155.7721993
40
0.2890103
50
359.2759738
51
35.4014081
0
ARC
8
DEFAULT_255_1_234
10
4.8482781
20
155.7648826
40
0.3635026
50
343.1294516
51
0.5776525
0
ARC
8
DEFAULT_255_1_234
10
4.9207326
20
155.744933
40
0.2883832
50
310.8497458
51
342.744803
0
ARC
8
DEFAULT_255_1_234
10
4.8789439
20
155.7926294
40
0.3517954
50
281.5473923
51
310.9169905
0
ARC
8
DEFAULT_255_1_234
10
4.8432889
20
155.9479084
40
0.5110832
50
269.6192722
51
281.9789957
0
ARC
8
DEFAULT_255_1_234
10
4.8360678
20
155.9479828
40
0.5111606
50
257.4584469
51
270.4287458
0
ARC
8
DEFAULT_255_1_234
10
4.7979821
20
155.7876344
40
0.3463762
50
228.7553743
51
257.8484423
0
ARC
8
DEFAULT_255_1_234
10
4.7670019
20
155.7503442
40
0.297916
50
184.0104442
51
228.5071787
0
ARC
8
DEFAULT_255_1_234
10
4.8832963
20
155.7680512
40
0.4152734
50
179.9315461
51
185.3254504
0
ARC
8
DEFAULT_255_1_234
10
4.7656609
20
155.7717992
40
0.2976554
50
145.6795913
51
180.6259649
0
ARC
8
DEFAULT_255_1_234
10
4.7819958
20
155.7603929
40
0.3175776
50
115.5537925
51
145.6416199
0
ARC
8
DEFAULT_255_1_234
10
4.8160889
20
155.6993028
40
0.3874232
50
113.2437915
51
116.2054627
0
ARC
8
DEFAULT_255_1_234
10
4.8008101
20
156.339158
40
0.3154751
50
222.9548379
51
244.1372485
0
ARC
8
DEFAULT_255_1_234
10
4.7886176
20
156.3254834
40
0.2972382
50
213.3439227
51
222.6271327
0
ARC
8
DEFAULT_255_1_234
10
4.7694111
20
156.3124308
40
0.274019
50
180.4316517
51
213.2713999
0
ARC
8
DEFAULT_255_1_234
10
4.8269112
20
156.317111
40
0.33158
50
179.9992944
51
181.1655061
0
ARC
8
DEFAULT_255_1_234
10
4.8678529
20
156.3205561
40
0.3725376
50
164.6186108
51
180.5292368
0
ARC
8
DEFAULT_255_1_234
10
4.7780392
20
156.3447101
40
0.2795349
50
132.2454369
51
164.5092287
0
ARC
8
DEFAULT_255_1_234
10
4.8067496
20
156.3122028
40
0.3229019
50
100.7052766
51
132.1387266
0
ARC
8
DEFAULT_255_1_234
10
4.8372468
20
156.1744086
40
0.4639835
50
89.6732617
51
101.2449487
0
ARC
8
DEFAULT_255_1_234
10
4.8434667
20
156.191899
40
0.4464999
50
76.2876631
51
90.4586123
0
ARC
8
DEFAULT_255_1_234
10
4.8740898
20
156.314122
40
0.3205023
50
47.8240157
51
76.4266918
0
ARC
8
DEFAULT_255_1_234
10
4.8963448
20
156.340159
40
0.2862661
50
6.9168658
51
47.6261438
0
ARC
8
DEFAULT_255_1_234
10
4.7776851
20
156.318237
40
0.4067708
50
359.8419705
51
7.9694496
0
ARC
8
DEFAULT_255_1_234
10
4.8118748
20
155.7741925
40
0.2513121
50
359.4454068
51
16.9256425
0
ARC
8
DEFAULT_255_1_234
10
4.8587559
20
155.7871033
40
0.2027071
50
17.292259
51
45.462717
0
ARC
8
DEFAULT_255_1_234
10
4.8533495
20
155.7824434
40
0.2098212
50
45.3028762
51
83.1921472
0
ARC
8
DEFAULT_255_1_234
10
4.8390179
20
155.7022895
40
0.2911472
50
82.2614531
51
90.143954
0
ARC
8
DEFAULT_255_1_234
10
4.8359299
20
155.725595
40
0.2678513
50
89.4959189
51
104.8579811
0
ARC
8
DEFAULT_255_1_234
10
4.8182558
20
155.792589
40
0.1985654
50
104.8855873
51
135.2448349
0
ARC
8
DEFAULT_255_1_234
10
4.8232331
20
155.7881336
40
0.2052373
50
135.3398955
51
172.104394
0
ARC
8
DEFAULT_255_1_234
10
4.9039389
20
155.7726925
40
0.2873299
50
171.2651929
51
180.1859362
0
ARC
8
DEFAULT_255_1_234
10
4.887009
20
155.7694733
40
0.2704083
50
179.515471
51
193.6466734
0
ARC
8
DEFAULT_255_1_234
10
4.8053859
20
155.7486777
40
0.1861855
50
193.3540587
51
225.8256931
0
ARC
8
DEFAULT_255_1_234
10
4.8094617
20
155.7557524
40
0.1941102
50
226.418029
51
255.8553723
0
ARC
8
DEFAULT_255_1_234
10
4.8351049
20
155.8493998
40
0.2911917
50
255.4655572
51
268.7985967
0
ARC
8
DEFAULT_255_1_234
10
4.8398241
20
155.9332491
40
0.3751331
50
268.3464808
51
270.0104874
0
ARC
8
DEFAULT_255_1_234
10
4.8421629
20
155.8648138
40
0.3067064
50
269.575914
51
282.0823146
0
ARC
8
DEFAULT_255_1_234
10
4.8646538
20
155.7653803
40
0.2047712
50
281.7522535
51
306.6056425
0
ARC
8
DEFAULT_255_1_234
10
4.8744964
20
155.7492487
40
0.1859604
50
307.1350025
51
314.0277951
0
ARC
8
DEFAULT_255_1_234
10
4.8709049
20
155.7518766
40
0.1903475
50
314.2553419
51
350.169324
0
ARC
8
DEFAULT_255_1_234
10
4.7857517
20
155.7703409
40
0.2774269
50
349.4145679
51
0.2930737
0
ARC
8
DEFAULT_255_1_234
10
4.837795
20
156.2862353
40
0.2300764
50
89.477591
51
105.729794
0
ARC
8
DEFAULT_255_1_234
10
4.8241864
20
156.3367637
40
0.1777519
50
105.922966
51
135.1662921
0
ARC
8
DEFAULT_255_1_234
10
4.8262366
20
156.3353419
40
0.1802087
50
135.3053131
51
168.9882338
0
ARC
8
DEFAULT_255_1_234
10
4.9089939
20
156.3163721
40
0.2650806
50
168.3802067
51
180.3602358
0
ARC
8
DEFAULT_255_1_234
10
4.8861518
20
156.3126041
40
0.2422425
50
179.5029707
51
194.9126783
0
ARC
8
DEFAULT_255_1_234
10
4.8276179
20
156.297211
40
0.1817188
50
194.9722181
51
224.1943972
0
ARC
8
DEFAULT_255_1_234
10
4.8248046
20
156.2949169
40
0.1781027
50
224.2961434
51
262.0157375
0
ARC
8
DEFAULT_255_1_234
10
4.8390289
20
156.3680661
40
0.2525492
50
261.1250369
51
270.1959853
0
ARC
8
DEFAULT_255_1_234
10
4.8420044
20
156.3493339
40
0.233825
50
269.4825617
51
285.0988277
0
ARC
8
DEFAULT_255_1_234
10
4.8574203
20
156.291499
40
0.1739712
50
285.1585659
51
315.9484648
0
ARC
8
DEFAULT_255_1_234
10
4.8485215
20
156.2996886
40
0.1860616
50
316.0412958
51
351.9162715
0
ARC
8
DEFAULT_255_1_234
10
4.775217
20
156.3138245
40
0.2606517
50
351.1056823
51
0.1936567
0
ARC
8
DEFAULT_255_1_234
10
4.8014999
20
156.3168369
40
0.234377
50
359.4789506
51
16.0679113
0
ARC
8
DEFAULT_255_1_234
10
4.8490958
20
156.329681
40
0.1850875
50
16.3251951
51
44.791304
0
ARC
8
DEFAULT_255_1_234
10
4.8473239
20
156.3297339
40
0.186312
50
44.3958661
51
88.2498933
0
ARC
8
DEFAULT_255_1_234
10
4.8399793
20
156.2686154
40
0.2476868
50
86.9833827
51
90.0200148
0
LINE
8
DEFAULT_255_1_234
10
4.2318902
20
164.5598211
11
4.2318902
21
163.3904
0
LINE
8
DEFAULT_255_1_234
10
4.2318902
20
163.3904
11
4.0776808
21
163.3904
0
LINE
8
DEFAULT_255_1_234
10
4.0776808
20
163.3904
11
4.0776808
21
164.5598211
0
LINE
8
DEFAULT_255_1_234
10
4.0776808
20
164.5598211
11
4.2318902
21
164.5598211
0
LINE
8
DEFAULT_255_1_234
10
5.2302353
20
164.5598211
11
5.2302353
21
164.476291
0
LINE
8
DEFAULT_255_1_234
10
5.2302353
20
164.476291
11
4.7459214
21
163.3904
0
LINE
8
DEFAULT_255_1_234
10
4.7459214
20
163.3904
11
4.5901057
21
163.3904
0
LINE
8
DEFAULT_255_1_234
10
4.5901057
20
163.3904
11
5.0728132
21
164.4377387
0
LINE
8
DEFAULT_255_1_234
10
5.0728132
20
164.4377387
11
4.4399122
21
164.4377387
0
LINE
8
DEFAULT_255_1_234
10
4.4399122
20
164.4377387
11
4.4399122
21
164.5598211
0
LINE
8
DEFAULT_255_1_234
10
4.4399122
20
164.5598211
11
5.2302353
21
164.5598211
0
LINE
8
DEFAULT_255_1_234
10
4.2318902
20
172.4973211
11
4.2318902
21
171.3279
0
LINE
8
DEFAULT_255_1_234
10
4.2318902
20
171.3279
11
4.0776808
21
171.3279
0
LINE
8
DEFAULT_255_1_234
10
4.0776808
20
171.3279
11
4.0776808
21
172.4973211
0
LINE
8
DEFAULT_255_1_234
10
4.0776808
20
172.4973211
11
4.2318902
21
172.4973211
0
LINE
8
DEFAULT_255_1_234
10
5.0318513
20
172.4981243
11
5.0583561
21
172.4981243
0
LINE
8
DEFAULT_255_1_234
10
5.0583561
20
172.4981243
11
5.0583561
21
172.372026
0
LINE
8
DEFAULT_255_1_234
10
5.0583561
20
172.372026
11
5.0310481
21
172.372026
0
LINE
8
DEFAULT_255_1_234
10
4.4840868
20
171.7728583
11
4.4840868
21
171.8298836
0
LINE
8
DEFAULT_255_1_234
10
4.6334771
20
171.8106075
11
4.6334771
21
171.7559917
0
ARC
8
DEFAULT_255_1_234
10
5.0362829
20
171.8722455
40
0.4998079
50
90.6001036
51
104.514704
0
ARC
8
DEFAULT_255_1_234
10
4.9974345
20
172.0167131
40
0.3502176
50
104.2855254
51
133.862935
0
ARC
8
DEFAULT_255_1_234
10
5.0138102
20
172.005883
40
0.3693984
50
134.5302688
51
161.6210873
0
ARC
8
DEFAULT_255_1_234
10
5.1791291
20
171.9475895
40
0.5446739
50
161.2849839
51
174.2076652
0
ARC
8
DEFAULT_255_1_234
10
5.3198228
20
171.9281787
40
0.6866274
50
173.7810589
51
174.9254635
0
ARC
8
DEFAULT_255_1_234
10
4.864806
20
171.7898839
40
0.3033419
50
95.8330959
51
138.9954921
0
ARC
8
DEFAULT_255_1_234
10
4.8871416
20
171.6620375
40
0.4328947
50
89.8753725
51
97.0544009
0
ARC
8
DEFAULT_255_1_234
10
4.8918882
20
171.7455748
40
0.3493769
50
71.6407809
51
90.6240094
0
ARC
8
DEFAULT_255_1_234
10
4.9069456
20
171.8010082
40
0.2920396
50
39.6367836
51
71.019018
0
ARC
8
DEFAULT_255_1_234
10
4.8432928
20
171.7459998
40
0.3761538
50
10.658731
51
39.9043955
0
ARC
8
DEFAULT_255_1_234
10
4.6885011
20
171.7123686
40
0.5345136
50
359.682601
51
11.132623
0
ARC
8
DEFAULT_255_1_234
10
4.6845142
20
171.705301
40
0.5385081
50
347.2486944
51
0.4369317
0
ARC
8
DEFAULT_255_1_234
10
4.8512619
20
171.6651807
40
0.3670249
50
318.1409698
51
347.6118597
0
ARC
8
DEFAULT_255_1_234
10
4.8837612
20
171.6384702
40
0.3250007
50
275.6342139
51
317.8248465
0
ARC
8
DEFAULT_255_1_234
10
4.8616724
20
171.7684219
40
0.4565864
50
269.8874292
51
276.7917694
0
ARC
8
DEFAULT_255_1_234
10
4.8561794
20
171.6658743
40
0.3540676
50
246.9140195
51
270.7437342
0
ARC
8
DEFAULT_255_1_234
10
4.8568184
20
171.6516384
40
0.3412781
50
218.1665114
51
245.878116
0
ARC
8
DEFAULT_255_1_234
10
4.9447645
20
171.7252279
40
0.455911
50
191.4115814
51
218.6077802
0
ARC
8
DEFAULT_255_1_234
10
5.1385735
20
171.7686833
40
0.6545001
50
179.6345085
51
191.7836486
0
ARC
8
DEFAULT_255_1_234
10
5.6968071
20
171.8365697
40
1.2127388
50
171.4525249
51
180.3158839
0
ARC
8
DEFAULT_255_1_234
10
5.2572947
20
171.9049608
40
0.7679464
50
157.9802646
51
171.6246686
0
ARC
8
DEFAULT_255_1_234
10
5.0358968
20
171.9932421
40
0.5296008
50
141.4298019
51
157.854097
0
ARC
8
DEFAULT_255_1_234
10
4.9717289
20
172.0386381
40
0.4511509
50
102.8715806
51
140.8564722
0
ARC
8
DEFAULT_255_1_234
10
5.0364904
20
171.7946552
40
0.7034845
50
90.3778349
51
103.5869322
0
ARC
8
DEFAULT_255_1_234
10
4.862668
20
171.734173
40
0.2370698
50
89.8751008
51
126.2071704
0
ARC
8
DEFAULT_255_1_234
10
4.867247
20
171.7187303
40
0.2522934
50
124.9745049
51
144.895901
0
ARC
8
DEFAULT_255_1_234
10
4.8496661
20
171.733056
40
0.2296779
50
145.2974905
51
160.2660252
0
ARC
8
DEFAULT_255_1_234
10
5.1569199
20
171.7528071
40
0.5234525
50
179.6514266
51
190.2855912
0
ARC
8
DEFAULT_255_1_234
10
4.9875337
20
171.7208786
40
0.3510893
50
190.0945431
51
207.5098196
0
ARC
8
DEFAULT_255_1_234
10
4.9309606
20
171.6939623
40
0.288489
50
207.9583163
51
216.3251085
0
ARC
8
DEFAULT_255_1_234
10
4.8969714
20
171.6660105
40
0.2445587
50
215.7661442
51
232.5456785
0
ARC
8
DEFAULT_255_1_234
10
4.8586697
20
171.6173482
40
0.1826382
50
232.8005391
51
270.6605633
0
ARC
8
DEFAULT_255_1_234
10
4.8632398
20
171.6537612
40
0.2190529
50
269.35537
51
288.4744281
0
ARC
8
DEFAULT_255_1_234
10
4.8725295
20
171.6188118
40
0.1829749
50
289.1833337
51
322.9683818
0
ARC
8
DEFAULT_255_1_234
10
4.8113818
20
171.6670391
40
0.2608399
50
322.6007884
51
346.5182367
0
ARC
8
DEFAULT_255_1_234
10
4.6956413
20
171.6965616
40
0.3802777
50
346.2582162
51
358.7741648
0
ARC
8
DEFAULT_255_1_234
10
4.5938082
20
171.7020965
40
0.4822176
50
358.3755224
51
0.0098023
0
ARC
8
DEFAULT_255_1_234
10
4.6694269
20
171.7048657
40
0.4066078
50
359.6214041
51
11.2839074
0
ARC
8
DEFAULT_255_1_234
10
4.7971416
20
171.7315066
40
0.2761514
50
11.0482309
51
31.8146458
0
ARC
8
DEFAULT_255_1_234
10
4.8280459
20
171.7482584
40
0.2410679
50
32.3035391
51
38.082671
0
ARC
8
DEFAULT_255_1_234
10
4.8701119
20
171.7863662
40
0.1844966
50
36.825067
51
85.7415724
0
ARC
8
DEFAULT_255_1_234
10
4.8633953
20
171.7363301
40
0.2349122
50
85.0140713
51
90.0513278
0
LINE
8
DEFAULT_255_1_234
10
4.2318902
20
180.4348211
11
4.2318902
21
179.2654
0
LINE
8
DEFAULT_255_1_234
10
4.2318902
20
179.2654
11
4.0776808
21
179.2654
0
LINE
8
DEFAULT_255_1_234
10
4.0776808
20
179.2654
11
4.0776808
21
180.4348211
0
LINE
8
DEFAULT_255_1_234
10
4.0776808
20
180.4348211
11
4.2318902
21
180.4348211
0
LINE
8
DEFAULT_255_1_234
10
4.6623914
20
179.8211963
11
4.5435216
21
179.8517169
0
LINE
8
DEFAULT_255_1_234
10
4.5435216
20
179.8517169
11
4.6029565
21
180.4348211
0
LINE
8
DEFAULT_255_1_234
10
4.6029565
20
180.4348211
11
5.2021242
21
180.4348211
0
LINE
8
DEFAULT_255_1_234
10
5.2021242
20
180.4348211
11
5.2021242
21
180.2974784
0
LINE
8
DEFAULT_255_1_234
10
5.2021242
20
180.2974784
11
4.7290548
21
180.2974784
0
LINE
8
DEFAULT_255_1_234
10
4.7290548
20
180.2974784
11
4.6937151
21
179.9786184
0
LINE
8
DEFAULT_255_1_234
10
4.5017566
20
179.5730156
11
4.642312
21
179.5730156
0
LINE
8
DEFAULT_255_1_234
10
4.7017469
20
179.8533232
11
4.6623914
21
179.8211963
0
ARC
8
DEFAULT_255_1_234
10
4.8791935
20
179.660623
40
0.3681349
50
93.7182161
51
120.2538958
0
ARC
8
DEFAULT_255_1_234
10
4.8886198
20
179.5798394
40
0.449379
50
89.9660152
51
94.2496022
0
ARC
8
DEFAULT_255_1_234
10
4.8926932
20
179.6387549
40
0.390482
50
73.8043271
51
90.5585896
0
ARC
8
DEFAULT_255_1_234
10
4.9161829
20
179.7245602
40
0.3015334
50
41.3071453
51
73.5430202
0
ARC
8
DEFAULT_255_1_234
10
4.8745657
20
179.6887324
40
0.3564457
50
13.5075983
51
41.2174222
0
ARC
8
DEFAULT_255_1_234
10
4.710386
20
179.6457486
40
0.5261351
50
1.1331335
51
13.8829381
0
ARC
8
DEFAULT_255_1_234
10
4.5692229
20
179.6381665
40
0.6674378
50
359.9919444
51
1.544251
0
ARC
8
DEFAULT_255_1_234
10
4.6969056
20
179.634028
40
0.5397702
50
347.8572367
51
0.4293338
0
ARC
8
DEFAULT_255_1_234
10
4.8719373
20
179.5943736
40
0.3603188
50
323.673004
51
348.1672506
0
ARC
8
DEFAULT_255_1_234
10
4.9013881
20
179.5764168
40
0.3259678
50
316.8171152
51
323.1492751
0
ARC
8
DEFAULT_255_1_234
10
4.907507
20
179.572746
40
0.3189975
50
281.8396411
51
316.5457803
0
ARC
8
DEFAULT_255_1_234
10
4.8699334
20
179.7282762
40
0.4789527
50
269.5770101
51
282.4214771
0
ARC
8
DEFAULT_255_1_234
10
4.8628146
20
179.7069125
40
0.45759
50
256.2427136
51
270.4486331
0
ARC
8
DEFAULT_255_1_234
10
4.8329048
20
179.5869229
40
0.3339303
50
228.9023911
51
256.3314342
0
ARC
8
DEFAULT_255_1_234
10
4.8255281
20
179.5752746
40
0.32031
50
193.753695
51
228.5271154
0
ARC
8
DEFAULT_255_1_234
10
4.9493234
20
179.61158
40
0.4492253
50
184.924711
51
194.497588
0
ARC
8
DEFAULT_255_1_234
10
4.9685801
20
179.6151591
40
0.3289787
50
187.3600538
51
198.6732863
0
ARC
8
DEFAULT_255_1_234
10
4.8636095
20
179.5787674
40
0.217884
50
198.4451669
51
217.794479
0
ARC
8
DEFAULT_255_1_234
10
4.834027
20
179.5578085
40
0.1816698
50
218.2887171
51
228.5612368
0
ARC
8
DEFAULT_255_1_234
10
4.8438057
20
179.5709963
40
0.1980329
50
228.9654866
51
258.1234728
0
ARC
8
DEFAULT_255_1_234
10
4.8643767
20
179.6590833
40
0.2884748
50
257.7258293
51
270.401361
0
ARC
8
DEFAULT_255_1_234
10
4.8688654
20
179.6145821
40
0.2439788
50
269.4204404
51
286.4209037
0
ARC
8
DEFAULT_255_1_234
10
4.8837141
20
179.5606657
40
0.1880666
50
286.7251356
51
320.600362
0
ARC
8
DEFAULT_255_1_234
10
4.8453966
20
179.5917595
40
0.2374121
50
320.6712579
51
344.5441685
0
ARC
8
DEFAULT_255_1_234
10
4.7297292
20
179.6257045
40
0.3579479
50
344.2412205
51
356.7357071
0
ARC
8
DEFAULT_255_1_234
10
4.6048441
20
179.6360444
40
0.4832297
50
356.3548756
51
0.0500261
0
ARC
8
DEFAULT_255_1_234
10
4.738495
20
179.639165
40
0.3495889
50
359.5576869
51
12.953486
0
ARC
8
DEFAULT_255_1_234
10
4.8439847
20
179.6647434
40
0.2410532
50
12.6490276
51
41.6081334
0
ARC
8
DEFAULT_255_1_234
10
4.8670218
20
179.6843321
40
0.2108218
50
41.7850273
51
85.9892764
0
ARC
8
DEFAULT_255_1_234
10
4.8546955
20
179.6030462
40
0.2928454
50
84.6957577
51
90.0676183
0
ARC
8
DEFAULT_255_1_234
10
4.8523439
20
179.5361716
40
0.3597255
50
89.6804936
51
99.1614436
0
ARC
8
DEFAULT_255_1_234
10
4.831807
20
179.6589131
40
0.235281
50
98.9830931
51
113.8908934
0
ARC
8
DEFAULT_255_1_234
10
4.8088481
20
179.7130587
40
0.176479
50
114.1950727
51
127.3641004
0
LINE
8
DEFAULT_255_1_234
10
4.3376902
20
188.3723211
11
4.3376902
21
187.2029
0
LINE
8
DEFAULT_255_1_234
10
4.3376902
20
187.2029
11
4.1834808
21
187.2029
0
LINE
8
DEFAULT_255_1_234
10
4.1834808
20
187.2029
11
4.1834808
21
188.3723211
0
LINE
8
DEFAULT_255_1_234
10
4.1834808
20
188.3723211
11
4.3376902
21
188.3723211
0
LINE
8
DEFAULT_255_1_234
10
5.2083306
20
188.3723211
11
5.2083306
21
187.595652
0
LINE
8
DEFAULT_255_1_234
10
5.2083306
20
187.595652
11
5.3705717
21
187.595652
0
LINE
8
DEFAULT_255_1_234
10
5.3705717
20
187.595652
11
5.3705717
21
187.4743728
0
LINE
8
DEFAULT_255_1_234
10
5.3705717
20
187.4743728
11
5.2083306
21
187.4743728
0
LINE
8
DEFAULT_255_1_234
10
5.2083306
20
187.4743728
11
5.2083306
21
187.2029
0
LINE
8
DEFAULT_255_1_234
10
5.2083306
20
187.2029
11
5.0589403
21
187.2029
0
LINE
8
DEFAULT_255_1_234
10
5.0589403
20
187.2029
11
5.0589403
21
187.4743728
0
LINE
8
DEFAULT_255_1_234
10
5.0589403
20
187.4743728
11
4.526436
21
187.4743728
0
LINE
8
DEFAULT_255_1_234
10
4.526436
20
187.4743728
11
4.526436
21
187.5619187
0
LINE
8
DEFAULT_255_1_234
10
4.526436
20
187.5619187
11
5.0501054
21
188.3723211
0
LINE
8
DEFAULT_255_1_234
10
5.0501054
20
188.3723211
11
5.2083306
21
188.3723211
0
LINE
8
DEFAULT_255_1_234
10
5.0412705
20
188.1369912
11
4.6951025
21
187.595652
0
LINE
8
DEFAULT_255_1_234
10
4.6951025
20
187.595652
11
5.0589403
21
187.595652
0
LINE
8
DEFAULT_255_1_234
10
5.0589403
20
187.595652
11
5.0589403
21
188.1691181
0
LINE
8
DEFAULT_255_1_234
10
5.0589403
20
188.1691181
11
5.0412705
21
188.1369912
0
LINE
8
DEFAULT_255_1_234
10
4.2318902
20
196.3098211
11
4.2318902
21
195.1404
0
LINE
8
DEFAULT_255_1_234
10
4.2318902
20
195.1404
11
4.0776808
21
195.1404
0
LINE
8
DEFAULT_255_1_234
10
4.0776808
20
195.1404
11
4.0776808
21
196.3098211
0
LINE
8
DEFAULT_255_1_234
10
4.0776808
20
196.3098211
11
4.2318902
21
196.3098211
0
LINE
8
DEFAULT_255_1_234
10
4.6913056
20
195.6761169
11
4.6913056
21
195.7973962
0
LINE
8
DEFAULT_255_1_234
10
4.6913056
20
195.7973962
11
4.8029468
21
195.7973962
0
LINE
8
DEFAULT_255_1_234
10
4.6125946
20
196.0030087
11
4.4640074
21
196.0030087
0
LINE
8
DEFAULT_255_1_234
10
4.4535662
20
195.4488188
11
4.6029565
21
195.4488188
0
LINE
8
DEFAULT_255_1_234
10
4.8029468
20
195.6761169
11
4.6913056
21
195.6761169
0
ARC
8
DEFAULT_255_1_234
10
4.8000334
20
196.1366713
40
0.3392876
50
270.4919872
51
281.8951556
0
ARC
8
DEFAULT_255_1_234
10
4.8241596
20
196.0264702
40
0.2264817
50
281.6691735
51
301.2943132
0
ARC
8
DEFAULT_255_1_234
10
4.8411806
20
195.9953304
40
0.1910381
50
301.7833094
51
311.7545298
0
ARC
8
DEFAULT_255_1_234
10
4.8503382
20
195.9851748
40
0.1773635
50
311.7323931
51
354.2802411
0
ARC
8
DEFAULT_255_1_234
10
4.7777007
20
195.9976722
40
0.2509385
50
353.0937916
51
0.1181479
0
ARC
8
DEFAULT_255_1_234
10
4.7315792
20
196.0024386
40
0.2970898
50
359.1805295
51
15.0453146
0
ARC
8
DEFAULT_255_1_234
10
4.8661629
20
196.0416992
40
0.1569564
50
13.9577229
51
77.6713066
0
ARC
8
DEFAULT_255_1_234
10
4.8275158
20
195.9031949
40
0.3006298
50
76.1116566
51
90.7026153
0
ARC
8
DEFAULT_255_1_234
10
4.8215996
20
195.9305545
40
0.2732568
50
89.5324876
51
103.531937
0
ARC
8
DEFAULT_255_1_234
10
4.8015441
20
196.0104884
40
0.1908508
50
103.2931773
51
133.5619022
0
ARC
8
DEFAULT_255_1_234
10
4.7970929
20
196.0164375
40
0.1834746
50
133.8349307
51
173.5344437
0
ARC
8
DEFAULT_255_1_234
10
4.8693972
20
196.0036213
40
0.2568033
50
172.5096846
51
180.1366907
0
ARC
8
DEFAULT_255_1_234
10
4.7742866
20
196.0070622
40
0.3103056
50
155.3484492
51
180.7484736
0
ARC
8
DEFAULT_255_1_234
10
4.7693955
20
196.0041846
40
0.3070957
50
131.5744599
51
154.4798489
0
ARC
8
DEFAULT_255_1_234
10
4.8007102
20
195.972531
40
0.3515643
50
96.9875458
51
131.9690667
0
ARC
8
DEFAULT_255_1_234
10
4.8226582
20
195.8479636
40
0.4779224
50
89.8596053
51
97.7825159
0
ARC
8
DEFAULT_255_1_234
10
4.8274645
20
195.8217616
40
0.5041361
50
78.3655447
51
90.4131539
0
ARC
8
DEFAULT_255_1_234
10
4.8632563
20
195.9876887
40
0.3344039
50
56.6229102
51
78.638727
0
ARC
8
DEFAULT_255_1_234
10
4.8847507
20
196.0252805
40
0.2912001
50
47.0253525
51
56.0854072
0
ARC
8
DEFAULT_255_1_234
10
4.8867287
20
196.0292223
40
0.2869704
50
10.9208013
51
46.7778124
0
ARC
8
DEFAULT_255_1_234
10
4.7503354
20
195.9976857
40
0.426899
50
359.6364486
51
11.6087304
0
ARC
8
DEFAULT_255_1_234
10
4.9338198
20
195.9961752
40
0.243409
50
332.3549906
51
359.7179418
0
ARC
8
DEFAULT_255_1_234
10
4.8687799
20
196.0270142
40
0.3153459
50
325.2333722
51
332.8745602
0
ARC
8
DEFAULT_255_1_234
10
4.8840423
20
196.0163828
40
0.2967456
50
292.9802137
51
325.2392345
0
ARC
8
DEFAULT_255_1_234
10
4.8565797
20
196.0697863
40
0.3566604
50
292.5402179
51
293.6924929
0
ARC
8
DEFAULT_255_1_234
10
4.8958393
20
195.4243091
40
0.3307468
50
57.6435486
51
72.8625112
0
ARC
8
DEFAULT_255_1_234
10
4.9312892
20
195.4817549
40
0.2632492
50
36.7248896
51
57.4697979
0
ARC
8
DEFAULT_255_1_234
10
4.9301525
20
195.483022
40
0.2634081
50
8.0545065
51
36.356114
0
ARC
8
DEFAULT_255_1_234
10
4.843871
20
195.4675174
40
0.3510261
50
359.8320645
51
8.5869982
0
ARC
8
DEFAULT_255_1_234
10
4.8063486
20
195.4627101
40
0.3885653
50
343.9829931
51
0.5571613
0
ARC
8
DEFAULT_255_1_234
10
4.8949684
20
195.4384438
40
0.2966924
50
311.6359546
51
343.7651759
0
ARC
8
DEFAULT_255_1_234
10
4.8571253
20
195.4811102
40
0.3537231
50
279.7829875
51
311.6255694
0
ARC
8
DEFAULT_255_1_234
10
4.8270029
20
195.624828
40
0.5004971
50
269.7286406
51
280.3856417
0
ARC
8
DEFAULT_255_1_234
10
4.8208102
20
195.6206996
40
0.4963778
50
256.6828919
51
270.4412052
0
ARC
8
DEFAULT_255_1_234
10
4.7869397
20
195.4822394
40
0.3538406
50
229.4223008
51
256.8556159
0
ARC
8
DEFAULT_255_1_234
10
4.745479
20
195.4355736
40
0.2914296
50
181.818294
51
229.6455059
0
ARC
8
DEFAULT_255_1_234
10
4.8494746
20
195.4486496
40
0.3959084
50
179.9755256
51
183.2323064
0
ARC
8
DEFAULT_255_1_234
10
4.8322492
20
195.4466037
40
0.2293034
50
179.4465117
51
196.2869258
0
ARC
8
DEFAULT_255_1_234
10
4.78349
20
195.4332651
40
0.1787621
50
196.5661473
51
227.705904
0
ARC
8
DEFAULT_255_1_234
10
4.7998995
20
195.4516155
40
0.2033784
50
227.7652068
51
257.8762805
0
ARC
8
DEFAULT_255_1_234
10
4.8223965
20
195.5459156
40
0.3003081
50
257.4584385
51
270.426602
0
ARC
8
DEFAULT_255_1_234
10
4.8269531
20
195.5748996
40
0.329292
50
269.5962073
51
280.8789248
0
ARC
8
DEFAULT_255_1_234
10
4.849906
20
195.4602685
40
0.2123908
50
280.6346389
51
299.8595945
0
ARC
8
DEFAULT_255_1_234
10
4.8689967
20
195.4240212
40
0.171457
50
300.3576302
51
314.5517981
0
ARC
8
DEFAULT_255_1_234
10
4.8607027
20
195.4300919
40
0.1816095
50
315.0728369
51
345.0431014
0
ARC
8
DEFAULT_255_1_234
10
4.7683841
20
195.4569841
40
0.2777492
50
344.5986631
51
357.9269593
0
ARC
8
DEFAULT_255_1_234
10
4.6788168
20
195.4631276
40
0.3674917
50
357.4748886
51
0.0231117
0
ARC
8
DEFAULT_255_1_234
10
4.7811277
20
195.4655679
40
0.2651907
50
359.5047933
51
13.4239635
0
ARC
8
DEFAULT_255_1_234
10
4.8677921
20
195.4877478
40
0.1757509
50
12.9498199
51
48.7551375
0
ARC
8
DEFAULT_255_1_234
10
4.8495655
20
195.46284
40
0.2065134
50
49.5088623
51
72.1836453
0
ARC
8
DEFAULT_255_1_234
10
4.8137807
20
195.3566291
40
0.3185836
50
71.9010081
51
84.3554254
0
ARC
8
DEFAULT_255_1_234
10
4.7976439
20
195.2205326
40
0.4556151
50
84.0193428
51
89.333121
0
LINE
8
DEFAULT_255_1_234
10
4.2318902
20
204.2473211
11
4.2318902
21
203.0779
0
LINE
8
DEFAULT_255_1_234
10
4.2318902
20
203.0779
11
4.0776808
21
203.0779
0
LINE
8
DEFAULT_255_1_234
10
4.0776808
20
203.0779
11
4.0776808
21
204.2473211
0
LINE
8
DEFAULT_255_1_234
10
4.0776808
20
204.2473211
11
4.2318902
21
204.2473211
0
LINE
8
DEFAULT_255_1_234
10
5.2414797
20
203.1991792
11
5.2414797
21
203.0779
0
LINE
8
DEFAULT_255_1_234
10
5.2414797
20
203.0779
11
4.4752519
21
203.0779
0
LINE
8
DEFAULT_255_1_234
10
4.4752519
20
203.0779
11
4.4752519
21
203.1847221
0
LINE
8
DEFAULT_255_1_234
10
4.4752519
20
203.1847221
11
4.8800515
21
203.6344995
0
LINE
8
DEFAULT_255_1_234
10
4.6013501
20
203.9027595
11
4.452763
21
203.9027595
0
LINE
8
DEFAULT_255_1_234
10
4.9675974
20
203.5389218
11
4.6543596
21
203.1991792
0
LINE
8
DEFAULT_255_1_234
10
4.6543596
20
203.1991792
11
5.2414797
21
203.1991792
0
ARC
8
DEFAULT_255_1_234
10
3.5310348
20
204.8274527
40
1.8008286
50
318.5132453
51
320.7828378
0
ARC
8
DEFAULT_255_1_234
10
4.0597322
20
204.3971426
40
1.1191493
50
320.7372736
51
323.9737074
0
ARC
8
DEFAULT_255_1_234
10
4.4517179
20
204.1131361
40
0.6350923
50
323.8961724
51
328.6421089
0
ARC
8
DEFAULT_255_1_234
10
4.6563774
20
203.9869031
40
0.3946393
50
328.8299013
51
331.789948
0
ARC
8
DEFAULT_255_1_234
10
4.7560953
20
203.9354509
40
0.2824501
50
331.4255242
51
352.9364833
0
ARC
8
DEFAULT_255_1_234
10
4.7697453
20
203.9323976
40
0.2685315
50
353.2248685
51
0.0169286
0
ARC
8
DEFAULT_255_1_234
10
4.790733
20
203.934695
40
0.2475536
50
359.4866256
51
15.9339782
0
ARC
8
DEFAULT_255_1_234
10
4.8414316
20
203.9483286
40
0.1950618
50
16.1714718
51
43.5284424
0
ARC
8
DEFAULT_255_1_234
10
4.8491624
20
203.9560573
40
0.184134
50
43.4415429
51
83.1661404
0
ARC
8
DEFAULT_255_1_234
10
4.8357542
20
203.8823771
40
0.258926
50
82.160215
51
90.1505798
0
ARC
8
DEFAULT_255_1_234
10
4.832597
20
203.8286865
40
0.3126255
50
89.5460705
51
102.5418777
0
ARC
8
DEFAULT_255_1_234
10
4.8083056
20
203.9317665
40
0.2067346
50
102.1739365
51
129.2061916
0
ARC
8
DEFAULT_255_1_234
10
4.8004127
20
203.9442094
40
0.1921118
50
129.7279328
51
135.7542026
0
ARC
8
DEFAULT_255_1_234
10
4.8125655
20
203.9345045
40
0.2075944
50
136.175737
51
166.3674722
0
ARC
8
DEFAULT_255_1_234
10
4.9132574
20
203.9075182
40
0.3118201
50
165.9092917
51
178.8683903
0
ARC
8
DEFAULT_255_1_234
10
4.9997436
20
203.9028179
40
0.3983935
50
178.438168
51
180.0083905
0
ARC
8
DEFAULT_255_1_234
10
4.8596038
20
203.9067231
40
0.4068601
50
163.2878735
51
180.5581814
0
ARC
8
DEFAULT_255_1_234
10
4.7794299
20
203.928784
40
0.3237344
50
133.454115
51
162.9470031
0
ARC
8
DEFAULT_255_1_234
10
4.7972841
20
203.9098
40
0.349795
50
100.7869394
51
133.4384016
0
ARC
8
DEFAULT_255_1_234
10
4.8320612
20
203.7549319
40
0.5084616
50
89.6605301
51
101.3704185
0
ARC
8
DEFAULT_255_1_234
10
4.8386951
20
203.7610496
40
0.502348
50
78.2171172
51
90.4130393
0
ARC
8
DEFAULT_255_1_234
10
4.8742029
20
203.9234637
40
0.3361092
50
55.9268222
51
78.4888551
0
ARC
8
DEFAULT_255_1_234
10
4.8938469
20
203.9573324
40
0.2970617
50
47.9292255
51
55.4054003
0
ARC
8
DEFAULT_255_1_234
10
4.904003
20
203.9676502
40
0.2825983
50
4.3347696
51
48.0560701
0
ARC
8
DEFAULT_255_1_234
10
4.7944424
20
203.9506601
40
0.393225
50
359.925209
51
5.5967654
0
ARC
8
DEFAULT_255_1_234
10
4.8373315
20
203.9562816
40
0.3503892
50
337.8914096
51
358.9967724
0
ARC
8
DEFAULT_255_1_234
10
4.5659727
20
204.0609706
40
0.6412172
50
326.9135351
51
338.3505194
0
ARC
8
DEFAULT_255_1_234
10
4.1674031
20
204.3164284
40
1.1146189
50
319.6472867
51
327.095818
0
ARC
8
DEFAULT_255_1_234
10
3.7841034
20
204.6326
40
1.6114559
50
317.2586784
51
319.9046139
0
LINE
8
DEFAULT_255_1_234
10
4.1949902
20
212.1848211
11
4.1949902
21
211.0154
0
LINE
8
DEFAULT_255_1_234
10
4.1949902
20
211.0154
11
4.0407808
21
211.0154
0
LINE
8
DEFAULT_255_1_234
10
4.0407808
20
211.0154
11
4.0407808
21
212.1848211
0
LINE
8
DEFAULT_255_1_234
10
4.0407808
20
212.1848211
11
4.1949902
21
212.1848211
0
LINE
8
DEFAULT_255_1_234
10
4.642358
20
212.1848211
11
4.642358
21
211.0154
0
LINE
8
DEFAULT_255_1_234
10
4.642358
20
211.0154
11
4.4881486
21
211.0154
0
LINE
8
DEFAULT_255_1_234
10
4.4881486
20
211.0154
11
4.4881486
21
212.1848211
0
LINE
8
DEFAULT_255_1_234
10
4.4881486
20
212.1848211
11
4.642358
21
212.1848211
0
LINE
8
DEFAULT_255_1_234
10
4.2318902
20
220.1223211
11
4.2318902
21
218.9529
0
LINE
8
DEFAULT_255_1_234
10
4.2318902
20
218.9529
11
4.0776808
21
218.9529
0
LINE
8
DEFAULT_255_1_234
10
4.0776808
20
218.9529
11
4.0776808
21
220.1223211
0
LINE
8
DEFAULT_255_1_234
10
4.0776808
20
220.1223211
11
4.2318902
21
220.1223211
0
LINE
8
DEFAULT_255_1_234
10
5.2085496
20
219.6444327
11
5.2085496
21
219.4516709
0
LINE
8
DEFAULT_255_1_234
10
4.4704328
20
219.4315916
11
4.4704328
21
219.6299755
0
LINE
8
DEFAULT_255_1_234
10
5.0599624
20
219.4115123
11
5.0599624
21
219.6548739
0
LINE
8
DEFAULT_255_1_234
10
4.61902
20
219.6661184
11
4.61902
21
219.4283789
0
ARC
8
DEFAULT_255_1_234
10
3.9838385
20
219.4467805
40
1.2247208
50
353.8441951
51
0.2287902
0
ARC
8
DEFAULT_255_1_234
10
4.4477889
20
219.3949806
40
0.7578929
50
344.4934747
51
353.9765454
0
ARC
8
DEFAULT_255_1_234
10
4.7470479
20
219.3098981
40
0.4467846
50
329.2803592
51
344.7472793
0
ARC
8
DEFAULT_255_1_234
10
4.8463304
20
219.2554018
40
0.3336173
50
324.9352394
51
328.6160465
0
ARC
8
DEFAULT_255_1_234
10
4.8840413
20
219.2290427
40
0.2876076
50
280.580143
51
324.9173126
0
ARC
8
DEFAULT_255_1_234
10
4.8439205
20
219.3961099
40
0.4592847
50
269.5977311
51
281.6734359
0
ARC
8
DEFAULT_255_1_234
10
4.8367111
20
219.3841173
40
0.4472986
50
256.6228859
51
270.51044
0
ARC
8
DEFAULT_255_1_234
10
4.7965089
20
219.2292877
40
0.2873874
50
215.8618325
51
257.2788573
0
ARC
8
DEFAULT_255_1_234
10
4.898612
20
219.2977977
40
0.4102928
50
197.9693508
51
215.2623606
0
ARC
8
DEFAULT_255_1_234
10
5.1471236
20
219.3816709
40
0.6725652
50
187.8816417
51
198.2346507
0
ARC
8
DEFAULT_255_1_234
10
5.5429444
20
219.4388079
40
1.0724845
50
180.8976217
51
188.0055519
0
ARC
8
DEFAULT_255_1_234
10
5.8229632
20
219.4491777
40
1.3526448
50
180.7449369
51
181.1510016
0
ARC
8
DEFAULT_255_1_234
10
5.6652361
20
219.6348042
40
1.1948131
50
173.7675579
51
180.231553
0
ARC
8
DEFAULT_255_1_234
10
5.2134508
20
219.6858666
40
0.7401564
50
164.3058563
51
173.9002247
0
ARC
8
DEFAULT_255_1_234
10
4.9222577
20
219.7697656
40
0.4371288
50
148.7922025
51
164.568378
0
ARC
8
DEFAULT_255_1_234
10
4.8271029
20
219.8228929
40
0.3282386
50
144.5883898
51
148.1176286
0
ARC
8
DEFAULT_255_1_234
10
4.7927927
20
219.8468315
40
0.2864044
50
101.6440918
51
144.514236
0
ARC
8
DEFAULT_255_1_234
10
4.8352994
20
219.6779069
40
0.4604934
50
89.5284041
51
102.5819763
0
ARC
8
DEFAULT_255_1_234
10
4.8432081
20
219.6740018
40
0.464401
50
77.0437873
51
90.5081339
0
ARC
8
DEFAULT_255_1_234
10
4.8834083
20
219.8382615
40
0.2953195
50
48.2778575
51
77.4994676
0
ARC
8
DEFAULT_255_1_234
10
4.8906714
20
219.8511746
40
0.2808655
50
36.3142134
51
47.6305865
0
ARC
8
DEFAULT_255_1_234
10
4.8038021
20
219.7926515
40
0.3855453
50
18.2931786
51
35.6769206
0
ARC
8
DEFAULT_255_1_234
10
4.549478
20
219.7053593
40
0.654423
50
8.024666
51
18.5605216
0
ARC
8
DEFAULT_255_1_234
10
4.13317
20
219.6438792
40
1.0752407
50
1.1274072
51
8.1718305
0
ARC
8
DEFAULT_255_1_234
10
3.8095891
20
219.6311885
40
1.3990231
50
0.5424119
51
1.3863029
0
ARC
8
DEFAULT_255_1_234
10
3.9917269
20
219.6584342
40
1.0682415
50
359.8090433
51
4.9407866
0
ARC
8
DEFAULT_255_1_234
10
4.4127283
20
219.6960113
40
0.6455691
50
4.8362157
51
12.2904523
0
ARC
8
DEFAULT_255_1_234
10
4.6882398
20
219.7573965
40
0.3633074
50
12.0805627
51
23.8173984
0
ARC
8
DEFAULT_255_1_234
10
4.8056103
20
219.8070919
40
0.2358723
50
24.2871213
51
31.3935614
0
ARC
8
DEFAULT_255_1_234
10
4.85808
20
219.8414233
40
0.1732111
50
30.7407893
51
82.4657128
0
ARC
8
DEFAULT_255_1_234
10
4.8400934
20
219.7530691
40
0.263235
50
81.1060089
51
90.2184952
0
ARC
8
DEFAULT_255_1_234
10
4.8365233
20
219.7788924
40
0.2374236
50
89.3806855
51
105.6762551
0
ARC
8
DEFAULT_255_1_234
10
4.8181864
20
219.8455567
40
0.1682847
50
105.7981136
51
149.7388061
0
ARC
8
DEFAULT_255_1_234
10
4.9245942
20
219.781595
40
0.2924306
50
149.4208916
51
163.6286378
0
ARC
8
DEFAULT_255_1_234
10
5.133683
20
219.717825
40
0.5110213
50
163.3763315
51
172.1410975
0
ARC
8
DEFAULT_255_1_234
10
5.4637549
20
219.6705518
40
0.8444586
50
172.0259487
51
178.0703232
0
ARC
8
DEFAULT_255_1_234
10
5.7667639
20
219.6561906
40
1.1477868
50
177.8631668
51
179.5044149
0
ARC
8
DEFAULT_255_1_234
10
5.6595043
20
219.4247389
40
1.0404907
50
179.7995573
51
185.2460446
0
ARC
8
DEFAULT_255_1_234
10
5.2552083
20
219.3864513
40
0.6343885
50
185.1411642
51
193.0079639
0
ARC
8
DEFAULT_255_1_234
10
4.9908555
20
219.3239641
40
0.3627568
50
192.7897626
51
205.2507664
0
ARC
8
DEFAULT_255_1_234
10
4.8862102
20
219.2772415
40
0.2481908
50
205.8005384
51
211.2537509
0
ARC
8
DEFAULT_255_1_234
10
4.8338543
20
219.242158
40
0.1852521
50
210.3789793
51
238.4008143
0
ARC
8
DEFAULT_255_1_234
10
4.8319064
20
219.2468376
40
0.1882621
50
239.6520629
51
265.9793761
0
ARC
8
DEFAULT_255_1_234
10
4.8404265
20
219.3140427
40
0.2559272
50
265.1315437
51
270.060332
0
ARC
8
DEFAULT_255_1_234
10
4.8433043
20
219.2816534
40
0.2235528
50
269.3314664
51
287.2178029
0
ARC
8
DEFAULT_255_1_234
10
4.8570895
20
219.2313279
40
0.1714108
50
287.7958004
51
329.080874
0
ARC
8
DEFAULT_255_1_234
10
4.7613352
20
219.291093
40
0.2842745
50
328.6634704
51
343.3325132
0
ARC
8
DEFAULT_255_1_234
10
4.5440372
20
219.3587863
40
0.5118644
50
343.0499468
51
351.9393422
0
ARC
8
DEFAULT_255_1_234
10
4.1973672
20
219.4098949
40
0.8622784
50
351.8069023
51
357.7959224
0
ARC
8
DEFAULT_255_1_234
10
3.8738228
20
219.4266721
40
1.1862365
50
357.5871873
51
359.2677531
0
LINE
8
DEFAULT_255_1_234
10
23.1670817
20
227.5819327
11
23.1670817
21
227.3891709
0
LINE
8
DEFAULT_255_1_234
10
22.428965
20
227.3690916
11
22.428965
21
227.5674755
0
LINE
8
DEFAULT_255_1_234
10
23.0184946
20
227.3490123
11
23.0184946
21
227.5923739
0
LINE
8
DEFAULT_255_1_234
10
22.5775521
20
227.6036184
11
22.5775521
21
227.3658789
0
ARC
8
DEFAULT_255_1_234
10
21.9423707
20
227.3842805
40
1.2247208
50
353.8441951
51
0.2287902
0
ARC
8
DEFAULT_255_1_234
10
22.4063211
20
227.3324806
40
0.7578929
50
344.4934747
51
353.9765454
0
ARC
8
DEFAULT_255_1_234
10
22.7055801
20
227.2473981
40
0.4467846
50
329.2803592
51
344.7472793
0
ARC
8
DEFAULT_255_1_234
10
22.8048626
20
227.1929018
40
0.3336173
50
324.9352394
51
328.6160465
0
ARC
8
DEFAULT_255_1_234
10
22.8425734
20
227.1665427
40
0.2876076
50
280.580143
51
324.9173126
0
ARC
8
DEFAULT_255_1_234
10
22.8024527
20
227.3336099
40
0.4592847
50
269.5977311
51
281.6734359
0
ARC
8
DEFAULT_255_1_234
10
22.7952433
20
227.3216173
40
0.4472986
50
256.6228859
51
270.51044
0
ARC
8
DEFAULT_255_1_234
10
22.755041
20
227.1667877
40
0.2873874
50
215.8618325
51
257.2788573
0
ARC
8
DEFAULT_255_1_234
10
22.8571442
20
227.2352977
40
0.4102928
50
197.9693508
51
215.2623606
0
ARC
8
DEFAULT_255_1_234
10
23.1056558
20
227.3191709
40
0.6725652
50
187.8816417
51
198.2346507
0
ARC
8
DEFAULT_255_1_234
10
23.5014766
20
227.3763079
40
1.0724845
50
180.8976217
51
188.0055519
0
ARC
8
DEFAULT_255_1_234
10
23.7814954
20
227.3866777
40
1.3526448
50
180.7449369
51
181.1510016
0
ARC
8
DEFAULT_255_1_234
10
23.6237683
20
227.5723042
40
1.1948131
50
173.7675579
51
180.231553
0
ARC
8
DEFAULT_255_1_234
10
23.171983
20
227.6233666
40
0.7401564
50
164.3058563
51
173.9002247
0
ARC
8
DEFAULT_255_1_234
10
22.8807899
20
227.7072656
40
0.4371288
50
148.7922025
51
164.568378
0
ARC
8
DEFAULT_255_1_234
10
22.7856351
20
227.7603929
40
0.3282386
50
144.5883898
51
148.1176286
0
ARC
8
DEFAULT_255_1_234
10
22.7513249
20
227.7843315
40
0.2864044
50
101.6440918
51
144.514236
0
ARC
8
DEFAULT_255_1_234
10
22.7938315
20
227.6154069
40
0.4604934
50
89.5284041
51
102.5819763
0
ARC
8
DEFAULT_255_1_234
10
22.8017403
20
227.6115018
40
0.464401
50
77.0437873
51
90.5081339
0
ARC
8
DEFAULT_255_1_234
10
22.8419405
20
227.7757615
40
0.2953195
50
48.2778575
51
77.4994676
0
ARC
8
DEFAULT_255_1_234
10
22.8492036
20
227.7886746
40
0.2808655
50
36.3142134
51
47.6305865
0
ARC
8
DEFAULT_255_1_234
10
22.7623343
20
227.7301515
40
0.3855453
50
18.2931786
51
35.6769206
0
ARC
8
DEFAULT_255_1_234
10
22.5080102
20
227.6428593
40
0.654423
50
8.024666
51
18.5605216
0
ARC
8
DEFAULT_255_1_234
10
22.0917022
20
227.5813792
40
1.0752407
50
1.1274072
51
8.1718305
0
ARC
8
DEFAULT_255_1_234
10
21.7681213
20
227.5686885
40
1.3990231
50
0.5424119
51
1.3863029
0
ARC
8
DEFAULT_255_1_234
10
21.950259
20
227.5959342
40
1.0682415
50
359.8090433
51
4.9407866
0
ARC
8
DEFAULT_255_1_234
10
22.3712604
20
227.6335113
40
0.6455691
50
4.8362157
51
12.2904523
0
ARC
8
DEFAULT_255_1_234
10
22.6467719
20
227.6948965
40
0.3633074
50
12.0805627
51
23.8173984
0
ARC
8
DEFAULT_255_1_234
10
22.7641425
20
227.7445919
40
0.2358723
50
24.2871213
51
31.3935614
0
ARC
8
DEFAULT_255_1_234
10
22.8166122
20
227.7789233
40
0.1732111
50
30.7407893
51
82.4657128
0
ARC
8
DEFAULT_255_1_234
10
22.7986256
20
227.6905691
40
0.263235
50
81.1060089
51
90.2184952
0
ARC
8
DEFAULT_255_1_234
10
22.7950555
20
227.7163924
40
0.2374236
50
89.3806855
51
105.6762551
0
ARC
8
DEFAULT_255_1_234
10
22.7767186
20
227.7830567
40
0.1682847
50
105.7981136
51
149.7388061
0
ARC
8
DEFAULT_255_1_234
10
22.8831264
20
227.719095
40
0.2924306
50
149.4208916
51
163.6286378
0
ARC
8
DEFAULT_255_1_234
10
23.0922152
20
227.655325
40
0.5110213
50
163.3763315
51
172.1410975
0
ARC
8
DEFAULT_255_1_234
10
23.4222871
20
227.6080518
40
0.8444586
50
172.0259487
51
178.0703232
0
ARC
8
DEFAULT_255_1_234
10
23.725296
20
227.5936906
40
1.1477868
50
177.8631668
51
179.5044149
0
ARC
8
DEFAULT_255_1_234
10
23.6180365
20
227.3622389
40
1.0404907
50
179.7995573
51
185.2460446
0
ARC
8
DEFAULT_255_1_234
10
23.2137404
20
227.3239513
40
0.6343885
50
185.1411642
51
193.0079639
0
ARC
8
DEFAULT_255_1_234
10
22.9493877
20
227.2614641
40
0.3627568
50
192.7897626
51
205.2507664
0
ARC
8
DEFAULT_255_1_234
10
22.8447424
20
227.2147415
40
0.2481908
50
205.8005384
51
211.2537509
0
ARC
8
DEFAULT_255_1_234
10
22.7923864
20
227.179658
40
0.1852521
50
210.3789793
51
238.4008143
0
ARC
8
DEFAULT_255_1_234
10
22.7904386
20
227.1843376
40
0.1882621
50
239.6520629
51
265.9793761
0
ARC
8
DEFAULT_255_1_234
10
22.7989586
20
227.2515427
40
0.2559272
50
265.1315437
51
270.060332
0
ARC
8
DEFAULT_255_1_234
10
22.8018365
20
227.2191534
40
0.2235528
50
269.3314664
51
287.2178029
0
ARC
8
DEFAULT_255_1_234
10
22.8156217
20
227.1688279
40
0.1714108
50
287.7958004
51
329.080874
0
ARC
8
DEFAULT_255_1_234
10
22.7198674
20
227.228593
40
0.2842745
50
328.6634704
51
343.3325132
0
ARC
8
DEFAULT_255_1_234
10
22.5025694
20
227.2962863
40
0.5118644
50
343.0499468
51
351.9393422
0
ARC
8
DEFAULT_255_1_234
10
22.1558994
20
227.3473949
40
0.8622784
50
351.8069023
51
357.7959224
0
ARC
8
DEFAULT_255_1_234
10
21.832355
20
227.3641721
40
1.1862365
50
357.5871873
51
359.2677531
0
LINE
8
DEFAULT_255_1_234
10
23.4506021
20
228.0598211
11
23.7831161
21
227.0952093
0
LINE
8
DEFAULT_255_1_234
10
23.7831161
20
227.0952093
11
24.1172364
21
228.0598211
0
LINE
8
DEFAULT_255_1_234
10
24.1172364
20
228.0598211
11
24.2859029
21
228.0598211
0
LINE
8
DEFAULT_255_1_234
10
24.2859029
20
228.0598211
11
23.852189
21
226.8904
0
LINE
8
DEFAULT_255_1_234
10
23.852189
20
226.8904
11
23.7156495
21
226.8904
0
LINE
8
DEFAULT_255_1_234
10
23.7156495
20
226.8904
11
23.2827388
21
228.0598211
0
LINE
8
DEFAULT_255_1_234
10
23.2827388
20
228.0598211
11
23.4506021
21
228.0598211
0
LINE
8
DEFAULT_255_1_234
10
21.9116484
20
92.6195343
11
21.9116484
21
92.493436
0
LINE
8
DEFAULT_255_1_234
10
21.9116484
20
92.493436
11
21.4048458
21
92.493436
0
LINE
8
DEFAULT_255_1_234
10
21.4048458
20
92.493436
11
21.4048458
21
92.0789983
0
LINE
8
DEFAULT_255_1_234
10
21.4048458
20
92.0789983
11
21.9935722
21
92.0789983
0
LINE
8
DEFAULT_255_1_234
10
21.9935722
20
92.0789983
11
21.9935722
21
91.9529
0
LINE
8
DEFAULT_255_1_234
10
21.9935722
20
91.9529
11
21.2506364
21
91.9529
0
LINE
8
DEFAULT_255_1_234
10
21.2506364
20
91.9529
11
21.2506364
21
93.1223211
0
LINE
8
DEFAULT_255_1_234
10
21.2506364
20
93.1223211
11
21.9855404
21
93.1223211
0
LINE
8
DEFAULT_255_1_234
10
21.9855404
20
93.1223211
11
21.9855404
21
92.9954196
0
LINE
8
DEFAULT_255_1_234
10
21.9855404
20
92.9954196
11
21.4048458
21
92.9954196
0
LINE
8
DEFAULT_255_1_234
10
21.4048458
20
92.9954196
11
21.4048458
21
92.6195343
0
LINE
8
DEFAULT_255_1_234
10
21.4048458
20
92.6195343
11
21.9116484
21
92.6195343
0
LINE
8
DEFAULT_255_1_234
10
23.07866
20
92.5745565
11
23.07866
21
92.4998614
0
LINE
8
DEFAULT_255_1_234
10
22.8738507
20
92.0163507
11
23.0826759
21
91.8525033
0
LINE
8
DEFAULT_255_1_234
10
23.0826759
20
91.8525033
11
22.9774601
21
91.7553192
0
LINE
8
DEFAULT_255_1_234
10
22.9774601
20
91.7553192
11
22.7308857
21
91.9512937
0
LINE
8
DEFAULT_255_1_234
10
22.1373403
20
92.4894201
11
22.1373403
21
92.5737534
0
LINE
8
DEFAULT_255_1_234
10
22.9244506
20
92.4886169
11
22.9244506
21
92.5753597
0
LINE
8
DEFAULT_255_1_234
10
22.2915497
20
92.585801
11
22.2915497
21
92.4998614
0
ARC
8
DEFAULT_255_1_234
10
22.1832852
20
92.4959707
40
0.8953833
50
351.453011
51
0.2489685
0
ARC
8
DEFAULT_255_1_234
10
22.4417652
20
92.4559933
40
0.6338333
50
338.6861641
51
351.5540711
0
ARC
8
DEFAULT_255_1_234
10
22.5351537
20
92.4229828
40
0.5348431
50
336.2887631
51
338.3442418
0
ARC
8
DEFAULT_255_1_234
10
22.5691158
20
92.4043698
40
0.4962747
50
321.1170344
51
336.6795229
0
ARC
8
DEFAULT_255_1_234
10
22.6322987
20
92.3557206
40
0.4165565
50
305.4419708
51
320.8705636
0
ARC
8
DEFAULT_255_1_234
10
22.6126458
20
92.4304707
40
0.4935497
50
271.6373023
51
283.8611969
0
ARC
8
DEFAULT_255_1_234
10
22.6088711
20
92.4960572
40
0.5592206
50
269.9930596
51
271.8318864
0
ARC
8
DEFAULT_255_1_234
10
22.6051154
20
92.4152681
40
0.4784458
50
252.5219675
51
270.4416499
0
ARC
8
DEFAULT_255_1_234
10
22.5907413
20
92.3613592
40
0.422716
50
237.5352116
51
252.1857531
0
ARC
8
DEFAULT_255_1_234
10
22.5996608
20
92.3727363
40
0.4371052
50
209.063312
51
237.3492538
0
ARC
8
DEFAULT_255_1_234
10
22.6866457
20
92.4273685
40
0.5397041
50
205.1183774
51
209.6470015
0
ARC
8
DEFAULT_255_1_234
10
22.7663493
20
92.461183
40
0.6262326
50
188.7215458
51
204.8240747
0
ARC
8
DEFAULT_255_1_234
10
22.9661022
20
92.4948067
40
0.8287794
50
180.3723947
51
188.9252049
0
ARC
8
DEFAULT_255_1_234
10
22.9633773
20
92.5777402
40
0.8260467
50
169.5253763
51
180.2765336
0
ARC
8
DEFAULT_255_1_234
10
22.7731222
20
92.6127309
40
0.6326007
50
155.8315255
51
169.5089989
0
ARC
8
DEFAULT_255_1_234
10
22.6450723
20
92.6721348
40
0.4914567
50
139.6258461
51
156.0379525
0
ARC
8
DEFAULT_255_1_234
10
22.5861057
20
92.7195799
40
0.4158054
50
122.6416387
51
139.3430715
0
ARC
8
DEFAULT_255_1_234
10
22.5961676
20
92.7012451
40
0.4366739
50
93.0223692
51
122.455762
0
ARC
8
DEFAULT_255_1_234
10
22.6069673
20
92.6047709
40
0.5336137
50
89.975342
51
93.6341897
0
ARC
8
DEFAULT_255_1_234
10
22.610856
20
92.6427375
40
0.4956606
50
73.9665422
51
90.4229648
0
ARC
8
DEFAULT_255_1_234
10
22.6292207
20
92.7142451
40
0.4218674
50
57.5178019
51
73.6813337
0
ARC
8
DEFAULT_255_1_234
10
22.6247989
20
92.7106462
40
0.4272816
50
28.7261108
51
57.2767933
0
ARC
8
DEFAULT_255_1_234
10
22.5337321
20
92.6543688
40
0.534218
50
24.2448911
51
29.3248482
0
ARC
8
DEFAULT_255_1_234
10
22.4411422
20
92.6160819
40
0.6343711
50
9.064382
51
23.9639114
0
ARC
8
DEFAULT_255_1_234
10
22.2155751
20
92.5781925
40
0.8630926
50
359.7586264
51
9.1891435
0
ARC
8
DEFAULT_255_1_234
10
22.0901231
20
92.5795343
40
0.834338
50
359.7133237
51
7.96545
0
ARC
8
DEFAULT_255_1_234
10
22.3863447
20
92.6222681
40
0.5350538
50
7.8291991
51
20.0421623
0
ARC
8
DEFAULT_255_1_234
10
22.5488011
20
92.6813606
40
0.3621841
50
20.0677553
51
35.9161685
0
ARC
8
DEFAULT_255_1_234
10
22.6263049
20
92.738967
40
0.2656263
50
35.6594382
51
85.1578074
0
ARC
8
DEFAULT_255_1_234
10
22.6078304
20
92.6274378
40
0.3784238
50
83.7959068
51
90.095906
0
ARC
8
DEFAULT_255_1_234
10
22.6035238
20
92.7007601
40
0.3051229
50
89.3102392
51
109.9889877
0
ARC
8
DEFAULT_255_1_234
10
22.5952721
20
92.7363433
40
0.2688988
50
110.9285147
51
143.9411762
0
ARC
8
DEFAULT_255_1_234
10
22.6883668
20
92.6651236
40
0.3860887
50
143.5289163
51
163.2980757
0
ARC
8
DEFAULT_255_1_234
10
22.8791488
20
92.6051433
40
0.5860659
50
163.0418846
51
174.3140048
0
ARC
8
DEFAULT_255_1_234
10
23.11956
20
92.5773854
40
0.8280531
50
174.0509143
51
179.4176892
0
ARC
8
DEFAULT_255_1_234
10
23.0681935
20
92.4955634
40
0.7766558
50
179.6829237
51
188.9631324
0
ARC
8
DEFAULT_255_1_234
10
22.8011497
20
92.4520752
40
0.5060992
50
188.8100743
51
202.9300012
0
ARC
8
DEFAULT_255_1_234
10
22.6795126
20
92.4025855
40
0.3747967
50
203.2069261
51
215.7876482
0
ARC
8
DEFAULT_255_1_234
10
22.5946522
20
92.3354671
40
0.2667526
50
214.7521006
51
264.2834488
0
ARC
8
DEFAULT_255_1_234
10
22.6082178
20
92.420978
40
0.3532247
50
263.4755397
51
270.0949833
0
ARC
8
DEFAULT_255_1_234
10
22.6124288
20
92.3948374
40
0.3271036
50
269.3649385
51
287.5152008
0
ARC
8
DEFAULT_255_1_234
10
22.6302446
20
92.3301238
40
0.2600406
50
288.0630309
51
323.8113348
0
ARC
8
DEFAULT_255_1_234
10
22.5431288
20
92.3951049
40
0.3687189
50
323.6547608
51
342.6590488
0
ARC
8
DEFAULT_255_1_234
10
22.3399903
20
92.4611952
40
0.5823286
50
342.4091907
51
353.6451149
0
ARC
8
DEFAULT_255_1_234
10
22.0568414
20
92.496419
40
0.8676442
50
353.4029884
51
359.4847795
0
LINE
8
DEFAULT_255_1_234
10
23.9846401
20
93.1223211
11
24.1396526
21
93.1223211
0
LINE
8
DEFAULT_255_1_234
10
24.1396526
20
93.1223211
11
24.1396526
21
92.327179
0
LINE
8
DEFAULT_255_1_234
10
23.7557355
20
91.9384429
11
23.7147737
21
91.9368365
0
LINE
8
DEFAULT_255_1_234
10
23.2931074
20
92.3255727
11
23.2931074
21
93.1223211
0
LINE
8
DEFAULT_255_1_234
10
23.2931074
20
93.1223211
11
23.4457104
21
93.1223211
0
LINE
8
DEFAULT_255_1_234
10
23.4457104
20
93.1223211
11
23.4457104
21
92.3303917
0
LINE
8
DEFAULT_255_1_234
10
23.9846401
20
92.3295885
11
23.9846401
21
93.1223211
0
ARC
8
DEFAULT_255_1_234
10
23.7043425
20
92.3251928
40
0.4353147
50
343.0898354
51
0.2614217
0
ARC
8
DEFAULT_255_1_234
10
23.7871826
20
92.3020837
40
0.3493402
50
315.3345598
51
342.7641223
0
ARC
8
DEFAULT_255_1_234
10
23.7648275
20
92.3252682
40
0.3815385
50
284.6606969
51
315.2182466
0
ARC
8
DEFAULT_255_1_234
10
23.7192988
20
92.4798755
40
0.5426573
50
273.8500273
51
285.1797701
0
ARC
8
DEFAULT_255_1_234
10
23.7105038
20
92.5140475
40
0.5772268
50
257.6317484
51
270.4238298
0
ARC
8
DEFAULT_255_1_234
10
23.6680236
20
92.3319198
40
0.3902347
50
230.6087562
51
257.9964012
0
ARC
8
DEFAULT_255_1_234
10
23.6548239
20
92.3112802
40
0.3659186
50
227.7440991
51
230.1551448
0
ARC
8
DEFAULT_255_1_234
10
23.641407
20
92.2951471
40
0.3449568
50
189.2524587
51
227.5916061
0
ARC
8
DEFAULT_255_1_234
10
23.7935757
20
92.3279013
40
0.5004737
50
180.2665968
51
190.1525252
0
ARC
8
DEFAULT_255_1_234
10
23.8157776
20
92.3275918
40
0.3700778
50
179.5665184
51
191.9952995
0
ARC
8
DEFAULT_255_1_234
10
23.6929883
20
92.3002043
40
0.2442808
50
191.6974072
51
215.1404042
0
ARC
8
DEFAULT_255_1_234
10
23.6691798
20
92.2860108
40
0.2166522
50
215.6950207
51
224.8513522
0
ARC
8
DEFAULT_255_1_234
10
23.6747541
20
92.2939697
40
0.2262237
50
225.2846858
51
255.0111758
0
ARC
8
DEFAULT_255_1_234
10
23.7071501
20
92.4053455
40
0.3421979
50
254.5944985
51
267.9129803
0
ARC
8
DEFAULT_255_1_234
10
23.7145982
20
92.5137903
40
0.4508556
50
267.4689655
51
270.0223026
0
ARC
8
DEFAULT_255_1_234
10
23.7176127
20
92.4548849
40
0.3919604
50
269.5849941
51
281.1843768
0
ARC
8
DEFAULT_255_1_234
10
23.7454892
20
92.3196059
40
0.2538457
50
280.9344262
51
300.9743589
0
ARC
8
DEFAULT_255_1_234
10
23.7667497
20
92.2804688
40
0.2093566
50
301.4980046
51
315.1466847
0
ARC
8
DEFAULT_255_1_234
10
23.7523036
20
92.2923236
40
0.2279656
50
315.5952539
51
345.6678731
0
ARC
8
DEFAULT_255_1_234
10
23.6403552
20
92.3235009
40
0.3441564
50
345.2524969
51
358.6304371
0
ARC
8
DEFAULT_255_1_234
10
23.5385906
20
92.3294916
40
0.4460494
50
358.1735671
51
0.0124524
0
LINE
8
DEFAULT_255_1_234
10
22.3366911
20
100.5112534
11
22.3366911
21
100.4373614
0
LINE
8
DEFAULT_255_1_234
10
21.3961745
20
100.4269201
11
21.3961745
21
100.5112534
0
LINE
8
DEFAULT_255_1_234
10
22.1832849
20
100.4261169
11
22.1832849
21
100.5128597
0
LINE
8
DEFAULT_255_1_234
10
21.5495807
20
100.523301
11
21.5495807
21
100.4373614
0
ARC
8
DEFAULT_255_1_234
10
21.4724937
20
100.4334015
40
0.8642064
50
350.487711
51
0.2625388
0
ARC
8
DEFAULT_255_1_234
10
21.7018178
20
100.3939578
40
0.631518
50
336.0277639
51
350.5787438
0
ARC
8
DEFAULT_255_1_234
10
21.8363002
20
100.3331892
40
0.4839466
50
319.8877444
51
336.1328423
0
ARC
8
DEFAULT_255_1_234
10
21.8965643
20
100.284958
40
0.4067874
50
302.4806467
51
319.6143626
0
ARC
8
DEFAULT_255_1_234
10
21.8850653
20
100.3071202
40
0.4316636
50
275.8195682
51
302.1884709
0
ARC
8
DEFAULT_255_1_234
10
21.8684286
20
100.4213665
40
0.5470306
50
269.9171439
51
276.3397983
0
ARC
8
DEFAULT_255_1_234
10
21.8639496
20
100.3527681
40
0.4784458
50
252.5219675
51
270.4416499
0
ARC
8
DEFAULT_255_1_234
10
21.8495755
20
100.2988592
40
0.422716
50
237.5352116
51
252.1857531
0
ARC
8
DEFAULT_255_1_234
10
21.8584951
20
100.3102363
40
0.4371052
50
209.063312
51
237.3492538
0
ARC
8
DEFAULT_255_1_234
10
21.9454799
20
100.3648685
40
0.5397041
50
205.1183774
51
209.6470015
0
ARC
8
DEFAULT_255_1_234
10
22.0251836
20
100.398683
40
0.6262326
50
188.7215458
51
204.8240747
0
ARC
8
DEFAULT_255_1_234
10
22.2249364
20
100.4323067
40
0.8287794
50
180.3723947
51
188.9252049
0
ARC
8
DEFAULT_255_1_234
10
22.2222116
20
100.5152402
40
0.8260467
50
169.5253763
51
180.2765336
0
ARC
8
DEFAULT_255_1_234
10
22.0319564
20
100.5502309
40
0.6326007
50
155.8315255
51
169.5089989
0
ARC
8
DEFAULT_255_1_234
10
21.9039066
20
100.6096348
40
0.4914567
50
139.6258461
51
156.0379525
0
ARC
8
DEFAULT_255_1_234
10
21.8449399
20
100.6570799
40
0.4158054
50
122.6416387
51
139.3430715
0
ARC
8
DEFAULT_255_1_234
10
21.8550019
20
100.6387451
40
0.4366739
50
93.0223692
51
122.455762
0
ARC
8
DEFAULT_255_1_234
10
21.8658016
20
100.5422709
40
0.5336137
50
89.975342
51
93.6341897
0
ARC
8
DEFAULT_255_1_234
10
21.8696795
20
100.5821242
40
0.4937738
50
73.746375
51
90.4233405
0
ARC
8
DEFAULT_255_1_234
10
21.8872373
20
100.6501287
40
0.4235786
50
57.662753
51
73.4518111
0
ARC
8
DEFAULT_255_1_234
10
21.886438
20
100.6522832
40
0.4221899
50
29.1440151
51
57.414694
0
ARC
8
DEFAULT_255_1_234
10
21.7929574
20
100.5939005
40
0.5322966
50
24.0982783
51
29.7323517
0
ARC
8
DEFAULT_255_1_234
10
21.689585
20
100.5510399
40
0.6441673
50
8.6655297
51
23.8241346
0
ARC
8
DEFAULT_255_1_234
10
21.4661588
20
100.5145854
40
0.8705386
50
359.7806941
51
8.8218784
0
ARC
8
DEFAULT_255_1_234
10
21.3514586
20
100.5171345
40
0.8318373
50
359.7055579
51
8.036044
0
ARC
8
DEFAULT_255_1_234
10
21.6514592
20
100.5608239
40
0.5286768
50
7.8928306
51
20.2962107
0
ARC
8
DEFAULT_255_1_234
10
21.8142162
20
100.6208395
40
0.3552073
50
20.3231126
51
36.4992797
0
ARC
8
DEFAULT_255_1_234
10
21.8827708
20
100.6736402
40
0.2686974
50
36.1437156
51
85.6627023
0
ARC
8
DEFAULT_255_1_234
10
21.8665254
20
100.5696221
40
0.373739
50
84.3852322
51
90.0757696
0
ARC
8
DEFAULT_255_1_234
10
21.8622927
20
100.6356839
40
0.3076997
50
89.3038458
51
109.9045693
0
ARC
8
DEFAULT_255_1_234
10
21.8530318
20
100.6739062
40
0.2686424
50
110.8228367
51
143.9179474
0
ARC
8
DEFAULT_255_1_234
10
21.9463978
20
100.6026236
40
0.3860887
50
143.5289163
51
163.2980757
0
ARC
8
DEFAULT_255_1_234
10
22.1371799
20
100.5426433
40
0.5860659
50
163.0418846
51
174.3140048
0
ARC
8
DEFAULT_255_1_234
10
22.3775911
20
100.5148854
40
0.8280531
50
174.0509143
51
179.4176892
0
ARC
8
DEFAULT_255_1_234
10
22.327165
20
100.4331954
40
0.7775954
50
179.6930361
51
188.7906598
0
ARC
8
DEFAULT_255_1_234
10
22.0608129
20
100.3905935
40
0.5078633
50
188.6331305
51
202.5629587
0
ARC
8
DEFAULT_255_1_234
10
21.9353721
20
100.3401996
40
0.3726913
50
202.8081362
51
216.1193925
0
ARC
8
DEFAULT_255_1_234
10
21.8544291
20
100.2750676
40
0.2689577
50
215.0755913
51
264.6379694
0
ARC
8
DEFAULT_255_1_234
10
21.867124
20
100.3581513
40
0.3528978
50
263.846392
51
270.0833719
0
ARC
8
DEFAULT_255_1_234
10
21.8712631
20
100.3323374
40
0.3271036
50
269.3649385
51
287.5152008
0
ARC
8
DEFAULT_255_1_234
10
21.8890788
20
100.2676238
40
0.2600406
50
288.0630309
51
323.8113348
0
ARC
8
DEFAULT_255_1_234
10
21.801963
20
100.3326049
40
0.3687189
50
323.6547608
51
342.6590488
0
ARC
8
DEFAULT_255_1_234
10
21.5988245
20
100.3986952
40
0.5823286
50
342.4091907
51
353.6451149
0
ARC
8
DEFAULT_255_1_234
10
21.3156756
20
100.433919
40
0.8676442
50
353.4029884
51
359.4847795
0
LINE
8
DEFAULT_255_1_234
10
23.0177825
20
101.0654433
11
23.0177825
21
99.8904
0
LINE
8
DEFAULT_255_1_234
10
23.0177825
20
99.8904
11
22.8683921
21
99.8904
0
LINE
8
DEFAULT_255_1_234
10
22.8683921
20
99.8904
11
22.8683921
21
100.8807133
0
LINE
8
DEFAULT_255_1_234
10
22.8683921
20
100.8807133
11
22.5688083
21
100.7706785
0
LINE
8
DEFAULT_255_1_234
10
22.5688083
20
100.7706785
11
22.5688083
21
100.9056117
0
LINE
8
DEFAULT_255_1_234
10
22.5688083
20
100.9056117
11
22.9944904
21
101.0654433
0
LINE
8
DEFAULT_255_1_234
10
22.9944904
20
101.0654433
11
23.0177825
21
101.0654433
0
LINE
8
DEFAULT_255_1_234
10
23.6402422
20
100.4461963
11
23.5213725
21
100.4767169
0
LINE
8
DEFAULT_255_1_234
10
23.5213725
20
100.4767169
11
23.5808073
21
101.0598211
0
LINE
8
DEFAULT_255_1_234
10
23.5808073
20
101.0598211
11
24.179975
21
101.0598211
0
LINE
8
DEFAULT_255_1_234
10
24.179975
20
101.0598211
11
24.179975
21
100.9224784
0
LINE
8
DEFAULT_255_1_234
10
24.179975
20
100.9224784
11
23.7069056
21
100.9224784
0
LINE
8
DEFAULT_255_1_234
10
23.7069056
20
100.9224784
11
23.671566
21
100.6036184
0
LINE
8
DEFAULT_255_1_234
10
23.4796074
20
100.1980156
11
23.6201628
21
100.1980156
0
LINE
8
DEFAULT_255_1_234
10
23.6795977
20
100.4783232
11
23.6402422
21
100.4461963
0
ARC
8
DEFAULT_255_1_234
10
23.8570444
20
100.285623
40
0.3681349
50
93.7182161
51
120.2538958
0
ARC
8
DEFAULT_255_1_234
10
23.8664707
20
100.2048394
40
0.449379
50
89.9660152
51
94.2496022
0
ARC
8
DEFAULT_255_1_234
10
23.870544
20
100.2637549
40
0.390482
50
73.8043271
51
90.5585896
0
ARC
8
DEFAULT_255_1_234
10
23.8940337
20
100.3495602
40
0.3015334
50
41.3071453
51
73.5430202
0
ARC
8
DEFAULT_255_1_234
10
23.8524165
20
100.3137324
40
0.3564457
50
13.5075983
51
41.2174222
0
ARC
8
DEFAULT_255_1_234
10
23.6882369
20
100.2707486
40
0.5261351
50
1.1331335
51
13.8829381
0
ARC
8
DEFAULT_255_1_234
10
23.5470738
20
100.2631665
40
0.6674378
50
359.9919444
51
1.544251
0
ARC
8
DEFAULT_255_1_234
10
23.6747564
20
100.259028
40
0.5397702
50
347.8572367
51
0.4293338
0
ARC
8
DEFAULT_255_1_234
10
23.8497882
20
100.2193736
40
0.3603188
50
323.673004
51
348.1672506
0
ARC
8
DEFAULT_255_1_234
10
23.879239
20
100.2014168
40
0.3259678
50
316.8171152
51
323.1492751
0
ARC
8
DEFAULT_255_1_234
10
23.8853579
20
100.197746
40
0.3189975
50
281.8396411
51
316.5457803
0
ARC
8
DEFAULT_255_1_234
10
23.8477842
20
100.3532762
40
0.4789527
50
269.5770101
51
282.4214771
0
ARC
8
DEFAULT_255_1_234
10
23.8406654
20
100.3319125
40
0.45759
50
256.2427136
51
270.4486331
0
ARC
8
DEFAULT_255_1_234
10
23.8107556
20
100.2119229
40
0.3339303
50
228.9023911
51
256.3314342
0
ARC
8
DEFAULT_255_1_234
10
23.8033789
20
100.2002746
40
0.32031
50
193.753695
51
228.5271154
0
ARC
8
DEFAULT_255_1_234
10
23.9271743
20
100.23658
40
0.4492253
50
184.924711
51
194.497588
0
ARC
8
DEFAULT_255_1_234
10
23.946431
20
100.2401591
40
0.3289787
50
187.3600538
51
198.6732863
0
ARC
8
DEFAULT_255_1_234
10
23.8414604
20
100.2037674
40
0.217884
50
198.4451669
51
217.794479
0
ARC
8
DEFAULT_255_1_234
10
23.8118779
20
100.1828085
40
0.1816698
50
218.2887171
51
228.5612368
0
ARC
8
DEFAULT_255_1_234
10
23.8216566
20
100.1959963
40
0.1980329
50
228.9654866
51
258.1234728
0
ARC
8
DEFAULT_255_1_234
10
23.8422276
20
100.2840833
40
0.2884748
50
257.7258293
51
270.401361
0
ARC
8
DEFAULT_255_1_234
10
23.8467162
20
100.2395821
40
0.2439788
50
269.4204404
51
286.4209037
0
ARC
8
DEFAULT_255_1_234
10
23.861565
20
100.1856657
40
0.1880666
50
286.7251356
51
320.600362
0
ARC
8
DEFAULT_255_1_234
10
23.8232475
20
100.2167595
40
0.2374121
50
320.6712579
51
344.5441685
0
ARC
8
DEFAULT_255_1_234
10
23.7075801
20
100.2507045
40
0.3579479
50
344.2412205
51
356.7357071
0
ARC
8
DEFAULT_255_1_234
10
23.5826949
20
100.2610444
40
0.4832297
50
356.3548756
51
0.0500261
0
ARC
8
DEFAULT_255_1_234
10
23.7163458
20
100.264165
40
0.3495889
50
359.5576869
51
12.953486
0
ARC
8
DEFAULT_255_1_234
10
23.8218356
20
100.2897434
40
0.2410532
50
12.6490276
51
41.6081334
0
ARC
8
DEFAULT_255_1_234
10
23.8448727
20
100.3093321
40
0.2108218
50
41.7850273
51
85.9892764
0
ARC
8
DEFAULT_255_1_234
10
23.8325463
20
100.2280462
40
0.2928454
50
84.6957577
51
90.0676183
0
ARC
8
DEFAULT_255_1_234
10
23.8301948
20
100.1611716
40
0.3597255
50
89.6804936
51
99.1614436
0
ARC
8
DEFAULT_255_1_234
10
23.8096579
20
100.2839131
40
0.235281
50
98.9830931
51
113.8908934
0
ARC
8
DEFAULT_255_1_234
10
23.7866989
20
100.3380587
40
0.176479
50
114.1950727
51
127.3641004
0
LINE
8
DEFAULT_255_1_234
10
22.2308911
20
108.4487534
11
22.2308911
21
108.3748614
0
LINE
8
DEFAULT_255_1_234
10
21.2903745
20
108.3644201
11
21.2903745
21
108.4487534
0
LINE
8
DEFAULT_255_1_234
10
22.0774849
20
108.3636169
11
22.0774849
21
108.4503597
0
LINE
8
DEFAULT_255_1_234
10
21.4437807
20
108.460801
11
21.4437807
21
108.3748614
0
ARC
8
DEFAULT_255_1_234
10
21.3666937
20
108.3709015
40
0.8642064
50
350.487711
51
0.2625388
0
ARC
8
DEFAULT_255_1_234
10
21.5960178
20
108.3314578
40
0.631518
50
336.0277639
51
350.5787438
0
ARC
8
DEFAULT_255_1_234
10
21.7305002
20
108.2706892
40
0.4839466
50
319.8877444
51
336.1328423
0
ARC
8
DEFAULT_255_1_234
10
21.7907643
20
108.222458
40
0.4067874
50
302.4806467
51
319.6143626
0
ARC
8
DEFAULT_255_1_234
10
21.7792653
20
108.2446202
40
0.4316636
50
275.8195682
51
302.1884709
0
ARC
8
DEFAULT_255_1_234
10
21.7626286
20
108.3588665
40
0.5470306
50
269.9171439
51
276.3397983
0
ARC
8
DEFAULT_255_1_234
10
21.7581496
20
108.2902681
40
0.4784458
50
252.5219675
51
270.4416499
0
ARC
8
DEFAULT_255_1_234
10
21.7437755
20
108.2363592
40
0.422716
50
237.5352116
51
252.1857531
0
ARC
8
DEFAULT_255_1_234
10
21.7526951
20
108.2477363
40
0.4371052
50
209.063312
51
237.3492538
0
ARC
8
DEFAULT_255_1_234
10
21.8396799
20
108.3023685
40
0.5397041
50
205.1183774
51
209.6470015
0
ARC
8
DEFAULT_255_1_234
10
21.9193836
20
108.336183
40
0.6262326
50
188.7215458
51
204.8240747
0
ARC
8
DEFAULT_255_1_234
10
22.1191364
20
108.3698067
40
0.8287794
50
180.3723947
51
188.9252049
0
ARC
8
DEFAULT_255_1_234
10
22.1164116
20
108.4527402
40
0.8260467
50
169.5253763
51
180.2765336
0
ARC
8
DEFAULT_255_1_234
10
21.9261564
20
108.4877309
40
0.6326007
50
155.8315255
51
169.5089989
0
ARC
8
DEFAULT_255_1_234
10
21.7981066
20
108.5471348
40
0.4914567
50
139.6258461
51
156.0379525
0
ARC
8
DEFAULT_255_1_234
10
21.7391399
20
108.5945799
40
0.4158054
50
122.6416387
51
139.3430715
0
ARC
8
DEFAULT_255_1_234
10
21.7492019
20
108.5762451
40
0.4366739
50
93.0223692
51
122.455762
0
ARC
8
DEFAULT_255_1_234
10
21.7600016
20
108.4797709
40
0.5336137
50
89.975342
51
93.6341897
0
ARC
8
DEFAULT_255_1_234
10
21.7638795
20
108.5196242
40
0.4937738
50
73.746375
51
90.4233405
0
ARC
8
DEFAULT_255_1_234
10
21.7814373
20
108.5876287
40
0.4235786
50
57.662753
51
73.4518111
0
ARC
8
DEFAULT_255_1_234
10
21.780638
20
108.5897832
40
0.4221899
50
29.1440151
51
57.414694
0
ARC
8
DEFAULT_255_1_234
10
21.6871574
20
108.5314005
40
0.5322966
50
24.0982783
51
29.7323517
0
ARC
8
DEFAULT_255_1_234
10
21.583785
20
108.4885399
40
0.6441673
50
8.6655297
51
23.8241346
0
ARC
8
DEFAULT_255_1_234
10
21.3603588
20
108.4520854
40
0.8705386
50
359.7806941
51
8.8218784
0
ARC
8
DEFAULT_255_1_234
10
21.2456586
20
108.4546345
40
0.8318373
50
359.7055579
51
8.036044
0
ARC
8
DEFAULT_255_1_234
10
21.5456592
20
108.4983239
40
0.5286768
50
7.8928306
51
20.2962107
0
ARC
8
DEFAULT_255_1_234
10
21.7084162
20
108.5583395
40
0.3552073
50
20.3231126
51
36.4992797
0
ARC
8
DEFAULT_255_1_234
10
21.7769708
20
108.6111402
40
0.2686974
50
36.1437156
51
85.6627023
0
ARC
8
DEFAULT_255_1_234
10
21.7607254
20
108.5071221
40
0.373739
50
84.3852322
51
90.0757696
0
ARC
8
DEFAULT_255_1_234
10
21.7564927
20
108.5731839
40
0.3076997
50
89.3038458
51
109.9045693
0
ARC
8
DEFAULT_255_1_234
10
21.7472318
20
108.6114062
40
0.2686424
50
110.8228367
51
143.9179474
0
ARC
8
DEFAULT_255_1_234
10
21.8405978
20
108.5401236
40
0.3860887
50
143.5289163
51
163.2980757
0
ARC
8
DEFAULT_255_1_234
10
22.0313799
20
108.4801433
40
0.5860659
50
163.0418846
51
174.3140048
0
ARC
8
DEFAULT_255_1_234
10
22.2717911
20
108.4523854
40
0.8280531
50
174.0509143
51
179.4176892
0
ARC
8
DEFAULT_255_1_234
10
22.221365
20
108.3706954
40
0.7775954
50
179.6930361
51
188.7906598
0
ARC
8
DEFAULT_255_1_234
10
21.9550129
20
108.3280935
40
0.5078633
50
188.6331305
51
202.5629587
0
ARC
8
DEFAULT_255_1_234
10
21.8295721
20
108.2776996
40
0.3726913
50
202.8081362
51
216.1193925
0
ARC
8
DEFAULT_255_1_234
10
21.7486291
20
108.2125676
40
0.2689577
50
215.0755913
51
264.6379694
0
ARC
8
DEFAULT_255_1_234
10
21.761324
20
108.2956513
40
0.3528978
50
263.846392
51
270.0833719
0
ARC
8
DEFAULT_255_1_234
10
21.7654631
20
108.2698374
40
0.3271036
50
269.3649385
51
287.5152008
0
ARC
8
DEFAULT_255_1_234
10
21.7832788
20
108.2051238
40
0.2600406
50
288.0630309
51
323.8113348
0
ARC
8
DEFAULT_255_1_234
10
21.696163
20
108.2701049
40
0.3687189
50
323.6547608
51
342.6590488
0
ARC
8
DEFAULT_255_1_234
10
21.4930245
20
108.3361952
40
0.5823286
50
342.4091907
51
353.6451149
0
ARC
8
DEFAULT_255_1_234
10
21.2098756
20
108.371419
40
0.8676442
50
353.4029884
51
359.4847795
0
LINE
8
DEFAULT_255_1_234
10
22.9119825
20
109.0029433
11
22.9119825
21
107.8279
0
LINE
8
DEFAULT_255_1_234
10
22.9119825
20
107.8279
11
22.7625921
21
107.8279
0
LINE
8
DEFAULT_255_1_234
10
22.7625921
20
107.8279
11
22.7625921
21
108.8182133
0
LINE
8
DEFAULT_255_1_234
10
22.7625921
20
108.8182133
11
22.4630083
21
108.7081785
0
LINE
8
DEFAULT_255_1_234
10
22.4630083
20
108.7081785
11
22.4630083
21
108.8431117
0
LINE
8
DEFAULT_255_1_234
10
22.4630083
20
108.8431117
11
22.8886904
21
109.0029433
0
LINE
8
DEFAULT_255_1_234
10
22.8886904
20
109.0029433
11
22.9119825
21
109.0029433
0
LINE
8
DEFAULT_255_1_234
10
23.9745814
20
108.9973211
11
23.9745814
21
108.220652
0
LINE
8
DEFAULT_255_1_234
10
23.9745814
20
108.220652
11
24.1368226
21
108.220652
0
LINE
8
DEFAULT_255_1_234
10
24.1368226
20
108.220652
11
24.1368226
21
108.0993728
0
LINE
8
DEFAULT_255_1_234
10
24.1368226
20
108.0993728
11
23.9745814
21
108.0993728
0
LINE
8
DEFAULT_255_1_234
10
23.9745814
20
108.0993728
11
23.9745814
21
107.8279
0
LINE
8
DEFAULT_255_1_234
10
23.9745814
20
107.8279
11
23.8251911
21
107.8279
0
LINE
8
DEFAULT_255_1_234
10
23.8251911
20
107.8279
11
23.8251911
21
108.0993728
0
LINE
8
DEFAULT_255_1_234
10
23.8251911
20
108.0993728
11
23.2926869
21
108.0993728
0
LINE
8
DEFAULT_255_1_234
10
23.2926869
20
108.0993728
11
23.2926869
21
108.1869187
0
LINE
8
DEFAULT_255_1_234
10
23.2926869
20
108.1869187
11
23.8163562
21
108.9973211
0
LINE
8
DEFAULT_255_1_234
10
23.8163562
20
108.9973211
11
23.9745814
21
108.9973211
0
LINE
8
DEFAULT_255_1_234
10
23.8075213
20
108.7619912
11
23.4613534
21
108.220652
0
LINE
8
DEFAULT_255_1_234
10
23.4613534
20
108.220652
11
23.8251911
21
108.220652
0
LINE
8
DEFAULT_255_1_234
10
23.8251911
20
108.220652
11
23.8251911
21
108.7941181
0
LINE
8
DEFAULT_255_1_234
10
23.8251911
20
108.7941181
11
23.8075213
21
108.7619912
0
LINE
8
DEFAULT_255_1_234
10
22.3366911
20
116.3862534
11
22.3366911
21
116.3123614
0
LINE
8
DEFAULT_255_1_234
10
21.3961745
20
116.3019201
11
21.3961745
21
116.3862534
0
LINE
8
DEFAULT_255_1_234
10
22.1832849
20
116.3011169
11
22.1832849
21
116.3878597
0
LINE
8
DEFAULT_255_1_234
10
21.5495807
20
116.398301
11
21.5495807
21
116.3123614
0
ARC
8
DEFAULT_255_1_234
10
21.4724937
20
116.3084015
40
0.8642064
50
350.487711
51
0.2625388
0
ARC
8
DEFAULT_255_1_234
10
21.7018178
20
116.2689578
40
0.631518
50
336.0277639
51
350.5787438
0
ARC
8
DEFAULT_255_1_234
10
21.8363002
20
116.2081892
40
0.4839466
50
319.8877444
51
336.1328423
0
ARC
8
DEFAULT_255_1_234
10
21.8965643
20
116.159958
40
0.4067874
50
302.4806467
51
319.6143626
0
ARC
8
DEFAULT_255_1_234
10
21.8850653
20
116.1821202
40
0.4316636
50
275.8195682
51
302.1884709
0
ARC
8
DEFAULT_255_1_234
10
21.8684286
20
116.2963665
40
0.5470306
50
269.9171439
51
276.3397983
0
ARC
8
DEFAULT_255_1_234
10
21.8639496
20
116.2277681
40
0.4784458
50
252.5219675
51
270.4416499
0
ARC
8
DEFAULT_255_1_234
10
21.8495755
20
116.1738592
40
0.422716
50
237.5352116
51
252.1857531
0
ARC
8
DEFAULT_255_1_234
10
21.8584951
20
116.1852363
40
0.4371052
50
209.063312
51
237.3492538
0
ARC
8
DEFAULT_255_1_234
10
21.9454799
20
116.2398685
40
0.5397041
50
205.1183774
51
209.6470015
0
ARC
8
DEFAULT_255_1_234
10
22.0251836
20
116.273683
40
0.6262326
50
188.7215458
51
204.8240747
0
ARC
8
DEFAULT_255_1_234
10
22.2249364
20
116.3073067
40
0.8287794
50
180.3723947
51
188.9252049
0
ARC
8
DEFAULT_255_1_234
10
22.2222116
20
116.3902402
40
0.8260467
50
169.5253763
51
180.2765336
0
ARC
8
DEFAULT_255_1_234
10
22.0319564
20
116.4252309
40
0.6326007
50
155.8315255
51
169.5089989
0
ARC
8
DEFAULT_255_1_234
10
21.9039066
20
116.4846348
40
0.4914567
50
139.6258461
51
156.0379525
0
ARC
8
DEFAULT_255_1_234
10
21.8449399
20
116.5320799
40
0.4158054
50
122.6416387
51
139.3430715
0
ARC
8
DEFAULT_255_1_234
10
21.8550019
20
116.5137451
40
0.4366739
50
93.0223692
51
122.455762
0
ARC
8
DEFAULT_255_1_234
10
21.8658016
20
116.4172709
40
0.5336137
50
89.975342
51
93.6341897
0
ARC
8
DEFAULT_255_1_234
10
21.8696795
20
116.4571242
40
0.4937738
50
73.746375
51
90.4233405
0
ARC
8
DEFAULT_255_1_234
10
21.8872373
20
116.5251287
40
0.4235786
50
57.662753
51
73.4518111
0
ARC
8
DEFAULT_255_1_234
10
21.886438
20
116.5272832
40
0.4221899
50
29.1440151
51
57.414694
0
ARC
8
DEFAULT_255_1_234
10
21.7929574
20
116.4689005
40
0.5322966
50
24.0982783
51
29.7323517
0
ARC
8
DEFAULT_255_1_234
10
21.689585
20
116.4260399
40
0.6441673
50
8.6655297
51
23.8241346
0
ARC
8
DEFAULT_255_1_234
10
21.4661588
20
116.3895854
40
0.8705386
50
359.7806941
51
8.8218784
0
ARC
8
DEFAULT_255_1_234
10
21.3514586
20
116.3921345
40
0.8318373
50
359.7055579
51
8.036044
0
ARC
8
DEFAULT_255_1_234
10
21.6514592
20
116.4358239
40
0.5286768
50
7.8928306
51
20.2962107
0
ARC
8
DEFAULT_255_1_234
10
21.8142162
20
116.4958395
40
0.3552073
50
20.3231126
51
36.4992797
0
ARC
8
DEFAULT_255_1_234
10
21.8827708
20
116.5486402
40
0.2686974
50
36.1437156
51
85.6627023
0
ARC
8
DEFAULT_255_1_234
10
21.8665254
20
116.4446221
40
0.373739
50
84.3852322
51
90.0757696
0
ARC
8
DEFAULT_255_1_234
10
21.8622927
20
116.5106839
40
0.3076997
50
89.3038458
51
109.9045693
0
ARC
8
DEFAULT_255_1_234
10
21.8530318
20
116.5489062
40
0.2686424
50
110.8228367
51
143.9179474
0
ARC
8
DEFAULT_255_1_234
10
21.9463978
20
116.4776236
40
0.3860887
50
143.5289163
51
163.2980757
0
ARC
8
DEFAULT_255_1_234
10
22.1371799
20
116.4176433
40
0.5860659
50
163.0418846
51
174.3140048
0
ARC
8
DEFAULT_255_1_234
10
22.3775911
20
116.3898854
40
0.8280531
50
174.0509143
51
179.4176892
0
ARC
8
DEFAULT_255_1_234
10
22.327165
20
116.3081954
40
0.7775954
50
179.6930361
51
188.7906598
0
ARC
8
DEFAULT_255_1_234
10
22.0608129
20
116.2655935
40
0.5078633
50
188.6331305
51
202.5629587
0
ARC
8
DEFAULT_255_1_234
10
21.9353721
20
116.2151996
40
0.3726913
50
202.8081362
51
216.1193925
0
ARC
8
DEFAULT_255_1_234
10
21.8544291
20
116.1500676
40
0.2689577
50
215.0755913
51
264.6379694
0
ARC
8
DEFAULT_255_1_234
10
21.867124
20
116.2331513
40
0.3528978
50
263.846392
51
270.0833719
0
ARC
8
DEFAULT_255_1_234
10
21.8712631
20
116.2073374
40
0.3271036
50
269.3649385
51
287.5152008
0
ARC
8
DEFAULT_255_1_234
10
21.8890788
20
116.1426238
40
0.2600406
50
288.0630309
51
323.8113348
0
ARC
8
DEFAULT_255_1_234
10
21.801963
20
116.2076049
40
0.3687189
50
323.6547608
51
342.6590488
0
ARC
8
DEFAULT_255_1_234
10
21.5988245
20
116.2736952
40
0.5823286
50
342.4091907
51
353.6451149
0
ARC
8
DEFAULT_255_1_234
10
21.3156756
20
116.308919
40
0.8676442
50
353.4029884
51
359.4847795
0
LINE
8
DEFAULT_255_1_234
10
23.0177825
20
116.9404433
11
23.0177825
21
115.7654
0
LINE
8
DEFAULT_255_1_234
10
23.0177825
20
115.7654
11
22.8683921
21
115.7654
0
LINE
8
DEFAULT_255_1_234
10
22.8683921
20
115.7654
11
22.8683921
21
116.7557133
0
LINE
8
DEFAULT_255_1_234
10
22.8683921
20
116.7557133
11
22.5688083
21
116.6456785
0
LINE
8
DEFAULT_255_1_234
10
22.5688083
20
116.6456785
11
22.5688083
21
116.7806117
0
LINE
8
DEFAULT_255_1_234
10
22.5688083
20
116.7806117
11
22.9944904
21
116.9404433
0
LINE
8
DEFAULT_255_1_234
10
22.9944904
20
116.9404433
11
23.0177825
21
116.9404433
0
LINE
8
DEFAULT_255_1_234
10
23.6691564
20
116.3011169
11
23.6691564
21
116.4223962
0
LINE
8
DEFAULT_255_1_234
10
23.6691564
20
116.4223962
11
23.7807976
21
116.4223962
0
LINE
8
DEFAULT_255_1_234
10
23.5904454
20
116.6280087
11
23.4418583
21
116.6280087
0
LINE
8
DEFAULT_255_1_234
10
23.431417
20
116.0738188
11
23.5808073
21
116.0738188
0
LINE
8
DEFAULT_255_1_234
10
23.7807976
20
116.3011169
11
23.6691564
21
116.3011169
0
ARC
8
DEFAULT_255_1_234
10
23.7778842
20
116.7616713
40
0.3392876
50
270.4919872
51
281.8951556
0
ARC
8
DEFAULT_255_1_234
10
23.8020104
20
116.6514702
40
0.2264817
50
281.6691735
51
301.2943132
0
ARC
8
DEFAULT_255_1_234
10
23.8190314
20
116.6203304
40
0.1910381
50
301.7833094
51
311.7545298
0
ARC
8
DEFAULT_255_1_234
10
23.828189
20
116.6101748
40
0.1773635
50
311.7323931
51
354.2802411
0
ARC
8
DEFAULT_255_1_234
10
23.7555515
20
116.6226722
40
0.2509385
50
353.0937916
51
0.1181479
0
ARC
8
DEFAULT_255_1_234
10
23.70943
20
116.6274386
40
0.2970898
50
359.1805295
51
15.0453146
0
ARC
8
DEFAULT_255_1_234
10
23.8440137
20
116.6666992
40
0.1569564
50
13.9577229
51
77.6713066
0
ARC
8
DEFAULT_255_1_234
10
23.8053666
20
116.5281949
40
0.3006298
50
76.1116566
51
90.7026153
0
ARC
8
DEFAULT_255_1_234
10
23.7994505
20
116.5555545
40
0.2732568
50
89.5324876
51
103.531937
0
ARC
8
DEFAULT_255_1_234
10
23.7793949
20
116.6354884
40
0.1908508
50
103.2931773
51
133.5619022
0
ARC
8
DEFAULT_255_1_234
10
23.7749437
20
116.6414375
40
0.1834746
50
133.8349307
51
173.5344437
0
ARC
8
DEFAULT_255_1_234
10
23.847248
20
116.6286213
40
0.2568033
50
172.5096846
51
180.1366907
0
ARC
8
DEFAULT_255_1_234
10
23.7521374
20
116.6320622
40
0.3103056
50
155.3484492
51
180.7484736
0
ARC
8
DEFAULT_255_1_234
10
23.7472463
20
116.6291846
40
0.3070957
50
131.5744599
51
154.4798489
0
ARC
8
DEFAULT_255_1_234
10
23.7785611
20
116.597531
40
0.3515643
50
96.9875458
51
131.9690667
0
ARC
8
DEFAULT_255_1_234
10
23.8005091
20
116.4729636
40
0.4779224
50
89.8596053
51
97.7825159
0
ARC
8
DEFAULT_255_1_234
10
23.8053154
20
116.4467616
40
0.5041361
50
78.3655447
51
90.4131539
0
ARC
8
DEFAULT_255_1_234
10
23.8411072
20
116.6126887
40
0.3344039
50
56.6229102
51
78.638727
0
ARC
8
DEFAULT_255_1_234
10
23.8626015
20
116.6502805
40
0.2912001
50
47.0253525
51
56.0854072
0
ARC
8
DEFAULT_255_1_234
10
23.8645795
20
116.6542223
40
0.2869704
50
10.9208013
51
46.7778124
0
ARC
8
DEFAULT_255_1_234
10
23.7281862
20
116.6226857
40
0.426899
50
359.6364486
51
11.6087304
0
ARC
8
DEFAULT_255_1_234
10
23.9116706
20
116.6211752
40
0.243409
50
332.3549906
51
359.7179418
0
ARC
8
DEFAULT_255_1_234
10
23.8466307
20
116.6520142
40
0.3153459
50
325.2333722
51
332.8745602
0
ARC
8
DEFAULT_255_1_234
10
23.8618931
20
116.6413828
40
0.2967456
50
292.9802137
51
325.2392345
0
ARC
8
DEFAULT_255_1_234
10
23.8344305
20
116.6947863
40
0.3566604
50
292.5402179
51
293.6924929
0
ARC
8
DEFAULT_255_1_234
10
23.8736901
20
116.0493091
40
0.3307468
50
57.6435486
51
72.8625112
0
ARC
8
DEFAULT_255_1_234
10
23.9091401
20
116.1067549
40
0.2632492
50
36.7248896
51
57.4697979
0
ARC
8
DEFAULT_255_1_234
10
23.9080033
20
116.108022
40
0.2634081
50
8.0545065
51
36.356114
0
ARC
8
DEFAULT_255_1_234
10
23.8217218
20
116.0925174
40
0.3510261
50
359.8320645
51
8.5869982
0
ARC
8
DEFAULT_255_1_234
10
23.7841995
20
116.0877101
40
0.3885653
50
343.9829931
51
0.5571613
0
ARC
8
DEFAULT_255_1_234
10
23.8728192
20
116.0634438
40
0.2966924
50
311.6359546
51
343.7651759
0
ARC
8
DEFAULT_255_1_234
10
23.8349761
20
116.1061102
40
0.3537231
50
279.7829875
51
311.6255694
0
ARC
8
DEFAULT_255_1_234
10
23.8048537
20
116.249828
40
0.5004971
50
269.7286406
51
280.3856417
0
ARC
8
DEFAULT_255_1_234
10
23.798661
20
116.2456996
40
0.4963778
50
256.6828919
51
270.4412052
0
ARC
8
DEFAULT_255_1_234
10
23.7647906
20
116.1072394
40
0.3538406
50
229.4223008
51
256.8556159
0
ARC
8
DEFAULT_255_1_234
10
23.7233298
20
116.0605736
40
0.2914296
50
181.818294
51
229.6455059
0
ARC
8
DEFAULT_255_1_234
10
23.8273255
20
116.0736496
40
0.3959084
50
179.9755256
51
183.2323064
0
ARC
8
DEFAULT_255_1_234
10
23.8101
20
116.0716037
40
0.2293034
50
179.4465117
51
196.2869258
0
ARC
8
DEFAULT_255_1_234
10
23.7613408
20
116.0582651
40
0.1787621
50
196.5661473
51
227.705904
0
ARC
8
DEFAULT_255_1_234
10
23.7777503
20
116.0766155
40
0.2033784
50
227.7652068
51
257.8762805
0
ARC
8
DEFAULT_255_1_234
10
23.8002473
20
116.1709156
40
0.3003081
50
257.4584385
51
270.426602
0
ARC
8
DEFAULT_255_1_234
10
23.804804
20
116.1998996
40
0.329292
50
269.5962073
51
280.8789248
0
ARC
8
DEFAULT_255_1_234
10
23.8277568
20
116.0852685
40
0.2123908
50
280.6346389
51
299.8595945
0
ARC
8
DEFAULT_255_1_234
10
23.8468475
20
116.0490212
40
0.171457
50
300.3576302
51
314.5517981
0
ARC
8
DEFAULT_255_1_234
10
23.8385535
20
116.0550919
40
0.1816095
50
315.0728369
51
345.0431014
0
ARC
8
DEFAULT_255_1_234
10
23.746235
20
116.0819841
40
0.2777492
50
344.5986631
51
357.9269593
0
ARC
8
DEFAULT_255_1_234
10
23.6566676
20
116.0881276
40
0.3674917
50
357.4748886
51
0.0231117
0
ARC
8
DEFAULT_255_1_234
10
23.7589785
20
116.0905679
40
0.2651907
50
359.5047933
51
13.4239635
0
ARC
8
DEFAULT_255_1_234
10
23.8456429
20
116.1127478
40
0.1757509
50
12.9498199
51
48.7551375
0
ARC
8
DEFAULT_255_1_234
10
23.8274163
20
116.08784
40
0.2065134
50
49.5088623
51
72.1836453
0
ARC
8
DEFAULT_255_1_234
10
23.7916315
20
115.9816291
40
0.3185836
50
71.9010081
51
84.3554254
0
ARC
8
DEFAULT_255_1_234
10
23.7754947
20
115.8455326
40
0.4556151
50
84.0193428
51
89.333121
0
LINE
8
DEFAULT_255_1_234
10
22.3366911
20
124.3237534
11
22.3366911
21
124.2498614
0
LINE
8
DEFAULT_255_1_234
10
21.3961745
20
124.2394201
11
21.3961745
21
124.3237534
0
LINE
8
DEFAULT_255_1_234
10
22.1832849
20
124.2386169
11
22.1832849
21
124.3253597
0
LINE
8
DEFAULT_255_1_234
10
21.5495807
20
124.335801
11
21.5495807
21
124.2498614
0
ARC
8
DEFAULT_255_1_234
10
21.4724937
20
124.2459015
40
0.8642064
50
350.487711
51
0.2625388
0
ARC
8
DEFAULT_255_1_234
10
21.7018178
20
124.2064578
40
0.631518
50
336.0277639
51
350.5787438
0
ARC
8
DEFAULT_255_1_234
10
21.8363002
20
124.1456892
40
0.4839466
50
319.8877444
51
336.1328423
0
ARC
8
DEFAULT_255_1_234
10
21.8965643
20
124.097458
40
0.4067874
50
302.4806467
51
319.6143626
0
ARC
8
DEFAULT_255_1_234
10
21.8850653
20
124.1196202
40
0.4316636
50
275.8195682
51
302.1884709
0
ARC
8
DEFAULT_255_1_234
10
21.8684286
20
124.2338665
40
0.5470306
50
269.9171439
51
276.3397983
0
ARC
8
DEFAULT_255_1_234
10
21.8639496
20
124.1652681
40
0.4784458
50
252.5219675
51
270.4416499
0
ARC
8
DEFAULT_255_1_234
10
21.8495755
20
124.1113592
40
0.422716
50
237.5352116
51
252.1857531
0
ARC
8
DEFAULT_255_1_234
10
21.8584951
20
124.1227363
40
0.4371052
50
209.063312
51
237.3492538
0
ARC
8
DEFAULT_255_1_234
10
21.9454799
20
124.1773685
40
0.5397041
50
205.1183774
51
209.6470015
0
ARC
8
DEFAULT_255_1_234
10
22.0251836
20
124.211183
40
0.6262326
50
188.7215458
51
204.8240747
0
ARC
8
DEFAULT_255_1_234
10
22.2249364
20
124.2448067
40
0.8287794
50
180.3723947
51
188.9252049
0
ARC
8
DEFAULT_255_1_234
10
22.2222116
20
124.3277402
40
0.8260467
50
169.5253763
51
180.2765336
0
ARC
8
DEFAULT_255_1_234
10
22.0319564
20
124.3627309
40
0.6326007
50
155.8315255
51
169.5089989
0
ARC
8
DEFAULT_255_1_234
10
21.9039066
20
124.4221348
40
0.4914567
50
139.6258461
51
156.0379525
0
ARC
8
DEFAULT_255_1_234
10
21.8449399
20
124.4695799
40
0.4158054
50
122.6416387
51
139.3430715
0
ARC
8
DEFAULT_255_1_234
10
21.8550019
20
124.4512451
40
0.4366739
50
93.0223692
51
122.455762
0
ARC
8
DEFAULT_255_1_234
10
21.8658016
20
124.3547709
40
0.5336137
50
89.975342
51
93.6341897
0
ARC
8
DEFAULT_255_1_234
10
21.8696795
20
124.3946242
40
0.4937738
50
73.746375
51
90.4233405
0
ARC
8
DEFAULT_255_1_234
10
21.8872373
20
124.4626287
40
0.4235786
50
57.662753
51
73.4518111
0
ARC
8
DEFAULT_255_1_234
10
21.886438
20
124.4647832
40
0.4221899
50
29.1440151
51
57.414694
0
ARC
8
DEFAULT_255_1_234
10
21.7929574
20
124.4064005
40
0.5322966
50
24.0982783
51
29.7323517
0
ARC
8
DEFAULT_255_1_234
10
21.689585
20
124.3635399
40
0.6441673
50
8.6655297
51
23.8241346
0
ARC
8
DEFAULT_255_1_234
10
21.4661588
20
124.3270854
40
0.8705386
50
359.7806941
51
8.8218784
0
ARC
8
DEFAULT_255_1_234
10
21.3514586
20
124.3296345
40
0.8318373
50
359.7055579
51
8.036044
0
ARC
8
DEFAULT_255_1_234
10
21.6514592
20
124.3733239
40
0.5286768
50
7.8928306
51
20.2962107
0
ARC
8
DEFAULT_255_1_234
10
21.8142162
20
124.4333395
40
0.3552073
50
20.3231126
51
36.4992797
0
ARC
8
DEFAULT_255_1_234
10
21.8827708
20
124.4861402
40
0.2686974
50
36.1437156
51
85.6627023
0
ARC
8
DEFAULT_255_1_234
10
21.8665254
20
124.3821221
40
0.373739
50
84.3852322
51
90.0757696
0
ARC
8
DEFAULT_255_1_234
10
21.8622927
20
124.4481839
40
0.3076997
50
89.3038458
51
109.9045693
0
ARC
8
DEFAULT_255_1_234
10
21.8530318
20
124.4864062
40
0.2686424
50
110.8228367
51
143.9179474
0
ARC
8
DEFAULT_255_1_234
10
21.9463978
20
124.4151236
40
0.3860887
50
143.5289163
51
163.2980757
0
ARC
8
DEFAULT_255_1_234
10
22.1371799
20
124.3551433
40
0.5860659
50
163.0418846
51
174.3140048
0
ARC
8
DEFAULT_255_1_234
10
22.3775911
20
124.3273854
40
0.8280531
50
174.0509143
51
179.4176892
0
ARC
8
DEFAULT_255_1_234
10
22.327165
20
124.2456954
40
0.7775954
50
179.6930361
51
188.7906598
0
ARC
8
DEFAULT_255_1_234
10
22.0608129
20
124.2030935
40
0.5078633
50
188.6331305
51
202.5629587
0
ARC
8
DEFAULT_255_1_234
10
21.9353721
20
124.1526996
40
0.3726913
50
202.8081362
51
216.1193925
0
ARC
8
DEFAULT_255_1_234
10
21.8544291
20
124.0875676
40
0.2689577
50
215.0755913
51
264.6379694
0
ARC
8
DEFAULT_255_1_234
10
21.867124
20
124.1706513
40
0.3528978
50
263.846392
51
270.0833719
0
ARC
8
DEFAULT_255_1_234
10
21.8712631
20
124.1448374
40
0.3271036
50
269.3649385
51
287.5152008
0
ARC
8
DEFAULT_255_1_234
10
21.8890788
20
124.0801238
40
0.2600406
50
288.0630309
51
323.8113348
0
ARC
8
DEFAULT_255_1_234
10
21.801963
20
124.1451049
40
0.3687189
50
323.6547608
51
342.6590488
0
ARC
8
DEFAULT_255_1_234
10
21.5988245
20
124.2111952
40
0.5823286
50
342.4091907
51
353.6451149
0
ARC
8
DEFAULT_255_1_234
10
21.3156756
20
124.246419
40
0.8676442
50
353.4029884
51
359.4847795
0
LINE
8
DEFAULT_255_1_234
10
23.0177825
20
124.8779433
11
23.0177825
21
123.7029
0
LINE
8
DEFAULT_255_1_234
10
23.0177825
20
123.7029
11
22.8683921
21
123.7029
0
LINE
8
DEFAULT_255_1_234
10
22.8683921
20
123.7029
11
22.8683921
21
124.6932133
0
LINE
8
DEFAULT_255_1_234
10
22.8683921
20
124.6932133
11
22.5688083
21
124.5831785
0
LINE
8
DEFAULT_255_1_234
10
22.5688083
20
124.5831785
11
22.5688083
21
124.7181117
0
LINE
8
DEFAULT_255_1_234
10
22.5688083
20
124.7181117
11
22.9944904
21
124.8779433
0
LINE
8
DEFAULT_255_1_234
10
22.9944904
20
124.8779433
11
23.0177825
21
124.8779433
0
LINE
8
DEFAULT_255_1_234
10
24.2193305
20
123.8241792
11
24.2193305
21
123.7029
0
LINE
8
DEFAULT_255_1_234
10
24.2193305
20
123.7029
11
23.4531027
21
123.7029
0
LINE
8
DEFAULT_255_1_234
10
23.4531027
20
123.7029
11
23.4531027
21
123.8097221
0
LINE
8
DEFAULT_255_1_234
10
23.4531027
20
123.8097221
11
23.8579023
21
124.2594995
0
LINE
8
DEFAULT_255_1_234
10
23.579201
20
124.5277595
11
23.4306138
21
124.5277595
0
LINE
8
DEFAULT_255_1_234
10
23.9454482
20
124.1639218
11
23.6322104
21
123.8241792
0
LINE
8
DEFAULT_255_1_234
10
23.6322104
20
123.8241792
11
24.2193305
21
123.8241792
0
ARC
8
DEFAULT_255_1_234
10
22.5088856
20
125.4524527
40
1.8008286
50
318.5132453
51
320.7828378
0
ARC
8
DEFAULT_255_1_234
10
23.0375831
20
125.0221426
40
1.1191493
50
320.7372736
51
323.9737074
0
ARC
8
DEFAULT_255_1_234
10
23.4295687
20
124.7381361
40
0.6350923
50
323.8961724
51
328.6421089
0
ARC
8
DEFAULT_255_1_234
10
23.6342283
20
124.6119031
40
0.3946393
50
328.8299013
51
331.789948
0
ARC
8
DEFAULT_255_1_234
10
23.7339461
20
124.5604509
40
0.2824501
50
331.4255242
51
352.9364833
0
ARC
8
DEFAULT_255_1_234
10
23.7475962
20
124.5573976
40
0.2685315
50
353.2248685
51
0.0169286
0
ARC
8
DEFAULT_255_1_234
10
23.7685838
20
124.559695
40
0.2475536
50
359.4866256
51
15.9339782
0
ARC
8
DEFAULT_255_1_234
10
23.8192824
20
124.5733286
40
0.1950618
50
16.1714718
51
43.5284424
0
ARC
8
DEFAULT_255_1_234
10
23.8270132
20
124.5810573
40
0.184134
50
43.4415429
51
83.1661404
0
ARC
8
DEFAULT_255_1_234
10
23.813605
20
124.5073771
40
0.258926
50
82.160215
51
90.1505798
0
ARC
8
DEFAULT_255_1_234
10
23.8104478
20
124.4536865
40
0.3126255
50
89.5460705
51
102.5418777
0
ARC
8
DEFAULT_255_1_234
10
23.7861564
20
124.5567665
40
0.2067346
50
102.1739365
51
129.2061916
0
ARC
8
DEFAULT_255_1_234
10
23.7782636
20
124.5692094
40
0.1921118
50
129.7279328
51
135.7542026
0
ARC
8
DEFAULT_255_1_234
10
23.7904163
20
124.5595045
40
0.2075944
50
136.175737
51
166.3674722
0
ARC
8
DEFAULT_255_1_234
10
23.8911083
20
124.5325182
40
0.3118201
50
165.9092917
51
178.8683903
0
ARC
8
DEFAULT_255_1_234
10
23.9775944
20
124.5278179
40
0.3983935
50
178.438168
51
180.0083905
0
ARC
8
DEFAULT_255_1_234
10
23.8374546
20
124.5317231
40
0.4068601
50
163.2878735
51
180.5581814
0
ARC
8
DEFAULT_255_1_234
10
23.7572807
20
124.553784
40
0.3237344
50
133.454115
51
162.9470031
0
ARC
8
DEFAULT_255_1_234
10
23.7751349
20
124.5348
40
0.349795
50
100.7869394
51
133.4384016
0
ARC
8
DEFAULT_255_1_234
10
23.809912
20
124.3799319
40
0.5084616
50
89.6605301
51
101.3704185
0
ARC
8
DEFAULT_255_1_234
10
23.8165459
20
124.3860496
40
0.502348
50
78.2171172
51
90.4130393
0
ARC
8
DEFAULT_255_1_234
10
23.8520537
20
124.5484637
40
0.3361092
50
55.9268222
51
78.4888551
0
ARC
8
DEFAULT_255_1_234
10
23.8716978
20
124.5823324
40
0.2970617
50
47.9292255
51
55.4054003
0
ARC
8
DEFAULT_255_1_234
10
23.8818538
20
124.5926502
40
0.2825983
50
4.3347696
51
48.0560701
0
ARC
8
DEFAULT_255_1_234
10
23.7722932
20
124.5756601
40
0.393225
50
359.925209
51
5.5967654
0
ARC
8
DEFAULT_255_1_234
10
23.8151824
20
124.5812816
40
0.3503892
50
337.8914096
51
358.9967724
0
ARC
8
DEFAULT_255_1_234
10
23.5438236
20
124.6859706
40
0.6412172
50
326.9135351
51
338.3505194
0
ARC
8
DEFAULT_255_1_234
10
23.1452539
20
124.9414284
40
1.1146189
50
319.6472867
51
327.095818
0
ARC
8
DEFAULT_255_1_234
10
22.7619543
20
125.2576
40
1.6114559
50
317.2586784
51
319.9046139
0
LINE
8
DEFAULT_255_1_234
10
22.3457911
20
132.2612534
11
22.3457911
21
132.1873614
0
LINE
8
DEFAULT_255_1_234
10
21.4052745
20
132.1769201
11
21.4052745
21
132.2612534
0
LINE
8
DEFAULT_255_1_234
10
22.1923849
20
132.1761169
11
22.1923849
21
132.2628597
0
LINE
8
DEFAULT_255_1_234
10
21.5586807
20
132.273301
11
21.5586807
21
132.1873614
0
ARC
8
DEFAULT_255_1_234
10
21.4815937
20
132.1834015
40
0.8642064
50
350.487711
51
0.2625388
0
ARC
8
DEFAULT_255_1_234
10
21.7109178
20
132.1439578
40
0.631518
50
336.0277639
51
350.5787438
0
ARC
8
DEFAULT_255_1_234
10
21.8454002
20
132.0831892
40
0.4839466
50
319.8877444
51
336.1328423
0
ARC
8
DEFAULT_255_1_234
10
21.9056643
20
132.034958
40
0.4067874
50
302.4806467
51
319.6143626
0
ARC
8
DEFAULT_255_1_234
10
21.8941653
20
132.0571202
40
0.4316636
50
275.8195682
51
302.1884709
0
ARC
8
DEFAULT_255_1_234
10
21.8775286
20
132.1713665
40
0.5470306
50
269.9171439
51
276.3397983
0
ARC
8
DEFAULT_255_1_234
10
21.8730496
20
132.1027681
40
0.4784458
50
252.5219675
51
270.4416499
0
ARC
8
DEFAULT_255_1_234
10
21.8586755
20
132.0488592
40
0.422716
50
237.5352116
51
252.1857531
0
ARC
8
DEFAULT_255_1_234
10
21.8675951
20
132.0602363
40
0.4371052
50
209.063312
51
237.3492538
0
ARC
8
DEFAULT_255_1_234
10
21.9545799
20
132.1148685
40
0.5397041
50
205.1183774
51
209.6470015
0
ARC
8
DEFAULT_255_1_234
10
22.0342836
20
132.148683
40
0.6262326
50
188.7215458
51
204.8240747
0
ARC
8
DEFAULT_255_1_234
10
22.2340364
20
132.1823067
40
0.8287794
50
180.3723947
51
188.9252049
0
ARC
8
DEFAULT_255_1_234
10
22.2313116
20
132.2652402
40
0.8260467
50
169.5253763
51
180.2765336
0
ARC
8
DEFAULT_255_1_234
10
22.0410564
20
132.3002309
40
0.6326007
50
155.8315255
51
169.5089989
0
ARC
8
DEFAULT_255_1_234
10
21.9130066
20
132.3596348
40
0.4914567
50
139.6258461
51
156.0379525
0
ARC
8
DEFAULT_255_1_234
10
21.8540399
20
132.4070799
40
0.4158054
50
122.6416387
51
139.3430715
0
ARC
8
DEFAULT_255_1_234
10
21.8641019
20
132.3887451
40
0.4366739
50
93.0223692
51
122.455762
0
ARC
8
DEFAULT_255_1_234
10
21.8749016
20
132.2922709
40
0.5336137
50
89.975342
51
93.6341897
0
ARC
8
DEFAULT_255_1_234
10
21.8787795
20
132.3321242
40
0.4937738
50
73.746375
51
90.4233405
0
ARC
8
DEFAULT_255_1_234
10
21.8963373
20
132.4001287
40
0.4235786
50
57.662753
51
73.4518111
0
ARC
8
DEFAULT_255_1_234
10
21.895538
20
132.4022832
40
0.4221899
50
29.1440151
51
57.414694
0
ARC
8
DEFAULT_255_1_234
10
21.8020574
20
132.3439005
40
0.5322966
50
24.0982783
51
29.7323517
0
ARC
8
DEFAULT_255_1_234
10
21.698685
20
132.3010399
40
0.6441673
50
8.6655297
51
23.8241346
0
ARC
8
DEFAULT_255_1_234
10
21.4752588
20
132.2645854
40
0.8705386
50
359.7806941
51
8.8218784
0
ARC
8
DEFAULT_255_1_234
10
21.3605586
20
132.2671345
40
0.8318373
50
359.7055579
51
8.036044
0
ARC
8
DEFAULT_255_1_234
10
21.6605592
20
132.3108239
40
0.5286768
50
7.8928306
51
20.2962107
0
ARC
8
DEFAULT_255_1_234
10
21.8233162
20
132.3708395
40
0.3552073
50
20.3231126
51
36.4992797
0
ARC
8
DEFAULT_255_1_234
10
21.8918708
20
132.4236402
40
0.2686974
50
36.1437156
51
85.6627023
0
ARC
8
DEFAULT_255_1_234
10
21.8756254
20
132.3196221
40
0.373739
50
84.3852322
51
90.0757696
0
ARC
8
DEFAULT_255_1_234
10
21.8713927
20
132.3856839
40
0.3076997
50
89.3038458
51
109.9045693
0
ARC
8
DEFAULT_255_1_234
10
21.8621318
20
132.4239062
40
0.2686424
50
110.8228367
51
143.9179474
0
ARC
8
DEFAULT_255_1_234
10
21.9554978
20
132.3526236
40
0.3860887
50
143.5289163
51
163.2980757
0
ARC
8
DEFAULT_255_1_234
10
22.1462799
20
132.2926433
40
0.5860659
50
163.0418846
51
174.3140048
0
ARC
8
DEFAULT_255_1_234
10
22.3866911
20
132.2648854
40
0.8280531
50
174.0509143
51
179.4176892
0
ARC
8
DEFAULT_255_1_234
10
22.336265
20
132.1831954
40
0.7775954
50
179.6930361
51
188.7906598
0
ARC
8
DEFAULT_255_1_234
10
22.0699129
20
132.1405935
40
0.5078633
50
188.6331305
51
202.5629587
0
ARC
8
DEFAULT_255_1_234
10
21.9444721
20
132.0901996
40
0.3726913
50
202.8081362
51
216.1193925
0
ARC
8
DEFAULT_255_1_234
10
21.8635291
20
132.0250676
40
0.2689577
50
215.0755913
51
264.6379694
0
ARC
8
DEFAULT_255_1_234
10
21.876224
20
132.1081513
40
0.3528978
50
263.846392
51
270.0833719
0
ARC
8
DEFAULT_255_1_234
10
21.8803631
20
132.0823374
40
0.3271036
50
269.3649385
51
287.5152008
0
ARC
8
DEFAULT_255_1_234
10
21.8981788
20
132.0176238
40
0.2600406
50
288.0630309
51
323.8113348
0
ARC
8
DEFAULT_255_1_234
10
21.811063
20
132.0826049
40
0.3687189
50
323.6547608
51
342.6590488
0
ARC
8
DEFAULT_255_1_234
10
21.6079245
20
132.1486952
40
0.5823286
50
342.4091907
51
353.6451149
0
ARC
8
DEFAULT_255_1_234
10
21.3247756
20
132.183919
40
0.8676442
50
353.4029884
51
359.4847795
0
LINE
8
DEFAULT_255_1_234
10
23.0268825
20
132.8154433
11
23.0268825
21
131.6404
0
LINE
8
DEFAULT_255_1_234
10
23.0268825
20
131.6404
11
22.8774921
21
131.6404
0
LINE
8
DEFAULT_255_1_234
10
22.8774921
20
131.6404
11
22.8774921
21
132.6307133
0
LINE
8
DEFAULT_255_1_234
10
22.8774921
20
132.6307133
11
22.5779083
21
132.5206785
0
LINE
8
DEFAULT_255_1_234
10
22.5779083
20
132.5206785
11
22.5779083
21
132.6556117
0
LINE
8
DEFAULT_255_1_234
10
22.5779083
20
132.6556117
11
23.0035904
21
132.8154433
0
LINE
8
DEFAULT_255_1_234
10
23.0035904
20
132.8154433
11
23.0268825
21
132.8154433
0
LINE
8
DEFAULT_255_1_234
10
23.9505324
20
132.8154433
11
23.9505324
21
131.6404
0
LINE
8
DEFAULT_255_1_234
10
23.9505324
20
131.6404
11
23.801142
21
131.6404
0
LINE
8
DEFAULT_255_1_234
10
23.801142
20
131.6404
11
23.801142
21
132.6307133
0
LINE
8
DEFAULT_255_1_234
10
23.801142
20
132.6307133
11
23.5015582
21
132.5206785
0
LINE
8
DEFAULT_255_1_234
10
23.5015582
20
132.5206785
11
23.5015582
21
132.6556117
0
LINE
8
DEFAULT_255_1_234
10
23.5015582
20
132.6556117
11
23.9272403
21
132.8154433
0
LINE
8
DEFAULT_255_1_234
10
23.9272403
20
132.8154433
11
23.9505324
21
132.8154433
0
LINE
8
DEFAULT_255_1_234
10
22.3366911
20
140.1987534
11
22.3366911
21
140.1248614
0
LINE
8
DEFAULT_255_1_234
10
21.3961745
20
140.1144201
11
21.3961745
21
140.1987534
0
LINE
8
DEFAULT_255_1_234
10
22.1832849
20
140.1136169
11
22.1832849
21
140.2003597
0
LINE
8
DEFAULT_255_1_234
10
21.5495807
20
140.210801
11
21.5495807
21
140.1248614
0
ARC
8
DEFAULT_255_1_234
10
21.4724937
20
140.1209015
40
0.8642064
50
350.487711
51
0.2625388
0
ARC
8
DEFAULT_255_1_234
10
21.7018178
20
140.0814578
40
0.631518
50
336.0277639
51
350.5787438
0
ARC
8
DEFAULT_255_1_234
10
21.8363002
20
140.0206892
40
0.4839466
50
319.8877444
51
336.1328423
0
ARC
8
DEFAULT_255_1_234
10
21.8965643
20
139.972458
40
0.4067874
50
302.4806467
51
319.6143626
0
ARC
8
DEFAULT_255_1_234
10
21.8850653
20
139.9946202
40
0.4316636
50
275.8195682
51
302.1884709
0
ARC
8
DEFAULT_255_1_234
10
21.8684286
20
140.1088665
40
0.5470306
50
269.9171439
51
276.3397983
0
ARC
8
DEFAULT_255_1_234
10
21.8639496
20
140.0402681
40
0.4784458
50
252.5219675
51
270.4416499
0
ARC
8
DEFAULT_255_1_234
10
21.8495755
20
139.9863592
40
0.422716
50
237.5352116
51
252.1857531
0
ARC
8
DEFAULT_255_1_234
10
21.8584951
20
139.9977363
40
0.4371052
50
209.063312
51
237.3492538
0
ARC
8
DEFAULT_255_1_234
10
21.9454799
20
140.0523685
40
0.5397041
50
205.1183774
51
209.6470015
0
ARC
8
DEFAULT_255_1_234
10
22.0251836
20
140.086183
40
0.6262326
50
188.7215458
51
204.8240747
0
ARC
8
DEFAULT_255_1_234
10
22.2249364
20
140.1198067
40
0.8287794
50
180.3723947
51
188.9252049
0
ARC
8
DEFAULT_255_1_234
10
22.2222116
20
140.2027402
40
0.8260467
50
169.5253763
51
180.2765336
0
ARC
8
DEFAULT_255_1_234
10
22.0319564
20
140.2377309
40
0.6326007
50
155.8315255
51
169.5089989
0
ARC
8
DEFAULT_255_1_234
10
21.9039066
20
140.2971348
40
0.4914567
50
139.6258461
51
156.0379525
0
ARC
8
DEFAULT_255_1_234
10
21.8449399
20
140.3445799
40
0.4158054
50
122.6416387
51
139.3430715
0
ARC
8
DEFAULT_255_1_234
10
21.8550019
20
140.3262451
40
0.4366739
50
93.0223692
51
122.455762
0
ARC
8
DEFAULT_255_1_234
10
21.8658016
20
140.2297709
40
0.5336137
50
89.975342
51
93.6341897
0
ARC
8
DEFAULT_255_1_234
10
21.8696795
20
140.2696242
40
0.4937738
50
73.746375
51
90.4233405
0
ARC
8
DEFAULT_255_1_234
10
21.8872373
20
140.3376287
40
0.4235786
50
57.662753
51
73.4518111
0
ARC
8
DEFAULT_255_1_234
10
21.886438
20
140.3397832
40
0.4221899
50
29.1440151
51
57.414694
0
ARC
8
DEFAULT_255_1_234
10
21.7929574
20
140.2814005
40
0.5322966
50
24.0982783
51
29.7323517
0
ARC
8
DEFAULT_255_1_234
10
21.689585
20
140.2385399
40
0.6441673
50
8.6655297
51
23.8241346
0
ARC
8
DEFAULT_255_1_234
10
21.4661588
20
140.2020854
40
0.8705386
50
359.7806941
51
8.8218784
0
ARC
8
DEFAULT_255_1_234
10
21.3514586
20
140.2046345
40
0.8318373
50
359.7055579
51
8.036044
0
ARC
8
DEFAULT_255_1_234
10
21.6514592
20
140.2483239
40
0.5286768
50
7.8928306
51
20.2962107
0
ARC
8
DEFAULT_255_1_234
10
21.8142162
20
140.3083395
40
0.3552073
50
20.3231126
51
36.4992797
0
ARC
8
DEFAULT_255_1_234
10
21.8827708
20
140.3611402
40
0.2686974
50
36.1437156
51
85.6627023
0
ARC
8
DEFAULT_255_1_234
10
21.8665254
20
140.2571221
40
0.373739
50
84.3852322
51
90.0757696
0
ARC
8
DEFAULT_255_1_234
10
21.8622927
20
140.3231839
40
0.3076997
50
89.3038458
51
109.9045693
0
ARC
8
DEFAULT_255_1_234
10
21.8530318
20
140.3614062
40
0.2686424
50
110.8228367
51
143.9179474
0
ARC
8
DEFAULT_255_1_234
10
21.9463978
20
140.2901236
40
0.3860887
50
143.5289163
51
163.2980757
0
ARC
8
DEFAULT_255_1_234
10
22.1371799
20
140.2301433
40
0.5860659
50
163.0418846
51
174.3140048
0
ARC
8
DEFAULT_255_1_234
10
22.3775911
20
140.2023854
40
0.8280531
50
174.0509143
51
179.4176892
0
ARC
8
DEFAULT_255_1_234
10
22.327165
20
140.1206954
40
0.7775954
50
179.6930361
51
188.7906598
0
ARC
8
DEFAULT_255_1_234
10
22.0608129
20
140.0780935
40
0.5078633
50
188.6331305
51
202.5629587
0
ARC
8
DEFAULT_255_1_234
10
21.9353721
20
140.0276996
40
0.3726913
50
202.8081362
51
216.1193925
0
ARC
8
DEFAULT_255_1_234
10
21.8544291
20
139.9625676
40
0.2689577
50
215.0755913
51
264.6379694
0
ARC
8
DEFAULT_255_1_234
10
21.867124
20
140.0456513
40
0.3528978
50
263.846392
51
270.0833719
0
ARC
8
DEFAULT_255_1_234
10
21.8712631
20
140.0198374
40
0.3271036
50
269.3649385
51
287.5152008
0
ARC
8
DEFAULT_255_1_234
10
21.8890788
20
139.9551238
40
0.2600406
50
288.0630309
51
323.8113348
0
ARC
8
DEFAULT_255_1_234
10
21.801963
20
140.0201049
40
0.3687189
50
323.6547608
51
342.6590488
0
ARC
8
DEFAULT_255_1_234
10
21.5988245
20
140.0861952
40
0.5823286
50
342.4091907
51
353.6451149
0
ARC
8
DEFAULT_255_1_234
10
21.3156756
20
140.121419
40
0.8676442
50
353.4029884
51
359.4847795
0
LINE
8
DEFAULT_255_1_234
10
23.0177825
20
140.7529433
11
23.0177825
21
139.5779
0
LINE
8
DEFAULT_255_1_234
10
23.0177825
20
139.5779
11
22.8683921
21
139.5779
0
LINE
8
DEFAULT_255_1_234
10
22.8683921
20
139.5779
11
22.8683921
21
140.5682133
0
LINE
8
DEFAULT_255_1_234
10
22.8683921
20
140.5682133
11
22.5688083
21
140.4581785
0
LINE
8
DEFAULT_255_1_234
10
22.5688083
20
140.4581785
11
22.5688083
21
140.5931117
0
LINE
8
DEFAULT_255_1_234
10
22.5688083
20
140.5931117
11
22.9944904
21
140.7529433
0
LINE
8
DEFAULT_255_1_234
10
22.9944904
20
140.7529433
11
23.0177825
21
140.7529433
0
LINE
8
DEFAULT_255_1_234
10
24.1864004
20
140.2694327
11
24.1864004
21
140.0766709
0
LINE
8
DEFAULT_255_1_234
10
23.4482836
20
140.0565916
11
23.4482836
21
140.2549755
0
LINE
8
DEFAULT_255_1_234
10
24.0378132
20
140.0365123
11
24.0378132
21
140.2798739
0
LINE
8
DEFAULT_255_1_234
10
23.5968708
20
140.2911184
11
23.5968708
21
140.0533789
0
ARC
8
DEFAULT_255_1_234
10
22.9616893
20
140.0717805
40
1.2247208
50
353.8441951
51
0.2287902
0
ARC
8
DEFAULT_255_1_234
10
23.4256397
20
140.0199806
40
0.7578929
50
344.4934747
51
353.9765454
0
ARC
8
DEFAULT_255_1_234
10
23.7248987
20
139.9348981
40
0.4467846
50
329.2803592
51
344.7472793
0
ARC
8
DEFAULT_255_1_234
10
23.8241812
20
139.8804018
40
0.3336173
50
324.9352394
51
328.6160465
0
ARC
8
DEFAULT_255_1_234
10
23.8618921
20
139.8540427
40
0.2876076
50
280.580143
51
324.9173126
0
ARC
8
DEFAULT_255_1_234
10
23.8217714
20
140.0211099
40
0.4592847
50
269.5977311
51
281.6734359
0
ARC
8
DEFAULT_255_1_234
10
23.8145619
20
140.0091173
40
0.4472986
50
256.6228859
51
270.51044
0
ARC
8
DEFAULT_255_1_234
10
23.7743597
20
139.8542877
40
0.2873874
50
215.8618325
51
257.2788573
0
ARC
8
DEFAULT_255_1_234
10
23.8764629
20
139.9227977
40
0.4102928
50
197.9693508
51
215.2623606
0
ARC
8
DEFAULT_255_1_234
10
24.1249744
20
140.0066709
40
0.6725652
50
187.8816417
51
198.2346507
0
ARC
8
DEFAULT_255_1_234
10
24.5207952
20
140.0638079
40
1.0724845
50
180.8976217
51
188.0055519
0
ARC
8
DEFAULT_255_1_234
10
24.8008141
20
140.0741777
40
1.3526448
50
180.7449369
51
181.1510016
0
ARC
8
DEFAULT_255_1_234
10
24.643087
20
140.2598042
40
1.1948131
50
173.7675579
51
180.231553
0
ARC
8
DEFAULT_255_1_234
10
24.1913016
20
140.3108666
40
0.7401564
50
164.3058563
51
173.9002247
0
ARC
8
DEFAULT_255_1_234
10
23.9001085
20
140.3947656
40
0.4371288
50
148.7922025
51
164.568378
0
ARC
8
DEFAULT_255_1_234
10
23.8049537
20
140.4478929
40
0.3282386
50
144.5883898
51
148.1176286
0
ARC
8
DEFAULT_255_1_234
10
23.7706435
20
140.4718315
40
0.2864044
50
101.6440918
51
144.514236
0
ARC
8
DEFAULT_255_1_234
10
23.8131502
20
140.3029069
40
0.4604934
50
89.5284041
51
102.5819763
0
ARC
8
DEFAULT_255_1_234
10
23.821059
20
140.2990018
40
0.464401
50
77.0437873
51
90.5081339
0
ARC
8
DEFAULT_255_1_234
10
23.8612591
20
140.4632615
40
0.2953195
50
48.2778575
51
77.4994676
0
ARC
8
DEFAULT_255_1_234
10
23.8685223
20
140.4761746
40
0.2808655
50
36.3142134
51
47.6305865
0
ARC
8
DEFAULT_255_1_234
10
23.781653
20
140.4176515
40
0.3855453
50
18.2931786
51
35.6769206
0
ARC
8
DEFAULT_255_1_234
10
23.5273288
20
140.3303593
40
0.654423
50
8.024666
51
18.5605216
0
ARC
8
DEFAULT_255_1_234
10
23.1110209
20
140.2688792
40
1.0752407
50
1.1274072
51
8.1718305
0
ARC
8
DEFAULT_255_1_234
10
22.7874399
20
140.2561885
40
1.3990231
50
0.5424119
51
1.3863029
0
ARC
8
DEFAULT_255_1_234
10
22.9695777
20
140.2834342
40
1.0682415
50
359.8090433
51
4.9407866
0
ARC
8
DEFAULT_255_1_234
10
23.3905791
20
140.3210113
40
0.6455691
50
4.8362157
51
12.2904523
0
ARC
8
DEFAULT_255_1_234
10
23.6660906
20
140.3823965
40
0.3633074
50
12.0805627
51
23.8173984
0
ARC
8
DEFAULT_255_1_234
10
23.7834611
20
140.4320919
40
0.2358723
50
24.2871213
51
31.3935614
0
ARC
8
DEFAULT_255_1_234
10
23.8359308
20
140.4664233
40
0.1732111
50
30.7407893
51
82.4657128
0
ARC
8
DEFAULT_255_1_234
10
23.8179443
20
140.3780691
40
0.263235
50
81.1060089
51
90.2184952
0
ARC
8
DEFAULT_255_1_234
10
23.8143741
20
140.4038924
40
0.2374236
50
89.3806855
51
105.6762551
0
ARC
8
DEFAULT_255_1_234
10
23.7960372
20
140.4705567
40
0.1682847
50
105.7981136
51
149.7388061
0
ARC
8
DEFAULT_255_1_234
10
23.902445
20
140.406595
40
0.2924306
50
149.4208916
51
163.6286378
0
ARC
8
DEFAULT_255_1_234
10
24.1115338
20
140.342825
40
0.5110213
50
163.3763315
51
172.1410975
0
ARC
8
DEFAULT_255_1_234
10
24.4416057
20
140.2955518
40
0.8444586
50
172.0259487
51
178.0703232
0
ARC
8
DEFAULT_255_1_234
10
24.7446147
20
140.2811906
40
1.1477868
50
177.8631668
51
179.5044149
0
ARC
8
DEFAULT_255_1_234
10
24.6373551
20
140.0497389
40
1.0404907
50
179.7995573
51
185.2460446
0
ARC
8
DEFAULT_255_1_234
10
24.2330591
20
140.0114513
40
0.6343885
50
185.1411642
51
193.0079639
0
ARC
8
DEFAULT_255_1_234
10
23.9687063
20
139.9489641
40
0.3627568
50
192.7897626
51
205.2507664
0
ARC
8
DEFAULT_255_1_234
10
23.864061
20
139.9022415
40
0.2481908
50
205.8005384
51
211.2537509
0
ARC
8
DEFAULT_255_1_234
10
23.8117051
20
139.867158
40
0.1852521
50
210.3789793
51
238.4008143
0
ARC
8
DEFAULT_255_1_234
10
23.8097573
20
139.8718376
40
0.1882621
50
239.6520629
51
265.9793761
0
ARC
8
DEFAULT_255_1_234
10
23.8182773
20
139.9390427
40
0.2559272
50
265.1315437
51
270.060332
0
ARC
8
DEFAULT_255_1_234
10
23.8211552
20
139.9066534
40
0.2235528
50
269.3314664
51
287.2178029
0
ARC
8
DEFAULT_255_1_234
10
23.8349404
20
139.8563279
40
0.1714108
50
287.7958004
51
329.080874
0
ARC
8
DEFAULT_255_1_234
10
23.739186
20
139.916093
40
0.2842745
50
328.6634704
51
343.3325132
0
ARC
8
DEFAULT_255_1_234
10
23.521888
20
139.9837863
40
0.5118644
50
343.0499468
51
351.9393422
0
ARC
8
DEFAULT_255_1_234
10
23.175218
20
140.0348949
40
0.8622784
50
351.8069023
51
357.7959224
0
ARC
8
DEFAULT_255_1_234
10
22.8516736
20
140.0516721
40
1.1862365
50
357.5871873
51
359.2677531
0
LINE
8
DEFAULT_255_1_234
10
23.3197911
20
148.1362534
11
23.3197911
21
148.0623614
0
LINE
8
DEFAULT_255_1_234
10
22.3792745
20
148.0519201
11
22.3792745
21
148.1362534
0
LINE
8
DEFAULT_255_1_234
10
23.1663849
20
148.0511169
11
23.1663849
21
148.1378597
0
LINE
8
DEFAULT_255_1_234
10
22.5326807
20
148.148301
11
22.5326807
21
148.0623614
0
ARC
8
DEFAULT_255_1_234
10
22.4555937
20
148.0584015
40
0.8642064
50
350.487711
51
0.2625388
0
ARC
8
DEFAULT_255_1_234
10
22.6849178
20
148.0189578
40
0.631518
50
336.0277639
51
350.5787438
0
ARC
8
DEFAULT_255_1_234
10
22.8194002
20
147.9581892
40
0.4839466
50
319.8877444
51
336.1328423
0
ARC
8
DEFAULT_255_1_234
10
22.8796643
20
147.909958
40
0.4067874
50
302.4806467
51
319.6143626
0
ARC
8
DEFAULT_255_1_234
10
22.8681653
20
147.9321202
40
0.4316636
50
275.8195682
51
302.1884709
0
ARC
8
DEFAULT_255_1_234
10
22.8515286
20
148.0463665
40
0.5470306
50
269.9171439
51
276.3397983
0
ARC
8
DEFAULT_255_1_234
10
22.8470496
20
147.9777681
40
0.4784458
50
252.5219675
51
270.4416499
0
ARC
8
DEFAULT_255_1_234
10
22.8326755
20
147.9238592
40
0.422716
50
237.5352116
51
252.1857531
0
ARC
8
DEFAULT_255_1_234
10
22.8415951
20
147.9352363
40
0.4371052
50
209.063312
51
237.3492538
0
ARC
8
DEFAULT_255_1_234
10
22.9285799
20
147.9898685
40
0.5397041
50
205.1183774
51
209.6470015
0
ARC
8
DEFAULT_255_1_234
10
23.0082836
20
148.023683
40
0.6262326
50
188.7215458
51
204.8240747
0
ARC
8
DEFAULT_255_1_234
10
23.2080364
20
148.0573067
40
0.8287794
50
180.3723947
51
188.9252049
0
ARC
8
DEFAULT_255_1_234
10
23.2053116
20
148.1402402
40
0.8260467
50
169.5253763
51
180.2765336
0
ARC
8
DEFAULT_255_1_234
10
23.0150564
20
148.1752309
40
0.6326007
50
155.8315255
51
169.5089989
0
ARC
8
DEFAULT_255_1_234
10
22.8870066
20
148.2346348
40
0.4914567
50
139.6258461
51
156.0379525
0
ARC
8
DEFAULT_255_1_234
10
22.8280399
20
148.2820799
40
0.4158054
50
122.6416387
51
139.3430715
0
ARC
8
DEFAULT_255_1_234
10
22.8381019
20
148.2637451
40
0.4366739
50
93.0223692
51
122.455762
0
ARC
8
DEFAULT_255_1_234
10
22.8489016
20
148.1672709
40
0.5336137
50
89.975342
51
93.6341897
0
ARC
8
DEFAULT_255_1_234
10
22.8527795
20
148.2071242
40
0.4937738
50
73.746375
51
90.4233405
0
ARC
8
DEFAULT_255_1_234
10
22.8703373
20
148.2751287
40
0.4235786
50
57.662753
51
73.4518111
0
ARC
8
DEFAULT_255_1_234
10
22.869538
20
148.2772832
40
0.4221899
50
29.1440151
51
57.414694
0
ARC
8
DEFAULT_255_1_234
10
22.7760574
20
148.2189005
40
0.5322966
50
24.0982783
51
29.7323517
0
ARC
8
DEFAULT_255_1_234
10
22.672685
20
148.1760399
40
0.6441673
50
8.6655297
51
23.8241346
0
ARC
8
DEFAULT_255_1_234
10
22.4492588
20
148.1395854
40
0.8705386
50
359.7806941
51
8.8218784
0
ARC
8
DEFAULT_255_1_234
10
22.3345586
20
148.1421345
40
0.8318373
50
359.7055579
51
8.036044
0
ARC
8
DEFAULT_255_1_234
10
22.6345592
20
148.1858239
40
0.5286768
50
7.8928306
51
20.2962107
0
ARC
8
DEFAULT_255_1_234
10
22.7973162
20
148.2458395
40
0.3552073
50
20.3231126
51
36.4992797
0
ARC
8
DEFAULT_255_1_234
10
22.8658708
20
148.2986402
40
0.2686974
50
36.1437156
51
85.6627023
0
ARC
8
DEFAULT_255_1_234
10
22.8496254
20
148.1946221
40
0.373739
50
84.3852322
51
90.0757696
0
ARC
8
DEFAULT_255_1_234
10
22.8453927
20
148.2606839
40
0.3076997
50
89.3038458
51
109.9045693
0
ARC
8
DEFAULT_255_1_234
10
22.8361318
20
148.2989062
40
0.2686424
50
110.8228367
51
143.9179474
0
ARC
8
DEFAULT_255_1_234
10
22.9294978
20
148.2276236
40
0.3860887
50
143.5289163
51
163.2980757
0
ARC
8
DEFAULT_255_1_234
10
23.1202799
20
148.1676433
40
0.5860659
50
163.0418846
51
174.3140048
0
ARC
8
DEFAULT_255_1_234
10
23.3606911
20
148.1398854
40
0.8280531
50
174.0509143
51
179.4176892
0
ARC
8
DEFAULT_255_1_234
10
23.310265
20
148.0581954
40
0.7775954
50
179.6930361
51
188.7906598
0
ARC
8
DEFAULT_255_1_234
10
23.0439129
20
148.0155935
40
0.5078633
50
188.6331305
51
202.5629587
0
ARC
8
DEFAULT_255_1_234
10
22.9184721
20
147.9651996
40
0.3726913
50
202.8081362
51
216.1193925
0
ARC
8
DEFAULT_255_1_234
10
22.8375291
20
147.9000676
40
0.2689577
50
215.0755913
51
264.6379694
0
ARC
8
DEFAULT_255_1_234
10
22.850224
20
147.9831513
40
0.3528978
50
263.846392
51
270.0833719
0
ARC
8
DEFAULT_255_1_234
10
22.8543631
20
147.9573374
40
0.3271036
50
269.3649385
51
287.5152008
0
ARC
8
DEFAULT_255_1_234
10
22.8721788
20
147.8926238
40
0.2600406
50
288.0630309
51
323.8113348
0
ARC
8
DEFAULT_255_1_234
10
22.785063
20
147.9576049
40
0.3687189
50
323.6547608
51
342.6590488
0
ARC
8
DEFAULT_255_1_234
10
22.5819245
20
148.0236952
40
0.5823286
50
342.4091907
51
353.6451149
0
ARC
8
DEFAULT_255_1_234
10
22.2987756
20
148.058919
40
0.8676442
50
353.4029884
51
359.4847795
0
LINE
8
DEFAULT_255_1_234
10
24.2313934
20
148.2173739
11
24.2313934
21
148.1740025
0
LINE
8
DEFAULT_255_1_234
10
23.689251
20
147.5145968
11
23.6603368
21
147.5145968
0
LINE
8
DEFAULT_255_1_234
10
23.6603368
20
147.5145968
11
23.6603368
21
147.6398919
0
LINE
8
DEFAULT_255_1_234
10
23.6603368
20
147.6398919
11
23.6916605
21
147.6398919
0
LINE
8
DEFAULT_255_1_234
10
24.0828062
20
148.1884597
11
24.0828062
21
148.2478945
0
ARC
8
DEFAULT_255_1_234
10
23.8034332
20
148.2630403
40
0.3635579
50
297.4037347
51
320.016758
0
ARC
8
DEFAULT_255_1_234
10
23.832428
20
148.207324
40
0.3007486
50
270.2633101
51
297.3851877
0
ARC
8
DEFAULT_255_1_234
10
23.8290236
20
148.2536904
40
0.3471448
50
269.9966443
51
270.7900392
0
ARC
8
DEFAULT_255_1_234
10
23.8264717
20
148.2535143
40
0.3469779
50
254.5999133
51
270.4180344
0
ARC
8
DEFAULT_255_1_234
10
23.8122077
20
148.1970647
40
0.2887697
50
236.4717942
51
254.3541279
0
ARC
8
DEFAULT_255_1_234
10
23.8278294
20
148.2180711
40
0.3149125
50
208.4727207
51
236.2134933
0
ARC
8
DEFAULT_255_1_234
10
23.8917069
20
148.2571455
40
0.3897115
50
204.3447514
51
209.0453999
0
ARC
8
DEFAULT_255_1_234
10
23.9596645
20
148.2859656
40
0.4635101
50
183.9375985
51
204.1276318
0
ARC
8
DEFAULT_255_1_234
10
24.0504897
20
148.2957482
40
0.5548037
50
179.9652252
51
184.3013875
0
ARC
8
DEFAULT_255_1_234
10
24.0264943
20
148.2990507
40
0.5308164
50
166.7585989
51
180.3201225
0
ARC
8
DEFAULT_255_1_234
10
23.9418556
20
148.3174488
40
0.4442163
50
154.6955053
51
166.5679793
0
ARC
8
DEFAULT_255_1_234
10
23.8565427
20
148.360421
40
0.3487299
50
136.3324195
51
155.0871442
0
ARC
8
DEFAULT_255_1_234
10
23.8284499
20
148.3844954
40
0.3117924
50
121.236733
51
135.9680508
0
ARC
8
DEFAULT_255_1_234
10
23.8424997
20
148.3584743
40
0.3413302
50
96.845628
51
120.9881519
0
ARC
8
DEFAULT_255_1_234
10
23.8570579
20
148.2649515
40
0.4359341
50
89.8870174
51
97.2802754
0
ARC
8
DEFAULT_255_1_234
10
23.8623017
20
148.3287095
40
0.3722009
50
70.6505584
51
90.6749113
0
ARC
8
DEFAULT_255_1_234
10
23.8754296
20
148.3800361
40
0.3194571
50
36.7492984
51
69.8219918
0
ARC
8
DEFAULT_255_1_234
10
23.7755461
20
148.3021993
40
0.4460685
50
15.39587
51
37.0840084
0
ARC
8
DEFAULT_255_1_234
10
23.5625895
20
148.2401242
40
0.6678714
50
3.9488873
51
15.6798563
0
ARC
8
DEFAULT_255_1_234
10
23.3224523
20
148.2184964
40
0.9089418
50
359.929245
51
4.2665314
0
ARC
8
DEFAULT_255_1_234
10
22.861896
20
148.1673513
40
1.3695135
50
352.8366322
51
0.2782669
0
ARC
8
DEFAULT_255_1_234
10
23.3906638
20
148.0986629
40
0.8363105
50
341.8359505
51
352.9884176
0
ARC
8
DEFAULT_255_1_234
10
23.7125357
20
147.99017
40
0.4966642
50
322.8578092
51
342.1527901
0
ARC
8
DEFAULT_255_1_234
10
23.7989313
20
147.9312384
40
0.3922466
50
319.334325
51
322.0998941
0
ARC
8
DEFAULT_255_1_234
10
23.767965
20
147.9623209
40
0.4360033
50
285.9541367
51
318.8878087
0
ARC
8
DEFAULT_255_1_234
10
23.6952912
20
148.19336
40
0.678149
50
272.9281676
51
286.4922826
0
ARC
8
DEFAULT_255_1_234
10
23.6763029
20
148.4184587
40
0.9039547
50
270.8207226
51
273.4012994
0
ARC
8
DEFAULT_255_1_234
10
23.685188
20
148.2365666
40
0.5967098
50
270.6214993
51
281.4062806
0
ARC
8
DEFAULT_255_1_234
10
23.7281861
20
148.0309833
40
0.3866861
50
281.1852553
51
299.0621114
0
ARC
8
DEFAULT_255_1_234
10
23.7655433
20
147.9588798
40
0.3055236
50
299.5067782
51
313.1200873
0
ARC
8
DEFAULT_255_1_234
10
23.7677399
20
147.9509554
40
0.2982623
50
313.8526205
51
338.5989322
0
ARC
8
DEFAULT_255_1_234
10
23.6053473
20
148.0176781
40
0.4738131
50
338.2523585
51
351.2430902
0
ARC
8
DEFAULT_255_1_234
10
23.3642769
20
148.0586447
40
0.7183203
50
350.9409515
51
357.6691871
0
ARC
8
DEFAULT_255_1_234
10
23.8533199
20
148.2588764
40
0.2294452
50
269.9447023
51
306.8248917
0
ARC
8
DEFAULT_255_1_234
10
23.8296114
20
148.3011898
40
0.2775994
50
305.5072438
51
327.0773448
0
ARC
8
DEFAULT_255_1_234
10
23.8414555
20
148.2917025
40
0.2625056
50
327.4104943
51
336.840169
0
ARC
8
DEFAULT_255_1_234
10
23.532062
20
148.2511302
40
0.5507537
50
359.6633817
51
10.117533
0
ARC
8
DEFAULT_255_1_234
10
23.7074418
20
148.2835777
40
0.372403
50
9.9430141
51
26.7700076
0
ARC
8
DEFAULT_255_1_234
10
23.7671631
20
148.3111187
40
0.3066865
50
27.2015464
51
34.6829435
0
ARC
8
DEFAULT_255_1_234
10
23.8161111
20
148.3478977
40
0.245519
50
34.1250343
51
50.3070065
0
ARC
8
DEFAULT_255_1_234
10
23.8607791
20
148.4013385
40
0.1758693
50
50.3851167
51
90.6705993
0
ARC
8
DEFAULT_255_1_234
10
23.8561024
20
148.3708799
40
0.2063326
50
89.272901
51
111.9140407
0
ARC
8
DEFAULT_255_1_234
10
23.8541551
20
148.384944
40
0.1925887
50
112.9382311
51
142.5320782
0
ARC
8
DEFAULT_255_1_234
10
23.9087731
20
148.3405969
40
0.2629232
50
142.1021256
51
166.3835592
0
ARC
8
DEFAULT_255_1_234
10
24.0269037
20
148.3100915
40
0.3849193
50
166.1100289
51
178.665427
0
ARC
8
DEFAULT_255_1_234
10
24.1316626
20
148.3042117
40
0.4897989
50
178.2632126
51
180.0111093
0
ARC
8
DEFAULT_255_1_234
10
24.0514746
20
148.3013728
40
0.40962
50
179.6161962
51
191.8787166
0
ARC
8
DEFAULT_255_1_234
10
23.9294585
20
148.2743896
40
0.2846655
50
191.6191692
51
215.2972286
0
ARC
8
DEFAULT_255_1_234
10
23.9097776
20
148.2628918
40
0.2619665
50
215.7320102
51
216.5355409
0
ARC
8
DEFAULT_255_1_234
10
23.8558863
20
148.2196647
40
0.1929497
50
215.7486685
51
239.9727502
0
ARC
8
DEFAULT_255_1_234
10
23.8488778
20
148.2145894
40
0.1850822
50
241.0650169
51
269.2810483
0
ARC
8
DEFAULT_255_1_234
10
23.8530693
20
148.2636371
40
0.2342059
50
268.4062526
51
270.0071348
0
LINE
8
DEFAULT_255_1_234
10
23.3197911
20
156.0737534
11
23.3197911
21
155.9998614
0
LINE
8
DEFAULT_255_1_234
10
22.3792745
20
155.9894201
11
22.3792745
21
156.0737534
0
LINE
8
DEFAULT_255_1_234
10
23.1663849
20
155.9886169
11
23.1663849
21
156.0753597
0
LINE
8
DEFAULT_255_1_234
10
22.5326807
20
156.085801
11
22.5326807
21
155.9998614
0
ARC
8
DEFAULT_255_1_234
10
22.4555937
20
155.9959015
40
0.8642064
50
350.487711
51
0.2625388
0
ARC
8
DEFAULT_255_1_234
10
22.6849178
20
155.9564578
40
0.631518
50
336.0277639
51
350.5787438
0
ARC
8
DEFAULT_255_1_234
10
22.8194002
20
155.8956892
40
0.4839466
50
319.8877444
51
336.1328423
0
ARC
8
DEFAULT_255_1_234
10
22.8796643
20
155.847458
40
0.4067874
50
302.4806467
51
319.6143626
0
ARC
8
DEFAULT_255_1_234
10
22.8681653
20
155.8696202
40
0.4316636
50
275.8195682
51
302.1884709
0
ARC
8
DEFAULT_255_1_234
10
22.8515286
20
155.9838665
40
0.5470306
50
269.9171439
51
276.3397983
0
ARC
8
DEFAULT_255_1_234
10
22.8470496
20
155.9152681
40
0.4784458
50
252.5219675
51
270.4416499
0
ARC
8
DEFAULT_255_1_234
10
22.8326755
20
155.8613592
40
0.422716
50
237.5352116
51
252.1857531
0
ARC
8
DEFAULT_255_1_234
10
22.8415951
20
155.8727363
40
0.4371052
50
209.063312
51
237.3492538
0
ARC
8
DEFAULT_255_1_234
10
22.9285799
20
155.9273685
40
0.5397041
50
205.1183774
51
209.6470015
0
ARC
8
DEFAULT_255_1_234
10
23.0082836
20
155.961183
40
0.6262326
50
188.7215458
51
204.8240747
0
ARC
8
DEFAULT_255_1_234
10
23.2080364
20
155.9948067
40
0.8287794
50
180.3723947
51
188.9252049
0
ARC
8
DEFAULT_255_1_234
10
23.2053116
20
156.0777402
40
0.8260467
50
169.5253763
51
180.2765336
0
ARC
8
DEFAULT_255_1_234
10
23.0150564
20
156.1127309
40
0.6326007
50
155.8315255
51
169.5089989
0
ARC
8
DEFAULT_255_1_234
10
22.8870066
20
156.1721348
40
0.4914567
50
139.6258461
51
156.0379525
0
ARC
8
DEFAULT_255_1_234
10
22.8280399
20
156.2195799
40
0.4158054
50
122.6416387
51
139.3430715
0
ARC
8
DEFAULT_255_1_234
10
22.8381019
20
156.2012451
40
0.4366739
50
93.0223692
51
122.455762
0
ARC
8
DEFAULT_255_1_234
10
22.8489016
20
156.1047709
40
0.5336137
50
89.975342
51
93.6341897
0
ARC
8
DEFAULT_255_1_234
10
22.8527795
20
156.1446242
40
0.4937738
50
73.746375
51
90.4233405
0
ARC
8
DEFAULT_255_1_234
10
22.8703373
20
156.2126287
40
0.4235786
50
57.662753
51
73.4518111
0
ARC
8
DEFAULT_255_1_234
10
22.869538
20
156.2147832
40
0.4221899
50
29.1440151
51
57.414694
0
ARC
8
DEFAULT_255_1_234
10
22.7760574
20
156.1564005
40
0.5322966
50
24.0982783
51
29.7323517
0
ARC
8
DEFAULT_255_1_234
10
22.672685
20
156.1135399
40
0.6441673
50
8.6655297
51
23.8241346
0
ARC
8
DEFAULT_255_1_234
10
22.4492588
20
156.0770854
40
0.8705386
50
359.7806941
51
8.8218784
0
ARC
8
DEFAULT_255_1_234
10
22.3345586
20
156.0796345
40
0.8318373
50
359.7055579
51
8.036044
0
ARC
8
DEFAULT_255_1_234
10
22.6345592
20
156.1233239
40
0.5286768
50
7.8928306
51
20.2962107
0
ARC
8
DEFAULT_255_1_234
10
22.7973162
20
156.1833395
40
0.3552073
50
20.3231126
51
36.4992797
0
ARC
8
DEFAULT_255_1_234
10
22.8658708
20
156.2361402
40
0.2686974
50
36.1437156
51
85.6627023
0
ARC
8
DEFAULT_255_1_234
10
22.8496254
20
156.1321221
40
0.373739
50
84.3852322
51
90.0757696
0
ARC
8
DEFAULT_255_1_234
10
22.8453927
20
156.1981839
40
0.3076997
50
89.3038458
51
109.9045693
0
ARC
8
DEFAULT_255_1_234
10
22.8361318
20
156.2364062
40
0.2686424
50
110.8228367
51
143.9179474
0
ARC
8
DEFAULT_255_1_234
10
22.9294978
20
156.1651236
40
0.3860887
50
143.5289163
51
163.2980757
0
ARC
8
DEFAULT_255_1_234
10
23.1202799
20
156.1051433
40
0.5860659
50
163.0418846
51
174.3140048
0
ARC
8
DEFAULT_255_1_234
10
23.3606911
20
156.0773854
40
0.8280531
50
174.0509143
51
179.4176892
0
ARC
8
DEFAULT_255_1_234
10
23.310265
20
155.9956954
40
0.7775954
50
179.6930361
51
188.7906598
0
ARC
8
DEFAULT_255_1_234
10
23.0439129
20
155.9530935
40
0.5078633
50
188.6331305
51
202.5629587
0
ARC
8
DEFAULT_255_1_234
10
22.9184721
20
155.9026996
40
0.3726913
50
202.8081362
51
216.1193925
0
ARC
8
DEFAULT_255_1_234
10
22.8375291
20
155.8375676
40
0.2689577
50
215.0755913
51
264.6379694
0
ARC
8
DEFAULT_255_1_234
10
22.850224
20
155.9206513
40
0.3528978
50
263.846392
51
270.0833719
0
ARC
8
DEFAULT_255_1_234
10
22.8543631
20
155.8948374
40
0.3271036
50
269.3649385
51
287.5152008
0
ARC
8
DEFAULT_255_1_234
10
22.8721788
20
155.8301238
40
0.2600406
50
288.0630309
51
323.8113348
0
ARC
8
DEFAULT_255_1_234
10
22.785063
20
155.8951049
40
0.3687189
50
323.6547608
51
342.6590488
0
ARC
8
DEFAULT_255_1_234
10
22.5819245
20
155.9611952
40
0.5823286
50
342.4091907
51
353.6451149
0
ARC
8
DEFAULT_255_1_234
10
22.2987756
20
155.996419
40
0.8676442
50
353.4029884
51
359.4847795
0
ARC
8
DEFAULT_255_1_234
10
23.9395311
20
156.3145703
40
0.2822356
50
338.8763615
51
0.5166041
0
ARC
8
DEFAULT_255_1_234
10
23.9563966
20
156.3100208
40
0.2648703
50
325.8412414
51
338.4795939
0
ARC
8
DEFAULT_255_1_234
10
23.9173333
20
156.3371042
40
0.3124019
50
296.7586019
51
325.753654
0
ARC
8
DEFAULT_255_1_234
10
23.8885442
20
156.3855789
40
0.368668
50
296.0902311
51
297.3618122
0
ARC
8
DEFAULT_255_1_234
10
23.91429
20
155.7301041
40
0.3518806
50
47.9009248
51
67.1946869
0
ARC
8
DEFAULT_255_1_234
10
23.9339141
20
155.7547395
40
0.320451
50
35.236241
51
47.551371
0
ARC
8
DEFAULT_255_1_234
10
23.9600759
20
155.7721993
40
0.2890103
50
359.2759738
51
35.4014081
0
ARC
8
DEFAULT_255_1_234
10
23.8855791
20
155.7648826
40
0.3635026
50
343.1294516
51
0.5776525
0
ARC
8
DEFAULT_255_1_234
10
23.9580335
20
155.744933
40
0.2883832
50
310.8497458
51
342.744803
0
ARC
8
DEFAULT_255_1_234
10
23.9162449
20
155.7926294
40
0.3517954
50
281.5473923
51
310.9169905
0
ARC
8
DEFAULT_255_1_234
10
23.8805898
20
155.9479084
40
0.5110832
50
269.6192722
51
281.9789957
0
ARC
8
DEFAULT_255_1_234
10
23.8733687
20
155.9479828
40
0.5111606
50
257.4584469
51
270.4287458
0
ARC
8
DEFAULT_255_1_234
10
23.835283
20
155.7876344
40
0.3463762
50
228.7553743
51
257.8484423
0
ARC
8
DEFAULT_255_1_234
10
23.8043029
20
155.7503442
40
0.297916
50
184.0104442
51
228.5071787
0
ARC
8
DEFAULT_255_1_234
10
23.9205973
20
155.7680512
40
0.4152734
50
179.9315461
51
185.3254504
0
ARC
8
DEFAULT_255_1_234
10
23.8029618
20
155.7717992
40
0.2976554
50
145.6795913
51
180.6259649
0
ARC
8
DEFAULT_255_1_234
10
23.8192968
20
155.7603929
40
0.3175776
50
115.5537925
51
145.6416199
0
ARC
8
DEFAULT_255_1_234
10
23.8533898
20
155.6993028
40
0.3874232
50
113.2437915
51
116.2054627
0
ARC
8
DEFAULT_255_1_234
10
23.838111
20
156.339158
40
0.3154751
50
222.9548379
51
244.1372485
0
ARC
8
DEFAULT_255_1_234
10
23.8259186
20
156.3254834
40
0.2972382
50
213.3439227
51
222.6271327
0
ARC
8
DEFAULT_255_1_234
10
23.806712
20
156.3124308
40
0.274019
50
180.4316517
51
213.2713999
0
ARC
8
DEFAULT_255_1_234
10
23.8642121
20
156.317111
40
0.33158
50
179.9992944
51
181.1655061
0
ARC
8
DEFAULT_255_1_234
10
23.9051539
20
156.3205561
40
0.3725376
50
164.6186108
51
180.5292368
0
ARC
8
DEFAULT_255_1_234
10
23.8153401
20
156.3447101
40
0.2795349
50
132.2454369
51
164.5092287
0
ARC
8
DEFAULT_255_1_234
10
23.8440505
20
156.3122028
40
0.3229019
50
100.7052766
51
132.1387266
0
ARC
8
DEFAULT_255_1_234
10
23.8745478
20
156.1744086
40
0.4639835
50
89.6732617
51
101.2449487
0
ARC
8
DEFAULT_255_1_234
10
23.8807676
20
156.191899
40
0.4464999
50
76.2876631
51
90.4586123
0
ARC
8
DEFAULT_255_1_234
10
23.9113907
20
156.314122
40
0.3205023
50
47.8240157
51
76.4266918
0
ARC
8
DEFAULT_255_1_234
10
23.9336457
20
156.340159
40
0.2862661
50
6.9168658
51
47.6261438
0
ARC
8
DEFAULT_255_1_234
10
23.814986
20
156.318237
40
0.4067708
50
359.8419705
51
7.9694496
0
ARC
8
DEFAULT_255_1_234
10
23.8491757
20
155.7741925
40
0.2513121
50
359.4454068
51
16.9256425
0
ARC
8
DEFAULT_255_1_234
10
23.8960568
20
155.7871033
40
0.2027071
50
17.292259
51
45.462717
0
ARC
8
DEFAULT_255_1_234
10
23.8906504
20
155.7824434
40
0.2098212
50
45.3028762
51
83.1921472
0
ARC
8
DEFAULT_255_1_234
10
23.8763189
20
155.7022895
40
0.2911472
50
82.2614531
51
90.143954
0
ARC
8
DEFAULT_255_1_234
10
23.8732309
20
155.725595
40
0.2678513
50
89.4959189
51
104.8579811
0
ARC
8
DEFAULT_255_1_234
10
23.8555567
20
155.792589
40
0.1985654
50
104.8855873
51
135.2448349
0
ARC
8
DEFAULT_255_1_234
10
23.860534
20
155.7881336
40
0.2052373
50
135.3398955
51
172.104394
0
ARC
8
DEFAULT_255_1_234
10
23.9412398
20
155.7726925
40
0.2873299
50
171.2651929
51
180.1859362
0
ARC
8
DEFAULT_255_1_234
10
23.92431
20
155.7694733
40
0.2704083
50
179.515471
51
193.6466734
0
ARC
8
DEFAULT_255_1_234
10
23.8426869
20
155.7486777
40
0.1861855
50
193.3540587
51
225.8256931
0
ARC
8
DEFAULT_255_1_234
10
23.8467626
20
155.7557524
40
0.1941102
50
226.418029
51
255.8553723
0
ARC
8
DEFAULT_255_1_234
10
23.8724058
20
155.8493998
40
0.2911917
50
255.4655572
51
268.7985967
0
ARC
8
DEFAULT_255_1_234
10
23.877125
20
155.9332491
40
0.3751331
50
268.3464808
51
270.0104874
0
ARC
8
DEFAULT_255_1_234
10
23.8794638
20
155.8648138
40
0.3067064
50
269.575914
51
282.0823146
0
ARC
8
DEFAULT_255_1_234
10
23.9019548
20
155.7653803
40
0.2047712
50
281.7522535
51
306.6056425
0
ARC
8
DEFAULT_255_1_234
10
23.9117974
20
155.7492487
40
0.1859604
50
307.1350025
51
314.0277951
0
ARC
8
DEFAULT_255_1_234
10
23.9082058
20
155.7518766
40
0.1903475
50
314.2553419
51
350.169324
0
ARC
8
DEFAULT_255_1_234
10
23.8230526
20
155.7703409
40
0.2774269
50
349.4145679
51
0.2930737
0
ARC
8
DEFAULT_255_1_234
10
23.8750959
20
156.2862353
40
0.2300764
50
89.477591
51
105.729794
0
ARC
8
DEFAULT_255_1_234
10
23.8614873
20
156.3367637
40
0.1777519
50
105.922966
51
135.1662921
0
ARC
8
DEFAULT_255_1_234
10
23.8635375
20
156.3353419
40
0.1802087
50
135.3053131
51
168.9882338
0
ARC
8
DEFAULT_255_1_234
10
23.9462948
20
156.3163721
40
0.2650806
50
168.3802067
51
180.3602358
0
ARC
8
DEFAULT_255_1_234
10
23.9234527
20
156.3126041
40
0.2422425
50
179.5029707
51
194.9126783
0
ARC
8
DEFAULT_255_1_234
10
23.8649188
20
156.297211
40
0.1817188
50
194.9722181
51
224.1943972
0
ARC
8
DEFAULT_255_1_234
10
23.8621056
20
156.2949169
40
0.1781027
50
224.2961434
51
262.0157375
0
ARC
8
DEFAULT_255_1_234
10
23.8763298
20
156.3680661
40
0.2525492
50
261.1250369
51
270.1959853
0
ARC
8
DEFAULT_255_1_234
10
23.8793053
20
156.3493339
40
0.233825
50
269.4825617
51
285.0988277
0
ARC
8
DEFAULT_255_1_234
10
23.8947213
20
156.291499
40
0.1739712
50
285.1585659
51
315.9484648
0
ARC
8
DEFAULT_255_1_234
10
23.8858224
20
156.2996886
40
0.1860616
50
316.0412958
51
351.9162715
0
ARC
8
DEFAULT_255_1_234
10
23.8125179
20
156.3138245
40
0.2606517
50
351.1056823
51
0.1936567
0
ARC
8
DEFAULT_255_1_234
10
23.8388008
20
156.3168369
40
0.234377
50
359.4789506
51
16.0679113
0
ARC
8
DEFAULT_255_1_234
10
23.8863967
20
156.329681
40
0.1850875
50
16.3251951
51
44.791304
0
ARC
8
DEFAULT_255_1_234
10
23.8846248
20
156.3297339
40
0.186312
50
44.3958661
51
88.2498933
0
ARC
8
DEFAULT_255_1_234
10
23.8772802
20
156.2686154
40
0.2476868
50
86.9833827
51
90.0200148
0
LINE
8
DEFAULT_255_1_234
10
23.3197911
20
164.0112534
11
23.3197911
21
163.9373614
0
LINE
8
DEFAULT_255_1_234
10
22.3792745
20
163.9269201
11
22.3792745
21
164.0112534
0
LINE
8
DEFAULT_255_1_234
10
23.1663849
20
163.9261169
11
23.1663849
21
164.0128597
0
LINE
8
DEFAULT_255_1_234
10
22.5326807
20
164.023301
11
22.5326807
21
163.9373614
0
ARC
8
DEFAULT_255_1_234
10
22.4555937
20
163.9334015
40
0.8642064
50
350.487711
51
0.2625388
0
ARC
8
DEFAULT_255_1_234
10
22.6849178
20
163.8939578
40
0.631518
50
336.0277639
51
350.5787438
0
ARC
8
DEFAULT_255_1_234
10
22.8194002
20
163.8331892
40
0.4839466
50
319.8877444
51
336.1328423
0
ARC
8
DEFAULT_255_1_234
10
22.8796643
20
163.784958
40
0.4067874
50
302.4806467
51
319.6143626
0
ARC
8
DEFAULT_255_1_234
10
22.8681653
20
163.8071202
40
0.4316636
50
275.8195682
51
302.1884709
0
ARC
8
DEFAULT_255_1_234
10
22.8515286
20
163.9213665
40
0.5470306
50
269.9171439
51
276.3397983
0
ARC
8
DEFAULT_255_1_234
10
22.8470496
20
163.8527681
40
0.4784458
50
252.5219675
51
270.4416499
0
ARC
8
DEFAULT_255_1_234
10
22.8326755
20
163.7988592
40
0.422716
50
237.5352116
51
252.1857531
0
ARC
8
DEFAULT_255_1_234
10
22.8415951
20
163.8102363
40
0.4371052
50
209.063312
51
237.3492538
0
ARC
8
DEFAULT_255_1_234
10
22.9285799
20
163.8648685
40
0.5397041
50
205.1183774
51
209.6470015
0
ARC
8
DEFAULT_255_1_234
10
23.0082836
20
163.898683
40
0.6262326
50
188.7215458
51
204.8240747
0
ARC
8
DEFAULT_255_1_234
10
23.2080364
20
163.9323067
40
0.8287794
50
180.3723947
51
188.9252049
0
ARC
8
DEFAULT_255_1_234
10
23.2053116
20
164.0152402
40
0.8260467
50
169.5253763
51
180.2765336
0
ARC
8
DEFAULT_255_1_234
10
23.0150564
20
164.0502309
40
0.6326007
50
155.8315255
51
169.5089989
0
ARC
8
DEFAULT_255_1_234
10
22.8870066
20
164.1096348
40
0.4914567
50
139.6258461
51
156.0379525
0
ARC
8
DEFAULT_255_1_234
10
22.8280399
20
164.1570799
40
0.4158054
50
122.6416387
51
139.3430715
0
ARC
8
DEFAULT_255_1_234
10
22.8381019
20
164.1387451
40
0.4366739
50
93.0223692
51
122.455762
0
ARC
8
DEFAULT_255_1_234
10
22.8489016
20
164.0422709
40
0.5336137
50
89.975342
51
93.6341897
0
ARC
8
DEFAULT_255_1_234
10
22.8527795
20
164.0821242
40
0.4937738
50
73.746375
51
90.4233405
0
ARC
8
DEFAULT_255_1_234
10
22.8703373
20
164.1501287
40
0.4235786
50
57.662753
51
73.4518111
0
ARC
8
DEFAULT_255_1_234
10
22.869538
20
164.1522832
40
0.4221899
50
29.1440151
51
57.414694
0
ARC
8
DEFAULT_255_1_234
10
22.7760574
20
164.0939005
40
0.5322966
50
24.0982783
51
29.7323517
0
ARC
8
DEFAULT_255_1_234
10
22.672685
20
164.0510399
40
0.6441673
50
8.6655297
51
23.8241346
0
ARC
8
DEFAULT_255_1_234
10
22.4492588
20
164.0145854
40
0.8705386
50
359.7806941
51
8.8218784
0
ARC
8
DEFAULT_255_1_234
10
22.3345586
20
164.0171345
40
0.8318373
50
359.7055579
51
8.036044
0
ARC
8
DEFAULT_255_1_234
10
22.6345592
20
164.0608239
40
0.5286768
50
7.8928306
51
20.2962107
0
ARC
8
DEFAULT_255_1_234
10
22.7973162
20
164.1208395
40
0.3552073
50
20.3231126
51
36.4992797
0
ARC
8
DEFAULT_255_1_234
10
22.8658708
20
164.1736402
40
0.2686974
50
36.1437156
51
85.6627023
0
ARC
8
DEFAULT_255_1_234
10
22.8496254
20
164.0696221
40
0.373739
50
84.3852322
51
90.0757696
0
ARC
8
DEFAULT_255_1_234
10
22.8453927
20
164.1356839
40
0.3076997
50
89.3038458
51
109.9045693
0
ARC
8
DEFAULT_255_1_234
10
22.8361318
20
164.1739062
40
0.2686424
50
110.8228367
51
143.9179474
0
ARC
8
DEFAULT_255_1_234
10
22.9294978
20
164.1026236
40
0.3860887
50
143.5289163
51
163.2980757
0
ARC
8
DEFAULT_255_1_234
10
23.1202799
20
164.0426433
40
0.5860659
50
163.0418846
51
174.3140048
0
ARC
8
DEFAULT_255_1_234
10
23.3606911
20
164.0148854
40
0.8280531
50
174.0509143
51
179.4176892
0
ARC
8
DEFAULT_255_1_234
10
23.310265
20
163.9331954
40
0.7775954
50
179.6930361
51
188.7906598
0
ARC
8
DEFAULT_255_1_234
10
23.0439129
20
163.8905935
40
0.5078633
50
188.6331305
51
202.5629587
0
ARC
8
DEFAULT_255_1_234
10
22.9184721
20
163.8401996
40
0.3726913
50
202.8081362
51
216.1193925
0
ARC
8
DEFAULT_255_1_234
10
22.8375291
20
163.7750676
40
0.2689577
50
215.0755913
51
264.6379694
0
ARC
8
DEFAULT_255_1_234
10
22.850224
20
163.8581513
40
0.3528978
50
263.846392
51
270.0833719
0
ARC
8
DEFAULT_255_1_234
10
22.8543631
20
163.8323374
40
0.3271036
50
269.3649385
51
287.5152008
0
ARC
8
DEFAULT_255_1_234
10
22.8721788
20
163.7676238
40
0.2600406
50
288.0630309
51
323.8113348
0
ARC
8
DEFAULT_255_1_234
10
22.785063
20
163.8326049
40
0.3687189
50
323.6547608
51
342.6590488
0
ARC
8
DEFAULT_255_1_234
10
22.5819245
20
163.8986952
40
0.5823286
50
342.4091907
51
353.6451149
0
ARC
8
DEFAULT_255_1_234
10
22.2987756
20
163.933919
40
0.8676442
50
353.4029884
51
359.4847795
0
LINE
8
DEFAULT_255_1_234
10
24.2675362
20
164.5598211
11
24.2675362
21
164.476291
0
LINE
8
DEFAULT_255_1_234
10
24.2675362
20
164.476291
11
23.7832224
21
163.3904
0
LINE
8
DEFAULT_255_1_234
10
23.7832224
20
163.3904
11
23.6274066
21
163.3904
0
LINE
8
DEFAULT_255_1_234
10
23.6274066
20
163.3904
11
24.1101141
21
164.4377387
0
LINE
8
DEFAULT_255_1_234
10
24.1101141
20
164.4377387
11
23.4772131
21
164.4377387
0
LINE
8
DEFAULT_255_1_234
10
23.4772131
20
164.4377387
11
23.4772131
21
164.5598211
0
LINE
8
DEFAULT_255_1_234
10
23.4772131
20
164.5598211
11
24.2675362
21
164.5598211
0
LINE
8
DEFAULT_255_1_234
10
23.3197911
20
171.9487534
11
23.3197911
21
171.8748614
0
LINE
8
DEFAULT_255_1_234
10
22.3792745
20
171.8644201
11
22.3792745
21
171.9487534
0
LINE
8
DEFAULT_255_1_234
10
23.1663849
20
171.8636169
11
23.1663849
21
171.9503597
0
LINE
8
DEFAULT_255_1_234
10
22.5326807
20
171.960801
11
22.5326807
21
171.8748614
0
ARC
8
DEFAULT_255_1_234
10
22.4555937
20
171.8709015
40
0.8642064
50
350.487711
51
0.2625388
0
ARC
8
DEFAULT_255_1_234
10
22.6849178
20
171.8314578
40
0.631518
50
336.0277639
51
350.5787438
0
ARC
8
DEFAULT_255_1_234
10
22.8194002
20
171.7706892
40
0.4839466
50
319.8877444
51
336.1328423
0
ARC
8
DEFAULT_255_1_234
10
22.8796643
20
171.722458
40
0.4067874
50
302.4806467
51
319.6143626
0
ARC
8
DEFAULT_255_1_234
10
22.8681653
20
171.7446202
40
0.4316636
50
275.8195682
51
302.1884709
0
ARC
8
DEFAULT_255_1_234
10
22.8515286
20
171.8588665
40
0.5470306
50
269.9171439
51
276.3397983
0
ARC
8
DEFAULT_255_1_234
10
22.8470496
20
171.7902681
40
0.4784458
50
252.5219675
51
270.4416499
0
ARC
8
DEFAULT_255_1_234
10
22.8326755
20
171.7363592
40
0.422716
50
237.5352116
51
252.1857531
0
ARC
8
DEFAULT_255_1_234
10
22.8415951
20
171.7477363
40
0.4371052
50
209.063312
51
237.3492538
0
ARC
8
DEFAULT_255_1_234
10
22.9285799
20
171.8023685
40
0.5397041
50
205.1183774
51
209.6470015
0
ARC
8
DEFAULT_255_1_234
10
23.0082836
20
171.836183
40
0.6262326
50
188.7215458
51
204.8240747
0
ARC
8
DEFAULT_255_1_234
10
23.2080364
20
171.8698067
40
0.8287794
50
180.3723947
51
188.9252049
0
ARC
8
DEFAULT_255_1_234
10
23.2053116
20
171.9527402
40
0.8260467
50
169.5253763
51
180.2765336
0
ARC
8
DEFAULT_255_1_234
10
23.0150564
20
171.9877309
40
0.6326007
50
155.8315255
51
169.5089989
0
ARC
8
DEFAULT_255_1_234
10
22.8870066
20
172.0471348
40
0.4914567
50
139.6258461
51
156.0379525
0
ARC
8
DEFAULT_255_1_234
10
22.8280399
20
172.0945799
40
0.4158054
50
122.6416387
51
139.3430715
0
ARC
8
DEFAULT_255_1_234
10
22.8381019
20
172.0762451
40
0.4366739
50
93.0223692
51
122.455762
0
ARC
8
DEFAULT_255_1_234
10
22.8489016
20
171.9797709
40
0.5336137
50
89.975342
51
93.6341897
0
ARC
8
DEFAULT_255_1_234
10
22.8527795
20
172.0196242
40
0.4937738
50
73.746375
51
90.4233405
0
ARC
8
DEFAULT_255_1_234
10
22.8703373
20
172.0876287
40
0.4235786
50
57.662753
51
73.4518111
0
ARC
8
DEFAULT_255_1_234
10
22.869538
20
172.0897832
40
0.4221899
50
29.1440151
51
57.414694
0
ARC
8
DEFAULT_255_1_234
10
22.7760574
20
172.0314005
40
0.5322966
50
24.0982783
51
29.7323517
0
ARC
8
DEFAULT_255_1_234
10
22.672685
20
171.9885399
40
0.6441673
50
8.6655297
51
23.8241346
0
ARC
8
DEFAULT_255_1_234
10
22.4492588
20
171.9520854
40
0.8705386
50
359.7806941
51
8.8218784
0
ARC
8
DEFAULT_255_1_234
10
22.3345586
20
171.9546345
40
0.8318373
50
359.7055579
51
8.036044
0
ARC
8
DEFAULT_255_1_234
10
22.6345592
20
171.9983239
40
0.5286768
50
7.8928306
51
20.2962107
0
ARC
8
DEFAULT_255_1_234
10
22.7973162
20
172.0583395
40
0.3552073
50
20.3231126
51
36.4992797
0
ARC
8
DEFAULT_255_1_234
10
22.8658708
20
172.1111402
40
0.2686974
50
36.1437156
51
85.6627023
0
ARC
8
DEFAULT_255_1_234
10
22.8496254
20
172.0071221
40
0.373739
50
84.3852322
51
90.0757696
0
ARC
8
DEFAULT_255_1_234
10
22.8453927
20
172.0731839
40
0.3076997
50
89.3038458
51
109.9045693
0
ARC
8
DEFAULT_255_1_234
10
22.8361318
20
172.1114062
40
0.2686424
50
110.8228367
51
143.9179474
0
ARC
8
DEFAULT_255_1_234
10
22.9294978
20
172.0401236
40
0.3860887
50
143.5289163
51
163.2980757
0
ARC
8
DEFAULT_255_1_234
10
23.1202799
20
171.9801433
40
0.5860659
50
163.0418846
51
174.3140048
0
ARC
8
DEFAULT_255_1_234
10
23.3606911
20
171.9523854
40
0.8280531
50
174.0509143
51
179.4176892
0
ARC
8
DEFAULT_255_1_234
10
23.310265
20
171.8706954
40
0.7775954
50
179.6930361
51
188.7906598
0
ARC
8
DEFAULT_255_1_234
10
23.0439129
20
171.8280935
40
0.5078633
50
188.6331305
51
202.5629587
0
ARC
8
DEFAULT_255_1_234
10
22.9184721
20
171.7776996
40
0.3726913
50
202.8081362
51
216.1193925
0
ARC
8
DEFAULT_255_1_234
10
22.8375291
20
171.7125676
40
0.2689577
50
215.0755913
51
264.6379694
0
ARC
8
DEFAULT_255_1_234
10
22.850224
20
171.7956513
40
0.3528978
50
263.846392
51
270.0833719
0
ARC
8
DEFAULT_255_1_234
10
22.8543631
20
171.7698374
40
0.3271036
50
269.3649385
51
287.5152008
0
ARC
8
DEFAULT_255_1_234
10
22.8721788
20
171.7051238
40
0.2600406
50
288.0630309
51
323.8113348
0
ARC
8
DEFAULT_255_1_234
10
22.785063
20
171.7701049
40
0.3687189
50
323.6547608
51
342.6590488
0
ARC
8
DEFAULT_255_1_234
10
22.5819245
20
171.8361952
40
0.5823286
50
342.4091907
51
353.6451149
0
ARC
8
DEFAULT_255_1_234
10
22.2987756
20
171.871419
40
0.8676442
50
353.4029884
51
359.4847795
0
LINE
8
DEFAULT_255_1_234
10
24.0691522
20
172.4981243
11
24.095657
21
172.4981243
0
LINE
8
DEFAULT_255_1_234
10
24.095657
20
172.4981243
11
24.095657
21
172.372026
0
LINE
8
DEFAULT_255_1_234
10
24.095657
20
172.372026
11
24.0683491
21
172.372026
0
LINE
8
DEFAULT_255_1_234
10
23.5213877
20
171.7728583
11
23.5213877
21
171.8298836
0
LINE
8
DEFAULT_255_1_234
10
23.670778
20
171.8106075
11
23.670778
21
171.7559917
0
ARC
8
DEFAULT_255_1_234
10
24.0735839
20
171.8722455
40
0.4998079
50
90.6001036
51
104.514704
0
ARC
8
DEFAULT_255_1_234
10
24.0347354
20
172.0167131
40
0.3502176
50
104.2855254
51
133.862935
0
ARC
8
DEFAULT_255_1_234
10
24.0511112
20
172.005883
40
0.3693984
50
134.5302688
51
161.6210873
0
ARC
8
DEFAULT_255_1_234
10
24.21643
20
171.9475895
40
0.5446739
50
161.2849839
51
174.2076652
0
ARC
8
DEFAULT_255_1_234
10
24.3571237
20
171.9281787
40
0.6866274
50
173.7810589
51
174.9254635
0
ARC
8
DEFAULT_255_1_234
10
23.9021069
20
171.7898839
40
0.3033419
50
95.8330959
51
138.9954921
0
ARC
8
DEFAULT_255_1_234
10
23.9244425
20
171.6620375
40
0.4328947
50
89.8753725
51
97.0544009
0
ARC
8
DEFAULT_255_1_234
10
23.9291891
20
171.7455748
40
0.3493769
50
71.6407809
51
90.6240094
0
ARC
8
DEFAULT_255_1_234
10
23.9442465
20
171.8010082
40
0.2920396
50
39.6367836
51
71.019018
0
ARC
8
DEFAULT_255_1_234
10
23.8805938
20
171.7459998
40
0.3761538
50
10.658731
51
39.9043955
0
ARC
8
DEFAULT_255_1_234
10
23.7258021
20
171.7123686
40
0.5345136
50
359.682601
51
11.132623
0
ARC
8
DEFAULT_255_1_234
10
23.7218151
20
171.705301
40
0.5385081
50
347.2486944
51
0.4369317
0
ARC
8
DEFAULT_255_1_234
10
23.8885628
20
171.6651807
40
0.3670249
50
318.1409698
51
347.6118597
0
ARC
8
DEFAULT_255_1_234
10
23.9210621
20
171.6384702
40
0.3250007
50
275.6342139
51
317.8248465
0
ARC
8
DEFAULT_255_1_234
10
23.8989733
20
171.7684219
40
0.4565864
50
269.8874292
51
276.7917694
0
ARC
8
DEFAULT_255_1_234
10
23.8934803
20
171.6658743
40
0.3540676
50
246.9140195
51
270.7437342
0
ARC
8
DEFAULT_255_1_234
10
23.8941194
20
171.6516384
40
0.3412781
50
218.1665114
51
245.878116
0
ARC
8
DEFAULT_255_1_234
10
23.9820654
20
171.7252279
40
0.455911
50
191.4115814
51
218.6077802
0
ARC
8
DEFAULT_255_1_234
10
24.1758744
20
171.7686833
40
0.6545001
50
179.6345085
51
191.7836486
0
ARC
8
DEFAULT_255_1_234
10
24.734108
20
171.8365697
40
1.2127388
50
171.4525249
51
180.3158839
0
ARC
8
DEFAULT_255_1_234
10
24.2945956
20
171.9049608
40
0.7679464
50
157.9802646
51
171.6246686
0
ARC
8
DEFAULT_255_1_234
10
24.0731977
20
171.9932421
40
0.5296008
50
141.4298019
51
157.854097
0
ARC
8
DEFAULT_255_1_234
10
24.0090298
20
172.0386381
40
0.4511509
50
102.8715806
51
140.8564722
0
ARC
8
DEFAULT_255_1_234
10
24.0737913
20
171.7946552
40
0.7034845
50
90.3778349
51
103.5869322
0
ARC
8
DEFAULT_255_1_234
10
23.899969
20
171.734173
40
0.2370698
50
89.8751008
51
126.2071704
0
ARC
8
DEFAULT_255_1_234
10
23.9045479
20
171.7187303
40
0.2522934
50
124.9745049
51
144.895901
0
ARC
8
DEFAULT_255_1_234
10
23.886967
20
171.733056
40
0.2296779
50
145.2974905
51
160.2660252
0
ARC
8
DEFAULT_255_1_234
10
24.1942209
20
171.7528071
40
0.5234525
50
179.6514266
51
190.2855912
0
ARC
8
DEFAULT_255_1_234
10
24.0248346
20
171.7208786
40
0.3510893
50
190.0945431
51
207.5098196
0
ARC
8
DEFAULT_255_1_234
10
23.9682616
20
171.6939623
40
0.288489
50
207.9583163
51
216.3251085
0
ARC
8
DEFAULT_255_1_234
10
23.9342723
20
171.6660105
40
0.2445587
50
215.7661442
51
232.5456785
0
ARC
8
DEFAULT_255_1_234
10
23.8959706
20
171.6173482
40
0.1826382
50
232.8005391
51
270.6605633
0
ARC
8
DEFAULT_255_1_234
10
23.9005407
20
171.6537612
40
0.2190529
50
269.35537
51
288.4744281
0
ARC
8
DEFAULT_255_1_234
10
23.9098304
20
171.6188118
40
0.1829749
50
289.1833337
51
322.9683818
0
ARC
8
DEFAULT_255_1_234
10
23.8486827
20
171.6670391
40
0.2608399
50
322.6007884
51
346.5182367
0
ARC
8
DEFAULT_255_1_234
10
23.7329423
20
171.6965616
40
0.3802777
50
346.2582162
51
358.7741648
0
ARC
8
DEFAULT_255_1_234
10
23.6311091
20
171.7020965
40
0.4822176
50
358.3755224
51
0.0098023
0
ARC
8
DEFAULT_255_1_234
10
23.7067279
20
171.7048657
40
0.4066078
50
359.6214041
51
11.2839074
0
ARC
8
DEFAULT_255_1_234
10
23.8344426
20
171.7315066
40
0.2761514
50
11.0482309
51
31.8146458
0
ARC
8
DEFAULT_255_1_234
10
23.8653468
20
171.7482584
40
0.2410679
50
32.3035391
51
38.082671
0
ARC
8
DEFAULT_255_1_234
10
23.9074128
20
171.7863662
40
0.1844966
50
36.825067
51
85.7415724
0
ARC
8
DEFAULT_255_1_234
10
23.9006962
20
171.7363301
40
0.2349122
50
85.0140713
51
90.0513278
0
LINE
8
DEFAULT_255_1_234
10
23.3197911
20
179.8862534
11
23.3197911
21
179.8123614
0
LINE
8
DEFAULT_255_1_234
10
22.3792745
20
179.8019201
11
22.3792745
21
179.8862534
0
LINE
8
DEFAULT_255_1_234
10
23.1663849
20
179.8011169
11
23.1663849
21
179.8878597
0
LINE
8
DEFAULT_255_1_234
10
22.5326807
20
179.898301
11
22.5326807
21
179.8123614
0
ARC
8
DEFAULT_255_1_234
10
22.4555937
20
179.8084015
40
0.8642064
50
350.487711
51
0.2625388
0
ARC
8
DEFAULT_255_1_234
10
22.6849178
20
179.7689578
40
0.631518
50
336.0277639
51
350.5787438
0
ARC
8
DEFAULT_255_1_234
10
22.8194002
20
179.7081892
40
0.4839466
50
319.8877444
51
336.1328423
0
ARC
8
DEFAULT_255_1_234
10
22.8796643
20
179.659958
40
0.4067874
50
302.4806467
51
319.6143626
0
ARC
8
DEFAULT_255_1_234
10
22.8681653
20
179.6821202
40
0.4316636
50
275.8195682
51
302.1884709
0
ARC
8
DEFAULT_255_1_234
10
22.8515286
20
179.7963665
40
0.5470306
50
269.9171439
51
276.3397983
0
ARC
8
DEFAULT_255_1_234
10
22.8470496
20
179.7277681
40
0.4784458
50
252.5219675
51
270.4416499
0
ARC
8
DEFAULT_255_1_234
10
22.8326755
20
179.6738592
40
0.422716
50
237.5352116
51
252.1857531
0
ARC
8
DEFAULT_255_1_234
10
22.8415951
20
179.6852363
40
0.4371052
50
209.063312
51
237.3492538
0
ARC
8
DEFAULT_255_1_234
10
22.9285799
20
179.7398685
40
0.5397041
50
205.1183774
51
209.6470015
0
ARC
8
DEFAULT_255_1_234
10
23.0082836
20
179.773683
40
0.6262326
50
188.7215458
51
204.8240747
0
ARC
8
DEFAULT_255_1_234
10
23.2080364
20
179.8073067
40
0.8287794
50
180.3723947
51
188.9252049
0
ARC
8
DEFAULT_255_1_234
10
23.2053116
20
179.8902402
40
0.8260467
50
169.5253763
51
180.2765336
0
ARC
8
DEFAULT_255_1_234
10
23.0150564
20
179.9252309
40
0.6326007
50
155.8315255
51
169.5089989
0
ARC
8
DEFAULT_255_1_234
10
22.8870066
20
179.9846348
40
0.4914567
50
139.6258461
51
156.0379525
0
ARC
8
DEFAULT_255_1_234
10
22.8280399
20
180.0320799
40
0.4158054
50
122.6416387
51
139.3430715
0
ARC
8
DEFAULT_255_1_234
10
22.8381019
20
180.0137451
40
0.4366739
50
93.0223692
51
122.455762
0
ARC
8
DEFAULT_255_1_234
10
22.8489016
20
179.9172709
40
0.5336137
50
89.975342
51
93.6341897
0
ARC
8
DEFAULT_255_1_234
10
22.8527795
20
179.9571242
40
0.4937738
50
73.746375
51
90.4233405
0
ARC
8
DEFAULT_255_1_234
10
22.8703373
20
180.0251287
40
0.4235786
50
57.662753
51
73.4518111
0
ARC
8
DEFAULT_255_1_234
10
22.869538
20
180.0272832
40
0.4221899
50
29.1440151
51
57.414694
0
ARC
8
DEFAULT_255_1_234
10
22.7760574
20
179.9689005
40
0.5322966
50
24.0982783
51
29.7323517
0
ARC
8
DEFAULT_255_1_234
10
22.672685
20
179.9260399
40
0.6441673
50
8.6655297
51
23.8241346
0
ARC
8
DEFAULT_255_1_234
10
22.4492588
20
179.8895854
40
0.8705386
50
359.7806941
51
8.8218784
0
ARC
8
DEFAULT_255_1_234
10
22.3345586
20
179.8921345
40
0.8318373
50
359.7055579
51
8.036044
0
ARC
8
DEFAULT_255_1_234
10
22.6345592
20
179.9358239
40
0.5286768
50
7.8928306
51
20.2962107
0
ARC
8
DEFAULT_255_1_234
10
22.7973162
20
179.9958395
40
0.3552073
50
20.3231126
51
36.4992797
0
ARC
8
DEFAULT_255_1_234
10
22.8658708
20
180.0486402
40
0.2686974
50
36.1437156
51
85.6627023
0
ARC
8
DEFAULT_255_1_234
10
22.8496254
20
179.9446221
40
0.373739
50
84.3852322
51
90.0757696
0
ARC
8
DEFAULT_255_1_234
10
22.8453927
20
180.0106839
40
0.3076997
50
89.3038458
51
109.9045693
0
ARC
8
DEFAULT_255_1_234
10
22.8361318
20
180.0489062
40
0.2686424
50
110.8228367
51
143.9179474
0
ARC
8
DEFAULT_255_1_234
10
22.9294978
20
179.9776236
40
0.3860887
50
143.5289163
51
163.2980757
0
ARC
8
DEFAULT_255_1_234
10
23.1202799
20
179.9176433
40
0.5860659
50
163.0418846
51
174.3140048
0
ARC
8
DEFAULT_255_1_234
10
23.3606911
20
179.8898854
40
0.8280531
50
174.0509143
51
179.4176892
0
ARC
8
DEFAULT_255_1_234
10
23.310265
20
179.8081954
40
0.7775954
50
179.6930361
51
188.7906598
0
ARC
8
DEFAULT_255_1_234
10
23.0439129
20
179.7655935
40
0.5078633
50
188.6331305
51
202.5629587
0
ARC
8
DEFAULT_255_1_234
10
22.9184721
20
179.7151996
40
0.3726913
50
202.8081362
51
216.1193925
0
ARC
8
DEFAULT_255_1_234
10
22.8375291
20
179.6500676
40
0.2689577
50
215.0755913
51
264.6379694
0
ARC
8
DEFAULT_255_1_234
10
22.850224
20
179.7331513
40
0.3528978
50
263.846392
51
270.0833719
0
ARC
8
DEFAULT_255_1_234
10
22.8543631
20
179.7073374
40
0.3271036
50
269.3649385
51
287.5152008
0
ARC
8
DEFAULT_255_1_234
10
22.8721788
20
179.6426238
40
0.2600406
50
288.0630309
51
323.8113348
0
ARC
8
DEFAULT_255_1_234
10
22.785063
20
179.7076049
40
0.3687189
50
323.6547608
51
342.6590488
0
ARC
8
DEFAULT_255_1_234
10
22.5819245
20
179.7736952
40
0.5823286
50
342.4091907
51
353.6451149
0
ARC
8
DEFAULT_255_1_234
10
22.2987756
20
179.808919
40
0.8676442
50
353.4029884
51
359.4847795
0
LINE
8
DEFAULT_255_1_234
10
23.6996923
20
179.8211963
11
23.5808226
21
179.8517169
0
LINE
8
DEFAULT_255_1_234
10
23.5808226
20
179.8517169
11
23.6402574
21
180.4348211
0
LINE
8
DEFAULT_255_1_234
10
23.6402574
20
180.4348211
11
24.2394251
21
180.4348211
0
LINE
8
DEFAULT_255_1_234
10
24.2394251
20
180.4348211
11
24.2394251
21
180.2974784
0
LINE
8
DEFAULT_255_1_234
10
24.2394251
20
180.2974784
11
23.7663557
21
180.2974784
0
LINE
8
DEFAULT_255_1_234
10
23.7663557
20
180.2974784
11
23.7310161
21
179.9786184
0
LINE
8
DEFAULT_255_1_234
10
23.5390575
20
179.5730156
11
23.6796129
21
179.5730156
0
LINE
8
DEFAULT_255_1_234
10
23.7390478
20
179.8533232
11
23.6996923
21
179.8211963
0
ARC
8
DEFAULT_255_1_234
10
23.9164945
20
179.660623
40
0.3681349
50
93.7182161
51
120.2538958
0
ARC
8
DEFAULT_255_1_234
10
23.9259208
20
179.5798394
40
0.449379
50
89.9660152
51
94.2496022
0
ARC
8
DEFAULT_255_1_234
10
23.9299941
20
179.6387549
40
0.390482
50
73.8043271
51
90.5585896
0
ARC
8
DEFAULT_255_1_234
10
23.9534838
20
179.7245602
40
0.3015334
50
41.3071453
51
73.5430202
0
ARC
8
DEFAULT_255_1_234
10
23.9118666
20
179.6887324
40
0.3564457
50
13.5075983
51
41.2174222
0
ARC
8
DEFAULT_255_1_234
10
23.747687
20
179.6457486
40
0.5261351
50
1.1331335
51
13.8829381
0
ARC
8
DEFAULT_255_1_234
10
23.6065238
20
179.6381665
40
0.6674378
50
359.9919444
51
1.544251
0
ARC
8
DEFAULT_255_1_234
10
23.7342065
20
179.634028
40
0.5397702
50
347.8572367
51
0.4293338
0
ARC
8
DEFAULT_255_1_234
10
23.9092383
20
179.5943736
40
0.3603188
50
323.673004
51
348.1672506
0
ARC
8
DEFAULT_255_1_234
10
23.9386891
20
179.5764168
40
0.3259678
50
316.8171152
51
323.1492751
0
ARC
8
DEFAULT_255_1_234
10
23.944808
20
179.572746
40
0.3189975
50
281.8396411
51
316.5457803
0
ARC
8
DEFAULT_255_1_234
10
23.9072343
20
179.7282762
40
0.4789527
50
269.5770101
51
282.4214771
0
ARC
8
DEFAULT_255_1_234
10
23.9001155
20
179.7069125
40
0.45759
50
256.2427136
51
270.4486331
0
ARC
8
DEFAULT_255_1_234
10
23.8702057
20
179.5869229
40
0.3339303
50
228.9023911
51
256.3314342
0
ARC
8
DEFAULT_255_1_234
10
23.862829
20
179.5752746
40
0.32031
50
193.753695
51
228.5271154
0
ARC
8
DEFAULT_255_1_234
10
23.9866244
20
179.61158
40
0.4492253
50
184.924711
51
194.497588
0
ARC
8
DEFAULT_255_1_234
10
24.0058811
20
179.6151591
40
0.3289787
50
187.3600538
51
198.6732863
0
ARC
8
DEFAULT_255_1_234
10
23.9009105
20
179.5787674
40
0.217884
50
198.4451669
51
217.794479
0
ARC
8
DEFAULT_255_1_234
10
23.871328
20
179.5578085
40
0.1816698
50
218.2887171
51
228.5612368
0
ARC
8
DEFAULT_255_1_234
10
23.8811067
20
179.5709963
40
0.1980329
50
228.9654866
51
258.1234728
0
ARC
8
DEFAULT_255_1_234
10
23.9016777
20
179.6590833
40
0.2884748
50
257.7258293
51
270.401361
0
ARC
8
DEFAULT_255_1_234
10
23.9061663
20
179.6145821
40
0.2439788
50
269.4204404
51
286.4209037
0
ARC
8
DEFAULT_255_1_234
10
23.9210151
20
179.5606657
40
0.1880666
50
286.7251356
51
320.600362
0
ARC
8
DEFAULT_255_1_234
10
23.8826976
20
179.5917595
40
0.2374121
50
320.6712579
51
344.5441685
0
ARC
8
DEFAULT_255_1_234
10
23.7670302
20
179.6257045
40
0.3579479
50
344.2412205
51
356.7357071
0
ARC
8
DEFAULT_255_1_234
10
23.642145
20
179.6360444
40
0.4832297
50
356.3548756
51
0.0500261
0
ARC
8
DEFAULT_255_1_234
10
23.7757959
20
179.639165
40
0.3495889
50
359.5576869
51
12.953486
0
ARC
8
DEFAULT_255_1_234
10
23.8812857
20
179.6647434
40
0.2410532
50
12.6490276
51
41.6081334
0
ARC
8
DEFAULT_255_1_234
10
23.9043228
20
179.6843321
40
0.2108218
50
41.7850273
51
85.9892764
0
ARC
8
DEFAULT_255_1_234
10
23.8919964
20
179.6030462
40
0.2928454
50
84.6957577
51
90.0676183
0
ARC
8
DEFAULT_255_1_234
10
23.8896449
20
179.5361716
40
0.3597255
50
89.6804936
51
99.1614436
0
ARC
8
DEFAULT_255_1_234
10
23.869108
20
179.6589131
40
0.235281
50
98.9830931
51
113.8908934
0
ARC
8
DEFAULT_255_1_234
10
23.846149
20
179.7130587
40
0.176479
50
114.1950727
51
127.3641004
0
LINE
8
DEFAULT_255_1_234
10
23.2138911
20
187.8237534
11
23.2138911
21
187.7498614
0
LINE
8
DEFAULT_255_1_234
10
22.2733745
20
187.7394201
11
22.2733745
21
187.8237534
0
LINE
8
DEFAULT_255_1_234
10
23.0604849
20
187.7386169
11
23.0604849
21
187.8253597
0
LINE
8
DEFAULT_255_1_234
10
22.4267807
20
187.835801
11
22.4267807
21
187.7498614
0
ARC
8
DEFAULT_255_1_234
10
22.3496937
20
187.7459015
40
0.8642064
50
350.487711
51
0.2625388
0
ARC
8
DEFAULT_255_1_234
10
22.5790178
20
187.7064578
40
0.631518
50
336.0277639
51
350.5787438
0
ARC
8
DEFAULT_255_1_234
10
22.7135002
20
187.6456892
40
0.4839466
50
319.8877444
51
336.1328423
0
ARC
8
DEFAULT_255_1_234
10
22.7737643
20
187.597458
40
0.4067874
50
302.4806467
51
319.6143626
0
ARC
8
DEFAULT_255_1_234
10
22.7622653
20
187.6196202
40
0.4316636
50
275.8195682
51
302.1884709
0
ARC
8
DEFAULT_255_1_234
10
22.7456286
20
187.7338665
40
0.5470306
50
269.9171439
51
276.3397983
0
ARC
8
DEFAULT_255_1_234
10
22.7411496
20
187.6652681
40
0.4784458
50
252.5219675
51
270.4416499
0
ARC
8
DEFAULT_255_1_234
10
22.7267755
20
187.6113592
40
0.422716
50
237.5352116
51
252.1857531
0
ARC
8
DEFAULT_255_1_234
10
22.7356951
20
187.6227363
40
0.4371052
50
209.063312
51
237.3492538
0
ARC
8
DEFAULT_255_1_234
10
22.8226799
20
187.6773685
40
0.5397041
50
205.1183774
51
209.6470015
0
ARC
8
DEFAULT_255_1_234
10
22.9023836
20
187.711183
40
0.6262326
50
188.7215458
51
204.8240747
0
ARC
8
DEFAULT_255_1_234
10
23.1021364
20
187.7448067
40
0.8287794
50
180.3723947
51
188.9252049
0
ARC
8
DEFAULT_255_1_234
10
23.0994116
20
187.8277402
40
0.8260467
50
169.5253763
51
180.2765336
0
ARC
8
DEFAULT_255_1_234
10
22.9091564
20
187.8627309
40
0.6326007
50
155.8315255
51
169.5089989
0
ARC
8
DEFAULT_255_1_234
10
22.7811066
20
187.9221348
40
0.4914567
50
139.6258461
51
156.0379525
0
ARC
8
DEFAULT_255_1_234
10
22.7221399
20
187.9695799
40
0.4158054
50
122.6416387
51
139.3430715
0
ARC
8
DEFAULT_255_1_234
10
22.7322019
20
187.9512451
40
0.4366739
50
93.0223692
51
122.455762
0
ARC
8
DEFAULT_255_1_234
10
22.7430016
20
187.8547709
40
0.5336137
50
89.975342
51
93.6341897
0
ARC
8
DEFAULT_255_1_234
10
22.7468795
20
187.8946242
40
0.4937738
50
73.746375
51
90.4233405
0
ARC
8
DEFAULT_255_1_234
10
22.7644373
20
187.9626287
40
0.4235786
50
57.662753
51
73.4518111
0
ARC
8
DEFAULT_255_1_234
10
22.763638
20
187.9647832
40
0.4221899
50
29.1440151
51
57.414694
0
ARC
8
DEFAULT_255_1_234
10
22.6701574
20
187.9064005
40
0.5322966
50
24.0982783
51
29.7323517
0
ARC
8
DEFAULT_255_1_234
10
22.566785
20
187.8635399
40
0.6441673
50
8.6655297
51
23.8241346
0
ARC
8
DEFAULT_255_1_234
10
22.3433588
20
187.8270854
40
0.8705386
50
359.7806941
51
8.8218784
0
ARC
8
DEFAULT_255_1_234
10
22.2286586
20
187.8296345
40
0.8318373
50
359.7055579
51
8.036044
0
ARC
8
DEFAULT_255_1_234
10
22.5286592
20
187.8733239
40
0.5286768
50
7.8928306
51
20.2962107
0
ARC
8
DEFAULT_255_1_234
10
22.6914162
20
187.9333395
40
0.3552073
50
20.3231126
51
36.4992797
0
ARC
8
DEFAULT_255_1_234
10
22.7599708
20
187.9861402
40
0.2686974
50
36.1437156
51
85.6627023
0
ARC
8
DEFAULT_255_1_234
10
22.7437254
20
187.8821221
40
0.373739
50
84.3852322
51
90.0757696
0
ARC
8
DEFAULT_255_1_234
10
22.7394927
20
187.9481839
40
0.3076997
50
89.3038458
51
109.9045693
0
ARC
8
DEFAULT_255_1_234
10
22.7302318
20
187.9864062
40
0.2686424
50
110.8228367
51
143.9179474
0
ARC
8
DEFAULT_255_1_234
10
22.8235978
20
187.9151236
40
0.3860887
50
143.5289163
51
163.2980757
0
ARC
8
DEFAULT_255_1_234
10
23.0143799
20
187.8551433
40
0.5860659
50
163.0418846
51
174.3140048
0
ARC
8
DEFAULT_255_1_234
10
23.2547911
20
187.8273854
40
0.8280531
50
174.0509143
51
179.4176892
0
ARC
8
DEFAULT_255_1_234
10
23.204365
20
187.7456954
40
0.7775954
50
179.6930361
51
188.7906598
0
ARC
8
DEFAULT_255_1_234
10
22.9380129
20
187.7030935
40
0.5078633
50
188.6331305
51
202.5629587
0
ARC
8
DEFAULT_255_1_234
10
22.8125721
20
187.6526996
40
0.3726913
50
202.8081362
51
216.1193925
0
ARC
8
DEFAULT_255_1_234
10
22.7316291
20
187.5875676
40
0.2689577
50
215.0755913
51
264.6379694
0
ARC
8
DEFAULT_255_1_234
10
22.744324
20
187.6706513
40
0.3528978
50
263.846392
51
270.0833719
0
ARC
8
DEFAULT_255_1_234
10
22.7484631
20
187.6448374
40
0.3271036
50
269.3649385
51
287.5152008
0
ARC
8
DEFAULT_255_1_234
10
22.7662788
20
187.5801238
40
0.2600406
50
288.0630309
51
323.8113348
0
ARC
8
DEFAULT_255_1_234
10
22.679163
20
187.6451049
40
0.3687189
50
323.6547608
51
342.6590488
0
ARC
8
DEFAULT_255_1_234
10
22.4760245
20
187.7111952
40
0.5823286
50
342.4091907
51
353.6451149
0
ARC
8
DEFAULT_255_1_234
10
22.1928756
20
187.746419
40
0.8676442
50
353.4029884
51
359.4847795
0
LINE
8
DEFAULT_255_1_234
10
24.0339315
20
188.3723211
11
24.0339315
21
187.595652
0
LINE
8
DEFAULT_255_1_234
10
24.0339315
20
187.595652
11
24.1961727
21
187.595652
0
LINE
8
DEFAULT_255_1_234
10
24.1961727
20
187.595652
11
24.1961727
21
187.4743728
0
LINE
8
DEFAULT_255_1_234
10
24.1961727
20
187.4743728
11
24.0339315
21
187.4743728
0
LINE
8
DEFAULT_255_1_234
10
24.0339315
20
187.4743728
11
24.0339315
21
187.2029
0
LINE
8
DEFAULT_255_1_234
10
24.0339315
20
187.2029
11
23.8845412
21
187.2029
0
LINE
8
DEFAULT_255_1_234
10
23.8845412
20
187.2029
11
23.8845412
21
187.4743728
0
LINE
8
DEFAULT_255_1_234
10
23.8845412
20
187.4743728
11
23.352037
21
187.4743728
0
LINE
8
DEFAULT_255_1_234
10
23.352037
20
187.4743728
11
23.352037
21
187.5619187
0
LINE
8
DEFAULT_255_1_234
10
23.352037
20
187.5619187
11
23.8757063
21
188.3723211
0
LINE
8
DEFAULT_255_1_234
10
23.8757063
20
188.3723211
11
24.0339315
21
188.3723211
0
LINE
8
DEFAULT_255_1_234
10
23.8668714
20
188.1369912
11
23.5207035
21
187.595652
0
LINE
8
DEFAULT_255_1_234
10
23.5207035
20
187.595652
11
23.8845412
21
187.595652
0
LINE
8
DEFAULT_255_1_234
10
23.8845412
20
187.595652
11
23.8845412
21
188.1691181
0
LINE
8
DEFAULT_255_1_234
10
23.8845412
20
188.1691181
11
23.8668714
21
188.1369912
0
LINE
8
DEFAULT_255_1_234
10
23.3197911
20
195.7612534
11
23.3197911
21
195.6873614
0
LINE
8
DEFAULT_255_1_234
10
22.3792745
20
195.6769201
11
22.3792745
21
195.7612534
0
LINE
8
DEFAULT_255_1_234
10
23.1663849
20
195.6761169
11
23.1663849
21
195.7628597
0
LINE
8
DEFAULT_255_1_234
10
22.5326807
20
195.773301
11
22.5326807
21
195.6873614
0
ARC
8
DEFAULT_255_1_234
10
22.4555937
20
195.6834015
40
0.8642064
50
350.487711
51
0.2625388
0
ARC
8
DEFAULT_255_1_234
10
22.6849178
20
195.6439578
40
0.631518
50
336.0277639
51
350.5787438
0
ARC
8
DEFAULT_255_1_234
10
22.8194002
20
195.5831892
40
0.4839466
50
319.8877444
51
336.1328423
0
ARC
8
DEFAULT_255_1_234
10
22.8796643
20
195.534958
40
0.4067874
50
302.4806467
51
319.6143626
0
ARC
8
DEFAULT_255_1_234
10
22.8681653
20
195.5571202
40
0.4316636
50
275.8195682
51
302.1884709
0
ARC
8
DEFAULT_255_1_234
10
22.8515286
20
195.6713665
40
0.5470306
50
269.9171439
51
276.3397983
0
ARC
8
DEFAULT_255_1_234
10
22.8470496
20
195.6027681
40
0.4784458
50
252.5219675
51
270.4416499
0
ARC
8
DEFAULT_255_1_234
10
22.8326755
20
195.5488592
40
0.422716
50
237.5352116
51
252.1857531
0
ARC
8
DEFAULT_255_1_234
10
22.8415951
20
195.5602363
40
0.4371052
50
209.063312
51
237.3492538
0
ARC
8
DEFAULT_255_1_234
10
22.9285799
20
195.6148685
40
0.5397041
50
205.1183774
51
209.6470015
0
ARC
8
DEFAULT_255_1_234
10
23.0082836
20
195.648683
40
0.6262326
50
188.7215458
51
204.8240747
0
ARC
8
DEFAULT_255_1_234
10
23.2080364
20
195.6823067
40
0.8287794
50
180.3723947
51
188.9252049
0
ARC
8
DEFAULT_255_1_234
10
23.2053116
20
195.7652402
40
0.8260467
50
169.5253763
51
180.2765336
0
ARC
8
DEFAULT_255_1_234
10
23.0150564
20
195.8002309
40
0.6326007
50
155.8315255
51
169.5089989
0
ARC
8
DEFAULT_255_1_234
10
22.8870066
20
195.8596348
40
0.4914567
50
139.6258461
51
156.0379525
0
ARC
8
DEFAULT_255_1_234
10
22.8280399
20
195.9070799
40
0.4158054
50
122.6416387
51
139.3430715
0
ARC
8
DEFAULT_255_1_234
10
22.8381019
20
195.8887451
40
0.4366739
50
93.0223692
51
122.455762
0
ARC
8
DEFAULT_255_1_234
10
22.8489016
20
195.7922709
40
0.5336137
50
89.975342
51
93.6341897
0
ARC
8
DEFAULT_255_1_234
10
22.8527795
20
195.8321242
40
0.4937738
50
73.746375
51
90.4233405
0
ARC
8
DEFAULT_255_1_234
10
22.8703373
20
195.9001287
40
0.4235786
50
57.662753
51
73.4518111
0
ARC
8
DEFAULT_255_1_234
10
22.869538
20
195.9022832
40
0.4221899
50
29.1440151
51
57.414694
0
ARC
8
DEFAULT_255_1_234
10
22.7760574
20
195.8439005
40
0.5322966
50
24.0982783
51
29.7323517
0
ARC
8
DEFAULT_255_1_234
10
22.672685
20
195.8010399
40
0.6441673
50
8.6655297
51
23.8241346
0
ARC
8
DEFAULT_255_1_234
10
22.4492588
20
195.7645854
40
0.8705386
50
359.7806941
51
8.8218784
0
ARC
8
DEFAULT_255_1_234
10
22.3345586
20
195.7671345
40
0.8318373
50
359.7055579
51
8.036044
0
ARC
8
DEFAULT_255_1_234
10
22.6345592
20
195.8108239
40
0.5286768
50
7.8928306
51
20.2962107
0
ARC
8
DEFAULT_255_1_234
10
22.7973162
20
195.8708395
40
0.3552073
50
20.3231126
51
36.4992797
0
ARC
8
DEFAULT_255_1_234
10
22.8658708
20
195.9236402
40
0.2686974
50
36.1437156
51
85.6627023
0
ARC
8
DEFAULT_255_1_234
10
22.8496254
20
195.8196221
40
0.373739
50
84.3852322
51
90.0757696
0
ARC
8
DEFAULT_255_1_234
10
22.8453927
20
195.8856839
40
0.3076997
50
89.3038458
51
109.9045693
0
ARC
8
DEFAULT_255_1_234
10
22.8361318
20
195.9239062
40
0.2686424
50
110.8228367
51
143.9179474
0
ARC
8
DEFAULT_255_1_234
10
22.9294978
20
195.8526236
40
0.3860887
50
143.5289163
51
163.2980757
0
ARC
8
DEFAULT_255_1_234
10
23.1202799
20
195.7926433
40
0.5860659
50
163.0418846
51
174.3140048
0
ARC
8
DEFAULT_255_1_234
10
23.3606911
20
195.7648854
40
0.8280531
50
174.0509143
51
179.4176892
0
ARC
8
DEFAULT_255_1_234
10
23.310265
20
195.6831954
40
0.7775954
50
179.6930361
51
188.7906598
0
ARC
8
DEFAULT_255_1_234
10
23.0439129
20
195.6405935
40
0.5078633
50
188.6331305
51
202.5629587
0
ARC
8
DEFAULT_255_1_234
10
22.9184721
20
195.5901996
40
0.3726913
50
202.8081362
51
216.1193925
0
ARC
8
DEFAULT_255_1_234
10
22.8375291
20
195.5250676
40
0.2689577
50
215.0755913
51
264.6379694
0
ARC
8
DEFAULT_255_1_234
10
22.850224
20
195.6081513
40
0.3528978
50
263.846392
51
270.0833719
0
ARC
8
DEFAULT_255_1_234
10
22.8543631
20
195.5823374
40
0.3271036
50
269.3649385
51
287.5152008
0
ARC
8
DEFAULT_255_1_234
10
22.8721788
20
195.5176238
40
0.2600406
50
288.0630309
51
323.8113348
0
ARC
8
DEFAULT_255_1_234
10
22.785063
20
195.5826049
40
0.3687189
50
323.6547608
51
342.6590488
0
ARC
8
DEFAULT_255_1_234
10
22.5819245
20
195.6486952
40
0.5823286
50
342.4091907
51
353.6451149
0
ARC
8
DEFAULT_255_1_234
10
22.2987756
20
195.683919
40
0.8676442
50
353.4029884
51
359.4847795
0
LINE
8
DEFAULT_255_1_234
10
23.7286065
20
195.6761169
11
23.7286065
21
195.7973962
0
LINE
8
DEFAULT_255_1_234
10
23.7286065
20
195.7973962
11
23.8402477
21
195.7973962
0
LINE
8
DEFAULT_255_1_234
10
23.6498955
20
196.0030087
11
23.5013083
21
196.0030087
0
LINE
8
DEFAULT_255_1_234
10
23.4908671
20
195.4488188
11
23.6402574
21
195.4488188
0
LINE
8
DEFAULT_255_1_234
10
23.8402477
20
195.6761169
11
23.7286065
21
195.6761169
0
ARC
8
DEFAULT_255_1_234
10
23.8373343
20
196.1366713
40
0.3392876
50
270.4919872
51
281.8951556
0
ARC
8
DEFAULT_255_1_234
10
23.8614605
20
196.0264702
40
0.2264817
50
281.6691735
51
301.2943132
0
ARC
8
DEFAULT_255_1_234
10
23.8784815
20
195.9953304
40
0.1910381
50
301.7833094
51
311.7545298
0
ARC
8
DEFAULT_255_1_234
10
23.8876391
20
195.9851748
40
0.1773635
50
311.7323931
51
354.2802411
0
ARC
8
DEFAULT_255_1_234
10
23.8150016
20
195.9976722
40
0.2509385
50
353.0937916
51
0.1181479
0
ARC
8
DEFAULT_255_1_234
10
23.7688801
20
196.0024386
40
0.2970898
50
359.1805295
51
15.0453146
0
ARC
8
DEFAULT_255_1_234
10
23.9034638
20
196.0416992
40
0.1569564
50
13.9577229
51
77.6713066
0
ARC
8
DEFAULT_255_1_234
10
23.8648167
20
195.9031949
40
0.3006298
50
76.1116566
51
90.7026153
0
ARC
8
DEFAULT_255_1_234
10
23.8589006
20
195.9305545
40
0.2732568
50
89.5324876
51
103.531937
0
ARC
8
DEFAULT_255_1_234
10
23.838845
20
196.0104884
40
0.1908508
50
103.2931773
51
133.5619022
0
ARC
8
DEFAULT_255_1_234
10
23.8343938
20
196.0164375
40
0.1834746
50
133.8349307
51
173.5344437
0
ARC
8
DEFAULT_255_1_234
10
23.9066981
20
196.0036213
40
0.2568033
50
172.5096846
51
180.1366907
0
ARC
8
DEFAULT_255_1_234
10
23.8115875
20
196.0070622
40
0.3103056
50
155.3484492
51
180.7484736
0
ARC
8
DEFAULT_255_1_234
10
23.8066964
20
196.0041846
40
0.3070957
50
131.5744599
51
154.4798489
0
ARC
8
DEFAULT_255_1_234
10
23.8380112
20
195.972531
40
0.3515643
50
96.9875458
51
131.9690667
0
ARC
8
DEFAULT_255_1_234
10
23.8599591
20
195.8479636
40
0.4779224
50
89.8596053
51
97.7825159
0
ARC
8
DEFAULT_255_1_234
10
23.8647655
20
195.8217616
40
0.5041361
50
78.3655447
51
90.4131539
0
ARC
8
DEFAULT_255_1_234
10
23.9005573
20
195.9876887
40
0.3344039
50
56.6229102
51
78.638727
0
ARC
8
DEFAULT_255_1_234
10
23.9220516
20
196.0252805
40
0.2912001
50
47.0253525
51
56.0854072
0
ARC
8
DEFAULT_255_1_234
10
23.9240296
20
196.0292223
40
0.2869704
50
10.9208013
51
46.7778124
0
ARC
8
DEFAULT_255_1_234
10
23.7876363
20
195.9976857
40
0.426899
50
359.6364486
51
11.6087304
0
ARC
8
DEFAULT_255_1_234
10
23.9711207
20
195.9961752
40
0.243409
50
332.3549906
51
359.7179418
0
ARC
8
DEFAULT_255_1_234
10
23.9060808
20
196.0270142
40
0.3153459
50
325.2333722
51
332.8745602
0
ARC
8
DEFAULT_255_1_234
10
23.9213432
20
196.0163828
40
0.2967456
50
292.9802137
51
325.2392345
0
ARC
8
DEFAULT_255_1_234
10
23.8938806
20
196.0697863
40
0.3566604
50
292.5402179
51
293.6924929
0
ARC
8
DEFAULT_255_1_234
10
23.9331402
20
195.4243091
40
0.3307468
50
57.6435486
51
72.8625112
0
ARC
8
DEFAULT_255_1_234
10
23.9685901
20
195.4817549
40
0.2632492
50
36.7248896
51
57.4697979
0
ARC
8
DEFAULT_255_1_234
10
23.9674534
20
195.483022
40
0.2634081
50
8.0545065
51
36.356114
0
ARC
8
DEFAULT_255_1_234
10
23.8811719
20
195.4675174
40
0.3510261
50
359.8320645
51
8.5869982
0
ARC
8
DEFAULT_255_1_234
10
23.8436496
20
195.4627101
40
0.3885653
50
343.9829931
51
0.5571613
0
ARC
8
DEFAULT_255_1_234
10
23.9322693
20
195.4384438
40
0.2966924
50
311.6359546
51
343.7651759
0
ARC
8
DEFAULT_255_1_234
10
23.8944262
20
195.4811102
40
0.3537231
50
279.7829875
51
311.6255694
0
ARC
8
DEFAULT_255_1_234
10
23.8643038
20
195.624828
40
0.5004971
50
269.7286406
51
280.3856417
0
ARC
8
DEFAULT_255_1_234
10
23.8581111
20
195.6206996
40
0.4963778
50
256.6828919
51
270.4412052
0
ARC
8
DEFAULT_255_1_234
10
23.8242407
20
195.4822394
40
0.3538406
50
229.4223008
51
256.8556159
0
ARC
8
DEFAULT_255_1_234
10
23.7827799
20
195.4355736
40
0.2914296
50
181.818294
51
229.6455059
0
ARC
8
DEFAULT_255_1_234
10
23.8867756
20
195.4486496
40
0.3959084
50
179.9755256
51
183.2323064
0
ARC
8
DEFAULT_255_1_234
10
23.8695501
20
195.4466037
40
0.2293034
50
179.4465117
51
196.2869258
0
ARC
8
DEFAULT_255_1_234
10
23.8207909
20
195.4332651
40
0.1787621
50
196.5661473
51
227.705904
0
ARC
8
DEFAULT_255_1_234
10
23.8372004
20
195.4516155
40
0.2033784
50
227.7652068
51
257.8762805
0
ARC
8
DEFAULT_255_1_234
10
23.8596974
20
195.5459156
40
0.3003081
50
257.4584385
51
270.426602
0
ARC
8
DEFAULT_255_1_234
10
23.8642541
20
195.5748996
40
0.329292
50
269.5962073
51
280.8789248
0
ARC
8
DEFAULT_255_1_234
10
23.8872069
20
195.4602685
40
0.2123908
50
280.6346389
51
299.8595945
0
ARC
8
DEFAULT_255_1_234
10
23.9062976
20
195.4240212
40
0.171457
50
300.3576302
51
314.5517981
0
ARC
8
DEFAULT_255_1_234
10
23.8980036
20
195.4300919
40
0.1816095
50
315.0728369
51
345.0431014
0
ARC
8
DEFAULT_255_1_234
10
23.8056851
20
195.4569841
40
0.2777492
50
344.5986631
51
357.9269593
0
ARC
8
DEFAULT_255_1_234
10
23.7161177
20
195.4631276
40
0.3674917
50
357.4748886
51
0.0231117
0
ARC
8
DEFAULT_255_1_234
10
23.8184286
20
195.4655679
40
0.2651907
50
359.5047933
51
13.4239635
0
ARC
8
DEFAULT_255_1_234
10
23.905093
20
195.4877478
40
0.1757509
50
12.9498199
51
48.7551375
0
ARC
8
DEFAULT_255_1_234
10
23.8868664
20
195.46284
40
0.2065134
50
49.5088623
51
72.1836453
0
ARC
8
DEFAULT_255_1_234
10
23.8510816
20
195.3566291
40
0.3185836
50
71.9010081
51
84.3554254
0
ARC
8
DEFAULT_255_1_234
10
23.8349448
20
195.2205326
40
0.4556151
50
84.0193428
51
89.333121
0
LINE
8
DEFAULT_255_1_234
10
23.3197911
20
203.6987534
11
23.3197911
21
203.6248614
0
LINE
8
DEFAULT_255_1_234
10
22.3792745
20
203.6144201
11
22.3792745
21
203.6987534
0
LINE
8
DEFAULT_255_1_234
10
23.1663849
20
203.6136169
11
23.1663849
21
203.7003597
0
LINE
8
DEFAULT_255_1_234
10
22.5326807
20
203.710801
11
22.5326807
21
203.6248614
0
ARC
8
DEFAULT_255_1_234
10
22.4555937
20
203.6209015
40
0.8642064
50
350.487711
51
0.2625388
0
ARC
8
DEFAULT_255_1_234
10
22.6849178
20
203.5814578
40
0.631518
50
336.0277639
51
350.5787438
0
ARC
8
DEFAULT_255_1_234
10
22.8194002
20
203.5206892
40
0.4839466
50
319.8877444
51
336.1328423
0
ARC
8
DEFAULT_255_1_234
10
22.8796643
20
203.472458
40
0.4067874
50
302.4806467
51
319.6143626
0
ARC
8
DEFAULT_255_1_234
10
22.8681653
20
203.4946202
40
0.4316636
50
275.8195682
51
302.1884709
0
ARC
8
DEFAULT_255_1_234
10
22.8515286
20
203.6088665
40
0.5470306
50
269.9171439
51
276.3397983
0
ARC
8
DEFAULT_255_1_234
10
22.8470496
20
203.5402681
40
0.4784458
50
252.5219675
51
270.4416499
0
ARC
8
DEFAULT_255_1_234
10
22.8326755
20
203.4863592
40
0.422716
50
237.5352116
51
252.1857531
0
ARC
8
DEFAULT_255_1_234
10
22.8415951
20
203.4977363
40
0.4371052
50
209.063312
51
237.3492538
0
ARC
8
DEFAULT_255_1_234
10
22.9285799
20
203.5523685
40
0.5397041
50
205.1183774
51
209.6470015
0
ARC
8
DEFAULT_255_1_234
10
23.0082836
20
203.586183
40
0.6262326
50
188.7215458
51
204.8240747
0
ARC
8
DEFAULT_255_1_234
10
23.2080364
20
203.6198067
40
0.8287794
50
180.3723947
51
188.9252049
0
ARC
8
DEFAULT_255_1_234
10
23.2053116
20
203.7027402
40
0.8260467
50
169.5253763
51
180.2765336
0
ARC
8
DEFAULT_255_1_234
10
23.0150564
20
203.7377309
40
0.6326007
50
155.8315255
51
169.5089989
0
ARC
8
DEFAULT_255_1_234
10
22.8870066
20
203.7971348
40
0.4914567
50
139.6258461
51
156.0379525
0
ARC
8
DEFAULT_255_1_234
10
22.8280399
20
203.8445799
40
0.4158054
50
122.6416387
51
139.3430715
0
ARC
8
DEFAULT_255_1_234
10
22.8381019
20
203.8262451
40
0.4366739
50
93.0223692
51
122.455762
0
ARC
8
DEFAULT_255_1_234
10
22.8489016
20
203.7297709
40
0.5336137
50
89.975342
51
93.6341897
0
ARC
8
DEFAULT_255_1_234
10
22.8527795
20
203.7696242
40
0.4937738
50
73.746375
51
90.4233405
0
ARC
8
DEFAULT_255_1_234
10
22.8703373
20
203.8376287
40
0.4235786
50
57.662753
51
73.4518111
0
ARC
8
DEFAULT_255_1_234
10
22.869538
20
203.8397832
40
0.4221899
50
29.1440151
51
57.414694
0
ARC
8
DEFAULT_255_1_234
10
22.7760574
20
203.7814005
40
0.5322966
50
24.0982783
51
29.7323517
0
ARC
8
DEFAULT_255_1_234
10
22.672685
20
203.7385399
40
0.6441673
50
8.6655297
51
23.8241346
0
ARC
8
DEFAULT_255_1_234
10
22.4492588
20
203.7020854
40
0.8705386
50
359.7806941
51
8.8218784
0
ARC
8
DEFAULT_255_1_234
10
22.3345586
20
203.7046345
40
0.8318373
50
359.7055579
51
8.036044
0
ARC
8
DEFAULT_255_1_234
10
22.6345592
20
203.7483239
40
0.5286768
50
7.8928306
51
20.2962107
0
ARC
8
DEFAULT_255_1_234
10
22.7973162
20
203.8083395
40
0.3552073
50
20.3231126
51
36.4992797
0
ARC
8
DEFAULT_255_1_234
10
22.8658708
20
203.8611402
40
0.2686974
50
36.1437156
51
85.6627023
0
ARC
8
DEFAULT_255_1_234
10
22.8496254
20
203.7571221
40
0.373739
50
84.3852322
51
90.0757696
0
ARC
8
DEFAULT_255_1_234
10
22.8453927
20
203.8231839
40
0.3076997
50
89.3038458
51
109.9045693
0
ARC
8
DEFAULT_255_1_234
10
22.8361318
20
203.8614062
40
0.2686424
50
110.8228367
51
143.9179474
0
ARC
8
DEFAULT_255_1_234
10
22.9294978
20
203.7901236
40
0.3860887
50
143.5289163
51
163.2980757
0
ARC
8
DEFAULT_255_1_234
10
23.1202799
20
203.7301433
40
0.5860659
50
163.0418846
51
174.3140048
0
ARC
8
DEFAULT_255_1_234
10
23.3606911
20
203.7023854
40
0.8280531
50
174.0509143
51
179.4176892
0
ARC
8
DEFAULT_255_1_234
10
23.310265
20
203.6206954
40
0.7775954
50
179.6930361
51
188.7906598
0
ARC
8
DEFAULT_255_1_234
10
23.0439129
20
203.5780935
40
0.5078633
50
188.6331305
51
202.5629587
0
ARC
8
DEFAULT_255_1_234
10
22.9184721
20
203.5276996
40
0.3726913
50
202.8081362
51
216.1193925
0
ARC
8
DEFAULT_255_1_234
10
22.8375291
20
203.4625676
40
0.2689577
50
215.0755913
51
264.6379694
0
ARC
8
DEFAULT_255_1_234
10
22.850224
20
203.5456513
40
0.3528978
50
263.846392
51
270.0833719
0
ARC
8
DEFAULT_255_1_234
10
22.8543631
20
203.5198374
40
0.3271036
50
269.3649385
51
287.5152008
0
ARC
8
DEFAULT_255_1_234
10
22.8721788
20
203.4551238
40
0.2600406
50
288.0630309
51
323.8113348
0
ARC
8
DEFAULT_255_1_234
10
22.785063
20
203.5201049
40
0.3687189
50
323.6547608
51
342.6590488
0
ARC
8
DEFAULT_255_1_234
10
22.5819245
20
203.5861952
40
0.5823286
50
342.4091907
51
353.6451149
0
ARC
8
DEFAULT_255_1_234
10
22.2987756
20
203.621419
40
0.8676442
50
353.4029884
51
359.4847795
0
LINE
8
DEFAULT_255_1_234
10
24.2787806
20
203.1991792
11
24.2787806
21
203.0779
0
LINE
8
DEFAULT_255_1_234
10
24.2787806
20
203.0779
11
23.5125528
21
203.0779
0
LINE
8
DEFAULT_255_1_234
10
23.5125528
20
203.0779
11
23.5125528
21
203.1847221
0
LINE
8
DEFAULT_255_1_234
10
23.5125528
20
203.1847221
11
23.9173524
21
203.6344995
0
LINE
8
DEFAULT_255_1_234
10
23.6386511
20
203.9027595
11
23.4900639
21
203.9027595
0
LINE
8
DEFAULT_255_1_234
10
24.0048983
20
203.5389218
11
23.6916605
21
203.1991792
0
LINE
8
DEFAULT_255_1_234
10
23.6916605
20
203.1991792
11
24.2787806
21
203.1991792
0
ARC
8
DEFAULT_255_1_234
10
22.5683357
20
204.8274527
40
1.8008286
50
318.5132453
51
320.7828378
0
ARC
8
DEFAULT_255_1_234
10
23.0970332
20
204.3971426
40
1.1191493
50
320.7372736
51
323.9737074
0
ARC
8
DEFAULT_255_1_234
10
23.4890188
20
204.1131361
40
0.6350923
50
323.8961724
51
328.6421089
0
ARC
8
DEFAULT_255_1_234
10
23.6936783
20
203.9869031
40
0.3946393
50
328.8299013
51
331.789948
0
ARC
8
DEFAULT_255_1_234
10
23.7933962
20
203.9354509
40
0.2824501
50
331.4255242
51
352.9364833
0
ARC
8
DEFAULT_255_1_234
10
23.8070463
20
203.9323976
40
0.2685315
50
353.2248685
51
0.0169286
0
ARC
8
DEFAULT_255_1_234
10
23.8280339
20
203.934695
40
0.2475536
50
359.4866256
51
15.9339782
0
ARC
8
DEFAULT_255_1_234
10
23.8787325
20
203.9483286
40
0.1950618
50
16.1714718
51
43.5284424
0
ARC
8
DEFAULT_255_1_234
10
23.8864633
20
203.9560573
40
0.184134
50
43.4415429
51
83.1661404
0
ARC
8
DEFAULT_255_1_234
10
23.8730551
20
203.8823771
40
0.258926
50
82.160215
51
90.1505798
0
ARC
8
DEFAULT_255_1_234
10
23.8698979
20
203.8286865
40
0.3126255
50
89.5460705
51
102.5418777
0
ARC
8
DEFAULT_255_1_234
10
23.8456065
20
203.9317665
40
0.2067346
50
102.1739365
51
129.2061916
0
ARC
8
DEFAULT_255_1_234
10
23.8377137
20
203.9442094
40
0.1921118
50
129.7279328
51
135.7542026
0
ARC
8
DEFAULT_255_1_234
10
23.8498664
20
203.9345045
40
0.2075944
50
136.175737
51
166.3674722
0
ARC
8
DEFAULT_255_1_234
10
23.9505584
20
203.9075182
40
0.3118201
50
165.9092917
51
178.8683903
0
ARC
8
DEFAULT_255_1_234
10
24.0370445
20
203.9028179
40
0.3983935
50
178.438168
51
180.0083905
0
ARC
8
DEFAULT_255_1_234
10
23.8969047
20
203.9067231
40
0.4068601
50
163.2878735
51
180.5581814
0
ARC
8
DEFAULT_255_1_234
10
23.8167308
20
203.928784
40
0.3237344
50
133.454115
51
162.9470031
0
ARC
8
DEFAULT_255_1_234
10
23.834585
20
203.9098
40
0.349795
50
100.7869394
51
133.4384016
0
ARC
8
DEFAULT_255_1_234
10
23.8693621
20
203.7549319
40
0.5084616
50
89.6605301
51
101.3704185
0
ARC
8
DEFAULT_255_1_234
10
23.875996
20
203.7610496
40
0.502348
50
78.2171172
51
90.4130393
0
ARC
8
DEFAULT_255_1_234
10
23.9115038
20
203.9234637
40
0.3361092
50
55.9268222
51
78.4888551
0
ARC
8
DEFAULT_255_1_234
10
23.9311478
20
203.9573324
40
0.2970617
50
47.9292255
51
55.4054003
0
ARC
8
DEFAULT_255_1_234
10
23.9413039
20
203.9676502
40
0.2825983
50
4.3347696
51
48.0560701
0
ARC
8
DEFAULT_255_1_234
10
23.8317433
20
203.9506601
40
0.393225
50
359.925209
51
5.5967654
0
ARC
8
DEFAULT_255_1_234
10
23.8746325
20
203.9562816
40
0.3503892
50
337.8914096
51
358.9967724
0
ARC
8
DEFAULT_255_1_234
10
23.6032737
20
204.0609706
40
0.6412172
50
326.9135351
51
338.3505194
0
ARC
8
DEFAULT_255_1_234
10
23.204704
20
204.3164284
40
1.1146189
50
319.6472867
51
327.095818
0
ARC
8
DEFAULT_255_1_234
10
22.8214043
20
204.6326
40
1.6114559
50
317.2586784
51
319.9046139
0
LINE
8
DEFAULT_255_1_234
10
23.3279911
20
211.6362534
11
23.3279911
21
211.5623614
0
LINE
8
DEFAULT_255_1_234
10
22.3874745
20
211.5519201
11
22.3874745
21
211.6362534
0
LINE
8
DEFAULT_255_1_234
10
23.1745849
20
211.5511169
11
23.1745849
21
211.6378597
0
LINE
8
DEFAULT_255_1_234
10
22.5408807
20
211.648301
11
22.5408807
21
211.5623614
0
ARC
8
DEFAULT_255_1_234
10
22.4637937
20
211.5584015
40
0.8642064
50
350.487711
51
0.2625388
0
ARC
8
DEFAULT_255_1_234
10
22.6931178
20
211.5189578
40
0.631518
50
336.0277639
51
350.5787438
0
ARC
8
DEFAULT_255_1_234
10
22.8276002
20
211.4581892
40
0.4839466
50
319.8877444
51
336.1328423
0
ARC
8
DEFAULT_255_1_234
10
22.8878643
20
211.409958
40
0.4067874
50
302.4806467
51
319.6143626
0
ARC
8
DEFAULT_255_1_234
10
22.8763653
20
211.4321202
40
0.4316636
50
275.8195682
51
302.1884709
0
ARC
8
DEFAULT_255_1_234
10
22.8597286
20
211.5463665
40
0.5470306
50
269.9171439
51
276.3397983
0
ARC
8
DEFAULT_255_1_234
10
22.8552496
20
211.4777681
40
0.4784458
50
252.5219675
51
270.4416499
0
ARC
8
DEFAULT_255_1_234
10
22.8408755
20
211.4238592
40
0.422716
50
237.5352116
51
252.1857531
0
ARC
8
DEFAULT_255_1_234
10
22.8497951
20
211.4352363
40
0.4371052
50
209.063312
51
237.3492538
0
ARC
8
DEFAULT_255_1_234
10
22.9367799
20
211.4898685
40
0.5397041
50
205.1183774
51
209.6470015
0
ARC
8
DEFAULT_255_1_234
10
23.0164836
20
211.523683
40
0.6262326
50
188.7215458
51
204.8240747
0
ARC
8
DEFAULT_255_1_234
10
23.2162364
20
211.5573067
40
0.8287794
50
180.3723947
51
188.9252049
0
ARC
8
DEFAULT_255_1_234
10
23.2135116
20
211.6402402
40
0.8260467
50
169.5253763
51
180.2765336
0
ARC
8
DEFAULT_255_1_234
10
23.0232564
20
211.6752309
40
0.6326007
50
155.8315255
51
169.5089989
0
ARC
8
DEFAULT_255_1_234
10
22.8952066
20
211.7346348
40
0.4914567
50
139.6258461
51
156.0379525
0
ARC
8
DEFAULT_255_1_234
10
22.8362399
20
211.7820799
40
0.4158054
50
122.6416387
51
139.3430715
0
ARC
8
DEFAULT_255_1_234
10
22.8463019
20
211.7637451
40
0.4366739
50
93.0223692
51
122.455762
0
ARC
8
DEFAULT_255_1_234
10
22.8571016
20
211.6672709
40
0.5336137
50
89.975342
51
93.6341897
0
ARC
8
DEFAULT_255_1_234
10
22.8609795
20
211.7071242
40
0.4937738
50
73.746375
51
90.4233405
0
ARC
8
DEFAULT_255_1_234
10
22.8785373
20
211.7751287
40
0.4235786
50
57.662753
51
73.4518111
0
ARC
8
DEFAULT_255_1_234
10
22.877738
20
211.7772832
40
0.4221899
50
29.1440151
51
57.414694
0
ARC
8
DEFAULT_255_1_234
10
22.7842574
20
211.7189005
40
0.5322966
50
24.0982783
51
29.7323517
0
ARC
8
DEFAULT_255_1_234
10
22.680885
20
211.6760399
40
0.6441673
50
8.6655297
51
23.8241346
0
ARC
8
DEFAULT_255_1_234
10
22.4574588
20
211.6395854
40
0.8705386
50
359.7806941
51
8.8218784
0
ARC
8
DEFAULT_255_1_234
10
22.3427586
20
211.6421345
40
0.8318373
50
359.7055579
51
8.036044
0
ARC
8
DEFAULT_255_1_234
10
22.6427592
20
211.6858239
40
0.5286768
50
7.8928306
51
20.2962107
0
ARC
8
DEFAULT_255_1_234
10
22.8055162
20
211.7458395
40
0.3552073
50
20.3231126
51
36.4992797
0
ARC
8
DEFAULT_255_1_234
10
22.8740708
20
211.7986402
40
0.2686974
50
36.1437156
51
85.6627023
0
ARC
8
DEFAULT_255_1_234
10
22.8578254
20
211.6946221
40
0.373739
50
84.3852322
51
90.0757696
0
ARC
8
DEFAULT_255_1_234
10
22.8535927
20
211.7606839
40
0.3076997
50
89.3038458
51
109.9045693
0
ARC
8
DEFAULT_255_1_234
10
22.8443318
20
211.7989062
40
0.2686424
50
110.8228367
51
143.9179474
0
ARC
8
DEFAULT_255_1_234
10
22.9376978
20
211.7276236
40
0.3860887
50
143.5289163
51
163.2980757
0
ARC
8
DEFAULT_255_1_234
10
23.1284799
20
211.6676433
40
0.5860659
50
163.0418846
51
174.3140048
0
ARC
8
DEFAULT_255_1_234
10
23.3688911
20
211.6398854
40
0.8280531
50
174.0509143
51
179.4176892
0
ARC
8
DEFAULT_255_1_234
10
23.318465
20
211.5581954
40
0.7775954
50
179.6930361
51
188.7906598
0
ARC
8
DEFAULT_255_1_234
10
23.0521129
20
211.5155935
40
0.5078633
50
188.6331305
51
202.5629587
0
ARC
8
DEFAULT_255_1_234
10
22.9266721
20
211.4651996
40
0.3726913
50
202.8081362
51
216.1193925
0
ARC
8
DEFAULT_255_1_234
10
22.8457291
20
211.4000676
40
0.2689577
50
215.0755913
51
264.6379694
0
ARC
8
DEFAULT_255_1_234
10
22.858424
20
211.4831513
40
0.3528978
50
263.846392
51
270.0833719
0
ARC
8
DEFAULT_255_1_234
10
22.8625631
20
211.4573374
40
0.3271036
50
269.3649385
51
287.5152008
0
ARC
8
DEFAULT_255_1_234
10
22.8803788
20
211.3926238
40
0.2600406
50
288.0630309
51
323.8113348
0
ARC
8
DEFAULT_255_1_234
10
22.793263
20
211.4576049
40
0.3687189
50
323.6547608
51
342.6590488
0
ARC
8
DEFAULT_255_1_234
10
22.5901245
20
211.5236952
40
0.5823286
50
342.4091907
51
353.6451149
0
ARC
8
DEFAULT_255_1_234
10
22.3069756
20
211.558919
40
0.8676442
50
353.4029884
51
359.4847795
0
LINE
8
DEFAULT_255_1_234
10
24.0090825
20
212.1904433
11
24.0090825
21
211.0154
0
LINE
8
DEFAULT_255_1_234
10
24.0090825
20
211.0154
11
23.8596921
21
211.0154
0
LINE
8
DEFAULT_255_1_234
10
23.8596921
20
211.0154
11
23.8596921
21
212.0057133
0
LINE
8
DEFAULT_255_1_234
10
23.8596921
20
212.0057133
11
23.5601083
21
211.8956785
0
LINE
8
DEFAULT_255_1_234
10
23.5601083
20
211.8956785
11
23.5601083
21
212.0306117
0
LINE
8
DEFAULT_255_1_234
10
23.5601083
20
212.0306117
11
23.9857904
21
212.1904433
0
LINE
8
DEFAULT_255_1_234
10
23.9857904
20
212.1904433
11
24.0090825
21
212.1904433
0
LINE
8
DEFAULT_255_1_234
10
23.3197911
20
219.5737534
11
23.3197911
21
219.4998614
0
LINE
8
DEFAULT_255_1_234
10
22.3792745
20
219.4894201
11
22.3792745
21
219.5737534
0
LINE
8
DEFAULT_255_1_234
10
23.1663849
20
219.4886169
11
23.1663849
21
219.5753597
0
LINE
8
DEFAULT_255_1_234
10
22.5326807
20
219.585801
11
22.5326807
21
219.4998614
0
ARC
8
DEFAULT_255_1_234
10
22.4555937
20
219.4959015
40
0.8642064
50
350.487711
51
0.2625388
0
ARC
8
DEFAULT_255_1_234
10
22.6849178
20
219.4564578
40
0.631518
50
336.0277639
51
350.5787438
0
ARC
8
DEFAULT_255_1_234
10
22.8194002
20
219.3956892
40
0.4839466
50
319.8877444
51
336.1328423
0
ARC
8
DEFAULT_255_1_234
10
22.8796643
20
219.347458
40
0.4067874
50
302.4806467
51
319.6143626
0
ARC
8
DEFAULT_255_1_234
10
22.8681653
20
219.3696202
40
0.4316636
50
275.8195682
51
302.1884709
0
ARC
8
DEFAULT_255_1_234
10
22.8515286
20
219.4838665
40
0.5470306
50
269.9171439
51
276.3397983
0
ARC
8
DEFAULT_255_1_234
10
22.8470496
20
219.4152681
40
0.4784458
50
252.5219675
51
270.4416499
0
ARC
8
DEFAULT_255_1_234
10
22.8326755
20
219.3613592
40
0.422716
50
237.5352116
51
252.1857531
0
ARC
8
DEFAULT_255_1_234
10
22.8415951
20
219.3727363
40
0.4371052
50
209.063312
51
237.3492538
0
ARC
8
DEFAULT_255_1_234
10
22.9285799
20
219.4273685
40
0.5397041
50
205.1183774
51
209.6470015
0
ARC
8
DEFAULT_255_1_234
10
23.0082836
20
219.461183
40
0.6262326
50
188.7215458
51
204.8240747
0
ARC
8
DEFAULT_255_1_234
10
23.2080364
20
219.4948067
40
0.8287794
50
180.3723947
51
188.9252049
0
ARC
8
DEFAULT_255_1_234
10
23.2053116
20
219.5777402
40
0.8260467
50
169.5253763
51
180.2765336
0
ARC
8
DEFAULT_255_1_234
10
23.0150564
20
219.6127309
40
0.6326007
50
155.8315255
51
169.5089989
0
ARC
8
DEFAULT_255_1_234
10
22.8870066
20
219.6721348
40
0.4914567
50
139.6258461
51
156.0379525
0
ARC
8
DEFAULT_255_1_234
10
22.8280399
20
219.7195799
40
0.4158054
50
122.6416387
51
139.3430715
0
ARC
8
DEFAULT_255_1_234
10
22.8381019
20
219.7012451
40
0.4366739
50
93.0223692
51
122.455762
0
ARC
8
DEFAULT_255_1_234
10
22.8489016
20
219.6047709
40
0.5336137
50
89.975342
51
93.6341897
0
ARC
8
DEFAULT_255_1_234
10
22.8527795
20
219.6446242
40
0.4937738
50
73.746375
51
90.4233405
0
ARC
8
DEFAULT_255_1_234
10
22.8703373
20
219.7126287
40
0.4235786
50
57.662753
51
73.4518111
0
ARC
8
DEFAULT_255_1_234
10
22.869538
20
219.7147832
40
0.4221899
50
29.1440151
51
57.414694
0
ARC
8
DEFAULT_255_1_234
10
22.7760574
20
219.6564005
40
0.5322966
50
24.0982783
51
29.7323517
0
ARC
8
DEFAULT_255_1_234
10
22.672685
20
219.6135399
40
0.6441673
50
8.6655297
51
23.8241346
0
ARC
8
DEFAULT_255_1_234
10
22.4492588
20
219.5770854
40
0.8705386
50
359.7806941
51
8.8218784
0
ARC
8
DEFAULT_255_1_234
10
22.3345586
20
219.5796345
40
0.8318373
50
359.7055579
51
8.036044
0
ARC
8
DEFAULT_255_1_234
10
22.6345592
20
219.6233239
40
0.5286768
50
7.8928306
51
20.2962107
0
ARC
8
DEFAULT_255_1_234
10
22.7973162
20
219.6833395
40
0.3552073
50
20.3231126
51
36.4992797
0
ARC
8
DEFAULT_255_1_234
10
22.8658708
20
219.7361402
40
0.2686974
50
36.1437156
51
85.6627023
0
ARC
8
DEFAULT_255_1_234
10
22.8496254
20
219.6321221
40
0.373739
50
84.3852322
51
90.0757696
0
ARC
8
DEFAULT_255_1_234
10
22.8453927
20
219.6981839
40
0.3076997
50
89.3038458
51
109.9045693
0
ARC
8
DEFAULT_255_1_234
10
22.8361318
20
219.7364062
40
0.2686424
50
110.8228367
51
143.9179474
0
ARC
8
DEFAULT_255_1_234
10
22.9294978
20
219.6651236
40
0.3860887
50
143.5289163
51
163.2980757
0
ARC
8
DEFAULT_255_1_234
10
23.1202799
20
219.6051433
40
0.5860659
50
163.0418846
51
174.3140048
0
ARC
8
DEFAULT_255_1_234
10
23.3606911
20
219.5773854
40
0.8280531
50
174.0509143
51
179.4176892
0
ARC
8
DEFAULT_255_1_234
10
23.310265
20
219.4956954
40
0.7775954
50
179.6930361
51
188.7906598
0
ARC
8
DEFAULT_255_1_234
10
23.0439129
20
219.4530935
40
0.5078633
50
188.6331305
51
202.5629587
0
ARC
8
DEFAULT_255_1_234
10
22.9184721
20
219.4026996
40
0.3726913
50
202.8081362
51
216.1193925
0
ARC
8
DEFAULT_255_1_234
10
22.8375291
20
219.3375676
40
0.2689577
50
215.0755913
51
264.6379694
0
ARC
8
DEFAULT_255_1_234
10
22.850224
20
219.4206513
40
0.3528978
50
263.846392
51
270.0833719
0
ARC
8
DEFAULT_255_1_234
10
22.8543631
20
219.3948374
40
0.3271036
50
269.3649385
51
287.5152008
0
ARC
8
DEFAULT_255_1_234
10
22.8721788
20
219.3301238
40
0.2600406
50
288.0630309
51
323.8113348
0
ARC
8
DEFAULT_255_1_234
10
22.785063
20
219.3951049
40
0.3687189
50
323.6547608
51
342.6590488
0
ARC
8
DEFAULT_255_1_234
10
22.5819245
20
219.4611952
40
0.5823286
50
342.4091907
51
353.6451149
0
ARC
8
DEFAULT_255_1_234
10
22.2987756
20
219.496419
40
0.8676442
50
353.4029884
51
359.4847795
0
LINE
8
DEFAULT_255_1_234
10
24.2458505
20
219.6444327
11
24.2458505
21
219.4516709
0
LINE
8
DEFAULT_255_1_234
10
23.5077337
20
219.4315916
11
23.5077337
21
219.6299755
0
LINE
8
DEFAULT_255_1_234
10
24.0972633
20
219.4115123
11
24.0972633
21
219.6548739
0
LINE
8
DEFAULT_255_1_234
10
23.6563209
20
219.6661184
11
23.6563209
21
219.4283789
0
ARC
8
DEFAULT_255_1_234
10
23.0211394
20
219.4467805
40
1.2247208
50
353.8441951
51
0.2287902
0
ARC
8
DEFAULT_255_1_234
10
23.4850898
20
219.3949806
40
0.7578929
50
344.4934747
51
353.9765454
0
ARC
8
DEFAULT_255_1_234
10
23.7843488
20
219.3098981
40
0.4467846
50
329.2803592
51
344.7472793
0
ARC
8
DEFAULT_255_1_234
10
23.8836313
20
219.2554018
40
0.3336173
50
324.9352394
51
328.6160465
0
ARC
8
DEFAULT_255_1_234
10
23.9213422
20
219.2290427
40
0.2876076
50
280.580143
51
324.9173126
0
ARC
8
DEFAULT_255_1_234
10
23.8812214
20
219.3961099
40
0.4592847
50
269.5977311
51
281.6734359
0
ARC
8
DEFAULT_255_1_234
10
23.874012
20
219.3841173
40
0.4472986
50
256.6228859
51
270.51044
0
ARC
8
DEFAULT_255_1_234
10
23.8338098
20
219.2292877
40
0.2873874
50
215.8618325
51
257.2788573
0
ARC
8
DEFAULT_255_1_234
10
23.935913
20
219.2977977
40
0.4102928
50
197.9693508
51
215.2623606
0
ARC
8
DEFAULT_255_1_234
10
24.1844245
20
219.3816709
40
0.6725652
50
187.8816417
51
198.2346507
0
ARC
8
DEFAULT_255_1_234
10
24.5802453
20
219.4388079
40
1.0724845
50
180.8976217
51
188.0055519
0
ARC
8
DEFAULT_255_1_234
10
24.8602642
20
219.4491777
40
1.3526448
50
180.7449369
51
181.1510016
0
ARC
8
DEFAULT_255_1_234
10
24.7025371
20
219.6348042
40
1.1948131
50
173.7675579
51
180.231553
0
ARC
8
DEFAULT_255_1_234
10
24.2507517
20
219.6858666
40
0.7401564
50
164.3058563
51
173.9002247
0
ARC
8
DEFAULT_255_1_234
10
23.9595586
20
219.7697656
40
0.4371288
50
148.7922025
51
164.568378
0
ARC
8
DEFAULT_255_1_234
10
23.8644038
20
219.8228929
40
0.3282386
50
144.5883898
51
148.1176286
0
ARC
8
DEFAULT_255_1_234
10
23.8300936
20
219.8468315
40
0.2864044
50
101.6440918
51
144.514236
0
ARC
8
DEFAULT_255_1_234
10
23.8726003
20
219.6779069
40
0.4604934
50
89.5284041
51
102.5819763
0
ARC
8
DEFAULT_255_1_234
10
23.8805091
20
219.6740018
40
0.464401
50
77.0437873
51
90.5081339
0
ARC
8
DEFAULT_255_1_234
10
23.9207092
20
219.8382615
40
0.2953195
50
48.2778575
51
77.4994676
0
ARC
8
DEFAULT_255_1_234
10
23.9279724
20
219.8511746
40
0.2808655
50
36.3142134
51
47.6305865
0
ARC
8
DEFAULT_255_1_234
10
23.8411031
20
219.7926515
40
0.3855453
50
18.2931786
51
35.6769206
0
ARC
8
DEFAULT_255_1_234
10
23.5867789
20
219.7053593
40
0.654423
50
8.024666
51
18.5605216
0
ARC
8
DEFAULT_255_1_234
10
23.170471
20
219.6438792
40
1.0752407
50
1.1274072
51
8.1718305
0
ARC
8
DEFAULT_255_1_234
10
22.84689
20
219.6311885
40
1.3990231
50
0.5424119
51
1.3863029
0
ARC
8
DEFAULT_255_1_234
10
23.0290278
20
219.6584342
40
1.0682415
50
359.8090433
51
4.9407866
0
ARC
8
DEFAULT_255_1_234
10
23.4500292
20
219.6960113
40
0.6455691
50
4.8362157
51
12.2904523
0
ARC
8
DEFAULT_255_1_234
10
23.7255407
20
219.7573965
40
0.3633074
50
12.0805627
51
23.8173984
0
ARC
8
DEFAULT_255_1_234
10
23.8429112
20
219.8070919
40
0.2358723
50
24.2871213
51
31.3935614
0
ARC
8
DEFAULT_255_1_234
10
23.8953809
20
219.8414233
40
0.1732111
50
30.7407893
51
82.4657128
0
ARC
8
DEFAULT_255_1_234
10
23.8773944
20
219.7530691
40
0.263235
50
81.1060089
51
90.2184952
0
ARC
8
DEFAULT_255_1_234
10
23.8738242
20
219.7788924
40
0.2374236
50
89.3806855
51
105.6762551
0
ARC
8
DEFAULT_255_1_234
10
23.8554873
20
219.8455567
40
0.1682847
50
105.7981136
51
149.7388061
0
ARC
8
DEFAULT_255_1_234
10
23.9618951
20
219.781595
40
0.2924306
50
149.4208916
51
163.6286378
0
ARC
8
DEFAULT_255_1_234
10
24.1709839
20
219.717825
40
0.5110213
50
163.3763315
51
172.1410975
0
ARC
8
DEFAULT_255_1_234
10
24.5010558
20
219.6705518
40
0.8444586
50
172.0259487
51
178.0703232
0
ARC
8
DEFAULT_255_1_234
10
24.8040648
20
219.6561906
40
1.1477868
50
177.8631668
51
179.5044149
0
ARC
8
DEFAULT_255_1_234
10
24.6968052
20
219.4247389
40
1.0404907
50
179.7995573
51
185.2460446
0
ARC
8
DEFAULT_255_1_234
10
24.2925092
20
219.3864513
40
0.6343885
50
185.1411642
51
193.0079639
0
ARC
8
DEFAULT_255_1_234
10
24.0281564
20
219.3239641
40
0.3627568
50
192.7897626
51
205.2507664
0
ARC
8
DEFAULT_255_1_234
10
23.9235111
20
219.2772415
40
0.2481908
50
205.8005384
51
211.2537509
0
ARC
8
DEFAULT_255_1_234
10
23.8711552
20
219.242158
40
0.1852521
50
210.3789793
51
238.4008143
0
ARC
8
DEFAULT_255_1_234
10
23.8692074
20
219.2468376
40
0.1882621
50
239.6520629
51
265.9793761
0
ARC
8
DEFAULT_255_1_234
10
23.8777274
20
219.3140427
40
0.2559272
50
265.1315437
51
270.060332
0
ARC
8
DEFAULT_255_1_234
10
23.8806053
20
219.2816534
40
0.2235528
50
269.3314664
51
287.2178029
0
ARC
8
DEFAULT_255_1_234
10
23.8943905
20
219.2313279
40
0.1714108
50
287.7958004
51
329.080874
0
ARC
8
DEFAULT_255_1_234
10
23.7986361
20
219.291093
40
0.2842745
50
328.6634704
51
343.3325132
0
ARC
8
DEFAULT_255_1_234
10
23.5813381
20
219.3587863
40
0.5118644
50
343.0499468
51
351.9393422
0
ARC
8
DEFAULT_255_1_234
10
23.2346681
20
219.4098949
40
0.8622784
50
351.8069023
51
357.7959224
0
ARC
8
DEFAULT_255_1_234
10
22.9111237
20
219.4266721
40
1.1862365
50
357.5871873
51
359.2677531
0
ENDSEC
0
EOF