0
SECTION
2
HEADER
9
$MEASUREMENT
70
1
0
ENDSEC
0
SECTION
2
TABLES
0
TABLE
2
LTYPE
0
LTYPE
72
65
70
64
2
CONTINUOUS
3
______
73
0
40
0
0
ENDTAB
0
TABLE
2
LAYER
0
LAYER
2
DEFAULT_255_2_778
70
0
62
255
6
CONTINUOUS
0
LAYER
2
DEFAULT_255_2_778_8
70
0
62
255
6
CONTINUOUS
0
ENDTAB
0
ENDSEC
0
SECTION
2
ENTITIES
0
ARC
8
DEFAULT_255_2_778
10
23.9550106
20
3.1186496
40
0.700044
50
359.9973527
51
45.0071591
0
ARC
8
DEFAULT_255_2_778
10
23.9549488
20
3.1185814
40
0.7001358
50
45.0075302
51
89.9995327
0
ARC
8
DEFAULT_255_2_778
10
4.3551602
20
3.1185816
40
0.7001357
50
90.000465
51
134.9924764
0
ARC
8
DEFAULT_255_2_778
10
4.355097
20
3.1186501
40
0.7000425
50
134.992783
51
180.0026882
0
LINE
8
DEFAULT_255_2_778
10
23.9549545
20
3.8187173
11
4.3551545
21
3.8187173
0
LINE
8
DEFAULT_255_2_778
10
3.6550545
20
3.1186173
11
3.6550545
21
-0.0811827
0
LINE
8
DEFAULT_255_2_778
10
3.6550545
20
-0.0811827
11
24.6550545
21
-0.0811827
0
LINE
8
DEFAULT_255_2_778
10
24.6550545
20
-0.0811827
11
24.6550545
21
3.1186173
0
LINE
8
DEFAULT_255_2_778
10
0.4586545
20
80.3188173
11
0.2736545
21
80.4606173
0
LINE
8
DEFAULT_255_2_778
10
0.2736545
20
80.4606173
11
0.2657545
21
80.5050173
0
LINE
8
DEFAULT_255_2_778
10
0.2657545
20
80.5050173
11
0.2678545
21
105.3346173
0
LINE
8
DEFAULT_255_2_778
10
0.2678545
20
105.3346173
11
0.2808545
21
105.4126173
0
LINE
8
DEFAULT_255_2_778
10
0.2808545
20
105.4126173
11
0.2998545
21
105.4745173
0
LINE
8
DEFAULT_255_2_778
10
0.2998545
20
105.4745173
11
0.3027545
21
105.4806173
0
LINE
8
DEFAULT_255_2_778
10
0.3027545
20
105.4806173
11
0.3027545
21
105.4835173
0
LINE
8
DEFAULT_255_2_778
10
0.3027545
20
105.4835173
11
0.3718545
21
105.6113173
0
LINE
8
DEFAULT_255_2_778
10
0.3718545
20
105.6113173
11
0.5427545
21
105.7693173
0
LINE
8
DEFAULT_255_2_778
10
0.5427545
20
105.7693173
11
0.5657545
21
105.7812173
0
ARC
8
DEFAULT_255_2_778
10
27.555931
20
105.3195064
40
0.4992122
50
67.8018385
51
89.9417057
0
ARC
8
DEFAULT_255_2_778
10
0.754423
20
105.3191191
40
0.4995996
50
90.0669783
51
112.1894622
0
LINE
8
DEFAULT_255_2_778
10
27.5564389
20
105.8187184
11
0.7538389
21
105.8187184
0
LINE
8
DEFAULT_255_2_778
10
28.0448389
20
80.5190184
11
28.0427389
21
80.4891184
0
LINE
8
DEFAULT_255_2_778
10
28.0427389
20
80.4891184
11
28.0147389
21
80.4116184
0
LINE
8
DEFAULT_255_2_778
10
28.0147389
20
80.4116184
11
27.9247389
21
80.3338184
0
LINE
8
DEFAULT_255_2_778
10
27.9247389
20
80.3338184
11
27.8546389
21
80.3187184
0
LINE
8
DEFAULT_255_2_778
10
27.8546389
20
80.3187184
11
0.4591389
21
80.3187184
0
LINE
8
DEFAULT_255_2_778
10
1.1052389
20
80.3187184
11
1.1052389
21
80.1187184
0
LINE
8
DEFAULT_255_2_778
10
27.744849
20
105.781408
11
27.877949
21
105.682408
0
LINE
8
DEFAULT_255_2_778
10
27.877949
20
105.682408
11
27.959949
21
105.579508
0
LINE
8
DEFAULT_255_2_778
10
27.959949
20
105.579508
11
28.034049
21
105.393508
0
LINE
8
DEFAULT_255_2_778
10
28.034049
20
105.393508
11
28.044049
21
105.320508
0
LINE
8
DEFAULT_255_2_778
10
28.044049
20
105.320508
11
28.045149
21
105.284508
0
LINE
8
DEFAULT_255_2_778
10
28.044649
20
105.284508
11
28.044649
21
80.519008
0
ARC
8
DEFAULT_255_2_778
10
0.7552544
20
105.3186906
40
0.5000718
50
112.7485753
51
180.0032678
0
ARC
8
DEFAULT_255_2_778
10
0.7552584
20
0.3188378
40
0.5000758
50
180.008676
51
270.0027763
0
ARC
8
DEFAULT_255_2_778
10
27.5551284
20
0.3188163
40
0.5000542
50
270.0062229
51
359.9937886
0
ARC
8
DEFAULT_255_2_778
10
27.5550472
20
105.3186901
40
0.5001355
50
359.9967892
51
67.2341535
0
LINE
8
DEFAULT_255_2_778
10
0.2551827
20
105.3186621
11
0.2551827
21
0.3187621
0
LINE
8
DEFAULT_255_2_778
10
0.7552827
20
-0.1812379
11
27.5551827
21
-0.1812379
0
LINE
8
DEFAULT_255_2_778
10
28.0551827
20
0.3187621
11
28.0551827
21
105.3186621
0
LINE
8
DEFAULT_255_2_778_8
10
0.2552
20
-0.1812688
11
0.2552
21
0.3188312
0
LINE
8
DEFAULT_255_2_778
10
27.0551657
20
103.4182
11
27.0551657
21
105.0184
0
LINE
8
DEFAULT_255_2_778
10
27.0551657
20
105.0184
11
21.7552657
21
105.0184
0
LINE
8
DEFAULT_255_2_778
10
21.7552657
20
105.0184
11
21.7552657
21
103.4182
0
LINE
8
DEFAULT_255_2_778
10
21.7552657
20
103.4182
11
27.0551657
21
103.4182
0
LINE
8
DEFAULT_255_2_778
10
26.7552827
20
104.7180851
11
26.7552827
21
103.7181851
0
LINE
8
DEFAULT_255_2_778
10
26.7552827
20
103.7181851
11
22.0554827
21
103.7181851
0
LINE
8
DEFAULT_255_2_778
10
22.0554827
20
103.7181851
11
22.0554827
21
104.7180851
0
LINE
8
DEFAULT_255_2_778
10
22.0554827
20
104.7180851
11
26.7552827
21
104.7180851
0
LINE
8
DEFAULT_255_2_778
10
14.1550827
20
80.2528851
11
14.1550827
21
80.3187851
0
LINE
8
DEFAULT_255_2_778
10
0.2551827
20
80.1186851
11
28.0551827
21
80.1186851
0
LINE
8
DEFAULT_255_2_778
10
27.205143
20
80.3187414
11
27.205143
21
80.1187414
0
LINE
8
DEFAULT_255_2_778
10
22.155343
20
80.1187414
11
22.155343
21
80.3187414
0
LINE
8
DEFAULT_255_2_778
10
25.305143
20
99.2682414
11
25.305143
21
99.0684414
0
LINE
8
DEFAULT_255_2_778
10
25.305143
20
99.0684414
11
3.005043
21
99.0684414
0
LINE
8
DEFAULT_255_2_778
10
3.005043
20
99.0684414
11
3.005043
21
99.2682414
0
LINE
8
DEFAULT_255_2_778
10
3.005043
20
99.2682414
11
25.305143
21
99.2682414
0
LINE
8
DEFAULT_255_2_778
10
25.305143
20
91.4685414
11
25.305143
21
91.2688414
0
LINE
8
DEFAULT_255_2_778
10
25.305143
20
91.2688414
11
3.005043
21
91.2688414
0
LINE
8
DEFAULT_255_2_778
10
3.005043
20
91.2688414
11
3.005043
21
91.4685414
0
LINE
8
DEFAULT_255_2_778
10
3.005043
20
91.4685414
11
25.305143
21
91.4685414
0
LINE
8
DEFAULT_255_2_778
10
6.343543
20
83.6390414
11
6.585143
21
82.7272414
0
LINE
8
DEFAULT_255_2_778
10
6.585143
20
82.7272414
11
6.587743
21
82.7272414
0
LINE
8
DEFAULT_255_2_778
10
6.587743
20
82.7272414
11
6.826443
21
83.6390414
0
LINE
8
DEFAULT_255_2_778
10
6.826443
20
83.6390414
11
7.014043
21
83.6390414
0
LINE
8
DEFAULT_255_2_778
10
7.014043
20
83.6390414
11
6.697043
21
82.4777414
0
LINE
8
DEFAULT_255_2_778
10
6.697043
20
82.4777414
11
6.464743
21
82.4777414
0
LINE
8
DEFAULT_255_2_778
10
6.464743
20
82.4777414
11
6.140843
21
83.6390414
0
LINE
8
DEFAULT_255_2_778
10
6.140843
20
83.6390414
11
6.343243
21
83.6390414
0
LINE
8
DEFAULT_255_2_778
10
5.924143
20
83.6390414
11
5.924143
21
82.8921414
0
LINE
8
DEFAULT_255_2_778
10
5.924143
20
82.8921414
11
6.044043
21
82.8921414
0
LINE
8
DEFAULT_255_2_778
10
6.044043
20
82.8921414
11
6.044043
21
82.7190414
0
LINE
8
DEFAULT_255_2_778
10
6.044043
20
82.7190414
11
5.924143
21
82.7190414
0
LINE
8
DEFAULT_255_2_778
10
5.924143
20
82.7190414
11
5.924143
21
82.4777414
0
LINE
8
DEFAULT_255_2_778
10
5.924143
20
82.4777414
11
5.743443
21
82.4777414
0
LINE
8
DEFAULT_255_2_778
10
5.743443
20
82.4777414
11
5.743443
21
82.7190414
0
LINE
8
DEFAULT_255_2_778
10
5.743443
20
82.7190414
11
5.337043
21
82.7190414
0
LINE
8
DEFAULT_255_2_778
10
5.337043
20
82.7190414
11
5.337043
21
82.9072414
0
LINE
8
DEFAULT_255_2_778
10
5.337043
20
82.9072414
11
5.689243
21
83.6393414
0
LINE
8
DEFAULT_255_2_778
10
5.689243
20
83.6393414
11
5.924143
21
83.6390414
0
LINE
8
DEFAULT_255_2_778
10
5.743443
20
82.8921414
11
5.743443
21
83.4022414
0
LINE
8
DEFAULT_255_2_778
10
5.743443
20
83.4022414
11
5.507243
21
82.8921414
0
LINE
8
DEFAULT_255_2_778
10
5.507243
20
82.8921414
11
5.743443
21
82.8921414
0
ARC
8
DEFAULT_255_2_778
10
7.5205926
20
82.8789477
40
0.2133645
50
270.01745
51
281.4560836
0
ARC
8
DEFAULT_255_2_778
10
7.5133429
20
82.8996411
40
0.2351044
50
282.1860372
51
324.4071867
0
ARC
8
DEFAULT_255_2_778
10
7.4021724
20
82.9813945
40
0.3730917
50
324.1344158
51
346.8592852
0
ARC
8
DEFAULT_255_2_778
10
7.1246515
20
83.0506029
40
0.6590938
50
346.4851647
51
0.6426124
0
ARC
8
DEFAULT_255_2_778
10
6.8530093
20
83.0575206
40
0.9306947
50
0.0292021
51
2.6991316
0
ARC
8
DEFAULT_255_2_778
10
6.7704835
20
83.0540868
40
1.0132909
50
2.673332
51
3.5247231
0
ARC
8
DEFAULT_255_2_778
10
6.9980833
20
83.0324401
40
0.7882566
50
6.1131414
51
17.4896205
0
ARC
8
DEFAULT_255_2_778
10
7.4535955
20
83.1827333
40
0.3087016
50
16.292586
51
45.3517861
0
ARC
8
DEFAULT_255_2_778
10
7.4854173
20
83.1858641
40
0.2848456
50
49.4665547
51
89.425274
0
ARC
8
DEFAULT_255_2_778
10
7.4453681
20
82.8397378
40
0.6324149
50
86.1097607
51
90.100813
0
ARC
8
DEFAULT_255_2_778
10
7.4464969
20
82.5600289
40
0.9121256
50
90.1408029
51
93.9899618
0
ARC
8
DEFAULT_255_2_778
10
7.4653209
20
82.2537368
40
1.2189878
50
93.8708611
51
94.8925056
0
ARC
8
DEFAULT_255_2_778
10
7.4783579
20
83.0063177
40
0.5333346
50
269.9999691
51
278.728648
0
ARC
8
DEFAULT_255_2_778
10
7.4930067
20
82.9501535
40
0.4756351
50
278.0111598
51
320.6888562
0
ARC
8
DEFAULT_255_2_778
10
7.4512097
20
82.9731545
40
0.5226184
50
321.6408818
51
345.6017376
0
ARC
8
DEFAULT_255_2_778
10
7.2090813
20
83.0375232
40
0.7731508
50
345.4432145
51
0.5428361
0
ARC
8
DEFAULT_255_2_778
10
6.9606175
20
83.0443648
40
1.0215798
50
0.0271075
51
2.9679757
0
ARC
8
DEFAULT_255_2_778
10
6.866139
20
83.0397952
40
1.1161682
50
2.9511196
51
4.6346348
0
ARC
8
DEFAULT_255_2_778
10
7.0195079
20
82.9888704
40
0.9694745
50
8.3694727
51
20.3177709
0
ARC
8
DEFAULT_255_2_778
10
7.4749501
20
83.1639458
40
0.4816165
50
19.5990996
51
47.386471
0
ARC
8
DEFAULT_255_2_778
10
7.4814453
20
83.1402025
40
0.495132
50
49.800546
51
80.4680407
0
ARC
8
DEFAULT_255_2_778
10
7.3517052
20
82.5028915
40
1.1453479
50
79.3468368
51
90.1937305
0
ARC
8
DEFAULT_255_2_778
10
7.3318112
20
81.8356088
40
1.8126949
50
89.4935901
51
90.0031679
0
ARC
8
DEFAULT_255_2_778
10
7.3335399
20
81.5050167
40
2.143288
50
90.0488924
51
92.105635
0
ARC
8
DEFAULT_255_2_778
10
7.3590836
20
80.8024505
40
2.8463183
50
92.0998531
51
93.7473354
0
ARC
8
DEFAULT_255_2_778
10
8.5703941
20
82.8212303
40
0.871911
50
70.4711626
51
76.4451242
0
ARC
8
DEFAULT_255_2_778
10
8.6124768
20
82.9975854
40
0.6906052
50
76.4100377
51
84.0838924
0
ARC
8
DEFAULT_255_2_778
10
8.6252582
20
83.1128885
40
0.5745994
50
84.166529
51
89.9356956
0
ARC
8
DEFAULT_255_2_778
10
8.6204397
20
83.2385278
40
0.448993
50
89.3028084
51
115.4503209
0
ARC
8
DEFAULT_255_2_778
10
8.6858463
20
83.1716457
40
0.5383462
50
118.6787819
51
166.413451
0
ARC
8
DEFAULT_255_2_778
10
8.8824831
20
83.0901007
40
0.7493664
50
163.8841099
51
168.8911981
0
ARC
8
DEFAULT_255_2_778
10
9.8584609
20
83.0439048
40
1.7218825
50
173.6454708
51
175.8577438
0
ARC
8
DEFAULT_255_2_778
10
9.6247393
20
83.0607196
40
1.4875567
50
175.8534474
51
178.3592666
0
ARC
8
DEFAULT_255_2_778
10
9.4572686
20
83.0659579
40
1.3200047
50
178.3784097
51
179.9877586
0
ARC
8
DEFAULT_255_2_778
10
9.1299145
20
83.0592939
40
0.9926748
50
179.5990852
51
189.9340199
0
ARC
8
DEFAULT_255_2_778
10
8.75583
20
82.9915747
40
0.6125205
50
189.7311144
51
205.6448038
0
ARC
8
DEFAULT_255_2_778
10
8.5760025
20
82.9042635
40
0.4126204
50
205.5222204
51
234.1801224
0
ARC
8
DEFAULT_255_2_778
10
8.6188776
20
82.9992226
40
0.5151317
50
236.4951349
51
272.0367261
0
ARC
8
DEFAULT_255_2_778
10
8.6371587
20
83.2544652
40
0.7700489
50
270.001984
51
270.4350664
0
ARC
8
DEFAULT_255_2_778
10
8.6286195
20
83.4290955
40
0.9447666
50
270.8725029
51
283.4851796
0
ARC
8
DEFAULT_255_2_778
10
8.5991243
20
83.5778893
40
1.0963529
50
283.1707903
51
283.8654706
0
ARC
8
DEFAULT_255_2_778
10
8.5548391
20
83.4724492
40
0.8159813
50
286.2090704
51
291.602702
0
ARC
8
DEFAULT_255_2_778
10
8.6139328
20
83.2677731
40
0.6029457
50
279.4021537
51
286.2460563
0
ARC
8
DEFAULT_255_2_778
10
8.6397178
20
83.1097727
40
0.4428557
50
270.5385849
51
279.4503867
0
ARC
8
DEFAULT_255_2_778
10
8.6418097
20
83.0498315
40
0.3829005
50
270.00033
51
270.309884
0
ARC
8
DEFAULT_255_2_778
10
8.636944
20
82.961651
40
0.2947602
50
246.0272171
51
270.9462762
0
ARC
8
DEFAULT_255_2_778
10
8.6757644
20
82.984957
40
0.3328458
50
189.4864965
51
241.5466221
0
ARC
8
DEFAULT_255_2_778
10
9.0030943
20
83.086098
40
0.6739276
50
183.6772037
51
193.3840677
0
ARC
8
DEFAULT_255_2_778
10
9.0431736
20
83.0906028
40
0.714216
50
180.0256373
51
183.8316327
0
ARC
8
DEFAULT_255_2_778
10
9.1030956
20
83.0395764
40
0.7757969
50
164.8958926
51
176.2524238
0
ARC
8
DEFAULT_255_2_778
10
8.7865428
20
83.1275241
40
0.4472694
50
146.9802387
51
165.2064311
0
ARC
8
DEFAULT_255_2_778
10
8.643424
20
83.2223832
40
0.2755796
50
111.6594929
51
147.3021199
0
ARC
8
DEFAULT_255_2_778
10
8.6415806
20
83.2156138
40
0.2812223
50
89.6244585
51
110.8013664
0
ARC
8
DEFAULT_255_2_778
10
8.6432191
20
83.168821
40
0.3280092
50
84.5077145
51
89.964237
0
ARC
8
DEFAULT_255_2_778
10
8.6299344
20
83.0870131
40
0.4107484
50
57.8255396
51
83.7553195
0
ARC
8
DEFAULT_255_2_778
10
1.0621096
20
85.7878708
40
4.9150154
50
323.0531489
51
324.5331578
0
ARC
8
DEFAULT_255_2_778
10
4.5808912
20
83.3231908
40
0.6200053
50
321.357511
51
355.540993
0
ARC
8
DEFAULT_255_2_778
10
4.6635598
20
83.2985285
40
0.5359772
50
357.4827206
51
0.0083351
0
ARC
8
DEFAULT_255_2_778
10
4.5966334
20
83.2971419
40
0.6029053
50
0.1391833
51
8.3757706
0
ARC
8
DEFAULT_255_2_778
10
4.4467213
20
83.2756929
40
0.754343
50
8.3289321
51
14.0311767
0
ARC
8
DEFAULT_255_2_778
10
4.7761367
20
83.3005273
40
0.4323474
50
21.4430395
51
35.9288906
0
ARC
8
DEFAULT_255_2_778
10
4.908395
20
83.3978032
40
0.2681746
50
35.680603
51
61.3755756
0
ARC
8
DEFAULT_255_2_778
10
4.9143887
20
83.3963666
40
0.2666307
50
62.6541467
51
90.9976303
0
ARC
8
DEFAULT_255_2_778
10
4.9100587
20
83.2966992
40
0.3662577
50
90.048852
51
94.3633106
0
ARC
8
DEFAULT_255_2_778
10
4.957383
20
82.9849042
40
0.6811537
50
96.3375289
51
113.8683737
0
ARC
8
DEFAULT_255_2_778
10
5.4024709
20
81.8451265
40
1.9043244
50
112.2382331
51
112.261083
0
ARC
8
DEFAULT_255_2_778
10
5.7071675
20
81.1188065
40
2.6919461
50
112.4065935
51
113.6078483
0
ARC
8
DEFAULT_255_2_778
10
1.3851613
20
91.0595274
40
8.1476947
50
293.3422124
51
293.4621602
0
ARC
8
DEFAULT_255_2_778
10
4.9934638
20
82.9144279
40
0.5874922
50
117.6275493
51
127.8405071
0
ARC
8
DEFAULT_255_2_778
10
4.8868178
20
83.1210234
40
0.3550009
50
102.9922048
51
117.8400341
0
ARC
8
DEFAULT_255_2_778
10
4.8582094
20
83.2389316
40
0.2336832
50
90.3207895
51
102.6567681
0
ARC
8
DEFAULT_255_2_778
10
4.8606262
20
83.319611
40
0.1530454
50
59.0041791
51
91.3947194
0
ARC
8
DEFAULT_255_2_778
10
4.8852523
20
83.3622022
40
0.1038575
50
27.6399799
51
58.5497203
0
ARC
8
DEFAULT_255_2_778
10
4.8522819
20
83.3329967
40
0.1469952
50
5.1323907
51
31.7663147
0
ARC
8
DEFAULT_255_2_778
10
4.7960734
20
83.3248796
40
0.2037275
50
359.9098527
51
5.9919526
0
ARC
8
DEFAULT_255_2_778
10
4.6498672
20
83.3343726
40
0.350071
50
338.606905
51
358.3936196
0
ARC
8
DEFAULT_255_2_778
10
4.2214735
20
83.4914877
40
0.80632
50
328.8400206
51
339.3155934
0
ARC
8
DEFAULT_255_2_778
10
3.5830362
20
83.868914
40
1.5479563
50
322.6991045
51
329.1129141
0
ARC
8
DEFAULT_255_2_778
10
2.7657339
20
84.4849569
40
2.5714188
50
318.4845435
51
322.8159929
0
ARC
8
DEFAULT_255_2_778
10
1.9805071
20
85.1707573
40
3.6139487
50
316.4651094
51
318.5947955
0
ARC
8
DEFAULT_255_2_778
10
3.4260101
20
83.3207672
40
0.2421033
50
359.8495029
51
8.9623184
0
ARC
8
DEFAULT_255_2_778
10
3.2542163
20
83.3327276
40
0.4140878
50
336.495477
51
358.256814
0
ARC
8
DEFAULT_255_2_778
10
2.719767
20
83.5501297
40
0.9909935
50
326.5484398
51
337.2925596
0
ARC
8
DEFAULT_255_2_778
10
1.8511828
20
84.1115985
40
2.0252245
50
320.5659725
51
326.8406464
0
ARC
8
DEFAULT_255_2_778
10
0.7454845
20
85.006752
40
3.447827
50
317.3273205
51
320.7479414
0
LINE
8
DEFAULT_255_2_778
10
3.2804576
20
82.6697832
11
3.2804576
21
82.4729832
0
LINE
8
DEFAULT_255_2_778
10
3.2804576
20
82.4729832
11
3.8757576
21
82.4729832
0
LINE
8
DEFAULT_255_2_778
10
3.8757576
20
82.4729832
11
3.8757576
21
82.6586832
0
LINE
8
DEFAULT_255_2_778
10
3.8757576
20
82.6586832
11
3.5093576
21
82.6586832
0
ARC
8
DEFAULT_255_2_778
10
2.2595639
20
83.827771
40
1.7113593
50
316.9109607
51
326.46766
0
ARC
8
DEFAULT_255_2_778
10
2.8135893
20
83.4650868
40
1.0491952
50
326.2643184
51
341.3077474
0
ARC
8
DEFAULT_255_2_778
10
3.1251913
20
83.3572026
40
0.7194576
50
341.4932984
51
359.6712159
0
ARC
8
DEFAULT_255_2_778
10
3.1970907
20
83.3532168
40
0.6475463
50
359.9873671
51
10.172651
0
ARC
8
DEFAULT_255_2_778
10
3.474958
20
83.3818301
40
0.3695857
50
13.4163157
51
34.5372717
0
ARC
8
DEFAULT_255_2_778
10
3.5925444
20
83.45729
40
0.2299856
50
35.6594297
51
92.9210922
0
ARC
8
DEFAULT_255_2_778
10
3.585769
20
83.2273086
40
0.459695
50
90.6163277
51
103.5523295
0
ARC
8
DEFAULT_255_2_778
10
3.6597016
20
82.9084264
40
0.7870284
50
103.3447973
51
111.5952703
0
ARC
8
DEFAULT_255_2_778
10
3.7968899
20
82.5485326
40
1.1721622
50
111.3557831
51
115.1486869
0
ARC
8
DEFAULT_255_2_778
10
1.608518
20
83.3841866
40
1.7052019
50
4.7320239
51
7.5956849
0
ARC
8
DEFAULT_255_2_778
10
-1.8716986
20
83.0818633
40
5.1985156
50
3.5293519
51
4.888426
0
ARC
8
DEFAULT_255_2_778
10
3.7570404
20
82.7565242
40
0.7811281
50
116.5198189
51
124.2908353
0
ARC
8
DEFAULT_255_2_778
10
3.5765145
20
83.1236233
40
0.3720566
50
103.3742814
51
116.8865703
0
ARC
8
DEFAULT_255_2_778
10
3.5342455
20
83.2938416
40
0.1966851
50
90.4791093
51
102.8646894
0
ARC
8
DEFAULT_255_2_778
10
3.5338826
20
83.3680124
40
0.122514
50
15.8804902
51
90.5994714
0
ARC
8
DEFAULT_255_2_778
10
3.3772408
20
83.2945492
40
0.2945938
50
12.4944676
51
21.2948472
0
ARC
8
DEFAULT_255_2_778
10
1.5755738
20
82.9605756
40
0.2554547
50
90.5942678
51
117.5405494
0
ARC
8
DEFAULT_255_2_778
10
1.5725674
20
82.9783483
40
0.2376685
50
75.8277554
51
89.9139616
0
ARC
8
DEFAULT_255_2_778
10
1.4981509
20
82.629346
40
0.5944174
50
60.6323785
51
77.1096021
0
ARC
8
DEFAULT_255_2_778
10
1.6565609
20
82.9131285
40
0.2694197
50
37.9685261
51
60.3947611
0
ARC
8
DEFAULT_255_2_778
10
1.552441
20
82.8291995
40
0.4031435
50
358.5620952
51
38.268101
0
ARC
8
DEFAULT_255_2_778
10
1.4992352
20
82.8720045
40
0.4592815
50
304.6943571
51
353.3833199
0
ARC
8
DEFAULT_255_2_778
10
1.5150346
20
82.9259467
40
0.4965659
50
268.3639788
51
299.6462301
0
ARC
8
DEFAULT_255_2_778
10
1.4996447
20
84.2505581
40
1.8209753
50
261.1457507
51
270.0381613
0
ARC
8
DEFAULT_255_2_778
10
54.5000534
20
295.0544658
40
218.9679839
50
255.917048
51
255.9637946
0
ARC
8
DEFAULT_255_2_778
10
1.4805232
20
82.8379148
40
0.2309953
50
247.6428848
51
269.6761565
0
ARC
8
DEFAULT_255_2_778
10
1.4748111
20
82.8569023
40
0.250018
50
271.0098598
51
302.4760549
0
ARC
8
DEFAULT_255_2_778
10
1.5099268
20
82.8248228
40
0.2044763
50
298.9995992
51
350.7351068
0
ARC
8
DEFAULT_255_2_778
10
1.3182181
20
82.8855113
40
0.404498
50
346.6193063
51
350.5765834
0
ARC
8
DEFAULT_255_2_778
10
1.5097029
20
82.8620225
40
0.2119094
50
348.3643931
51
359.7099146
0
ARC
8
DEFAULT_255_2_778
10
1.5631186
20
82.8616693
40
0.1584926
50
359.739825
51
55.6893835
0
ARC
8
DEFAULT_255_2_778
10
1.4327936
20
82.458504
40
0.5774884
50
67.6428848
51
89.6761565
0
LINE
8
DEFAULT_255_2_778
10
7.3613576
20
83.4682832
11
7.3613576
21
82.6655832
0
LINE
8
DEFAULT_255_2_778
10
7.3613576
20
82.6655832
11
7.5206576
21
82.6655832
0
LINE
8
DEFAULT_255_2_778
10
7.3613576
20
83.4682832
11
7.3613576
21
83.4682832
0
LINE
8
DEFAULT_255_2_778
10
7.1730576
20
83.6426832
11
7.1730576
21
82.4729832
0
LINE
8
DEFAULT_255_2_778
10
7.1730576
20
82.4729832
11
7.4783576
21
82.4729832
0
LINE
8
DEFAULT_255_2_778
10
7.1730576
20
83.6426832
11
7.1730576
21
83.6426832
0
LINE
8
DEFAULT_255_2_778
10
8.8618576
20
82.5134832
11
8.8552576
21
82.7137832
0
LINE
8
DEFAULT_255_2_778
10
8.8486576
20
83.4346832
11
8.8618576
21
83.6429832
0
LINE
8
DEFAULT_255_2_778
10
4.6001576
20
82.4731832
11
5.2304576
21
82.4811832
0
LINE
8
DEFAULT_255_2_778
10
5.2304576
20
82.4811832
11
5.2304576
21
82.6652832
0
LINE
8
DEFAULT_255_2_778
10
5.2304576
20
82.6652832
11
4.8407576
21
82.6573832
0
LINE
8
DEFAULT_255_2_778
10
4.8407576
20
82.6573832
11
4.9901576
21
82.8335832
0
LINE
8
DEFAULT_255_2_778
10
4.6134576
20
83.5786832
11
4.6330576
21
83.3783832
0
LINE
8
DEFAULT_255_2_778
10
4.6004576
20
82.6814832
11
4.6004576
21
82.4731832
0
LINE
8
DEFAULT_255_2_778
10
4.6004576
20
82.4731832
11
4.6001576
21
82.4731832
0
LINE
8
DEFAULT_255_2_778
10
2.5684576
20
83.3852832
11
2.8486576
21
83.6667832
0
LINE
8
DEFAULT_255_2_778
10
2.8486576
20
83.6667832
11
3.0187576
21
83.6667832
0
LINE
8
DEFAULT_255_2_778
10
3.0187576
20
83.6667832
11
3.0187576
21
82.4681832
0
LINE
8
DEFAULT_255_2_778
10
3.0187576
20
82.4681832
11
2.8269576
21
82.4681832
0
LINE
8
DEFAULT_255_2_778
10
2.8269576
20
82.4681832
11
2.8269576
21
83.3934832
0
LINE
8
DEFAULT_255_2_778
10
2.8269576
20
83.3934832
11
2.6647576
21
83.2288832
0
LINE
8
DEFAULT_255_2_778
10
2.6647576
20
83.2288832
11
2.5684576
21
83.3852832
0
LINE
8
DEFAULT_255_2_778
10
3.6648576
20
83.3582832
11
3.6651576
21
83.3584832
0
LINE
8
DEFAULT_255_2_778
10
4.0379576
20
82.4475832
11
4.3731576
21
83.6873832
0
LINE
8
DEFAULT_255_2_778
10
4.3731576
20
83.6873832
11
4.5157576
21
83.6873832
0
LINE
8
DEFAULT_255_2_778
10
4.5157576
20
83.6873832
11
4.1808576
21
82.4475832
0
LINE
8
DEFAULT_255_2_778
10
4.1808576
20
82.4475832
11
4.0379576
21
82.4475832
0
LINE
8
DEFAULT_255_2_778
10
1.2288576
20
83.0071832
11
1.2410576
21
83.6201832
0
LINE
8
DEFAULT_255_2_778
10
1.2410576
20
83.6201832
11
1.9120576
21
83.6201832
0
LINE
8
DEFAULT_255_2_778
10
1.9120576
20
83.6201832
11
1.9120576
21
83.4468832
0
LINE
8
DEFAULT_255_2_778
10
1.9120576
20
83.4468832
11
1.4574576
21
83.4468832
0
LINE
8
DEFAULT_255_2_778
10
1.4574576
20
83.4468832
11
1.4574576
21
83.1870832
0
LINE
8
DEFAULT_255_2_778
10
1.2193576
20
82.4512832
11
1.2193576
21
82.6676832
0
LINE
8
DEFAULT_255_2_778
10
1.4360576
20
83.0359832
11
1.2413576
21
83.0142832
0
LINE
8
DEFAULT_255_2_778
10
1.9982576
20
82.4464832
11
2.3335576
21
83.6863832
0
LINE
8
DEFAULT_255_2_778
10
2.3335576
20
83.6863832
11
2.4761576
21
83.6863832
0
LINE
8
DEFAULT_255_2_778
10
2.4761576
20
83.6863832
11
2.1411576
21
82.4464832
0
LINE
8
DEFAULT_255_2_778
10
2.1411576
20
82.4464832
11
1.9982576
21
82.4464832
0
LINE
8
DEFAULT_255_2_778
10
22.1047576
20
10.2202832
11
22.1547576
21
10.2324832
0
LINE
8
DEFAULT_255_2_778
10
22.1550576
20
5.5188832
11
22.0050576
21
5.5188832
0
LINE
8
DEFAULT_255_2_778
10
13.4237576
20
5.5672832
11
20.8048576
21
5.5196832
0
LINE
8
DEFAULT_255_2_778
10
13.8553576
20
14.6186832
11
13.3552576
21
14.6186832
0
LINE
8
DEFAULT_255_2_778
10
13.8553576
20
66.6188832
11
13.3552576
21
66.6188832
0
LINE
8
DEFAULT_255_2_778
10
20.8046576
20
5.8593832
11
20.5185576
21
5.8220832
0
LINE
8
DEFAULT_255_2_778
10
20.5185576
20
5.8220832
11
13.3549576
21
5.8220832
0
LINE
8
DEFAULT_255_2_778
10
22.1550576
20
10.3189832
11
22.1050576
21
10.3189832
0
LINE
8
DEFAULT_255_2_778
10
22.1550803
20
10.0287647
11
22.1050803
21
10.0287647
0
LINE
8
DEFAULT_255_2_778
10
22.1550803
20
7.2289647
11
22.1050803
21
7.2289647
0
LINE
8
DEFAULT_255_2_778
10
13.8553803
20
10.3189647
11
13.3552803
21
10.3189647
0
LINE
8
DEFAULT_255_2_778
10
13.3552803
20
10.2189647
11
13.8553803
21
10.2189647
0
LINE
8
DEFAULT_255_2_778
10
13.8553803
20
9.7189647
11
13.3552803
21
9.7189647
0
LINE
8
DEFAULT_255_2_778
10
13.8553803
20
8.8187647
11
13.3552803
21
8.8187647
0
LINE
8
DEFAULT_255_2_778
10
13.8553803
20
6.3187647
11
13.3552803
21
6.3187647
0
LINE
8
DEFAULT_255_2_778
10
13.8553803
20
6.3153647
11
13.3552803
21
6.3153647
0
LINE
8
DEFAULT_255_2_778
10
13.8553803
20
6.2282647
11
13.3552803
21
6.2282647
0
LINE
8
DEFAULT_255_2_778
10
13.8553803
20
6.1052647
11
13.3552803
21
6.1052647
0
LINE
8
DEFAULT_255_2_778
10
22.1050803
20
21.8487647
11
22.1550803
21
21.8487647
0
LINE
8
DEFAULT_255_2_778
10
22.1050803
20
21.2888647
11
22.1550803
21
21.2888647
0
LINE
8
DEFAULT_255_2_778
10
22.1050803
20
19.3087647
11
22.1550803
21
19.3087647
0
LINE
8
DEFAULT_255_2_778
10
22.1050803
20
18.7488647
11
22.1550803
21
18.7488647
0
LINE
8
DEFAULT_255_2_778
10
22.1050803
20
16.7687647
11
22.1550803
21
16.7687647
0
LINE
8
DEFAULT_255_2_778
10
22.1050803
20
16.2088647
11
22.1550803
21
16.2088647
0
LINE
8
DEFAULT_255_2_778
10
22.1550803
20
14.6187647
11
22.1050803
21
14.6187647
0
LINE
8
DEFAULT_255_2_778
10
22.1050803
20
32.0087647
11
22.1550803
21
32.0087647
0
LINE
8
DEFAULT_255_2_778
10
22.1050803
20
31.4488647
11
22.1550803
21
31.4488647
0
LINE
8
DEFAULT_255_2_778
10
22.1050803
20
29.4687647
11
22.1550803
21
29.4687647
0
LINE
8
DEFAULT_255_2_778
10
22.1050803
20
28.9088647
11
22.1550803
21
28.9088647
0
LINE
8
DEFAULT_255_2_778
10
22.1050803
20
26.9287647
11
22.1550803
21
26.9287647
0
LINE
8
DEFAULT_255_2_778
10
22.1050803
20
26.3688647
11
22.1550803
21
26.3688647
0
LINE
8
DEFAULT_255_2_778
10
22.1050803
20
24.3887647
11
22.1550803
21
24.3887647
0
LINE
8
DEFAULT_255_2_778
10
22.1050803
20
23.8288647
11
22.1550803
21
23.8288647
0
LINE
8
DEFAULT_255_2_778
10
22.6550803
20
34.4188647
11
22.1550803
21
34.4188647
0
LINE
8
DEFAULT_255_2_778
10
22.6550803
20
32.8188647
11
22.1550803
21
32.8188647
0
LINE
8
DEFAULT_255_2_778
10
22.6550803
20
28.8189647
11
22.1550803
21
28.8189647
0
LINE
8
DEFAULT_255_2_778
10
22.6550803
20
27.2189647
11
22.1550803
21
27.2189647
0
LINE
8
DEFAULT_255_2_778
10
22.1050803
20
42.1687647
11
22.1550803
21
42.1687647
0
LINE
8
DEFAULT_255_2_778
10
22.1050803
20
41.6088647
11
22.1550803
21
41.6088647
0
LINE
8
DEFAULT_255_2_778
10
22.1050803
20
39.6287647
11
22.1550803
21
39.6287647
0
LINE
8
DEFAULT_255_2_778
10
22.1050803
20
39.0688647
11
22.1550803
21
39.0688647
0
LINE
8
DEFAULT_255_2_778
10
22.1050803
20
37.0887647
11
22.1550803
21
37.0887647
0
LINE
8
DEFAULT_255_2_778
10
22.1050803
20
36.5288647
11
22.1550803
21
36.5288647
0
LINE
8
DEFAULT_255_2_778
10
22.1050803
20
34.5487647
11
22.1550803
21
34.5487647
0
LINE
8
DEFAULT_255_2_778
10
22.1050803
20
33.9888647
11
22.1550803
21
33.9888647
0
LINE
8
DEFAULT_255_2_778
10
22.1050803
20
52.3287647
11
22.1550803
21
52.3287647
0
LINE
8
DEFAULT_255_2_778
10
22.1050803
20
51.7688647
11
22.1550803
21
51.7688647
0
LINE
8
DEFAULT_255_2_778
10
22.1050803
20
49.7887647
11
22.1550803
21
49.7887647
0
LINE
8
DEFAULT_255_2_778
10
22.1050803
20
49.2288647
11
22.1550803
21
49.2288647
0
LINE
8
DEFAULT_255_2_778
10
22.1050803
20
47.2487647
11
22.1550803
21
47.2487647
0
LINE
8
DEFAULT_255_2_778
10
22.1050803
20
46.6888647
11
22.1550803
21
46.6888647
0
LINE
8
DEFAULT_255_2_778
10
22.1050803
20
44.7087647
11
22.1550803
21
44.7087647
0
LINE
8
DEFAULT_255_2_778
10
22.1050803
20
44.1488647
11
22.1550803
21
44.1488647
0
LINE
8
DEFAULT_255_2_778
10
22.6550803
20
62.4188647
11
22.1550803
21
62.4188647
0
LINE
8
DEFAULT_255_2_778
10
22.6550803
20
60.8189647
11
22.1550803
21
60.8189647
0
LINE
8
DEFAULT_255_2_778
10
22.6550803
20
56.8189647
11
22.1550803
21
56.8189647
0
LINE
8
DEFAULT_255_2_778
10
22.6550803
20
55.2187647
11
22.1550803
21
55.2187647
0
LINE
8
DEFAULT_255_2_778
10
22.1050803
20
62.4887647
11
22.1550803
21
62.4887647
0
LINE
8
DEFAULT_255_2_778
10
22.1050803
20
61.9288647
11
22.1550803
21
61.9288647
0
LINE
8
DEFAULT_255_2_778
10
22.1050803
20
59.9487647
11
22.1550803
21
59.9487647
0
LINE
8
DEFAULT_255_2_778
10
22.1050803
20
59.3888647
11
22.1550803
21
59.3888647
0
LINE
8
DEFAULT_255_2_778
10
22.1050803
20
57.4087647
11
22.1550803
21
57.4087647
0
LINE
8
DEFAULT_255_2_778
10
22.1050803
20
56.8488647
11
22.1550803
21
56.8488647
0
LINE
8
DEFAULT_255_2_778
10
22.1050803
20
54.8687647
11
22.1550803
21
54.8687647
0
LINE
8
DEFAULT_255_2_778
10
22.1050803
20
54.3088647
11
22.1550803
21
54.3088647
0
LINE
8
DEFAULT_255_2_778
10
22.1550803
20
66.6188647
11
22.1050803
21
66.6188647
0
LINE
8
DEFAULT_255_2_778
10
22.1050803
20
65.0289647
11
22.1550803
21
65.0289647
0
LINE
8
DEFAULT_255_2_778
10
22.1050803
20
64.4688647
11
22.1550803
21
64.4688647
0
LINE
8
DEFAULT_255_2_778
10
22.1050803
20
74.0089647
11
22.1550803
21
74.0089647
0
LINE
8
DEFAULT_255_2_778
10
22.1050803
20
71.2088647
11
22.1550803
21
71.2088647
0
LINE
8
DEFAULT_255_2_778
10
22.0050803
20
5.3186647
11
22.0050803
21
5.8787647
0
LINE
8
DEFAULT_255_2_778
10
21.5052803
20
5.3186647
11
21.5052803
21
5.8787647
0
LINE
8
DEFAULT_255_2_778
10
20.8051803
20
5.3186647
11
20.8051803
21
5.8787647
0
ARC
8
DEFAULT_255_2_778
10
22.1556006
20
75.4187438
40
0.4997474
50
359.9887792
51
45.0206486
0
ARC
8
DEFAULT_255_2_778
10
22.1552738
20
75.4188245
40
0.4999214
50
44.9876157
51
90.0029524
0
ARC
8
DEFAULT_255_2_778
10
13.8553185
20
75.4185919
40
0.500154
50
89.9966195
51
135.0013354
0
ARC
8
DEFAULT_255_2_778
10
13.8553203
20
75.4187091
40
0.5000724
50
135.010974
51
180.0072381
0
ARC
8
DEFAULT_255_2_778
10
13.855345
20
5.8187428
40
0.5000969
50
179.9996485
51
270.0003515
0
ARC
8
DEFAULT_255_2_778
10
22.1552511
20
5.8187428
40
0.5000969
50
269.9996485
51
0.0003515
0
LINE
8
DEFAULT_255_2_778
10
22.655348
20
5.8187459
11
22.655348
21
75.4186459
0
LINE
8
DEFAULT_255_2_778
10
22.155248
20
75.9187459
11
13.855348
21
75.9187459
0
LINE
8
DEFAULT_255_2_778
10
13.355248
20
75.4186459
11
13.355248
21
5.8187459
0
LINE
8
DEFAULT_255_2_778
10
13.855348
20
5.3186459
11
22.155248
21
5.3186459
0
ARC
8
DEFAULT_255_2_778
10
23.1555079
20
76.4188364
40
0.4997474
50
359.9887792
51
45.0206486
0
ARC
8
DEFAULT_255_2_778
10
23.1551811
20
76.4189171
40
0.4999214
50
44.9876157
51
90.0029524
0
ARC
8
DEFAULT_255_2_778
10
12.8551575
20
76.4190911
40
0.4997474
50
89.9887792
51
135.0206486
0
ARC
8
DEFAULT_255_2_778
10
12.8549028
20
76.4188364
40
0.4997474
50
134.9793514
51
180.0112208
0
ARC
8
DEFAULT_255_2_778
10
12.8552523
20
4.8188355
40
0.5000969
50
179.9996485
51
270.0003515
0
ARC
8
DEFAULT_255_2_778
10
23.1551584
20
4.8188355
40
0.5000969
50
269.9996485
51
0.0003515
0
LINE
8
DEFAULT_255_2_778
10
23.1551554
20
76.9188386
11
12.8552554
21
76.9188386
0
LINE
8
DEFAULT_255_2_778
10
12.3551554
20
76.4187386
11
12.3551554
21
4.8188386
0
LINE
8
DEFAULT_255_2_778
10
12.8552554
20
4.3187386
11
23.1551554
21
4.3187386
0
LINE
8
DEFAULT_255_2_778
10
23.6552554
20
4.8188386
11
23.6552554
21
76.4187386
0
ARC
8
DEFAULT_255_2_778
10
19.5840018
20
65.9628997
40
1.4960091
50
359.9631899
51
34.3407809
0
ARC
8
DEFAULT_255_2_778
10
19.5805716
20
65.9628654
40
1.4988619
50
34.2678943
51
77.5938758
0
ARC
8
DEFAULT_255_2_778
10
19.5773366
20
65.9468069
40
1.5152405
50
77.6048636
51
80.9870553
0
ARC
8
DEFAULT_255_2_778
10
16.3801432
20
66.4671609
40
1.5015442
50
81.0048651
51
84.5745746
0
ARC
8
DEFAULT_255_2_778
10
16.3803433
20
66.4692518
40
1.4994437
50
84.5746337
51
89.9996808
0
ARC
8
DEFAULT_255_2_778
10
16.3803947
20
66.468554
40
1.5001415
50
90.0016425
51
130.4959934
0
ARC
8
DEFAULT_255_2_778
10
16.3804537
20
66.468602
40
1.5001432
50
130.4989
51
179.9909662
0
ARC
8
DEFAULT_255_2_778
10
16.3800911
20
14.7689079
40
1.4997805
50
180.0064703
51
229.5074875
0
ARC
8
DEFAULT_255_2_778
10
16.3803965
20
14.7688643
40
1.4999457
50
229.4975315
51
270.0037064
0
ARC
8
DEFAULT_255_2_778
10
16.3804863
20
14.7694387
40
1.5005201
50
270.0002748
51
275.4159773
0
ARC
8
DEFAULT_255_2_778
10
16.3802706
20
14.7717793
40
1.5028706
50
275.4157418
51
278.9822112
0
ARC
8
DEFAULT_255_2_778
10
19.5816096
20
15.2721718
40
1.4962028
50
278.9629081
51
313.3367828
0
ARC
8
DEFAULT_255_2_778
10
19.5812764
20
15.2753219
40
1.4987238
50
313.2633984
51
356.5927109
0
ARC
8
DEFAULT_255_2_778
10
19.564849
20
15.2759868
40
1.5151616
50
356.6045318
51
359.9868308
0
LINE
8
DEFAULT_255_2_778
10
22.1550105
20
4.3187386
11
22.1550105
21
76.9188386
0
LINE
8
DEFAULT_255_2_778
10
19.8147105
20
67.4433386
11
16.6149105
21
67.9502386
0
LINE
8
DEFAULT_255_2_778
10
14.8803105
20
66.4688386
11
14.8803105
21
14.7687386
0
LINE
8
DEFAULT_255_2_778
10
16.6149105
20
13.2873386
11
19.8147105
21
13.7942386
0
LINE
8
DEFAULT_255_2_778
10
21.0800105
20
15.2756386
11
21.0800105
21
65.9619386
0
LINE
8
DEFAULT_255_2_778
10
22.1050105
20
5.8787386
11
22.1050105
21
75.3588386
0
LINE
8
DEFAULT_255_2_778
10
22.1050105
20
75.3588386
11
13.8550105
21
75.3588386
0
LINE
8
DEFAULT_255_2_778
10
13.8550105
20
75.3588386
11
13.8550105
21
5.8787386
0
LINE
8
DEFAULT_255_2_778
10
13.8550105
20
5.8787386
11
22.1050105
21
5.8787386
0
ARC
8
DEFAULT_255_2_778
10
17.9739005
20
72.6111057
40
1.2938885
50
146.7179954
51
180.0924523
0
ARC
8
DEFAULT_255_2_778
10
17.9795887
20
72.6094501
40
1.2995535
50
96.4896882
51
146.7945945
0
ARC
8
DEFAULT_255_2_778
10
17.9796572
20
72.5947242
40
1.3141938
50
89.9888195
51
96.4200928
0
ARC
8
DEFAULT_255_2_778
10
17.9819577
20
72.6151577
40
1.2937618
50
56.6493082
51
90.0905241
0
ARC
8
DEFAULT_255_2_778
10
17.9802158
20
72.6092026
40
1.299695
50
6.4869709
51
56.7294893
0
ARC
8
DEFAULT_255_2_778
10
17.9660661
20
72.6092703
40
1.3137476
50
359.9889925
51
6.4143193
0
ARC
8
DEFAULT_255_2_778
10
17.9860846
20
72.6069605
40
1.2937307
50
326.7117946
51
0.0911164
0
ARC
8
DEFAULT_255_2_778
10
17.9800712
20
72.6087707
40
1.2997523
50
276.4945215
51
326.7905801
0
ARC
8
DEFAULT_255_2_778
10
17.9801676
20
72.622712
40
1.3135942
50
269.9889238
51
276.4215646
0
ARC
8
DEFAULT_255_2_778
10
17.9778123
20
72.6029747
40
1.2938585
50
236.8021795
51
270.093053
0
ARC
8
DEFAULT_255_2_778
10
17.9795414
20
72.6087223
40
1.2996158
50
186.4997895
51
236.8771337
0
ARC
8
DEFAULT_255_2_778
10
17.9940853
20
72.6087608
40
1.3140717
50
179.9887905
51
186.4296717
0
LINE
8
DEFAULT_255_2_778
10
22.1050137
20
11.3789179
11
13.8550137
21
11.3789179
0
LINE
8
DEFAULT_255_2_778
10
16.6800137
20
72.6090179
11
16.6800137
21
72.6090179
0
ARC
8
DEFAULT_255_2_778
10
17.9737758
20
8.6311295
40
1.2938585
50
146.8021795
51
180.093053
0
ARC
8
DEFAULT_255_2_778
10
17.9795235
20
8.6294004
40
1.2996158
50
96.4997895
51
146.8771337
0
ARC
8
DEFAULT_255_2_778
10
17.9795619
20
8.6148565
40
1.3140717
50
89.9887905
51
96.4296717
0
ARC
8
DEFAULT_255_2_778
10
17.9819357
20
8.6349928
40
1.293937
50
56.8052685
51
90.0937283
0
ARC
8
DEFAULT_255_2_778
10
17.9802843
20
8.6294075
40
1.299516
50
6.4973705
51
56.879159
0
ARC
8
DEFAULT_255_2_778
10
17.9653486
20
8.6292865
40
1.3143704
50
359.9887351
51
6.428937
0
ARC
8
DEFAULT_255_2_778
10
17.9858322
20
8.6269403
40
1.2938885
50
326.7179954
51
0.0924523
0
ARC
8
DEFAULT_255_2_778
10
17.980144
20
8.6285959
40
1.2995535
50
276.4896882
51
326.7945945
0
ARC
8
DEFAULT_255_2_778
10
17.9800755
20
8.6433219
40
1.3141938
50
269.9888195
51
276.4200928
0
ARC
8
DEFAULT_255_2_778
10
17.9777463
20
8.622935
40
1.2938085
50
236.7148745
51
270.0917915
0
ARC
8
DEFAULT_255_2_778
10
17.9794792
20
8.6287867
40
1.2996527
50
186.4921002
51
236.792589
0
ARC
8
DEFAULT_255_2_778
10
17.9938138
20
8.628773
40
1.3138949
50
179.9888749
51
186.4208275
0
LINE
8
DEFAULT_255_2_778
10
22.105019
20
69.8589281
11
13.855019
21
69.8589281
0
LINE
8
DEFAULT_255_2_778
10
19.500119
20
56.5086281
11
19.500119
21
57.7487281
0
LINE
8
DEFAULT_255_2_778
10
19.500119
20
57.7487281
11
19.000119
21
57.7487281
0
LINE
8
DEFAULT_255_2_778
10
19.000119
20
57.7487281
11
19.000119
21
56.5086281
0
LINE
8
DEFAULT_255_2_778
10
19.000119
20
56.5086281
11
19.500119
21
56.5086281
0
LINE
8
DEFAULT_255_2_778
10
19.500119
20
59.0486281
11
19.500119
21
60.2887281
0
LINE
8
DEFAULT_255_2_778
10
19.500119
20
60.2887281
11
19.000119
21
60.2887281
0
LINE
8
DEFAULT_255_2_778
10
19.000119
20
60.2887281
11
19.000119
21
59.0486281
0
LINE
8
DEFAULT_255_2_778
10
19.000119
20
59.0486281
11
19.500119
21
59.0486281
0
LINE
8
DEFAULT_255_2_778
10
19.500119
20
61.5886281
11
19.500119
21
62.8287281
0
LINE
8
DEFAULT_255_2_778
10
19.500119
20
62.8287281
11
19.000119
21
62.8287281
0
LINE
8
DEFAULT_255_2_778
10
19.000119
20
62.8287281
11
19.000119
21
61.5886281
0
LINE
8
DEFAULT_255_2_778
10
19.000119
20
61.5886281
11
19.500119
21
61.5886281
0
LINE
8
DEFAULT_255_2_778
10
19.500119
20
64.1286281
11
19.500119
21
65.3687281
0
LINE
8
DEFAULT_255_2_778
10
19.500119
20
65.3687281
11
19.000119
21
65.3687281
0
LINE
8
DEFAULT_255_2_778
10
19.000119
20
65.3687281
11
19.000119
21
64.1286281
0
LINE
8
DEFAULT_255_2_778
10
19.000119
20
64.1286281
11
19.500119
21
64.1286281
0
LINE
8
DEFAULT_255_2_778
10
16.960119
20
56.5086281
11
16.960119
21
57.7487281
0
LINE
8
DEFAULT_255_2_778
10
16.960119
20
57.7487281
11
16.460119
21
57.7487281
0
LINE
8
DEFAULT_255_2_778
10
16.460119
20
57.7487281
11
16.460119
21
56.5086281
0
LINE
8
DEFAULT_255_2_778
10
16.460119
20
56.5086281
11
16.960119
21
56.5086281
0
LINE
8
DEFAULT_255_2_778
10
16.960119
20
59.0486281
11
16.960119
21
60.2887281
0
LINE
8
DEFAULT_255_2_778
10
16.960119
20
60.2887281
11
16.460119
21
60.2887281
0
LINE
8
DEFAULT_255_2_778
10
16.460119
20
60.2887281
11
16.460119
21
59.0486281
0
LINE
8
DEFAULT_255_2_778
10
16.460119
20
59.0486281
11
16.960119
21
59.0486281
0
LINE
8
DEFAULT_255_2_778
10
16.960119
20
61.5886281
11
16.960119
21
62.8287281
0
LINE
8
DEFAULT_255_2_778
10
16.960119
20
62.8287281
11
16.460119
21
62.8287281
0
LINE
8
DEFAULT_255_2_778
10
16.460119
20
62.8287281
11
16.460119
21
61.5886281
0
LINE
8
DEFAULT_255_2_778
10
16.460119
20
61.5886281
11
16.960119
21
61.5886281
0
LINE
8
DEFAULT_255_2_778
10
16.960119
20
64.1286281
11
16.960119
21
65.3687281
0
LINE
8
DEFAULT_255_2_778
10
16.960119
20
65.3687281
11
16.460119
21
65.3687281
0
LINE
8
DEFAULT_255_2_778
10
16.460119
20
65.3687281
11
16.460119
21
64.1286281
0
LINE
8
DEFAULT_255_2_778
10
16.460119
20
64.1286281
11
16.960119
21
64.1286281
0
LINE
8
DEFAULT_255_2_778
10
19.500119
20
46.3486281
11
19.500119
21
47.5887281
0
LINE
8
DEFAULT_255_2_778
10
19.500119
20
47.5887281
11
19.000119
21
47.5887281
0
LINE
8
DEFAULT_255_2_778
10
19.000119
20
47.5887281
11
19.000119
21
46.3486281
0
LINE
8
DEFAULT_255_2_778
10
19.000119
20
46.3486281
11
19.500119
21
46.3486281
0
LINE
8
DEFAULT_255_2_778
10
19.500119
20
48.8886281
11
19.500119
21
50.1287281
0
LINE
8
DEFAULT_255_2_778
10
19.500119
20
50.1287281
11
19.000119
21
50.1287281
0
LINE
8
DEFAULT_255_2_778
10
19.000119
20
50.1287281
11
19.000119
21
48.8886281
0
LINE
8
DEFAULT_255_2_778
10
19.000119
20
48.8886281
11
19.500119
21
48.8886281
0
LINE
8
DEFAULT_255_2_778
10
19.500119
20
51.4286281
11
19.500119
21
52.6687281
0
LINE
8
DEFAULT_255_2_778
10
19.500119
20
52.6687281
11
19.000119
21
52.6687281
0
LINE
8
DEFAULT_255_2_778
10
19.000119
20
52.6687281
11
19.000119
21
51.4286281
0
LINE
8
DEFAULT_255_2_778
10
19.000119
20
51.4286281
11
19.500119
21
51.4286281
0
LINE
8
DEFAULT_255_2_778
10
19.500119
20
53.9686281
11
19.500119
21
55.2087281
0
LINE
8
DEFAULT_255_2_778
10
19.500119
20
55.2087281
11
19.000119
21
55.2087281
0
LINE
8
DEFAULT_255_2_778
10
19.000119
20
55.2087281
11
19.000119
21
53.9686281
0
LINE
8
DEFAULT_255_2_778
10
19.000119
20
53.9686281
11
19.500119
21
53.9686281
0
LINE
8
DEFAULT_255_2_778
10
16.960119
20
46.3486281
11
16.960119
21
47.5887281
0
LINE
8
DEFAULT_255_2_778
10
16.960119
20
47.5887281
11
16.460119
21
47.5887281
0
LINE
8
DEFAULT_255_2_778
10
16.460119
20
47.5887281
11
16.460119
21
46.3486281
0
LINE
8
DEFAULT_255_2_778
10
16.460119
20
46.3486281
11
16.960119
21
46.3486281
0
LINE
8
DEFAULT_255_2_778
10
16.960119
20
48.8886281
11
16.960119
21
50.1287281
0
LINE
8
DEFAULT_255_2_778
10
16.960119
20
50.1287281
11
16.460119
21
50.1287281
0
LINE
8
DEFAULT_255_2_778
10
16.460119
20
50.1287281
11
16.460119
21
48.8886281
0
LINE
8
DEFAULT_255_2_778
10
16.460119
20
48.8886281
11
16.960119
21
48.8886281
0
LINE
8
DEFAULT_255_2_778
10
16.960119
20
51.4286281
11
16.960119
21
52.6687281
0
LINE
8
DEFAULT_255_2_778
10
16.960119
20
52.6687281
11
16.460119
21
52.6687281
0
LINE
8
DEFAULT_255_2_778
10
16.460119
20
52.6687281
11
16.460119
21
51.4286281
0
LINE
8
DEFAULT_255_2_778
10
16.460119
20
51.4286281
11
16.960119
21
51.4286281
0
LINE
8
DEFAULT_255_2_778
10
16.960119
20
53.9686281
11
16.960119
21
55.2087281
0
LINE
8
DEFAULT_255_2_778
10
16.960119
20
55.2087281
11
16.460119
21
55.2087281
0
LINE
8
DEFAULT_255_2_778
10
16.460119
20
55.2087281
11
16.460119
21
53.9686281
0
LINE
8
DEFAULT_255_2_778
10
16.460119
20
53.9686281
11
16.960119
21
53.9686281
0
LINE
8
DEFAULT_255_2_778
10
19.500119
20
36.1886281
11
19.500119
21
37.4287281
0
LINE
8
DEFAULT_255_2_778
10
19.500119
20
37.4287281
11
19.000119
21
37.4287281
0
LINE
8
DEFAULT_255_2_778
10
19.000119
20
37.4287281
11
19.000119
21
36.1886281
0
LINE
8
DEFAULT_255_2_778
10
19.000119
20
36.1886281
11
19.500119
21
36.1886281
0
LINE
8
DEFAULT_255_2_778
10
19.500119
20
38.7286281
11
19.500119
21
39.9687281
0
LINE
8
DEFAULT_255_2_778
10
19.500119
20
39.9687281
11
19.000119
21
39.9687281
0
LINE
8
DEFAULT_255_2_778
10
19.000119
20
39.9687281
11
19.000119
21
38.7286281
0
LINE
8
DEFAULT_255_2_778
10
19.000119
20
38.7286281
11
19.500119
21
38.7286281
0
LINE
8
DEFAULT_255_2_778
10
19.500119
20
41.2686281
11
19.500119
21
42.5087281
0
LINE
8
DEFAULT_255_2_778
10
19.500119
20
42.5087281
11
19.000119
21
42.5087281
0
LINE
8
DEFAULT_255_2_778
10
19.000119
20
42.5087281
11
19.000119
21
41.2686281
0
LINE
8
DEFAULT_255_2_778
10
19.000119
20
41.2686281
11
19.500119
21
41.2686281
0
LINE
8
DEFAULT_255_2_778
10
19.500119
20
43.8086281
11
19.500119
21
45.0487281
0
LINE
8
DEFAULT_255_2_778
10
19.500119
20
45.0487281
11
19.000119
21
45.0487281
0
LINE
8
DEFAULT_255_2_778
10
19.000119
20
45.0487281
11
19.000119
21
43.8086281
0
LINE
8
DEFAULT_255_2_778
10
19.000119
20
43.8086281
11
19.500119
21
43.8086281
0
LINE
8
DEFAULT_255_2_778
10
16.960119
20
36.1886281
11
16.960119
21
37.4287281
0
LINE
8
DEFAULT_255_2_778
10
16.960119
20
37.4287281
11
16.460119
21
37.4287281
0
LINE
8
DEFAULT_255_2_778
10
16.460119
20
37.4287281
11
16.460119
21
36.1886281
0
LINE
8
DEFAULT_255_2_778
10
16.460119
20
36.1886281
11
16.960119
21
36.1886281
0
LINE
8
DEFAULT_255_2_778
10
16.960119
20
38.7286281
11
16.960119
21
39.9687281
0
LINE
8
DEFAULT_255_2_778
10
16.960119
20
39.9687281
11
16.460119
21
39.9687281
0
LINE
8
DEFAULT_255_2_778
10
16.460119
20
39.9687281
11
16.460119
21
38.7286281
0
LINE
8
DEFAULT_255_2_778
10
16.460119
20
38.7286281
11
16.960119
21
38.7286281
0
LINE
8
DEFAULT_255_2_778
10
16.960119
20
41.2686281
11
16.960119
21
42.5087281
0
LINE
8
DEFAULT_255_2_778
10
16.960119
20
42.5087281
11
16.460119
21
42.5087281
0
LINE
8
DEFAULT_255_2_778
10
16.460119
20
42.5087281
11
16.460119
21
41.2686281
0
LINE
8
DEFAULT_255_2_778
10
16.460119
20
41.2686281
11
16.960119
21
41.2686281
0
LINE
8
DEFAULT_255_2_778
10
16.960119
20
43.8086281
11
16.960119
21
45.0487281
0
LINE
8
DEFAULT_255_2_778
10
16.960119
20
45.0487281
11
16.460119
21
45.0487281
0
LINE
8
DEFAULT_255_2_778
10
16.460119
20
45.0487281
11
16.460119
21
43.8086281
0
LINE
8
DEFAULT_255_2_778
10
16.460119
20
43.8086281
11
16.960119
21
43.8086281
0
LINE
8
DEFAULT_255_2_778
10
19.500119
20
26.0286281
11
19.500119
21
27.2687281
0
LINE
8
DEFAULT_255_2_778
10
19.500119
20
27.2687281
11
19.000119
21
27.2687281
0
LINE
8
DEFAULT_255_2_778
10
19.000119
20
27.2687281
11
19.000119
21
26.0286281
0
LINE
8
DEFAULT_255_2_778
10
19.000119
20
26.0286281
11
19.500119
21
26.0286281
0
LINE
8
DEFAULT_255_2_778
10
19.500119
20
28.5686281
11
19.500119
21
29.8087281
0
LINE
8
DEFAULT_255_2_778
10
19.500119
20
29.8087281
11
19.000119
21
29.8087281
0
LINE
8
DEFAULT_255_2_778
10
19.000119
20
29.8087281
11
19.000119
21
28.5686281
0
LINE
8
DEFAULT_255_2_778
10
19.000119
20
28.5686281
11
19.500119
21
28.5686281
0
LINE
8
DEFAULT_255_2_778
10
19.500119
20
31.1086281
11
19.500119
21
32.3487281
0
LINE
8
DEFAULT_255_2_778
10
19.500119
20
32.3487281
11
19.000119
21
32.3487281
0
LINE
8
DEFAULT_255_2_778
10
19.000119
20
32.3487281
11
19.000119
21
31.1086281
0
LINE
8
DEFAULT_255_2_778
10
19.000119
20
31.1086281
11
19.500119
21
31.1086281
0
LINE
8
DEFAULT_255_2_778
10
19.500119
20
33.6486281
11
19.500119
21
34.8887281
0
LINE
8
DEFAULT_255_2_778
10
19.500119
20
34.8887281
11
19.000119
21
34.8887281
0
LINE
8
DEFAULT_255_2_778
10
19.000119
20
34.8887281
11
19.000119
21
33.6486281
0
LINE
8
DEFAULT_255_2_778
10
19.000119
20
33.6486281
11
19.500119
21
33.6486281
0
LINE
8
DEFAULT_255_2_778
10
16.960119
20
26.0286281
11
16.960119
21
27.2687281
0
LINE
8
DEFAULT_255_2_778
10
16.960119
20
27.2687281
11
16.460119
21
27.2687281
0
LINE
8
DEFAULT_255_2_778
10
16.460119
20
27.2687281
11
16.460119
21
26.0286281
0
LINE
8
DEFAULT_255_2_778
10
16.460119
20
26.0286281
11
16.960119
21
26.0286281
0
LINE
8
DEFAULT_255_2_778
10
16.960119
20
28.5686281
11
16.960119
21
29.8087281
0
LINE
8
DEFAULT_255_2_778
10
16.960119
20
29.8087281
11
16.460119
21
29.8087281
0
LINE
8
DEFAULT_255_2_778
10
16.460119
20
29.8087281
11
16.460119
21
28.5686281
0
LINE
8
DEFAULT_255_2_778
10
16.460119
20
28.5686281
11
16.960119
21
28.5686281
0
LINE
8
DEFAULT_255_2_778
10
16.960119
20
31.1086281
11
16.960119
21
32.3487281
0
LINE
8
DEFAULT_255_2_778
10
16.960119
20
32.3487281
11
16.460119
21
32.3487281
0
LINE
8
DEFAULT_255_2_778
10
16.460119
20
32.3487281
11
16.460119
21
31.1086281
0
LINE
8
DEFAULT_255_2_778
10
16.460119
20
31.1086281
11
16.960119
21
31.1086281
0
LINE
8
DEFAULT_255_2_778
10
16.960119
20
33.6486281
11
16.960119
21
34.8887281
0
LINE
8
DEFAULT_255_2_778
10
16.960119
20
34.8887281
11
16.460119
21
34.8887281
0
LINE
8
DEFAULT_255_2_778
10
16.460119
20
34.8887281
11
16.460119
21
33.6486281
0
LINE
8
DEFAULT_255_2_778
10
16.460119
20
33.6486281
11
16.960119
21
33.6486281
0
LINE
8
DEFAULT_255_2_778
10
19.500119
20
15.8686281
11
19.500119
21
17.1087281
0
LINE
8
DEFAULT_255_2_778
10
19.500119
20
17.1087281
11
19.000119
21
17.1087281
0
LINE
8
DEFAULT_255_2_778
10
19.000119
20
17.1087281
11
19.000119
21
15.8686281
0
LINE
8
DEFAULT_255_2_778
10
19.000119
20
15.8686281
11
19.500119
21
15.8686281
0
LINE
8
DEFAULT_255_2_778
10
19.500119
20
18.4086281
11
19.500119
21
19.6487281
0
LINE
8
DEFAULT_255_2_778
10
19.500119
20
19.6487281
11
19.000119
21
19.6487281
0
LINE
8
DEFAULT_255_2_778
10
19.000119
20
19.6487281
11
19.000119
21
18.4086281
0
LINE
8
DEFAULT_255_2_778
10
19.000119
20
18.4086281
11
19.500119
21
18.4086281
0
LINE
8
DEFAULT_255_2_778
10
19.500119
20
20.9486281
11
19.500119
21
22.1887281
0
LINE
8
DEFAULT_255_2_778
10
19.500119
20
22.1887281
11
19.000119
21
22.1887281
0
LINE
8
DEFAULT_255_2_778
10
19.000119
20
22.1887281
11
19.000119
21
20.9486281
0
LINE
8
DEFAULT_255_2_778
10
19.000119
20
20.9486281
11
19.500119
21
20.9486281
0
LINE
8
DEFAULT_255_2_778
10
19.500119
20
23.4886281
11
19.500119
21
24.7287281
0
LINE
8
DEFAULT_255_2_778
10
19.500119
20
24.7287281
11
19.000119
21
24.7287281
0
LINE
8
DEFAULT_255_2_778
10
19.000119
20
24.7287281
11
19.000119
21
23.4886281
0
LINE
8
DEFAULT_255_2_778
10
19.000119
20
23.4886281
11
19.500119
21
23.4886281
0
LINE
8
DEFAULT_255_2_778
10
16.960119
20
15.8686281
11
16.960119
21
17.1087281
0
LINE
8
DEFAULT_255_2_778
10
16.960119
20
17.1087281
11
16.460119
21
17.1087281
0
LINE
8
DEFAULT_255_2_778
10
16.460119
20
17.1087281
11
16.460119
21
15.8686281
0
LINE
8
DEFAULT_255_2_778
10
16.460119
20
15.8686281
11
16.960119
21
15.8686281
0
LINE
8
DEFAULT_255_2_778
10
16.960119
20
18.4086281
11
16.960119
21
19.6487281
0
LINE
8
DEFAULT_255_2_778
10
16.960119
20
19.6487281
11
16.460119
21
19.6487281
0
LINE
8
DEFAULT_255_2_778
10
16.460119
20
19.6487281
11
16.460119
21
18.4086281
0
LINE
8
DEFAULT_255_2_778
10
16.460119
20
18.4086281
11
16.960119
21
18.4086281
0
LINE
8
DEFAULT_255_2_778
10
16.960119
20
20.9486281
11
16.960119
21
22.1887281
0
LINE
8
DEFAULT_255_2_778
10
16.960119
20
22.1887281
11
16.460119
21
22.1887281
0
LINE
8
DEFAULT_255_2_778
10
16.460119
20
22.1887281
11
16.460119
21
20.9486281
0
LINE
8
DEFAULT_255_2_778
10
16.460119
20
20.9486281
11
16.960119
21
20.9486281
0
LINE
8
DEFAULT_255_2_778
10
16.960119
20
23.4886281
11
16.960119
21
24.7287281
0
LINE
8
DEFAULT_255_2_778
10
16.960119
20
24.7287281
11
16.460119
21
24.7287281
0
LINE
8
DEFAULT_255_2_778
10
16.460119
20
24.7287281
11
16.460119
21
23.4886281
0
LINE
8
DEFAULT_255_2_778
10
16.460119
20
23.4886281
11
16.960119
21
23.4886281
0
LINE
8
DEFAULT_255_2_778
10
19.265219
20
8.8190281
11
16.694519
21
8.8190281
0
LINE
8
DEFAULT_255_2_778
10
18.686819
20
9.7191281
11
17.272919
21
9.7191281
0
LINE
8
DEFAULT_255_2_778
10
16.679919
20
8.6290281
11
16.679919
21
8.6290281
0
LINE
8
DEFAULT_255_2_778
10
2.277419
20
81.2561281
11
2.277419
21
81.0156281
0
LINE
8
DEFAULT_255_2_778
10
2.277419
20
81.0156281
11
2.085019
21
81.0156281
0
LINE
8
DEFAULT_255_2_778
10
2.085019
20
81.0156281
11
2.085019
21
81.2561281
0
LINE
8
DEFAULT_255_2_778
10
2.085019
20
81.2561281
11
2.277419
21
81.2561281
0
LINE
8
DEFAULT_255_2_778
10
2.579819
20
81.7969281
11
2.742019
21
81.9615281
0
LINE
8
DEFAULT_255_2_778
10
2.742019
20
81.9615281
11
2.742019
21
81.0362281
0
LINE
8
DEFAULT_255_2_778
10
2.742019
20
81.0362281
11
2.933819
21
81.0362281
0
LINE
8
DEFAULT_255_2_778
10
2.933819
20
81.0362281
11
2.933819
21
82.2348281
0
LINE
8
DEFAULT_255_2_778
10
2.933819
20
82.2348281
11
2.763719
21
82.2348281
0
LINE
8
DEFAULT_255_2_778
10
2.763719
20
82.2348281
11
2.483719
21
81.9533281
0
LINE
8
DEFAULT_255_2_778
10
2.483719
20
81.9533281
11
2.579819
21
81.7969281
0
LINE
8
DEFAULT_255_2_778
10
3.776719
20
81.9737281
11
3.637819
21
81.4794281
0
LINE
8
DEFAULT_255_2_778
10
3.637819
20
81.4794281
11
3.918019
21
81.4794281
0
LINE
8
DEFAULT_255_2_778
10
3.918019
20
81.4794281
11
3.779419
21
81.9737281
0
LINE
8
DEFAULT_255_2_778
10
3.779419
20
81.9737281
11
3.776719
21
81.9737281
0
LINE
8
DEFAULT_255_2_778
10
3.300219
20
81.0156281
11
3.673319
21
82.2142281
0
LINE
8
DEFAULT_255_2_778
10
3.673319
20
82.2142281
11
3.890319
21
82.2142281
0
LINE
8
DEFAULT_255_2_778
10
3.890319
20
82.2142281
11
4.266519
21
81.0156281
0
LINE
8
DEFAULT_255_2_778
10
4.266519
20
81.0156281
11
4.053519
21
81.0156281
0
LINE
8
DEFAULT_255_2_778
10
4.053519
20
81.0156281
11
3.971219
21
81.2902281
0
LINE
8
DEFAULT_255_2_778
10
3.971219
20
81.2902281
11
3.582819
21
81.2902281
0
LINE
8
DEFAULT_255_2_778
10
3.582819
20
81.2902281
11
3.498719
21
81.0156281
0
LINE
8
DEFAULT_255_2_778
10
3.498719
20
81.0156281
11
3.300219
21
81.0156281
0
ARC
8
DEFAULT_255_2_778
10
0.4373
20
81.6220655
40
1.5585788
50
359.5438389
51
8.220501
0
ARC
8
DEFAULT_255_2_778
10
1.2421512
20
81.7438494
40
0.7446044
50
7.8009343
51
23.174691
0
ARC
8
DEFAULT_255_2_778
10
1.6457568
20
81.9340343
40
0.29915
50
20.1077298
51
91.6717853
0
ARC
8
DEFAULT_255_2_778
10
1.6215354
20
81.9160208
40
0.3174145
50
87.2021009
51
159.9694525
0
ARC
8
DEFAULT_255_2_778
10
2.0027717
20
81.7464964
40
0.7342163
50
157.7301303
51
173.7476214
0
ARC
8
DEFAULT_255_2_778
10
2.6721098
20
81.6571028
40
1.4093992
50
173.0985688
51
180.294564
0
ARC
8
DEFAULT_255_2_778
10
3.0296927
20
81.637404
40
1.7670073
50
179.596207
51
187.5732468
0
ARC
8
DEFAULT_255_2_778
10
2.1472147
20
81.5153019
40
0.8761474
50
187.2637853
51
200.5869091
0
ARC
8
DEFAULT_255_2_778
10
1.6955991
20
81.3378181
40
0.3910328
50
199.5100236
51
229.7115094
0
ARC
8
DEFAULT_255_2_778
10
1.6280129
20
81.2784626
40
0.30234
50
232.2087325
51
271.708949
0
ARC
8
DEFAULT_255_2_778
10
1.6436162
20
81.2781939
40
0.3020088
50
268.7502801
51
342.331066
0
ARC
8
DEFAULT_255_2_778
10
1.184424
20
81.4824045
40
0.8034192
50
338.3910359
51
352.891506
0
ARC
8
DEFAULT_255_2_778
10
0.3550317
20
81.598387
40
1.6408363
50
352.4565928
51
0.3935332
0
ARC
8
DEFAULT_255_2_778
10
1.6373374
20
81.923347
40
0.0888625
50
95.1056332
51
163.5636319
0
ARC
8
DEFAULT_255_2_778
10
1.963808
20
81.7734968
40
0.447349
50
156.9720731
51
172.3592713
0
ARC
8
DEFAULT_255_2_778
10
2.8591978
20
81.6328723
40
1.353639
50
171.4989764
51
178.406728
0
ARC
8
DEFAULT_255_2_778
10
4.0243698
20
81.5820232
40
2.5198417
50
177.9876043
51
180.0583506
0
ARC
8
DEFAULT_255_2_778
10
3.1514841
20
81.5687394
40
1.6469896
50
179.6271538
51
185.4532209
0
ARC
8
DEFAULT_255_2_778
10
2.1116469
20
81.4629111
40
0.6018369
50
184.8314973
51
197.1498222
0
ARC
8
DEFAULT_255_2_778
10
1.6732928
20
81.3192413
40
0.1408379
50
193.8838132
51
232.7312181
0
ARC
8
DEFAULT_255_2_778
10
1.6227527
20
81.2627826
40
0.0655811
50
238.0079095
51
270.4214993
0
ARC
8
DEFAULT_255_2_778
10
1.6231915
20
81.2740449
40
0.0768416
50
270.0325994
51
274.6563293
0
ARC
8
DEFAULT_255_2_778
10
1.6223167
20
81.2909145
40
0.0937278
50
274.3521421
51
344.2320653
0
ARC
8
DEFAULT_255_2_778
10
1.2931852
20
81.4362689
40
0.452792
50
337.8354099
51
353.5821816
0
ARC
8
DEFAULT_255_2_778
10
0.4035432
20
81.5571157
40
1.3505245
50
352.7061992
51
359.7625697
0
ARC
8
DEFAULT_255_2_778
10
-0.4569087
20
81.5792114
40
2.2111382
50
359.2824117
51
0.0063631
0
ARC
8
DEFAULT_255_2_778
10
-0.8418435
20
81.6263283
40
2.596496
50
358.9656547
51
359.9850066
0
ARC
8
DEFAULT_255_2_778
10
0.1603777
20
81.6364674
40
1.5943113
50
359.6112029
51
5.6928093
0
ARC
8
DEFAULT_255_2_778
10
1.1598117
20
81.7423937
40
0.5893324
50
5.0836847
51
17.7040722
0
ARC
8
DEFAULT_255_2_778
10
1.5810879
20
81.8850132
40
0.1448449
50
14.635146
51
53.3310069
0
ARC
8
DEFAULT_255_2_778
10
1.6300257
20
81.9403887
40
0.0714709
50
58.2941324
51
90.4780832
0
ARC
8
DEFAULT_255_2_778
10
2.0394719
20
104.4583884
40
0.2009309
50
358.4510247
51
78.473325
0
ARC
8
DEFAULT_255_2_778
10
1.9065862
20
104.0757518
40
0.604797
50
73.3749812
51
87.6324292
0
ARC
8
DEFAULT_255_2_778
10
1.8728412
20
103.6367885
40
1.0448956
50
86.7779431
51
90.0695725
0
ARC
8
DEFAULT_255_2_778
10
1.8734304
20
103.3080131
40
1.3736716
50
90.077497
51
93.2424437
0
ARC
8
DEFAULT_255_2_778
10
1.8912378
20
102.9667509
40
1.7153953
50
93.1915632
51
94.8290894
0
LINE
8
DEFAULT_255_2_778
10
1.7468294
20
104.676057
11
1.7468294
21
104.229657
0
ARC
8
DEFAULT_255_2_778
10
1.9065188
20
105.7965269
40
1.5749864
50
264.1807254
51
267.1654207
0
ARC
8
DEFAULT_255_2_778
10
1.888298
20
105.437313
40
1.2153109
50
267.1859
51
269.9451391
0
ARC
8
DEFAULT_255_2_778
10
1.8975352
20
104.9403039
40
0.7183767
50
269.1704327
51
282.0752777
0
ARC
8
DEFAULT_255_2_778
10
1.9936397
20
104.5196527
40
0.2869907
50
280.8814672
51
310.1185874
0
ARC
8
DEFAULT_255_2_778
10
2.0443046
20
104.443336
40
0.1962607
50
313.1655976
51
2.809854
0
ARC
8
DEFAULT_255_2_778
10
1.7905781
20
102.7810324
40
1.0653079
50
90.0266456
51
91.8961415
0
ARC
8
DEFAULT_255_2_778
10
1.8013336
20
103.2359376
40
0.6105062
50
76.7681308
51
91.0559492
0
ARC
8
DEFAULT_255_2_778
10
1.9019466
20
103.6307545
40
0.2032823
50
39.9453774
51
78.9026384
0
ARC
8
DEFAULT_255_2_778
10
1.9484449
20
103.6794125
40
0.1365961
50
29.5874026
51
36.8191247
0
ARC
8
DEFAULT_255_2_778
10
2.2828012
20
103.7872167
40
0.2711674
50
27.316516
51
70.9005955
0
ARC
8
DEFAULT_255_2_778
10
2.2513365
20
104.5388713
40
0.509786
50
283.637087
51
311.9444924
0
ARC
8
DEFAULT_255_2_778
10
2.2836896
20
104.4755532
40
0.4414429
50
314.3149718
51
354.4781257
0
ARC
8
DEFAULT_255_2_778
10
1.9950146
20
104.5275477
40
0.7341731
50
352.6067362
51
0.176973
0
ARC
8
DEFAULT_255_2_778
10
1.8597625
20
104.5297404
40
0.8694218
50
0.0049458
51
1.081935
0
ARC
8
DEFAULT_255_2_778
10
2.2203105
20
104.5351786
40
0.5088373
50
1.2362787
51
31.4390551
0
ARC
8
DEFAULT_255_2_778
10
2.2604185
20
104.5371274
40
0.4739922
50
33.7674927
51
69.886188
0
ARC
8
DEFAULT_255_2_778
10
2.0924947
20
104.1238434
40
0.9199489
50
68.9170582
51
83.7229946
0
ARC
8
DEFAULT_255_2_778
10
2.0054086
20
103.4568792
40
1.5924947
50
83.232198
51
90.2476951
0
ARC
8
DEFAULT_255_2_778
10
1.9988797
20
102.9744222
40
2.0749371
50
90.0098168
51
91.2606551
0
LINE
8
DEFAULT_255_2_778
10
1.9532294
20
105.048857
11
1.2611294
21
105.048857
0
LINE
8
DEFAULT_255_2_778
10
1.9958294
20
81.609657
11
1.9958294
21
81.609657
0
LINE
8
DEFAULT_255_2_778
10
1.6294294
20
82.011857
11
1.6294294
21
82.011857
0
LINE
8
DEFAULT_255_2_778
10
12.1436294
20
105.049357
11
12.1436294
21
104.654057
0
LINE
8
DEFAULT_255_2_778
10
12.1436294
20
104.654057
11
11.6513294
21
104.654057
0
LINE
8
DEFAULT_255_2_778
10
11.6513294
20
104.654057
11
11.6513294
21
103.050457
0
LINE
8
DEFAULT_255_2_778
10
11.6513294
20
103.050457
11
11.1186294
21
103.050457
0
LINE
8
DEFAULT_255_2_778
10
11.1186294
20
103.050457
11
11.1186294
21
104.654057
0
LINE
8
DEFAULT_255_2_778
10
11.1186294
20
104.654057
11
10.6260294
21
104.654057
0
LINE
8
DEFAULT_255_2_778
10
10.6260294
20
104.654057
11
10.6260294
21
105.049357
0
LINE
8
DEFAULT_255_2_778
10
10.6260294
20
105.049357
11
12.1436294
21
105.049357
0
LINE
8
DEFAULT_255_2_778
10
15.2194294
20
105.049357
11
15.5853294
21
105.049357
0
LINE
8
DEFAULT_255_2_778
10
15.5853294
20
105.049357
11
15.5853294
21
103.067057
0
LINE
8
DEFAULT_255_2_778
10
15.5853294
20
103.067057
11
15.2194294
21
103.067057
0
LINE
8
DEFAULT_255_2_778
10
15.2194294
20
103.067057
11
15.2194294
21
103.936257
0
LINE
8
DEFAULT_255_2_778
10
15.2194294
20
103.936257
11
14.4871294
21
103.936257
0
LINE
8
DEFAULT_255_2_778
10
14.4871294
20
103.936257
11
14.4871294
21
103.067057
0
LINE
8
DEFAULT_255_2_778
10
14.4871294
20
103.067057
11
14.1209294
21
103.067057
0
LINE
8
DEFAULT_255_2_778
10
14.1209294
20
103.067057
11
14.1209294
21
105.049357
0
LINE
8
DEFAULT_255_2_778
10
14.1209294
20
105.049357
11
14.4871294
21
105.049357
0
LINE
8
DEFAULT_255_2_778
10
14.4871294
20
105.049357
11
14.4871294
21
104.248457
0
LINE
8
DEFAULT_255_2_778
10
14.4871294
20
104.248457
11
15.2194294
21
104.248457
0
LINE
8
DEFAULT_255_2_778
10
15.2194294
20
104.248457
11
15.2194294
21
105.049357
0
LINE
8
DEFAULT_255_2_778
10
3.6442294
20
105.049357
11
4.0363294
21
104.247357
0
LINE
8
DEFAULT_255_2_778
10
4.0363294
20
104.247357
11
4.4228294
21
105.049357
0
LINE
8
DEFAULT_255_2_778
10
4.4228294
20
105.049357
11
5.0356294
21
105.049357
0
LINE
8
DEFAULT_255_2_778
10
5.0356294
20
105.049357
11
4.3024294
21
103.803657
0
LINE
8
DEFAULT_255_2_778
10
4.3024294
20
103.803657
11
4.3024294
21
103.050657
0
LINE
8
DEFAULT_255_2_778
10
4.3024294
20
103.050657
11
3.7698294
21
103.050657
0
LINE
8
DEFAULT_255_2_778
10
3.7698294
20
103.050657
11
3.7698294
21
103.803657
0
LINE
8
DEFAULT_255_2_778
10
3.7698294
20
103.803657
11
3.0309294
21
105.049357
0
LINE
8
DEFAULT_255_2_778
10
3.0309294
20
105.049357
11
3.6442294
21
105.049357
0
LINE
8
DEFAULT_255_2_778
10
7.2444294
20
104.247357
11
7.0068294
21
104.608257
0
LINE
8
DEFAULT_255_2_778
10
7.0068294
20
104.608257
11
7.6854294
21
105.049357
0
LINE
8
DEFAULT_255_2_778
10
7.6854294
20
105.049357
11
8.1550294
21
105.049357
0
LINE
8
DEFAULT_255_2_778
10
8.1550294
20
105.049357
11
8.1550294
21
103.050457
0
LINE
8
DEFAULT_255_2_778
10
8.1550294
20
103.050457
11
7.6224294
21
103.050457
0
LINE
8
DEFAULT_255_2_778
10
7.6224294
20
103.050457
11
7.6224294
21
104.516757
0
LINE
8
DEFAULT_255_2_778
10
7.6224294
20
104.516757
11
7.2446294
21
104.247357
0
LINE
8
DEFAULT_255_2_778
10
2.2403294
20
104.452957
11
2.2403294
21
104.452957
0
LINE
8
DEFAULT_255_2_778
10
1.2608294
20
105.048857
11
1.2608294
21
103.054657
0
LINE
8
DEFAULT_255_2_778
10
1.2608294
20
103.054657
11
1.7553294
21
103.054657
0
LINE
8
DEFAULT_255_2_778
10
1.7553294
20
103.054657
11
1.7553294
21
103.845757
0
LINE
8
DEFAULT_255_2_778
10
2.0672294
20
103.746857
11
2.3030294
21
103.062857
0
LINE
8
DEFAULT_255_2_778
10
2.3030294
20
103.062857
11
2.8126294
21
103.054657
0
LINE
8
DEFAULT_255_2_778
10
2.8126294
20
103.054657
11
2.5237294
21
103.911657
0
LINE
8
DEFAULT_255_2_778
10
1.2611294
20
105.048857
11
1.2608294
21
105.048857
0
ARC
8
DEFAULT_255_2_778
10
10.5892868
20
106.6743303
40
4.0052057
50
306.0526231
51
310.4847164
0
ARC
8
DEFAULT_255_2_778
10
11.4592693
20
105.6596569
40
2.6686357
50
310.4220504
51
316.5194258
0
ARC
8
DEFAULT_255_2_778
10
12.167226
20
104.992355
40
1.6957631
50
316.4196929
51
325.1036407
0
ARC
8
DEFAULT_255_2_778
10
12.7107553
20
104.6175109
40
1.0355267
50
324.9096007
51
338.4543595
0
ARC
8
DEFAULT_255_2_778
10
13.0609747
20
104.4805363
40
0.6594771
50
338.3490733
51
359.444283
0
ARC
8
DEFAULT_255_2_778
10
13.1413304
20
104.4727213
40
0.5790921
50
0.1403701
51
25.8674693
0
ARC
8
DEFAULT_255_2_778
10
13.0535295
20
104.4358633
40
0.6741962
50
25.4305067
51
27.9360177
0
ARC
8
DEFAULT_255_2_778
10
13.0909704
20
104.3497592
40
0.6878565
50
35.7577246
51
77.9632741
0
ARC
8
DEFAULT_255_2_778
10
12.9967454
20
103.9837576
40
1.0655783
50
77.1121822
51
89.6982933
0
ARC
8
DEFAULT_255_2_778
10
12.9855867
20
103.7152852
40
1.3341414
50
89.2797899
51
90.0010753
0
ARC
8
DEFAULT_255_2_778
10
12.9903409
20
103.4720852
40
1.5773484
50
90.1736041
51
96.7899255
0
ARC
8
DEFAULT_255_2_778
10
13.0552646
20
102.9162158
40
2.1369953
50
96.7563637
51
101.9569675
0
ARC
8
DEFAULT_255_2_778
10
13.2020995
20
102.2164602
40
2.8519898
50
101.9303647
51
106.0670601
0
ARC
8
DEFAULT_255_2_778
10
13.3561735
20
101.6632621
40
3.4262247
50
105.9826321
51
107.2026021
0
ARC
8
DEFAULT_255_2_778
10
13.5596848
20
101.1754842
40
3.5495357
50
107.1543768
51
109.6209885
0
ARC
8
DEFAULT_255_2_778
10
13.2308343
20
102.2459141
40
2.4297325
50
103.8220205
51
107.1897319
0
ARC
8
DEFAULT_255_2_778
10
13.0250443
20
103.0883698
40
1.5625083
50
99.2319265
51
103.8747283
0
ARC
8
DEFAULT_255_2_778
10
12.9268145
20
103.7019026
40
0.9411647
50
92.6761611
51
99.3215648
0
ARC
8
DEFAULT_255_2_778
10
12.9103462
20
103.9837186
40
0.6588954
50
90.0316996
51
92.3898883
0
ARC
8
DEFAULT_255_2_778
10
12.9158806
20
104.2197935
40
0.4228615
50
76.8310871
51
90.7992981
0
ARC
8
DEFAULT_255_2_778
10
12.9710318
20
104.440518
40
0.1954068
50
46.4531507
51
77.8324096
0
ARC
8
DEFAULT_255_2_778
10
12.9808631
20
104.463985
40
0.1718624
50
2.3593245
51
43.4374464
0
ARC
8
DEFAULT_255_2_778
10
12.8684985
20
104.4478469
40
0.2850281
50
359.9278609
51
4.6714121
0
ARC
8
DEFAULT_255_2_778
10
12.7693578
20
104.449507
40
0.384174
50
351.255012
51
359.6988889
0
ARC
8
DEFAULT_255_2_778
10
12.5815993
20
104.4775827
40
0.5740188
50
345.2496009
51
351.3345509
0
ARC
8
DEFAULT_255_2_778
10
12.4050328
20
104.5219591
40
0.7560677
50
343.1036319
51
345.4043077
0
ARC
8
DEFAULT_255_2_778
10
11.5375087
20
105.1359852
40
1.7961927
50
319.5164061
51
332.3423275
0
ARC
8
DEFAULT_255_2_778
10
10.896723
20
105.6762841
40
2.6343524
50
310.8339958
51
319.626687
0
ARC
8
DEFAULT_255_2_778
10
10.1360535
20
106.5469851
40
3.7905148
50
304.8425503
51
310.9277582
0
LINE
8
DEFAULT_255_2_778
10
12.3016626
20
103.4360144
11
12.3016626
21
103.0669144
0
LINE
8
DEFAULT_255_2_778
10
12.3016626
20
103.0669144
11
13.7486626
21
103.0669144
0
ARC
8
DEFAULT_255_2_778
10
13.7971067
20
103.0862612
40
0.0521645
50
175.9084632
51
201.7699576
0
ARC
8
DEFAULT_255_2_778
10
15.0715083
20
103.1700742
40
1.328849
50
181.4019459
51
183.4553695
0
ARC
8
DEFAULT_255_2_778
10
19.7943401
20
103.2946741
40
6.0533222
50
180.4381913
51
181.487257
0
ARC
8
DEFAULT_255_2_778
10
32.748866
20
103.4139915
40
19.0083926
50
180.0151811
51
180.4992001
0
ARC
8
DEFAULT_255_2_778
10
44.7191979
20
103.4355359
40
30.9787353
50
179.999115
51
180.0491618
0
LINE
8
DEFAULT_255_2_778
10
13.7404626
20
103.4360144
11
12.9466626
21
103.4360144
0
LINE
8
DEFAULT_255_2_778
10
5.9457626
20
102.1059144
11
6.3934626
21
102.1059144
0
LINE
8
DEFAULT_255_2_778
10
6.3934626
20
102.1059144
11
6.3934626
21
100.8960144
0
ARC
8
DEFAULT_255_2_778
10
7.1157166
20
100.8836931
40
0.7223591
50
179.0226573
51
193.8056738
0
ARC
8
DEFAULT_255_2_778
10
6.6922399
20
100.7713017
40
0.2844113
50
192.1756181
51
230.2169612
0
ARC
8
DEFAULT_255_2_778
10
6.66255
20
100.7631158
40
0.2597183
50
234.0977263
51
272.3418798
0
ARC
8
DEFAULT_255_2_778
10
6.6887349
20
100.7467736
40
0.2436573
50
266.3356991
51
346.0496447
0
ARC
8
DEFAULT_255_2_778
10
6.3168649
20
100.8721683
40
0.6355978
50
343.1597029
51
359.4234733
0
ARC
8
DEFAULT_255_2_778
10
5.9158388
20
100.8957112
40
1.0370239
50
358.3456663
51
0.0167499
0
LINE
8
DEFAULT_255_2_778
10
6.9528626
20
100.8960144
11
6.9528626
21
102.1059144
0
LINE
8
DEFAULT_255_2_778
10
6.9528626
20
102.1059144
11
7.4282626
21
102.1059144
0
LINE
8
DEFAULT_255_2_778
10
7.4282626
20
102.1059144
11
7.4282626
21
100.7981144
0
ARC
8
DEFAULT_255_2_778
10
6.4405506
20
100.7853011
40
0.9877952
50
345.5615899
51
0.7432415
0
ARC
8
DEFAULT_255_2_778
10
6.8841643
20
100.6588895
40
0.5268056
50
285.4823542
51
346.8460235
0
ARC
8
DEFAULT_255_2_778
10
6.7538266
20
101.0678827
40
0.9558913
50
270.991176
51
286.4672538
0
ARC
8
DEFAULT_255_2_778
10
6.7292714
20
101.4733907
40
1.3618762
50
269.9870082
51
271.7289944
0
ARC
8
DEFAULT_255_2_778
10
6.7162611
20
101.3556581
40
1.2442086
50
257.854136
51
270.5849132
0
ARC
8
DEFAULT_255_2_778
10
6.5939186
20
100.8162846
40
0.6911948
50
233.7487913
51
258.3613802
0
ARC
8
DEFAULT_255_2_778
10
6.5447051
20
100.719817
40
0.5845567
50
192.6385092
51
232.0473242
0
ARC
8
DEFAULT_255_2_778
10
6.9408103
20
100.8308107
40
0.9955847
50
181.8820059
51
193.883804
0
LINE
8
DEFAULT_255_2_778
10
5.9457626
20
100.7981144
11
5.9457626
21
102.1059144
0
ARC
8
DEFAULT_255_2_778
10
5.1037368
20
101.5180719
40
0.2009082
50
357.5587949
51
78.2544742
0
ARC
8
DEFAULT_255_2_778
10
4.982295
20
101.1528298
40
0.5849229
50
73.8865417
51
89.023842
0
ARC
8
DEFAULT_255_2_778
10
4.9589178
20
100.7677047
40
0.9705361
50
88.0312531
51
90.0248943
0
ARC
8
DEFAULT_255_2_778
10
4.9602426
20
100.5288791
40
1.209363
50
90.0827408
51
93.4557596
0
ARC
8
DEFAULT_255_2_778
10
4.9770157
20
100.2273334
40
1.5113721
50
93.4014013
51
95.1457022
0
LINE
8
DEFAULT_255_2_778
10
4.8414626
20
101.7326144
11
4.8414626
21
101.2862144
0
ARC
8
DEFAULT_255_2_778
10
4.9904955
20
102.6561139
40
1.3779824
50
263.7911466
51
267.1640107
0
ARC
8
DEFAULT_255_2_778
10
4.9741159
20
102.3402019
40
1.0616471
50
267.2033606
51
269.9490103
0
ARC
8
DEFAULT_255_2_778
10
4.9835332
20
101.9028662
40
0.624397
50
269.049111
51
283.4376127
0
ARC
8
DEFAULT_255_2_778
10
5.0782211
20
101.5350348
40
0.2447208
50
281.8883013
51
317.9063443
0
ARC
8
DEFAULT_255_2_778
10
5.0957265
20
101.5003177
40
0.2089298
50
321.7559753
51
2.4679672
0
ARC
8
DEFAULT_255_2_778
10
4.8824215
20
99.9658146
40
0.9370831
50
90.0284494
51
92.0217302
0
ARC
8
DEFAULT_255_2_778
10
4.8931916
20
100.3747266
40
0.5282904
50
75.2118862
51
91.2186227
0
ARC
8
DEFAULT_255_2_778
10
4.9902947
20
100.7134233
40
0.1761844
50
30.715649
51
77.6307988
0
ARC
8
DEFAULT_255_2_778
10
5.333336
20
100.8556732
40
0.261665
50
25.4736767
51
69.03416
0
ARC
8
DEFAULT_255_2_778
10
5.3158298
20
101.5376569
40
0.4515323
50
284.2482522
51
319.7747073
0
ARC
8
DEFAULT_255_2_778
10
5.2888601
20
101.5332005
40
0.4697077
50
322.315122
51
354.4222969
0
ARC
8
DEFAULT_255_2_778
10
4.9828827
20
101.5838369
40
0.7794318
50
352.9036358
51
0.1745362
0
ARC
8
DEFAULT_255_2_778
10
4.8373016
20
101.5861568
40
0.9250093
50
0.0033668
51
1.0256423
0
ARC
8
DEFAULT_255_2_778
10
5.2207094
20
101.5914691
40
0.54157
50
1.1897887
51
28.0288489
0
ARC
8
DEFAULT_255_2_778
10
5.3038342
20
101.6161246
40
0.4569364
50
30.1983792
51
71.2445833
0
ARC
8
DEFAULT_255_2_778
10
5.1457373
20
101.20803
40
0.8943849
50
70.060153
51
85.1157679
0
ARC
8
DEFAULT_255_2_778
10
5.0810473
20
100.6342602
40
1.4716618
50
84.5082966
51
90.1555767
0
ARC
8
DEFAULT_255_2_778
10
5.0773849
20
100.2800652
40
1.8258515
50
90.0104709
51
91.3439
0
LINE
8
DEFAULT_255_2_778
10
5.0345626
20
102.1054144
11
4.3855626
21
102.1054144
0
LINE
8
DEFAULT_255_2_778
10
6.4815626
20
103.7924144
11
6.4815626
21
105.0494144
0
LINE
8
DEFAULT_255_2_778
10
6.4815626
20
105.0494144
11
5.8918626
21
105.0494144
0
LINE
8
DEFAULT_255_2_778
10
5.8918626
20
105.0494144
11
5.0903626
21
103.8553144
0
LINE
8
DEFAULT_255_2_778
10
5.0903626
20
103.8553144
11
5.0903626
21
103.4315144
0
LINE
8
DEFAULT_255_2_778
10
5.0903626
20
103.4315144
11
5.9833626
21
103.4315144
0
LINE
8
DEFAULT_255_2_778
10
5.9833626
20
103.4315144
11
5.9833626
21
103.0505144
0
LINE
8
DEFAULT_255_2_778
10
5.9833626
20
103.0505144
11
6.4815626
21
103.0505144
0
LINE
8
DEFAULT_255_2_778
10
6.4815626
20
103.0505144
11
6.4815626
21
103.4315144
0
LINE
8
DEFAULT_255_2_778
10
6.4815626
20
103.4315144
11
6.7654626
21
103.4315144
0
LINE
8
DEFAULT_255_2_778
10
6.7654626
20
103.4315144
11
6.7654626
21
103.7924144
0
LINE
8
DEFAULT_255_2_778
10
6.7654626
20
103.7924144
11
6.4815626
21
103.7924144
0
LINE
8
DEFAULT_255_2_778
10
6.0786626
20
104.6372144
11
6.0841626
21
103.7924144
0
LINE
8
DEFAULT_255_2_778
10
6.0841626
20
103.7924144
11
5.5343626
21
103.7924144
0
LINE
8
DEFAULT_255_2_778
10
5.5343626
20
103.7924144
11
6.0786626
21
104.6372144
0
LINE
8
DEFAULT_255_2_778
10
10.0727626
20
103.5550144
11
10.0727626
21
105.0494144
0
LINE
8
DEFAULT_255_2_778
10
10.0727626
20
105.0494144
11
10.4812626
21
105.0494144
0
LINE
8
DEFAULT_255_2_778
10
10.4812626
20
105.0494144
11
10.4812626
21
103.0505144
0
LINE
8
DEFAULT_255_2_778
10
10.4812626
20
103.0505144
11
9.9600626
21
103.0505144
0
LINE
8
DEFAULT_255_2_778
10
9.9600626
20
103.0505144
11
9.1456626
21
104.5456144
0
LINE
8
DEFAULT_255_2_778
10
9.1456626
20
104.5456144
11
9.1395626
21
104.5456144
0
LINE
8
DEFAULT_255_2_778
10
9.1395626
20
104.5456144
11
9.1395626
21
103.0505144
0
LINE
8
DEFAULT_255_2_778
10
9.1395626
20
103.0505144
11
8.7310626
21
103.0505144
0
LINE
8
DEFAULT_255_2_778
10
8.7310626
20
103.0505144
11
8.7310626
21
105.0494144
0
LINE
8
DEFAULT_255_2_778
10
8.7310626
20
105.0494144
11
9.2554626
21
105.0494144
0
LINE
8
DEFAULT_255_2_778
10
9.2554626
20
105.0494144
11
10.0669626
21
103.5550144
0
LINE
8
DEFAULT_255_2_778
10
10.0669626
20
103.5550144
11
10.0727626
21
103.5550144
0
LINE
8
DEFAULT_255_2_778
10
12.3428626
20
104.9362144
11
12.3677626
21
104.5189144
0
LINE
8
DEFAULT_255_2_778
10
12.9466626
20
103.4360144
11
12.9464626
21
103.4362144
0
LINE
8
DEFAULT_255_2_778
10
5.9457626
20
102.1059144
11
5.9457626
21
102.1059144
0
LINE
8
DEFAULT_255_2_778
10
5.3044626
20
101.5093144
11
5.3044626
21
101.5095144
0
LINE
8
DEFAULT_255_2_778
10
4.3858626
20
102.1054144
11
4.3858626
21
100.1112144
0
LINE
8
DEFAULT_255_2_778
10
4.3858626
20
100.1112144
11
4.8493626
21
100.1112144
0
LINE
8
DEFAULT_255_2_778
10
4.8493626
20
100.1112144
11
4.8493626
21
100.9023144
0
LINE
8
DEFAULT_255_2_778
10
5.1417626
20
100.8034144
11
5.3629626
21
100.1194144
0
LINE
8
DEFAULT_255_2_778
10
5.3629626
20
100.1194144
11
5.8407626
21
100.1112144
0
LINE
8
DEFAULT_255_2_778
10
5.8407626
20
100.1112144
11
5.5695626
21
100.9682144
0
LINE
8
DEFAULT_255_2_778
10
4.3855626
20
102.1054144
11
4.3858626
21
102.1054144
0
LINE
8
DEFAULT_255_2_778
10
9.0043626
20
100.6115144
11
9.0043626
21
102.1059144
0
LINE
8
DEFAULT_255_2_778
10
9.0043626
20
102.1059144
11
9.4128626
21
102.1059144
0
LINE
8
DEFAULT_255_2_778
10
9.4128626
20
102.1059144
11
9.4128626
21
100.1070144
0
LINE
8
DEFAULT_255_2_778
10
9.4128626
20
100.1070144
11
8.8916626
21
100.1070144
0
LINE
8
DEFAULT_255_2_778
10
8.8916626
20
100.1070144
11
8.0772626
21
101.6021144
0
LINE
8
DEFAULT_255_2_778
10
8.0772626
20
101.6021144
11
8.0711626
21
101.6021144
0
LINE
8
DEFAULT_255_2_778
10
8.0711626
20
101.6021144
11
8.0711626
21
100.1070144
0
LINE
8
DEFAULT_255_2_778
10
8.0711626
20
100.1070144
11
7.6626626
21
100.1070144
0
LINE
8
DEFAULT_255_2_778
10
7.6626626
20
100.1070144
11
7.6626626
21
102.1059144
0
LINE
8
DEFAULT_255_2_778
10
7.6626626
20
102.1059144
11
8.1870626
21
102.1059144
0
LINE
8
DEFAULT_255_2_778
10
8.1870626
20
102.1059144
11
8.9985626
21
100.6115144
0
LINE
8
DEFAULT_255_2_778
10
8.9985626
20
100.6115144
11
9.0043626
21
100.6115144
0
ENDSEC
0
EOF