0
SECTION
2
HEADER
9
$MEASUREMENT
70
1
0
ENDSEC
0
SECTION
2
TABLES
0
TABLE
2
LTYPE
0
LTYPE
72
65
70
64
2
CONTINUOUS
3
______
73
0
40
0
0
ENDTAB
0
TABLE
2
LAYER
0
LAYER
2
DEFAULT_255_2_778
70
0
62
255
6
CONTINUOUS
0
ENDTAB
0
ENDSEC
0
SECTION
2
ENTITIES
0
ARC
8
DEFAULT_255_2_778
10
0.7552544
20
105.3187375
40
0.5000718
50
112.7485753
51
180.0032678
0
ARC
8
DEFAULT_255_2_778
10
0.7552584
20
0.3188847
40
0.5000758
50
180.008676
51
270.0027763
0
ARC
8
DEFAULT_255_2_778
10
27.5551284
20
0.3188632
40
0.5000542
50
270.0062229
51
359.9937886
0
ARC
8
DEFAULT_255_2_778
10
27.5550472
20
105.318737
40
0.5001355
50
359.9967892
51
67.2341535
0
ARC
8
DEFAULT_255_2_778
10
27.5017013
20
105.2832204
40
0.5429831
50
0.1465198
51
11.7623417
0
ARC
8
DEFAULT_255_2_778
10
27.4829421
20
105.2802059
40
0.5619636
50
11.6733403
51
21.4499007
0
ARC
8
DEFAULT_255_2_778
10
27.4621629
20
105.2722425
40
0.5842156
50
21.4315789
51
36.8621806
0
ARC
8
DEFAULT_255_2_778
10
27.4808303
20
105.2873328
40
0.5602284
50
36.772684
51
50.1141108
0
ARC
8
DEFAULT_255_2_778
10
27.4823668
20
105.2912777
40
0.5562176
50
49.9749809
51
61.8730555
0
ARC
8
DEFAULT_255_2_778
10
27.5559738
20
105.3195923
40
0.4992169
50
67.8019415
51
89.9416007
0
ARC
8
DEFAULT_255_2_778
10
0.7544666
20
105.3192112
40
0.4995981
50
90.0669612
51
112.1895127
0
ARC
8
DEFAULT_255_2_778
10
0.8280015
20
105.2912727
40
0.5562234
50
118.1269808
51
130.0249317
0
ARC
8
DEFAULT_255_2_778
10
0.8305234
20
105.2875804
40
0.5606728
50
129.9796126
51
143.3182991
0
ARC
8
DEFAULT_255_2_778
10
0.8439715
20
105.2737552
40
0.5797245
50
143.0164742
51
158.5547994
0
ARC
8
DEFAULT_255_2_778
10
0.8109476
20
105.2856848
40
0.5446262
50
158.4527337
51
168.5383053
0
ARC
8
DEFAULT_255_2_778
10
0.8087655
20
105.2832203
40
0.5429845
50
168.237681
51
179.8534726
0
ARC
8
DEFAULT_255_2_778
10
0.4779848
20
80.5199593
40
0.2122038
50
180.2295959
51
196.7483089
0
ARC
8
DEFAULT_255_2_778
10
0.462459
20
80.5149592
40
0.195896
50
196.6564705
51
211.3611324
0
ARC
8
DEFAULT_255_2_778
10
0.4604016
20
80.5097482
40
0.1909055
50
233.4387515
51
252.37013
0
ARC
8
DEFAULT_255_2_778
10
0.4590094
20
80.5064447
40
0.1873358
50
252.4699277
51
270.0529916
0
ARC
8
DEFAULT_255_2_778
10
15.4426959
20
80.5192775
40
0.2001686
50
270.024835
51
318.1424649
0
ARC
8
DEFAULT_255_2_778
10
17.4555093
20
78.7187894
40
2.5004195
50
90.0074852
51
138.1905093
0
ARC
8
DEFAULT_255_2_778
10
19.7549561
20
78.7187898
40
2.5004192
50
41.8094852
51
89.9925168
0
ARC
8
DEFAULT_255_2_778
10
21.7677691
20
80.5192766
40
0.2001676
50
221.8574136
51
269.9752733
0
ARC
8
DEFAULT_255_2_778
10
27.8513571
20
80.5070857
40
0.1879768
50
269.9468364
51
287.4999546
0
ARC
8
DEFAULT_255_2_778
10
27.850354
20
80.5075973
40
0.1887682
50
287.7436374
51
306.7818542
0
ARC
8
DEFAULT_255_2_778
10
27.8442464
20
80.5165007
40
0.1996533
50
328.7778756
51
343.2043229
0
ARC
8
DEFAULT_255_2_778
10
27.8395181
20
80.5188641
40
0.2048647
50
342.9536357
51
0.0684766
0
LINE
8
DEFAULT_255_2_778
10
0.2551827
20
105.3187089
11
0.2551827
21
0.3188089
0
LINE
8
DEFAULT_255_2_778
10
0.7552827
20
-0.1811911
11
27.5551827
21
-0.1811911
0
LINE
8
DEFAULT_255_2_778
10
28.0551827
20
0.3188089
11
28.0551827
21
105.3187089
0
LINE
8
DEFAULT_255_2_778
10
27.5564827
20
105.8188089
11
0.7538827
21
105.8188089
0
LINE
8
DEFAULT_255_2_778
10
0.2657827
20
105.2846089
11
0.2657827
21
80.5191089
0
LINE
8
DEFAULT_255_2_778
10
0.2951827
20
80.4130089
11
0.3199827
21
80.3802089
0
LINE
8
DEFAULT_255_2_778
10
0.3199827
20
80.3802089
11
0.3466827
21
80.3564089
0
LINE
8
DEFAULT_255_2_778
10
0.4591827
20
80.3191089
11
15.4427827
21
80.3191089
0
LINE
8
DEFAULT_255_2_778
10
17.4551827
20
81.2192089
11
19.7552827
21
81.2192089
0
LINE
8
DEFAULT_255_2_778
10
21.7676827
20
80.3191089
11
27.8511827
21
80.3191089
0
LINE
8
DEFAULT_255_2_778
10
27.9633827
20
80.3564089
11
27.9900827
21
80.3802089
0
LINE
8
DEFAULT_255_2_778
10
27.9900827
20
80.3802089
11
28.0149827
21
80.4130089
0
LINE
8
DEFAULT_255_2_778
10
28.0443827
20
80.5191089
11
28.0443827
21
105.2846089
0
ARC
8
DEFAULT_255_2_778
10
23.954977
20
3.118667
40
0.7001057
50
0.0004762
51
89.9995337
0
ARC
8
DEFAULT_255_2_778
10
4.3553165
20
3.1185389
40
0.7002339
50
90.0109457
51
179.9890444
0
ARC
8
DEFAULT_255_2_778
10
17.4553621
20
78.7187234
40
2.3001496
50
90.0044701
51
142.5060589
0
LINE
8
DEFAULT_255_2_778
10
19.7552827
20
81.0188728
11
19.7556049
21
81.0188729
0
ARC
8
DEFAULT_255_2_778
10
19.7555361
20
78.7196002
40
2.2992727
50
37.4831713
51
89.9982843
0
LINE
8
DEFAULT_255_2_778
10
23.9549827
20
3.8187728
11
4.3551827
21
3.8187728
0
LINE
8
DEFAULT_255_2_778
10
3.6550827
20
3.1186728
11
3.6550827
21
-0.0814272
0
LINE
8
DEFAULT_255_2_778
10
3.6550827
20
-0.0814272
11
24.6550827
21
-0.0814272
0
LINE
8
DEFAULT_255_2_778
10
24.6550827
20
-0.0814272
11
24.6550827
21
3.1186728
0
LINE
8
DEFAULT_255_2_778
10
0.2551827
20
80.1187728
11
15.6303827
21
80.1187728
0
LINE
8
DEFAULT_255_2_778
10
17.4551827
20
81.0188728
11
19.7552827
21
81.0188728
0
LINE
8
DEFAULT_255_2_778
10
21.5800827
20
80.1187728
11
28.0551827
21
80.1187728
0
ARC
8
DEFAULT_255_2_778
10
11.3355264
20
82.8117765
40
0.5852466
50
62.3485721
51
69.7872525
0
ARC
8
DEFAULT_255_2_778
10
11.4121257
20
83.0225207
40
0.3610163
50
69.6394077
51
80.4010765
0
ARC
8
DEFAULT_255_2_778
10
11.4332321
20
83.1416978
40
0.2399901
50
80.6250303
51
89.7630772
0
ARC
8
DEFAULT_255_2_778
10
11.431221
20
83.2247316
40
0.1569829
50
88.9037367
51
114.7374011
0
ARC
8
DEFAULT_255_2_778
10
11.4188895
20
83.2551962
40
0.1241633
50
115.4519109
51
143.8815371
0
ARC
8
DEFAULT_255_2_778
10
11.4139947
20
83.2581737
40
0.1184551
50
143.64932
51
161.2312631
0
ARC
8
DEFAULT_255_2_778
10
11.3799783
20
83.2702388
40
0.0823669
50
161.5643564
51
167.2759424
0
ARC
8
DEFAULT_255_2_778
10
11.5552431
20
83.213338
40
0.2663969
50
163.6386196
51
171.41827
0
ARC
8
DEFAULT_255_2_778
10
11.4805828
20
83.2247695
40
0.1908666
50
171.4671253
51
179.8041826
0
ARC
8
DEFAULT_255_2_778
10
11.4433373
20
83.2307519
40
0.1537124
50
181.9871834
51
246.3537171
0
ARC
8
DEFAULT_255_2_778
10
11.7968728
20
83.7974314
40
0.8203154
50
239.5934751
51
243.4950328
0
ARC
8
DEFAULT_255_2_778
10
8.0049278
20
76.2598731
40
7.617322
50
62.9353365
51
63.2726254
0
ARC
8
DEFAULT_255_2_778
10
11.3144527
20
82.6928888
40
0.3834708
50
40.686429
51
65.942269
0
ARC
8
DEFAULT_255_2_778
10
11.2484264
20
82.7036159
40
0.4296038
50
20.490008
51
33.8446221
0
ARC
8
DEFAULT_255_2_778
10
11.2662082
20
82.7109197
40
0.4103908
50
15.9875598
51
20.4038326
0
ARC
8
DEFAULT_255_2_778
10
11.2724118
20
82.71259
40
0.4039673
50
0.0047327
51
16.0021517
0
ARC
8
DEFAULT_255_2_778
10
11.2881538
20
82.7103998
40
0.3882315
50
325.3203693
51
0.328169
0
ARC
8
DEFAULT_255_2_778
10
11.4013807
20
82.6257189
40
0.2469925
50
286.4041837
51
326.529592
0
ARC
8
DEFAULT_255_2_778
10
11.3582779
20
82.6978615
40
0.3290404
50
271.1376671
51
290.0589192
0
ARC
8
DEFAULT_255_2_778
10
11.3517869
20
82.7941037
40
0.4254172
50
269.9891798
51
271.7543661
0
ARC
8
DEFAULT_255_2_778
10
11.3574652
20
82.9568724
40
0.5882141
50
258.4919782
51
269.4390636
0
ARC
8
DEFAULT_255_2_778
10
11.4538459
20
83.4489374
40
1.0896219
50
252.011054
51
258.6879182
0
ARC
8
DEFAULT_255_2_778
10
11.4231608
20
83.0477036
40
0.5144694
50
236.0216276
51
245.5033073
0
ARC
8
DEFAULT_255_2_778
10
11.3493567
20
82.8837236
40
0.3346488
50
245.3608358
51
258.7574257
0
ARC
8
DEFAULT_255_2_778
10
11.3296195
20
82.7901426
40
0.239018
50
259.0243829
51
269.7879293
0
ARC
8
DEFAULT_255_2_778
10
11.3322778
20
82.7221878
40
0.1710982
50
268.813455
51
305.3514141
0
ARC
8
DEFAULT_255_2_778
10
11.3447461
20
82.7025781
40
0.147895
50
305.807256
51
344.0401718
0
ARC
8
DEFAULT_255_2_778
10
11.3716119
20
82.6941477
40
0.1197488
50
344.3838715
51
359.712703
0
ARC
8
DEFAULT_255_2_778
10
11.3870862
20
82.6935723
40
0.1042732
50
359.9862575
51
2.8080186
0
ARC
8
DEFAULT_255_2_778
10
11.3324726
20
82.695371
40
0.1587961
50
1.1942401
51
36.715595
0
ARC
8
DEFAULT_255_2_778
10
11.2337358
20
82.5873064
40
0.3038064
50
41.9273491
51
68.1823219
0
ARC
8
DEFAULT_255_2_778
10
12.8936632
20
86.0725766
40
3.5572335
50
243.483915
51
244.2215052
0
ARC
8
DEFAULT_255_2_778
10
11.4421926
20
83.2011921
40
0.340303
50
217.5932586
51
246.324128
0
ARC
8
DEFAULT_255_2_778
10
11.4433511
20
83.1844356
40
0.3312938
50
215.0491427
51
215.1740682
0
ARC
8
DEFAULT_255_2_778
10
11.488608
20
83.2137666
40
0.385193
50
201.7925776
51
214.7549382
0
ARC
8
DEFAULT_255_2_778
10
11.4792288
20
83.2095589
40
0.3749224
50
197.5343947
51
201.7276206
0
ARC
8
DEFAULT_255_2_778
10
11.4920987
20
83.2127876
40
0.3881679
50
180.3460404
51
197.4164988
0
ARC
8
DEFAULT_255_2_778
10
11.5150748
20
83.2140018
40
0.4111522
50
179.9971042
51
180.4959096
0
ARC
8
DEFAULT_255_2_778
10
11.5503495
20
83.2120745
40
0.4464313
50
159.1957421
51
179.7499813
0
ARC
8
DEFAULT_255_2_778
10
11.4902788
20
83.238526
40
0.3808974
50
145.4041885
51
159.7058439
0
ARC
8
DEFAULT_255_2_778
10
11.3942743
20
83.3008137
40
0.2665223
50
143.5608481
51
144.7085505
0
ARC
8
DEFAULT_255_2_778
10
11.3344859
20
83.3471303
40
0.1909208
50
133.5724185
51
144.0856284
0
ARC
8
DEFAULT_255_2_778
10
11.2671343
20
83.4177864
40
0.0933067
50
122.0398783
51
133.5139202
0
ARC
8
DEFAULT_255_2_778
10
11.3873797
20
83.2950931
40
0.2636886
50
91.5247328
51
130.0708587
0
ARC
8
DEFAULT_255_2_778
10
11.4054772
20
83.1479644
40
0.411491
50
89.963652
51
93.4990089
0
ARC
8
DEFAULT_255_2_778
10
11.3979887
20
82.957491
40
0.6020142
50
77.0309659
51
89.2624298
0
ARC
8
DEFAULT_255_2_778
10
11.331107
20
82.6248568
40
0.9412209
50
76.0134957
51
77.60779
0
ARC
8
DEFAULT_255_2_778
10
11.2150858
20
82.1661009
40
1.4144185
50
74.4004189
51
75.9445012
0
ARC
8
DEFAULT_255_2_778
10
12.2654194
20
85.9058985
40
2.4700772
50
254.2620614
51
254.9379826
0
ARC
8
DEFAULT_255_2_778
10
12.0771548
20
83.7143568
40
0.8894306
50
266.9566931
51
269.9477359
0
ARC
8
DEFAULT_255_2_778
10
12.0892997
20
83.326966
40
0.5022068
50
268.5216861
51
289.3194688
0
ARC
8
DEFAULT_255_2_778
10
12.1569954
20
83.1131768
40
0.2781444
50
290.7296879
51
351.9505896
0
ARC
8
DEFAULT_255_2_778
10
11.8187972
20
83.1979724
40
0.6259554
50
348.5982575
51
359.5613841
0
ARC
8
DEFAULT_255_2_778
10
11.8957275
20
83.2035755
40
0.5491051
50
358.9152854
51
359.9957487
0
ARC
8
DEFAULT_255_2_778
10
12.0707333
20
83.2140762
40
0.3742478
50
358.3859361
51
27.4523906
0
ARC
8
DEFAULT_255_2_778
10
12.1339601
20
83.2263515
40
0.3130146
50
30.7958312
51
87.6011942
0
ARC
8
DEFAULT_255_2_778
10
12.0893806
20
82.9910304
40
0.5510885
50
83.9920352
51
90.093101
0
ARC
8
DEFAULT_255_2_778
10
12.0885145
20
82.9274971
40
0.6146209
50
90.0027362
51
90.6320815
0
ARC
8
DEFAULT_255_2_778
10
12.0718004
20
83.1956634
40
0.1880631
50
1.0106827
51
39.1339535
0
ARC
8
DEFAULT_255_2_778
10
12.1033044
20
83.1955583
40
0.1649055
50
46.0877051
51
89.8836256
0
ARC
8
DEFAULT_255_2_778
10
12.0741253
20
82.9684845
40
0.3930885
50
85.6940352
51
90.1129779
0
ARC
8
DEFAULT_255_2_778
10
12.0748211
20
82.7994588
40
0.5621151
50
90.1499285
51
94.5066306
0
ARC
8
DEFAULT_255_2_778
10
12.0845603
20
82.6555179
40
0.7063779
50
94.3767748
51
94.435266
0
ARC
8
DEFAULT_255_2_778
10
12.0739139
20
83.4698667
40
0.4634774
50
264.5549769
51
269.8623464
0
ARC
8
DEFAULT_255_2_778
10
12.0986215
20
83.1666804
40
0.1623564
50
260.8488228
51
344.2161915
0
ARC
8
DEFAULT_255_2_778
10
12.0274681
20
83.1742245
40
0.2331928
50
347.1891919
51
0.5291359
0
ARC
8
DEFAULT_255_2_778
10
11.9315222
20
83.1760044
40
0.3291291
50
0.0650472
51
4.0379162
0
ARC
8
DEFAULT_255_2_778
10
9.781917
20
82.9978449
40
0.583794
50
359.071091
51
16.4819248
0
ARC
8
DEFAULT_255_2_778
10
10.0834651
20
83.0924096
40
0.2678566
50
15.3854103
51
90.0959002
0
ARC
8
DEFAULT_255_2_778
10
10.048037
20
82.8672849
40
0.4942205
50
85.9413476
51
90.0576369
0
ARC
8
DEFAULT_255_2_778
10
10.0487777
20
82.7493321
40
0.6121742
50
90.1158541
51
95.4069609
0
ARC
8
DEFAULT_255_2_778
10
10.0571554
20
82.6466569
40
0.7151832
50
95.3000447
51
96.1824249
0
LINE
8
DEFAULT_255_2_778
10
9.9801342
20
83.3576806
11
9.9801342
21
82.5652806
0
ARC
8
DEFAULT_255_2_778
10
10.021191
20
83.2485336
40
0.6844854
50
266.561219
51
269.9512555
0
ARC
8
DEFAULT_255_2_778
10
10.0321015
20
82.9766837
40
0.4127955
50
268.4045979
51
293.3315835
0
ARC
8
DEFAULT_255_2_778
10
10.0728186
20
82.852932
40
0.2832758
50
295.6834313
51
349.7859886
0
ARC
8
DEFAULT_255_2_778
10
9.7528853
20
82.9381057
40
0.6138405
50
347.2564366
51
0.6645269
0
ARC
8
DEFAULT_255_2_778
10
9.4549791
20
82.9446248
40
0.9117057
50
0.0377198
51
2.7508698
0
LINE
8
DEFAULT_255_2_778
10
9.7989342
20
82.3985806
11
10.0936342
21
82.3985806
0
ARC
8
DEFAULT_255_2_778
10
10.1068714
20
82.9025676
40
0.5041608
50
268.4954747
51
294.1894591
0
ARC
8
DEFAULT_255_2_778
10
10.1430874
20
82.7844072
40
0.3818456
50
296.497965
51
344.4605725
0
ARC
8
DEFAULT_255_2_778
10
9.731543
20
82.9235266
40
0.8159634
50
342.7904872
51
358.269128
0
ARC
8
DEFAULT_255_2_778
10
9.079297
20
83.0002382
40
1.4713325
50
356.0498627
51
358.668095
0
ARC
8
DEFAULT_255_2_778
10
9.2525519
20
82.9955361
40
1.2980155
50
358.6978302
51
359.9914131
0
ARC
8
DEFAULT_255_2_778
10
9.6586102
20
83.0068876
40
0.892032
50
359.2583722
51
13.2755783
0
ARC
8
DEFAULT_255_2_778
10
10.0922253
20
83.1160348
40
0.4449901
50
12.4183714
51
43.41103
0
ARC
8
DEFAULT_255_2_778
10
10.129232
20
83.1256881
40
0.4118849
50
45.9741373
51
83.275022
0
ARC
8
DEFAULT_255_2_778
10
10.0738092
20
82.8359252
40
0.70646
50
81.5627591
51
90.2088362
0
LINE
8
DEFAULT_255_2_778
10
10.0712342
20
83.5423806
11
9.7992342
21
83.5423806
0
LINE
8
DEFAULT_255_2_778
10
9.7992342
20
83.5423806
11
9.7992342
21
82.3985806
0
LINE
8
DEFAULT_255_2_778
10
10.7345342
20
82.3890806
11
10.7345342
21
83.5423806
0
LINE
8
DEFAULT_255_2_778
10
10.7345342
20
83.5423806
11
10.9115342
21
83.5423806
0
LINE
8
DEFAULT_255_2_778
10
10.9115342
20
83.5423806
11
10.9115342
21
82.3890806
0
LINE
8
DEFAULT_255_2_778
10
10.9115342
20
82.3890806
11
10.7345342
21
82.3890806
0
LINE
8
DEFAULT_255_2_778
10
11.6235342
20
83.5206806
11
11.6071342
21
83.3301806
0
LINE
8
DEFAULT_255_2_778
10
11.1173342
20
82.4125806
11
11.1356342
21
82.6210806
0
LINE
8
DEFAULT_255_2_778
10
11.6235342
20
83.5206806
11
11.6235342
21
83.5206806
0
LINE
8
DEFAULT_255_2_778
10
12.0817342
20
83.5420806
11
11.8529342
21
83.5420806
0
LINE
8
DEFAULT_255_2_778
10
11.8529342
20
83.5420806
11
11.8529342
21
82.3887806
0
LINE
8
DEFAULT_255_2_778
10
11.8529342
20
82.3887806
11
12.0299342
21
82.3887806
0
LINE
8
DEFAULT_255_2_778
10
12.0299342
20
82.3887806
11
12.0299342
21
82.8261806
0
LINE
8
DEFAULT_255_2_778
10
12.0299342
20
83.3597806
11
12.0299342
21
83.0084806
0
LINE
8
DEFAULT_255_2_778
10
12.2598342
20
83.1991806
11
12.2598342
21
83.1989806
0
LINE
8
DEFAULT_255_2_778
10
10.3656342
20
82.9883806
11
10.3656342
21
82.9883806
0
LINE
8
DEFAULT_255_2_778
10
9.7992342
20
82.3985806
11
9.7989342
21
82.3985806
0
ARC
8
DEFAULT_255_2_778
10
24.1343627
20
83.1191723
40
0.1711261
50
359.9070867
51
0.0309694
0
ARC
8
DEFAULT_255_2_778
10
23.8054767
20
83.1191832
40
0.500012
50
0.0093503
51
89.9413515
0
ARC
8
DEFAULT_255_2_778
10
19.6684828
20
78.7295197
40
4.606508
50
29.7965672
51
59.5140562
0
LINE
8
DEFAULT_255_2_778
10
23.8059885
20
83.6191948
11
22.0054885
21
83.6191948
0
LINE
8
DEFAULT_255_2_778
10
22.0054885
20
83.6191948
11
22.0054885
21
82.6991948
0
LINE
8
DEFAULT_255_2_778
10
23.6659885
20
81.0185948
11
24.3054885
21
81.0185948
0
LINE
8
DEFAULT_255_2_778
10
24.3054885
20
81.0185948
11
24.3054885
21
83.1188948
0
LINE
8
DEFAULT_255_2_778
10
24.1072885
20
82.0708948
11
24.1072885
21
81.8186948
0
LINE
8
DEFAULT_255_2_778
10
24.1072885
20
81.8186948
11
23.3527885
21
81.8186948
0
LINE
8
DEFAULT_255_2_778
10
23.3527885
20
81.8186948
11
23.3527885
21
83.4191948
0
LINE
8
DEFAULT_255_2_778
10
23.3527885
20
83.4191948
11
23.6096885
21
83.4191948
0
LINE
8
DEFAULT_255_2_778
10
23.6096885
20
83.4191948
11
23.6096885
21
82.0708948
0
LINE
8
DEFAULT_255_2_778
10
23.6096885
20
82.0708948
11
24.1072885
21
82.0708948
0
LINE
8
DEFAULT_255_2_778
10
13.4057885
20
83.6191948
11
13.4054115
21
83.6191949
0
ARC
8
DEFAULT_255_2_778
10
13.4054761
20
83.1192418
40
0.4999532
50
90.0074006
51
135.010901
0
ARC
8
DEFAULT_255_2_778
10
13.4053578
20
83.1192419
40
0.4998695
50
135.001327
51
179.9965661
0
ARC
8
DEFAULT_255_2_778
10
13.0832562
20
83.1191776
40
0.1777679
50
179.9696211
51
180.0911391
0
ARC
8
DEFAULT_255_2_778
10
17.5362967
20
78.7356429
40
4.5980877
50
120.4581027
51
150.2312699
0
LINE
8
DEFAULT_255_2_778
10
12.9054885
20
83.1188948
11
12.9054885
21
81.0185948
0
LINE
8
DEFAULT_255_2_778
10
12.9054885
20
81.0185948
11
13.5449885
21
81.0185948
0
LINE
8
DEFAULT_255_2_778
10
15.2054885
20
82.6991948
11
15.2054885
21
83.6191948
0
LINE
8
DEFAULT_255_2_778
10
15.2054885
20
83.6191948
11
13.4057885
21
83.6191948
0
LINE
8
DEFAULT_255_2_778
10
14.1897031
20
83.4193646
11
14.1897031
21
83.1672646
0
LINE
8
DEFAULT_255_2_778
10
14.1897031
20
83.1672646
11
13.7346031
21
83.1672646
0
LINE
8
DEFAULT_255_2_778
10
13.7346031
20
83.1672646
11
13.7346031
21
82.7729646
0
LINE
8
DEFAULT_255_2_778
10
13.7346031
20
82.7729646
11
14.1677031
21
82.7729646
0
LINE
8
DEFAULT_255_2_778
10
14.1677031
20
82.7729646
11
14.1677031
21
82.5208646
0
LINE
8
DEFAULT_255_2_778
10
14.1677031
20
82.5208646
11
13.7346031
21
82.5208646
0
LINE
8
DEFAULT_255_2_778
10
13.7346031
20
82.5208646
11
13.7346031
21
81.8186646
0
LINE
8
DEFAULT_255_2_778
10
13.7346031
20
81.8186646
11
13.4777031
21
81.8186646
0
LINE
8
DEFAULT_255_2_778
10
13.4777031
20
81.8186646
11
13.4777031
21
83.4190646
0
LINE
8
DEFAULT_255_2_778
10
13.4777031
20
83.4190646
11
14.1897031
21
83.4190646
0
LINE
8
DEFAULT_255_2_778
10
25.3051295
20
99.2690061
11
25.3051295
21
99.0692061
0
LINE
8
DEFAULT_255_2_778
10
25.3051295
20
99.0692061
11
3.0050295
21
99.0692061
0
LINE
8
DEFAULT_255_2_778
10
3.0050295
20
99.0692061
11
3.0050295
21
99.2690061
0
LINE
8
DEFAULT_255_2_778
10
3.0050295
20
99.2690061
11
25.3051295
21
99.2690061
0
LINE
8
DEFAULT_255_2_778
10
25.3051295
20
91.4693061
11
25.3051295
21
91.2696061
0
LINE
8
DEFAULT_255_2_778
10
25.3051295
20
91.2696061
11
3.0050295
21
91.2696061
0
LINE
8
DEFAULT_255_2_778
10
3.0050295
20
91.2696061
11
3.0050295
21
91.4693061
0
LINE
8
DEFAULT_255_2_778
10
3.0050295
20
91.4693061
11
25.3051295
21
91.4693061
0
LINE
8
DEFAULT_255_2_778
10
5.9458584
20
102.3709635
11
6.3935584
21
102.3709635
0
LINE
8
DEFAULT_255_2_778
10
6.3935584
20
102.3709635
11
6.3935584
21
101.1610635
0
ARC
8
DEFAULT_255_2_778
10
7.1160636
20
101.1487424
40
0.7226103
50
179.0230074
51
193.8007899
0
ARC
8
DEFAULT_255_2_778
10
6.6923498
20
101.0363241
40
0.2844268
50
192.1694364
51
230.2048598
0
ARC
8
DEFAULT_255_2_778
10
6.6625528
20
101.0280077
40
0.259561
50
234.0865339
51
272.3417467
0
ARC
8
DEFAULT_255_2_778
10
6.6887307
20
101.0118227
40
0.2436573
50
266.3356991
51
346.0496447
0
ARC
8
DEFAULT_255_2_778
10
6.3168607
20
101.1372174
40
0.6355978
50
343.1597029
51
359.4234733
0
ARC
8
DEFAULT_255_2_778
10
5.9158346
20
101.1607603
40
1.0370239
50
358.3456663
51
0.0167499
0
LINE
8
DEFAULT_255_2_778
10
6.9528584
20
101.1610635
11
6.9528584
21
102.3709635
0
LINE
8
DEFAULT_255_2_778
10
6.9528584
20
102.3709635
11
7.4282584
21
102.3709635
0
LINE
8
DEFAULT_255_2_778
10
7.4282584
20
102.3709635
11
7.4282584
21
101.0631635
0
ARC
8
DEFAULT_255_2_778
10
6.4405464
20
101.0503502
40
0.9877952
50
345.5615899
51
0.7432415
0
ARC
8
DEFAULT_255_2_778
10
6.88416
20
100.9239386
40
0.5268056
50
285.4823542
51
346.8460235
0
ARC
8
DEFAULT_255_2_778
10
6.7538224
20
101.3329319
40
0.9558913
50
270.991176
51
286.4672538
0
ARC
8
DEFAULT_255_2_778
10
6.7292672
20
101.7384398
40
1.3618762
50
269.9870082
51
271.7289944
0
ARC
8
DEFAULT_255_2_778
10
6.716259
20
101.6203875
40
1.2438888
50
257.8525721
51
270.5849666
0
ARC
8
DEFAULT_255_2_778
10
6.5939444
20
101.0812003
40
0.6910628
50
233.7449992
51
258.3596457
0
ARC
8
DEFAULT_255_2_778
10
6.5448151
20
100.9848485
40
0.5845693
50
192.6364616
51
232.0429392
0
ARC
8
DEFAULT_255_2_778
10
6.9410371
20
101.0958658
40
0.9957159
50
181.882101
51
193.882291
0
LINE
8
DEFAULT_255_2_778
10
5.9458584
20
101.0631635
11
5.9458584
21
102.3709635
0
ARC
8
DEFAULT_255_2_778
10
5.1037325
20
101.783121
40
0.2009082
50
357.5587949
51
78.2544742
0
ARC
8
DEFAULT_255_2_778
10
4.9822908
20
101.4178789
40
0.5849229
50
73.8865417
51
89.023842
0
ARC
8
DEFAULT_255_2_778
10
4.9589136
20
101.0327538
40
0.9705361
50
88.0312531
51
90.0248943
0
ARC
8
DEFAULT_255_2_778
10
4.9602384
20
100.7939282
40
1.209363
50
90.0827408
51
93.4557596
0
ARC
8
DEFAULT_255_2_778
10
4.9770115
20
100.4923825
40
1.5113721
50
93.4014013
51
95.1457022
0
LINE
8
DEFAULT_255_2_778
10
4.8414584
20
101.9976635
11
4.8414584
21
101.5512635
0
ARC
8
DEFAULT_255_2_778
10
4.9899504
20
102.9217947
40
1.378552
50
263.8163365
51
267.1767812
0
ARC
8
DEFAULT_255_2_778
10
4.9736894
20
102.6066656
40
1.0630048
50
267.21557
51
269.9496662
0
ARC
8
DEFAULT_255_2_778
10
4.9831319
20
102.1691109
40
0.6255358
50
269.0495404
51
283.4295263
0
ARC
8
DEFAULT_255_2_778
10
5.0779724
20
101.8004872
40
0.2450549
50
281.8781167
51
317.8858147
0
ARC
8
DEFAULT_255_2_778
10
5.0956778
20
101.7655665
40
0.2089742
50
321.7356965
51
2.4675261
0
ARC
8
DEFAULT_255_2_778
10
4.8824173
20
100.2308637
40
0.9370831
50
90.0284494
51
92.0217302
0
ARC
8
DEFAULT_255_2_778
10
4.8931874
20
100.6397757
40
0.5282904
50
75.2118862
51
91.2186227
0
ARC
8
DEFAULT_255_2_778
10
4.9902904
20
100.9784724
40
0.1761844
50
30.715649
51
77.6307988
0
ARC
8
DEFAULT_255_2_778
10
5.3336317
20
101.1207224
40
0.261665
50
25.4736767
51
69.03416
0
ARC
8
DEFAULT_255_2_778
10
5.3161256
20
101.802706
40
0.4515323
50
284.2482522
51
319.7747073
0
ARC
8
DEFAULT_255_2_778
10
5.2891559
20
101.7982497
40
0.4697077
50
322.315122
51
354.4222969
0
ARC
8
DEFAULT_255_2_778
10
4.9831785
20
101.848886
40
0.7794318
50
352.9036358
51
0.1745362
0
ARC
8
DEFAULT_255_2_778
10
4.8375974
20
101.851206
40
0.9250093
50
0.0033668
51
1.0256423
0
ARC
8
DEFAULT_255_2_778
10
5.2210051
20
101.8565182
40
0.54157
50
1.1897887
51
28.0288489
0
ARC
8
DEFAULT_255_2_778
10
5.3041299
20
101.8811738
40
0.4569364
50
30.1983792
51
71.2445833
0
ARC
8
DEFAULT_255_2_778
10
5.1460331
20
101.4730792
40
0.8943849
50
70.060153
51
85.1157679
0
ARC
8
DEFAULT_255_2_778
10
5.0813431
20
100.8993094
40
1.4716618
50
84.5082966
51
90.1555767
0
ARC
8
DEFAULT_255_2_778
10
5.0776807
20
100.5451143
40
1.8258515
50
90.0104709
51
91.3439
0
LINE
8
DEFAULT_255_2_778
10
5.0348584
20
102.3704635
11
4.3858584
21
102.3704635
0
LINE
8
DEFAULT_255_2_778
10
5.9458584
20
102.3709635
11
5.9458584
21
102.3709635
0
LINE
8
DEFAULT_255_2_778
10
5.3044584
20
101.7745635
11
5.3044584
21
101.7745635
0
LINE
8
DEFAULT_255_2_778
10
4.3858584
20
102.3704635
11
4.3858584
21
100.3762635
0
LINE
8
DEFAULT_255_2_778
10
4.3858584
20
100.3762635
11
4.8493584
21
100.3762635
0
LINE
8
DEFAULT_255_2_778
10
4.8493584
20
100.3762635
11
4.8493584
21
101.1673635
0
LINE
8
DEFAULT_255_2_778
10
5.1417584
20
101.0684635
11
5.3629584
21
100.3844635
0
LINE
8
DEFAULT_255_2_778
10
5.3629584
20
100.3844635
11
5.8407584
21
100.3762635
0
LINE
8
DEFAULT_255_2_778
10
5.8407584
20
100.3762635
11
5.5698584
21
101.2332635
0
LINE
8
DEFAULT_255_2_778
10
4.3858584
20
102.3704635
11
4.3858584
21
102.3704635
0
LINE
8
DEFAULT_255_2_778
10
9.0044584
20
100.8765635
11
9.0044584
21
102.3709635
0
LINE
8
DEFAULT_255_2_778
10
9.0044584
20
102.3709635
11
9.4129584
21
102.3709635
0
LINE
8
DEFAULT_255_2_778
10
9.4129584
20
102.3709635
11
9.4129584
21
100.3720635
0
LINE
8
DEFAULT_255_2_778
10
9.4129584
20
100.3720635
11
8.8917584
21
100.3720635
0
LINE
8
DEFAULT_255_2_778
10
8.8917584
20
100.3720635
11
8.0773584
21
101.8671635
0
LINE
8
DEFAULT_255_2_778
10
8.0773584
20
101.8671635
11
8.0712584
21
101.8671635
0
LINE
8
DEFAULT_255_2_778
10
8.0712584
20
101.8671635
11
8.0712584
21
100.3720635
0
LINE
8
DEFAULT_255_2_778
10
8.0712584
20
100.3720635
11
7.6627584
21
100.3720635
0
LINE
8
DEFAULT_255_2_778
10
7.6627584
20
100.3720635
11
7.6627584
21
102.3709635
0
LINE
8
DEFAULT_255_2_778
10
7.6627584
20
102.3709635
11
8.1871584
21
102.3709635
0
LINE
8
DEFAULT_255_2_778
10
8.1871584
20
102.3709635
11
8.9985584
21
100.8765635
0
LINE
8
DEFAULT_255_2_778
10
8.9985584
20
100.8765635
11
9.0044584
21
100.8765635
0
LINE
8
DEFAULT_255_2_778
10
1.1053
20
80.3187125
11
1.1053
21
80.1187125
0
ARC
8
DEFAULT_255_2_778
10
3.645398
20
5.8613098
40
0.0098107
50
293.0342194
51
349.2582755
0
LINE
8
DEFAULT_255_2_778
10
22.1552367
20
5.5188812
11
22.0052367
21
5.5188812
0
LINE
8
DEFAULT_255_2_778
10
6.4551367
20
5.5188812
11
4.8552367
21
5.5188812
0
LINE
8
DEFAULT_255_2_778
10
3.6553367
20
5.5196812
11
3.6497367
21
5.5289812
0
LINE
8
DEFAULT_255_2_778
10
3.6497367
20
5.5289812
11
3.5682367
21
5.5532812
0
LINE
8
DEFAULT_255_2_778
10
3.5682367
20
5.5532812
11
3.4143367
21
5.5662812
0
LINE
8
DEFAULT_255_2_778
10
3.4143367
20
5.5662812
11
2.2554367
21
5.5670812
0
LINE
8
DEFAULT_255_2_778
10
2.2554367
20
5.5670812
11
2.0863367
21
5.5625812
0
LINE
8
DEFAULT_255_2_778
10
2.0863367
20
5.5625812
11
1.9376367
21
5.5493812
0
LINE
8
DEFAULT_255_2_778
10
3.6492367
20
5.8522812
11
3.6421367
21
5.8488812
0
LINE
8
DEFAULT_255_2_778
10
3.6421367
20
5.8488812
11
3.5675367
21
5.8332812
0
LINE
8
DEFAULT_255_2_778
10
3.5675367
20
5.8332812
11
3.4701367
21
5.8250812
0
LINE
8
DEFAULT_255_2_778
10
3.4701367
20
5.8250812
11
3.3550367
21
5.8221812
0
LINE
8
DEFAULT_255_2_778
10
3.3550367
20
5.8221812
11
1.9757367
21
5.8234812
0
LINE
8
DEFAULT_255_2_778
10
1.9757367
20
5.8234812
11
1.8395367
21
5.8334812
0
LINE
8
DEFAULT_255_2_778
10
1.8395367
20
5.8334812
11
1.7921367
21
5.8414812
0
LINE
8
DEFAULT_255_2_778
10
2.1051367
20
6.2282812
11
1.8119367
21
6.2348812
0
ARC
8
DEFAULT_255_2_778
10
1.7984488
20
6.2969468
40
0.0351558
50
357.2346674
51
38.4706499
0
ARC
8
DEFAULT_255_2_778
10
0.8002364
20
6.1475283
40
1.043833
50
3.8614098
51
8.135767
0
ARC
8
DEFAULT_255_2_778
10
-2.5490068
20
5.8845026
40
4.4033405
50
3.1130898
51
4.3412871
0
ARC
8
DEFAULT_255_2_778
10
-9.5122008
20
5.5028938
40
11.3769833
50
2.273141
51
3.1276736
0
ARC
8
DEFAULT_255_2_778
10
-23.1001891
20
4.9509402
40
24.9761746
50
1.8150725
51
2.3019852
0
ARC
8
DEFAULT_255_2_778
10
-36.0560221
20
4.5251842
40
37.9389955
50
1.7152991
51
1.8380024
0
LINE
8
DEFAULT_255_2_778
10
2.1050732
20
6.3188177
11
1.8259732
21
6.3188177
0
LINE
8
DEFAULT_255_2_778
10
1.8259732
20
6.3188177
11
1.8259732
21
6.3188177
0
LINE
8
DEFAULT_255_2_778
10
2.1050732
20
7.6290177
11
5.3994732
21
7.6290177
0
LINE
8
DEFAULT_255_2_778
10
7.0607732
20
7.6290177
11
17.1492732
21
7.6290177
0
LINE
8
DEFAULT_255_2_778
10
18.8108732
20
7.6290177
11
22.1052732
21
7.6290177
0
ARC
8
DEFAULT_255_2_778
10
4.6301349
20
66.4678921
40
1.5008414
50
81.0050017
51
84.5794431
0
ARC
8
DEFAULT_255_2_778
10
4.6303359
20
66.4700003
40
1.4987236
50
84.5794787
51
89.9997253
0
ARC
8
DEFAULT_255_2_778
10
4.6305116
20
66.4682708
40
1.500453
50
90.0064347
51
130.5028342
0
ARC
8
DEFAULT_255_2_778
10
4.6304436
20
66.4684736
40
1.5002547
50
130.5058876
51
179.9960846
0
ARC
8
DEFAULT_255_2_778
10
4.6304436
20
14.7685786
40
1.5002547
50
180.0039154
51
229.4941124
0
ARC
8
DEFAULT_255_2_778
10
4.6305163
20
14.7689461
40
1.5005814
50
229.5011154
51
269.9983715
0
ARC
8
DEFAULT_255_2_778
10
4.6304655
20
14.7683182
40
1.4999535
50
270.0003118
51
275.4110907
0
ARC
8
DEFAULT_255_2_778
10
4.6302625
20
14.7705195
40
1.5021643
50
275.4108814
51
278.9820856
0
ARC
8
DEFAULT_255_2_778
10
7.8321009
20
15.2713008
40
1.4957505
50
278.953503
51
313.3388684
0
ARC
8
DEFAULT_255_2_778
10
7.8313678
20
15.2748113
40
1.4988081
50
313.2671474
51
356.5947269
0
ARC
8
DEFAULT_255_2_778
10
7.8147713
20
15.2755213
40
1.5154175
50
356.6052041
51
359.9869492
0
ARC
8
DEFAULT_255_2_778
10
7.8341599
20
65.9632753
40
1.4960296
50
359.9464141
51
34.3306228
0
ARC
8
DEFAULT_255_2_778
10
7.8310828
20
65.963439
40
1.4984794
50
34.2591014
51
77.2249938
0
ARC
8
DEFAULT_255_2_778
10
7.8279178
20
65.9477901
40
1.5144408
50
77.2391298
51
80.9976904
0
LINE
8
DEFAULT_255_2_778
10
2.1054888
20
8.8187761
11
2.0173888
21
8.8187761
0
LINE
8
DEFAULT_255_2_778
10
2.0173888
20
8.8187761
11
2.0064888
21
6.3187761
0
LINE
8
DEFAULT_255_2_778
10
2.1054888
20
35.1403761
11
2.0792888
21
35.1403761
0
LINE
8
DEFAULT_255_2_778
10
2.0792888
20
35.1403761
11
2.0792888
21
41.1587761
0
LINE
8
DEFAULT_255_2_778
10
2.0789888
20
49.7855761
11
2.0789888
21
42.4787761
0
LINE
8
DEFAULT_255_2_778
10
2.0789888
20
42.4787761
11
2.1051888
21
42.4787761
0
LINE
8
DEFAULT_255_2_778
10
2.1051888
20
73.6088761
11
5.3994888
21
73.6088761
0
LINE
8
DEFAULT_255_2_778
10
7.0607888
20
73.6088761
11
17.1493888
21
73.6088761
0
LINE
8
DEFAULT_255_2_778
10
18.8109888
20
73.6088761
11
22.1052888
21
73.6088761
0
LINE
8
DEFAULT_255_2_778
10
0.7552888
20
76.4187761
11
0.7552888
21
4.8187761
0
LINE
8
DEFAULT_255_2_778
10
1.7556888
20
42.2779761
11
1.9551888
21
42.2787761
0
LINE
8
DEFAULT_255_2_778
10
1.9551888
20
42.2787761
11
1.9551888
21
42.2787761
0
LINE
8
DEFAULT_255_2_778
10
1.9551888
20
42.2787761
11
1.9551888
21
41.3588761
0
LINE
8
DEFAULT_255_2_778
10
2.0789888
20
71.7856761
11
2.0789888
21
55.8521761
0
LINE
8
DEFAULT_255_2_778
10
3.1301888
20
66.4685761
11
3.1301888
21
14.7684761
0
LINE
8
DEFAULT_255_2_778
10
4.8647888
20
13.2867761
11
8.0648888
21
13.7937761
0
LINE
8
DEFAULT_255_2_778
10
9.3301888
20
15.2751761
11
9.3301888
21
65.9618761
0
LINE
8
DEFAULT_255_2_778
10
8.0648888
20
67.4435761
11
4.8650888
21
67.9504761
0
ARC
8
DEFAULT_255_2_778
10
2.2555062
20
49.3186134
40
0.5000959
50
107.4896754
51
179.9797191
0
ARC
8
DEFAULT_255_2_778
10
2.255506
20
34.3189671
40
0.5000956
50
180.0202388
51
252.5103326
0
LINE
8
DEFAULT_255_2_778
10
2.0790104
20
35.1400904
11
2.0734104
21
33.8538904
0
LINE
8
DEFAULT_255_2_778
10
2.0790104
20
42.4787904
11
1.9552104
21
42.4168904
0
ARC
8
DEFAULT_255_2_778
10
17.9774967
20
72.6120955
40
1.297198
50
148.2770855
51
180.1324007
0
ARC
8
DEFAULT_255_2_778
10
17.9766449
20
72.6126122
40
1.2962017
50
97.0226393
51
148.276717
0
ARC
8
DEFAULT_255_2_778
10
17.9798539
20
72.5848442
40
1.3241537
50
89.9849309
51
97.0135513
0
ARC
8
DEFAULT_255_2_778
10
17.9831997
20
72.6118033
40
1.297198
50
58.2770855
51
90.1324007
0
ARC
8
DEFAULT_255_2_778
10
17.9837165
20
72.6126551
40
1.2962017
50
7.0226393
51
58.276717
0
ARC
8
DEFAULT_255_2_778
10
17.9559484
20
72.6094461
40
1.3241537
50
359.9849309
51
7.0135513
0
ARC
8
DEFAULT_255_2_778
10
17.9829076
20
72.6061003
40
1.297198
50
328.2770855
51
0.1324007
0
ARC
8
DEFAULT_255_2_778
10
17.9837594
20
72.6055835
40
1.2962017
50
277.0226393
51
328.276717
0
ARC
8
DEFAULT_255_2_778
10
17.9805504
20
72.6333516
40
1.3241537
50
269.9849309
51
277.0135513
0
ARC
8
DEFAULT_255_2_778
10
17.9772045
20
72.6063924
40
1.297198
50
238.2770855
51
270.1324007
0
ARC
8
DEFAULT_255_2_778
10
17.9766878
20
72.6055406
40
1.2962017
50
187.0226393
51
238.276717
0
ARC
8
DEFAULT_255_2_778
10
18.0044558
20
72.6087496
40
1.3241537
50
179.9849309
51
187.0135513
0
LINE
8
DEFAULT_255_2_778
10
16.6803021
20
72.6090979
11
16.6803021
21
72.6090979
0
ARC
8
DEFAULT_255_2_778
10
6.2275967
20
72.6120955
40
1.297198
50
148.2770855
51
180.1324007
0
ARC
8
DEFAULT_255_2_778
10
6.2267449
20
72.6126122
40
1.2962017
50
97.0226393
51
148.276717
0
ARC
8
DEFAULT_255_2_778
10
6.2299539
20
72.5848442
40
1.3241537
50
89.9849309
51
97.0135513
0
ARC
8
DEFAULT_255_2_778
10
6.2332997
20
72.6118033
40
1.297198
50
58.2770855
51
90.1324007
0
ARC
8
DEFAULT_255_2_778
10
6.2338165
20
72.6126551
40
1.2962017
50
7.0226393
51
58.276717
0
ARC
8
DEFAULT_255_2_778
10
6.2060484
20
72.6094461
40
1.3241537
50
359.9849309
51
7.0135513
0
ARC
8
DEFAULT_255_2_778
10
6.2330076
20
72.6061003
40
1.297198
50
328.2770855
51
0.1324007
0
ARC
8
DEFAULT_255_2_778
10
6.2338594
20
72.6055835
40
1.2962017
50
277.0226393
51
328.276717
0
ARC
8
DEFAULT_255_2_778
10
6.2306504
20
72.6333516
40
1.3241537
50
269.9849309
51
277.0135513
0
ARC
8
DEFAULT_255_2_778
10
6.2273045
20
72.6063924
40
1.297198
50
238.2770855
51
270.1324007
0
ARC
8
DEFAULT_255_2_778
10
6.2267878
20
72.6055406
40
1.2962017
50
187.0226393
51
238.276717
0
ARC
8
DEFAULT_255_2_778
10
6.2545558
20
72.6087496
40
1.3241537
50
179.9849309
51
187.0135513
0
LINE
8
DEFAULT_255_2_778
10
4.9304021
20
72.6090979
11
4.9304021
21
72.6090979
0
ARC
8
DEFAULT_255_2_778
10
2.2555058
20
71.3187682
40
0.5000955
50
107.4896452
51
179.9797565
0
ARC
8
DEFAULT_255_2_778
10
2.2555058
20
56.3191215
40
0.5000954
50
180.0202317
51
252.5103512
0
LINE
8
DEFAULT_255_2_778
10
1.8022104
20
6.0806449
11
1.9258104
21
6.0949449
0
LINE
8
DEFAULT_255_2_778
10
1.9258104
20
6.0949449
11
2.1052104
21
6.1034449
0
ARC
8
DEFAULT_255_2_778
10
20.7959236
20
5.8615457
40
0.0096693
50
292.4552546
51
349.052539
0
ARC
8
DEFAULT_255_2_778
10
7.6896121
20
5.89838
40
0.0538631
50
237.8331382
51
238.1854002
0
ARC
8
DEFAULT_255_2_778
10
7.664621
20
5.8615175
40
0.0094783
50
190.9972644
51
247.1214731
0
LINE
8
DEFAULT_255_2_778
10
1.822117
20
6.3122094
11
2.105217
21
6.3151094
0
LINE
8
DEFAULT_255_2_778
10
1.937217
20
5.4269094
11
1.845117
21
5.4428094
0
LINE
8
DEFAULT_255_2_778
10
1.755717
20
41.3597094
11
1.952517
21
41.3589094
0
LINE
8
DEFAULT_255_2_778
10
20.799617
20
5.8526094
11
20.792417
21
5.8492094
0
LINE
8
DEFAULT_255_2_778
10
20.792417
20
5.8492094
11
20.717817
21
5.8335094
0
LINE
8
DEFAULT_255_2_778
10
20.717817
20
5.8335094
11
20.620517
21
5.8253094
0
LINE
8
DEFAULT_255_2_778
10
20.620517
20
5.8253094
11
20.505417
21
5.8224094
0
LINE
8
DEFAULT_255_2_778
10
20.505417
20
5.8224094
11
7.955417
21
5.8224094
0
LINE
8
DEFAULT_255_2_778
10
7.955417
20
5.8224094
11
7.668317
21
5.8492094
0
LINE
8
DEFAULT_255_2_778
10
7.668317
20
5.8492094
11
7.661217
21
5.8526094
0
LINE
8
DEFAULT_255_2_778
10
20.805417
20
5.5187094
11
20.799617
21
5.5280094
0
LINE
8
DEFAULT_255_2_778
10
20.799617
20
5.5280094
11
20.718117
21
5.5523094
0
LINE
8
DEFAULT_255_2_778
10
20.718117
20
5.5523094
11
20.564117
21
5.5653094
0
LINE
8
DEFAULT_255_2_778
10
20.564117
20
5.5653094
11
7.896417
21
5.5653094
0
LINE
8
DEFAULT_255_2_778
10
7.896417
20
5.5653094
11
7.677817
21
5.5367094
0
LINE
8
DEFAULT_255_2_778
10
7.677817
20
5.5367094
11
7.656717
21
5.5232094
0
LINE
8
DEFAULT_255_2_778
10
7.656717
20
5.5232094
11
7.655317
21
5.5184094
0
LINE
8
DEFAULT_255_2_778
10
2.105417
20
10.8471094
11
1.755417
21
10.8471094
0
LINE
8
DEFAULT_255_2_778
10
22.155317
20
13.1188094
11
22.105317
21
13.1188094
0
LINE
8
DEFAULT_255_2_778
10
22.105317
20
24.4089094
11
22.155317
21
24.4089094
0
LINE
8
DEFAULT_255_2_778
10
22.105317
20
23.8088094
11
22.155317
21
23.8088094
0
LINE
8
DEFAULT_255_2_778
10
22.105317
20
21.8689094
11
22.155317
21
21.8689094
0
LINE
8
DEFAULT_255_2_778
10
22.105317
20
21.2688094
11
22.155317
21
21.2688094
0
LINE
8
DEFAULT_255_2_778
10
22.105317
20
19.3289094
11
22.155317
21
19.3289094
0
LINE
8
DEFAULT_255_2_778
10
22.105317
20
18.7288094
11
22.155317
21
18.7288094
0
LINE
8
DEFAULT_255_2_778
10
22.105317
20
16.7889094
11
22.155317
21
16.7889094
0
LINE
8
DEFAULT_255_2_778
10
22.105317
20
16.1888094
11
22.155317
21
16.1888094
0
LINE
8
DEFAULT_255_2_778
10
10.142717
20
24.7288094
11
14.067817
21
24.7288094
0
LINE
8
DEFAULT_255_2_778
10
10.142717
20
23.4889094
11
14.067817
21
23.4889094
0
LINE
8
DEFAULT_255_2_778
10
10.142717
20
22.1888094
11
14.067817
21
22.1888094
0
LINE
8
DEFAULT_255_2_778
10
10.142717
20
20.9489094
11
14.067817
21
20.9489094
0
LINE
8
DEFAULT_255_2_778
10
10.142717
20
19.6488094
11
14.067817
21
19.6488094
0
LINE
8
DEFAULT_255_2_778
10
10.142717
20
18.4089094
11
14.067817
21
18.4089094
0
LINE
8
DEFAULT_255_2_778
10
10.142717
20
17.1088094
11
14.067817
21
17.1088094
0
LINE
8
DEFAULT_255_2_778
10
10.142717
20
15.8689094
11
14.067817
21
15.8689094
0
LINE
8
DEFAULT_255_2_778
10
22.655417
20
34.4189094
11
22.155317
21
34.4189094
0
LINE
8
DEFAULT_255_2_778
10
22.655417
20
32.8189094
11
22.155317
21
32.8189094
0
LINE
8
DEFAULT_255_2_778
10
22.655417
20
28.8190094
11
22.155317
21
28.8190094
0
LINE
8
DEFAULT_255_2_778
10
22.655417
20
27.2190094
11
22.155317
21
27.2190094
0
LINE
8
DEFAULT_255_2_778
10
22.105317
20
34.5689094
11
22.155317
21
34.5689094
0
LINE
8
DEFAULT_255_2_778
10
22.105317
20
33.9688094
11
22.155317
21
33.9688094
0
LINE
8
DEFAULT_255_2_778
10
22.105317
20
32.0289094
11
22.155317
21
32.0289094
0
LINE
8
DEFAULT_255_2_778
10
22.105317
20
31.4288094
11
22.155317
21
31.4288094
0
LINE
8
DEFAULT_255_2_778
10
22.105317
20
29.4889094
11
22.155317
21
29.4889094
0
LINE
8
DEFAULT_255_2_778
10
22.105317
20
28.8888094
11
22.155317
21
28.8888094
0
LINE
8
DEFAULT_255_2_778
10
22.105317
20
26.9489094
11
22.155317
21
26.9489094
0
LINE
8
DEFAULT_255_2_778
10
22.105317
20
26.3488094
11
22.155317
21
26.3488094
0
LINE
8
DEFAULT_255_2_778
10
10.142717
20
34.8888094
11
14.067817
21
34.8888094
0
LINE
8
DEFAULT_255_2_778
10
10.142717
20
33.6489094
11
14.067817
21
33.6489094
0
LINE
8
DEFAULT_255_2_778
10
10.142717
20
32.3488094
11
14.067817
21
32.3488094
0
LINE
8
DEFAULT_255_2_778
10
10.142717
20
31.1089094
11
14.067817
21
31.1089094
0
LINE
8
DEFAULT_255_2_778
10
10.142717
20
29.8088094
11
14.067817
21
29.8088094
0
LINE
8
DEFAULT_255_2_778
10
10.142717
20
28.5689094
11
14.067817
21
28.5689094
0
LINE
8
DEFAULT_255_2_778
10
10.142717
20
27.2688094
11
14.067817
21
27.2688094
0
LINE
8
DEFAULT_255_2_778
10
10.142717
20
26.0289094
11
14.067817
21
26.0289094
0
LINE
8
DEFAULT_255_2_778
10
22.105317
20
44.7289094
11
22.155317
21
44.7289094
0
LINE
8
DEFAULT_255_2_778
10
22.105317
20
44.1288094
11
22.155317
21
44.1288094
0
LINE
8
DEFAULT_255_2_778
10
22.105317
20
42.1889094
11
22.155317
21
42.1889094
0
LINE
8
DEFAULT_255_2_778
10
22.105317
20
41.5888094
11
22.155317
21
41.5888094
0
LINE
8
DEFAULT_255_2_778
10
22.105317
20
39.6489094
11
22.155317
21
39.6489094
0
LINE
8
DEFAULT_255_2_778
10
22.105317
20
39.0488094
11
22.155317
21
39.0488094
0
LINE
8
DEFAULT_255_2_778
10
22.105317
20
37.1089094
11
22.155317
21
37.1089094
0
LINE
8
DEFAULT_255_2_778
10
22.105317
20
36.5088094
11
22.155317
21
36.5088094
0
LINE
8
DEFAULT_255_2_778
10
1.955217
20
42.2701094
11
2.105217
21
42.2698094
0
LINE
8
DEFAULT_255_2_778
10
1.955217
20
41.2205094
11
2.078717
21
41.1586094
0
LINE
8
DEFAULT_255_2_778
10
2.078717
20
41.1586094
11
2.104917
21
41.1586094
0
LINE
8
DEFAULT_255_2_778
10
2.105217
20
41.3681094
11
1.955217
21
41.3679094
0
LINE
8
DEFAULT_255_2_778
10
22.105317
20
54.8889094
11
22.155317
21
54.8889094
0
LINE
8
DEFAULT_255_2_778
10
22.105317
20
54.2888094
11
22.155317
21
54.2888094
0
LINE
8
DEFAULT_255_2_778
10
22.105317
20
52.3489094
11
22.155317
21
52.3489094
0
LINE
8
DEFAULT_255_2_778
10
22.105317
20
51.7488094
11
22.155317
21
51.7488094
0
LINE
8
DEFAULT_255_2_778
10
22.105317
20
49.8089094
11
22.155317
21
49.8089094
0
LINE
8
DEFAULT_255_2_778
10
22.105317
20
49.2088094
11
22.155317
21
49.2088094
0
LINE
8
DEFAULT_255_2_778
10
22.105317
20
47.2689094
11
22.155317
21
47.2689094
0
LINE
8
DEFAULT_255_2_778
10
22.105317
20
46.6688094
11
22.155317
21
46.6688094
0
LINE
8
DEFAULT_255_2_778
10
10.142717
20
55.2088094
11
14.067817
21
55.2088094
0
LINE
8
DEFAULT_255_2_778
10
10.142717
20
53.9689094
11
14.067817
21
53.9689094
0
LINE
8
DEFAULT_255_2_778
10
10.142717
20
52.6688094
11
14.067817
21
52.6688094
0
LINE
8
DEFAULT_255_2_778
10
10.142717
20
51.4289094
11
14.067817
21
51.4289094
0
LINE
8
DEFAULT_255_2_778
10
10.142717
20
50.1288094
11
14.067817
21
50.1288094
0
LINE
8
DEFAULT_255_2_778
10
10.142717
20
48.8889094
11
14.067817
21
48.8889094
0
LINE
8
DEFAULT_255_2_778
10
10.142717
20
47.5888094
11
14.067817
21
47.5888094
0
LINE
8
DEFAULT_255_2_778
10
10.142717
20
46.3489094
11
14.067817
21
46.3489094
0
LINE
8
DEFAULT_255_2_778
10
22.655417
20
62.4189094
11
22.155317
21
62.4189094
0
LINE
8
DEFAULT_255_2_778
10
22.655417
20
60.8190094
11
22.155317
21
60.8190094
0
LINE
8
DEFAULT_255_2_778
10
22.655417
20
56.8190094
11
22.155317
21
56.8190094
0
LINE
8
DEFAULT_255_2_778
10
22.655417
20
55.2188094
11
22.155317
21
55.2188094
0
LINE
8
DEFAULT_255_2_778
10
22.105317
20
65.0489094
11
22.155317
21
65.0489094
0
LINE
8
DEFAULT_255_2_778
10
22.105317
20
64.4488094
11
22.155317
21
64.4488094
0
LINE
8
DEFAULT_255_2_778
10
22.105317
20
62.5089094
11
22.155317
21
62.5089094
0
LINE
8
DEFAULT_255_2_778
10
22.105317
20
61.9088094
11
22.155317
21
61.9088094
0
LINE
8
DEFAULT_255_2_778
10
22.105317
20
59.9689094
11
22.155317
21
59.9689094
0
LINE
8
DEFAULT_255_2_778
10
22.105317
20
59.3688094
11
22.155317
21
59.3688094
0
LINE
8
DEFAULT_255_2_778
10
22.105317
20
57.4289094
11
22.155317
21
57.4289094
0
LINE
8
DEFAULT_255_2_778
10
22.105317
20
56.8288094
11
22.155317
21
56.8288094
0
LINE
8
DEFAULT_255_2_778
10
10.142717
20
65.3688094
11
14.067817
21
65.3688094
0
LINE
8
DEFAULT_255_2_778
10
10.142717
20
64.1289094
11
14.067817
21
64.1289094
0
LINE
8
DEFAULT_255_2_778
10
10.142717
20
62.8288094
11
14.067817
21
62.8288094
0
LINE
8
DEFAULT_255_2_778
10
10.142717
20
61.5889094
11
14.067817
21
61.5889094
0
LINE
8
DEFAULT_255_2_778
10
10.142717
20
60.2888094
11
14.067817
21
60.2888094
0
LINE
8
DEFAULT_255_2_778
10
10.142717
20
59.0489094
11
14.067817
21
59.0489094
0
LINE
8
DEFAULT_255_2_778
10
10.142717
20
57.7488094
11
14.067817
21
57.7488094
0
LINE
8
DEFAULT_255_2_778
10
10.142717
20
56.5089094
11
14.067817
21
56.5089094
0
LINE
8
DEFAULT_255_2_778
10
22.105317
20
74.0090094
11
22.155317
21
74.0090094
0
LINE
8
DEFAULT_255_2_778
10
22.105317
20
73.0089094
11
22.155317
21
73.0089094
0
LINE
8
DEFAULT_255_2_778
10
22.105317
20
72.2090094
11
22.155317
21
72.2090094
0
LINE
8
DEFAULT_255_2_778
10
22.105317
20
71.2089094
11
22.155317
21
71.2089094
0
LINE
8
DEFAULT_255_2_778
10
22.155317
20
68.1188094
11
22.105317
21
68.1188094
0
LINE
8
DEFAULT_255_2_778
10
22.105317
20
5.8788094
11
22.105317
21
75.3589094
0
LINE
8
DEFAULT_255_2_778
10
22.105317
20
75.3589094
11
2.105217
21
75.3589094
0
LINE
8
DEFAULT_255_2_778
10
2.105217
20
75.3589094
11
2.105217
21
5.8788094
0
LINE
8
DEFAULT_255_2_778
10
2.105217
20
5.8788094
11
22.105317
21
5.8788094
0
LINE
8
DEFAULT_255_2_778
10
14.0677532
20
13.1187972
11
14.0677532
21
68.1187972
0
LINE
8
DEFAULT_255_2_778
10
14.0677532
20
68.1187972
11
10.1426532
21
68.1187972
0
LINE
8
DEFAULT_255_2_778
10
10.1426532
20
68.1187972
11
10.1426532
21
13.1187972
0
LINE
8
DEFAULT_255_2_778
10
10.1426532
20
13.1187972
11
14.0677532
21
13.1187972
0
LINE
8
DEFAULT_255_2_778
10
10.1426532
20
45.0487186
11
14.0677532
21
45.0487186
0
LINE
8
DEFAULT_255_2_778
10
10.1426532
20
43.8089186
11
14.0677532
21
43.8089186
0
LINE
8
DEFAULT_255_2_778
10
10.1426532
20
42.5087186
11
14.0677532
21
42.5087186
0
LINE
8
DEFAULT_255_2_778
10
10.1426532
20
41.2689186
11
14.0677532
21
41.2689186
0
LINE
8
DEFAULT_255_2_778
10
10.1426532
20
39.9687186
11
14.0677532
21
39.9687186
0
LINE
8
DEFAULT_255_2_778
10
10.1426532
20
38.7289186
11
14.0677532
21
38.7289186
0
LINE
8
DEFAULT_255_2_778
10
10.1426532
20
37.4287186
11
14.0677532
21
37.4287186
0
LINE
8
DEFAULT_255_2_778
10
10.1426532
20
36.1889186
11
14.0677532
21
36.1889186
0
ARC
8
DEFAULT_255_2_778
10
2.255418
20
75.4189985
40
0.4997474
50
89.9887792
51
135.0206486
0
ARC
8
DEFAULT_255_2_778
10
2.2551633
20
75.4187438
40
0.4997474
50
134.9793514
51
180.0112208
0
ARC
8
DEFAULT_255_2_778
10
2.2555128
20
5.8187428
40
0.5000969
50
179.9996485
51
270.0003515
0
LINE
8
DEFAULT_255_2_778
10
1.7554159
20
75.4186459
11
1.7554159
21
5.8187459
0
LINE
8
DEFAULT_255_2_778
10
2.2555159
20
5.3186459
11
22.1556159
21
5.3186459
0
LINE
8
DEFAULT_255_2_778
10
22.1556159
20
5.3186459
11
22.1556159
21
75.9187459
0
LINE
8
DEFAULT_255_2_778
10
22.1556159
20
75.9187459
11
2.2555159
21
75.9187459
0
ARC
8
DEFAULT_255_2_778
10
1.255325
20
4.8190393
40
0.5000331
50
180.0266944
51
270.0076726
0
ARC
8
DEFAULT_255_2_778
10
23.1554377
20
4.8190605
40
0.5000542
50
270.0062229
51
359.9937886
0
ARC
8
DEFAULT_255_2_778
10
23.1557446
20
76.4188042
40
0.4997474
50
359.9887792
51
45.0206486
0
ARC
8
DEFAULT_255_2_778
10
23.1555139
20
76.419117
40
0.4996893
50
44.9765888
51
90.002517
0
ARC
8
DEFAULT_255_2_778
10
1.2553249
20
76.4187733
40
0.500033
50
89.9923078
51
179.9733055
0
LINE
8
DEFAULT_255_2_778
10
1.255392
20
4.3190063
11
23.155492
21
4.3190063
0
LINE
8
DEFAULT_255_2_778
10
23.655492
20
4.8190063
11
23.655492
21
76.4187063
0
LINE
8
DEFAULT_255_2_778
10
23.155492
20
76.9188063
11
1.255392
21
76.9188063
0
ARC
8
DEFAULT_255_2_778
10
101.094067
20
51.0240537
40
99.437949
50
182.5254077
51
184.4441486
0
ARC
8
DEFAULT_255_2_778
10
101.1043382
20
32.6130394
40
99.4482483
50
175.5558715
51
177.4743562
0
ARC
8
DEFAULT_255_2_778
10
22.1551971
20
5.8186751
40
0.5000969
50
269.9996485
51
0.0003515
0
ARC
8
DEFAULT_255_2_778
10
22.1551984
20
75.4186318
40
0.5000956
50
0.0053149
51
45.0041129
0
ARC
8
DEFAULT_255_2_778
10
22.1554316
20
75.4190268
40
0.4996515
50
44.9909954
51
90.0272389
0
ARC
8
DEFAULT_255_2_778
10
16.3802533
20
66.4679802
40
1.5007543
50
81.0049864
51
84.6133419
0
ARC
8
DEFAULT_255_2_778
10
16.3804322
20
66.4698448
40
1.4988812
50
84.6134562
51
89.9996885
0
ARC
8
DEFAULT_255_2_778
10
16.3805339
20
66.4684973
40
1.5002286
50
90.0035758
51
130.5059941
0
ARC
8
DEFAULT_255_2_778
10
16.3802118
20
66.468631
40
1.4999178
50
130.4999555
51
180.0020171
0
ARC
8
DEFAULT_255_2_778
10
16.3802129
20
14.7684259
40
1.4999188
50
179.9980022
51
229.500027
0
ARC
8
DEFAULT_255_2_778
10
16.3805387
20
14.7687239
40
1.500357
50
229.4979564
51
270.0012296
0
ARC
8
DEFAULT_255_2_778
10
16.3805617
20
14.7685115
40
1.5001447
50
270.0003494
51
275.3770229
0
ARC
8
DEFAULT_255_2_778
10
16.3803818
20
14.7704098
40
1.5020515
50
275.3770721
51
278.9822215
0
ARC
8
DEFAULT_255_2_778
10
19.5821481
20
15.2712899
40
1.4957466
50
278.9557745
51
313.3394388
0
ARC
8
DEFAULT_255_2_778
10
19.5816128
20
15.2746665
40
1.4985713
50
313.2657184
51
356.5998134
0
ARC
8
DEFAULT_255_2_778
10
19.5654402
20
15.2753176
40
1.514754
50
356.6115139
51
359.9947282
0
ARC
8
DEFAULT_255_2_778
10
19.5841161
20
65.9632731
40
1.4960786
50
359.9465794
51
34.329539
0
ARC
8
DEFAULT_255_2_778
10
19.5811488
20
65.9635577
40
1.4983697
50
34.2565629
51
77.6007786
0
ARC
8
DEFAULT_255_2_778
10
19.5779545
20
65.9476267
40
1.514615
50
77.6121623
51
80.9961105
0
LINE
8
DEFAULT_255_2_778
10
1.955094
20
42.2800782
11
1.955094
21
43.3188782
0
LINE
8
DEFAULT_255_2_778
10
1.955094
20
40.3189782
11
1.955094
21
41.3580782
0
LINE
8
DEFAULT_255_2_778
10
3.455294
20
75.3588782
11
3.455294
21
75.9186782
0
LINE
8
DEFAULT_255_2_778
10
2.755194
20
75.9189782
11
2.755194
21
75.3590782
0
LINE
8
DEFAULT_255_2_778
10
2.455194
20
75.3588782
11
2.455194
21
75.9186782
0
LINE
8
DEFAULT_255_2_778
10
7.655294
20
5.3185782
11
7.655294
21
5.8784782
0
LINE
8
DEFAULT_255_2_778
10
6.955194
20
5.8787782
11
6.955194
21
5.3188782
0
LINE
8
DEFAULT_255_2_778
10
6.455094
20
5.8787782
11
6.455094
21
5.3188782
0
LINE
8
DEFAULT_255_2_778
10
4.855194
20
5.3185782
11
4.855194
21
5.8784782
0
LINE
8
DEFAULT_255_2_778
10
4.355094
20
5.3185782
11
4.355094
21
5.8784782
0
LINE
8
DEFAULT_255_2_778
10
3.655094
20
5.3185782
11
3.655094
21
5.8784782
0
LINE
8
DEFAULT_255_2_778
10
10.755094
20
17.1089782
11
10.755094
21
18.4088782
0
LINE
8
DEFAULT_255_2_778
10
10.755094
20
13.1187782
11
10.755094
21
15.8688782
0
LINE
8
DEFAULT_255_2_778
10
22.005194
20
5.3185782
11
22.005194
21
5.8784782
0
LINE
8
DEFAULT_255_2_778
10
21.505194
20
5.3185782
11
21.505194
21
5.8784782
0
LINE
8
DEFAULT_255_2_778
10
20.805094
20
5.3185782
11
20.805094
21
5.8784782
0
LINE
8
DEFAULT_255_2_778
10
22.655294
20
5.8186782
11
22.655294
21
75.4186782
0
LINE
8
DEFAULT_255_2_778
10
14.880294
20
66.4685782
11
14.880294
21
14.7684782
0
LINE
8
DEFAULT_255_2_778
10
16.614894
20
13.2867782
11
19.814994
21
13.7937782
0
LINE
8
DEFAULT_255_2_778
10
21.080194
20
15.2751782
11
21.080194
21
65.9618782
0
LINE
8
DEFAULT_255_2_778
10
19.814994
20
67.4435782
11
16.614894
21
67.9504782
0
LINE
8
DEFAULT_255_2_778
10
5.210294
20
57.7486782
11
5.210294
21
56.5085782
0
LINE
8
DEFAULT_255_2_778
10
5.210294
20
56.5085782
11
4.710194
21
56.5085782
0
LINE
8
DEFAULT_255_2_778
10
4.710194
20
56.5085782
11
4.710194
21
57.7486782
0
LINE
8
DEFAULT_255_2_778
10
4.710194
20
57.7486782
11
5.210294
21
57.7486782
0
LINE
8
DEFAULT_255_2_778
10
5.210294
20
60.2886782
11
5.210294
21
59.0485782
0
LINE
8
DEFAULT_255_2_778
10
5.210294
20
59.0485782
11
4.710194
21
59.0485782
0
LINE
8
DEFAULT_255_2_778
10
4.710194
20
59.0485782
11
4.710194
21
60.2886782
0
LINE
8
DEFAULT_255_2_778
10
4.710194
20
60.2886782
11
5.210294
21
60.2886782
0
LINE
8
DEFAULT_255_2_778
10
5.210294
20
62.8286782
11
5.210294
21
61.5885782
0
LINE
8
DEFAULT_255_2_778
10
5.210294
20
61.5885782
11
4.710194
21
61.5885782
0
LINE
8
DEFAULT_255_2_778
10
4.710194
20
61.5885782
11
4.710194
21
62.8286782
0
LINE
8
DEFAULT_255_2_778
10
4.710194
20
62.8286782
11
5.210294
21
62.8286782
0
LINE
8
DEFAULT_255_2_778
10
5.210294
20
65.3686782
11
5.210294
21
64.1285782
0
LINE
8
DEFAULT_255_2_778
10
5.210294
20
64.1285782
11
4.710194
21
64.1285782
0
LINE
8
DEFAULT_255_2_778
10
4.710194
20
64.1285782
11
4.710194
21
65.3686782
0
LINE
8
DEFAULT_255_2_778
10
4.710194
20
65.3686782
11
5.210294
21
65.3686782
0
LINE
8
DEFAULT_255_2_778
10
7.750294
20
57.7486782
11
7.750294
21
56.5085782
0
LINE
8
DEFAULT_255_2_778
10
7.750294
20
56.5085782
11
7.250194
21
56.5085782
0
LINE
8
DEFAULT_255_2_778
10
7.250194
20
56.5085782
11
7.250194
21
57.7486782
0
LINE
8
DEFAULT_255_2_778
10
7.250194
20
57.7486782
11
7.750294
21
57.7486782
0
LINE
8
DEFAULT_255_2_778
10
7.750294
20
60.2886782
11
7.750294
21
59.0485782
0
LINE
8
DEFAULT_255_2_778
10
7.750294
20
59.0485782
11
7.250194
21
59.0485782
0
LINE
8
DEFAULT_255_2_778
10
7.250194
20
59.0485782
11
7.250194
21
60.2886782
0
LINE
8
DEFAULT_255_2_778
10
7.250194
20
60.2886782
11
7.750294
21
60.2886782
0
LINE
8
DEFAULT_255_2_778
10
7.750294
20
62.8286782
11
7.750294
21
61.5885782
0
LINE
8
DEFAULT_255_2_778
10
7.750294
20
61.5885782
11
7.250194
21
61.5885782
0
LINE
8
DEFAULT_255_2_778
10
7.250194
20
61.5885782
11
7.250194
21
62.8286782
0
LINE
8
DEFAULT_255_2_778
10
7.250194
20
62.8286782
11
7.750294
21
62.8286782
0
LINE
8
DEFAULT_255_2_778
10
7.750294
20
65.3686782
11
7.750294
21
64.1285782
0
LINE
8
DEFAULT_255_2_778
10
7.750294
20
64.1285782
11
7.250194
21
64.1285782
0
LINE
8
DEFAULT_255_2_778
10
7.250194
20
64.1285782
11
7.250194
21
65.3686782
0
LINE
8
DEFAULT_255_2_778
10
7.250194
20
65.3686782
11
7.750294
21
65.3686782
0
LINE
8
DEFAULT_255_2_778
10
5.210294
20
47.5886782
11
5.210294
21
46.3485782
0
LINE
8
DEFAULT_255_2_778
10
5.210294
20
46.3485782
11
4.710194
21
46.3485782
0
LINE
8
DEFAULT_255_2_778
10
4.710194
20
46.3485782
11
4.710194
21
47.5886782
0
LINE
8
DEFAULT_255_2_778
10
4.710194
20
47.5886782
11
5.210294
21
47.5886782
0
LINE
8
DEFAULT_255_2_778
10
5.210294
20
50.1286782
11
5.210294
21
48.8885782
0
LINE
8
DEFAULT_255_2_778
10
5.210294
20
48.8885782
11
4.710194
21
48.8885782
0
LINE
8
DEFAULT_255_2_778
10
4.710194
20
48.8885782
11
4.710194
21
50.1286782
0
LINE
8
DEFAULT_255_2_778
10
4.710194
20
50.1286782
11
5.210294
21
50.1286782
0
LINE
8
DEFAULT_255_2_778
10
5.210294
20
52.6686782
11
5.210294
21
51.4285782
0
LINE
8
DEFAULT_255_2_778
10
5.210294
20
51.4285782
11
4.710194
21
51.4285782
0
LINE
8
DEFAULT_255_2_778
10
4.710194
20
51.4285782
11
4.710194
21
52.6686782
0
LINE
8
DEFAULT_255_2_778
10
4.710194
20
52.6686782
11
5.210294
21
52.6686782
0
LINE
8
DEFAULT_255_2_778
10
5.210294
20
55.2086782
11
5.210294
21
53.9685782
0
LINE
8
DEFAULT_255_2_778
10
5.210294
20
53.9685782
11
4.710194
21
53.9685782
0
LINE
8
DEFAULT_255_2_778
10
4.710194
20
53.9685782
11
4.710194
21
55.2086782
0
LINE
8
DEFAULT_255_2_778
10
4.710194
20
55.2086782
11
5.210294
21
55.2086782
0
LINE
8
DEFAULT_255_2_778
10
7.750294
20
47.5886782
11
7.750294
21
46.3485782
0
LINE
8
DEFAULT_255_2_778
10
7.750294
20
46.3485782
11
7.250194
21
46.3485782
0
LINE
8
DEFAULT_255_2_778
10
7.250194
20
46.3485782
11
7.250194
21
47.5886782
0
LINE
8
DEFAULT_255_2_778
10
7.250194
20
47.5886782
11
7.750294
21
47.5886782
0
LINE
8
DEFAULT_255_2_778
10
7.750294
20
50.1286782
11
7.750294
21
48.8885782
0
LINE
8
DEFAULT_255_2_778
10
7.750294
20
48.8885782
11
7.250194
21
48.8885782
0
LINE
8
DEFAULT_255_2_778
10
7.250194
20
48.8885782
11
7.250194
21
50.1286782
0
LINE
8
DEFAULT_255_2_778
10
7.250194
20
50.1286782
11
7.750294
21
50.1286782
0
LINE
8
DEFAULT_255_2_778
10
7.750294
20
52.6686782
11
7.750294
21
51.4285782
0
LINE
8
DEFAULT_255_2_778
10
7.750294
20
51.4285782
11
7.250194
21
51.4285782
0
LINE
8
DEFAULT_255_2_778
10
7.250194
20
51.4285782
11
7.250194
21
52.6686782
0
LINE
8
DEFAULT_255_2_778
10
7.250194
20
52.6686782
11
7.750294
21
52.6686782
0
LINE
8
DEFAULT_255_2_778
10
7.750294
20
55.2086782
11
7.750294
21
53.9685782
0
LINE
8
DEFAULT_255_2_778
10
7.750294
20
53.9685782
11
7.250194
21
53.9685782
0
LINE
8
DEFAULT_255_2_778
10
7.250194
20
53.9685782
11
7.250194
21
55.2086782
0
LINE
8
DEFAULT_255_2_778
10
7.250194
20
55.2086782
11
7.750294
21
55.2086782
0
LINE
8
DEFAULT_255_2_778
10
5.210294
20
37.4286782
11
5.210294
21
36.1885782
0
LINE
8
DEFAULT_255_2_778
10
5.210294
20
36.1885782
11
4.710194
21
36.1885782
0
LINE
8
DEFAULT_255_2_778
10
4.710194
20
36.1885782
11
4.710194
21
37.4286782
0
LINE
8
DEFAULT_255_2_778
10
4.710194
20
37.4286782
11
5.210294
21
37.4286782
0
LINE
8
DEFAULT_255_2_778
10
5.210294
20
39.9686782
11
5.210294
21
38.7285782
0
LINE
8
DEFAULT_255_2_778
10
5.210294
20
38.7285782
11
4.710194
21
38.7285782
0
LINE
8
DEFAULT_255_2_778
10
4.710194
20
38.7285782
11
4.710194
21
39.9686782
0
LINE
8
DEFAULT_255_2_778
10
4.710194
20
39.9686782
11
5.210294
21
39.9686782
0
LINE
8
DEFAULT_255_2_778
10
5.210294
20
42.5086782
11
5.210294
21
41.2685782
0
LINE
8
DEFAULT_255_2_778
10
5.210294
20
41.2685782
11
4.710194
21
41.2685782
0
LINE
8
DEFAULT_255_2_778
10
4.710194
20
41.2685782
11
4.710194
21
42.5086782
0
LINE
8
DEFAULT_255_2_778
10
4.710194
20
42.5086782
11
5.210294
21
42.5086782
0
LINE
8
DEFAULT_255_2_778
10
5.210294
20
45.0486782
11
5.210294
21
43.8085782
0
LINE
8
DEFAULT_255_2_778
10
5.210294
20
43.8085782
11
4.710194
21
43.8085782
0
LINE
8
DEFAULT_255_2_778
10
4.710194
20
43.8085782
11
4.710194
21
45.0486782
0
LINE
8
DEFAULT_255_2_778
10
4.710194
20
45.0486782
11
5.210294
21
45.0486782
0
LINE
8
DEFAULT_255_2_778
10
7.750294
20
37.4286782
11
7.750294
21
36.1885782
0
LINE
8
DEFAULT_255_2_778
10
7.750294
20
36.1885782
11
7.250194
21
36.1885782
0
LINE
8
DEFAULT_255_2_778
10
7.250194
20
36.1885782
11
7.250194
21
37.4286782
0
LINE
8
DEFAULT_255_2_778
10
7.250194
20
37.4286782
11
7.750294
21
37.4286782
0
LINE
8
DEFAULT_255_2_778
10
7.750294
20
39.9686782
11
7.750294
21
38.7285782
0
LINE
8
DEFAULT_255_2_778
10
7.750294
20
38.7285782
11
7.250194
21
38.7285782
0
LINE
8
DEFAULT_255_2_778
10
7.250194
20
38.7285782
11
7.250194
21
39.9686782
0
LINE
8
DEFAULT_255_2_778
10
7.250194
20
39.9686782
11
7.750294
21
39.9686782
0
LINE
8
DEFAULT_255_2_778
10
7.750294
20
42.5086782
11
7.750294
21
41.2685782
0
LINE
8
DEFAULT_255_2_778
10
7.750294
20
41.2685782
11
7.250194
21
41.2685782
0
LINE
8
DEFAULT_255_2_778
10
7.250194
20
41.2685782
11
7.250194
21
42.5086782
0
LINE
8
DEFAULT_255_2_778
10
7.250194
20
42.5086782
11
7.750294
21
42.5086782
0
LINE
8
DEFAULT_255_2_778
10
7.750294
20
45.0486782
11
7.750294
21
43.8085782
0
LINE
8
DEFAULT_255_2_778
10
7.750294
20
43.8085782
11
7.250194
21
43.8085782
0
LINE
8
DEFAULT_255_2_778
10
7.250194
20
43.8085782
11
7.250194
21
45.0486782
0
LINE
8
DEFAULT_255_2_778
10
7.250194
20
45.0486782
11
7.750294
21
45.0486782
0
LINE
8
DEFAULT_255_2_778
10
5.210294
20
27.2686782
11
5.210294
21
26.0285782
0
LINE
8
DEFAULT_255_2_778
10
5.210294
20
26.0285782
11
4.710194
21
26.0285782
0
LINE
8
DEFAULT_255_2_778
10
4.710194
20
26.0285782
11
4.710194
21
27.2686782
0
LINE
8
DEFAULT_255_2_778
10
4.710194
20
27.2686782
11
5.210294
21
27.2686782
0
LINE
8
DEFAULT_255_2_778
10
5.210294
20
29.8086782
11
5.210294
21
28.5685782
0
LINE
8
DEFAULT_255_2_778
10
5.210294
20
28.5685782
11
4.710194
21
28.5685782
0
LINE
8
DEFAULT_255_2_778
10
4.710194
20
28.5685782
11
4.710194
21
29.8086782
0
LINE
8
DEFAULT_255_2_778
10
4.710194
20
29.8086782
11
5.210294
21
29.8086782
0
LINE
8
DEFAULT_255_2_778
10
5.210294
20
32.3486782
11
5.210294
21
31.1085782
0
LINE
8
DEFAULT_255_2_778
10
5.210294
20
31.1085782
11
4.710194
21
31.1085782
0
LINE
8
DEFAULT_255_2_778
10
4.710194
20
31.1085782
11
4.710194
21
32.3486782
0
LINE
8
DEFAULT_255_2_778
10
4.710194
20
32.3486782
11
5.210294
21
32.3486782
0
LINE
8
DEFAULT_255_2_778
10
5.210294
20
34.8886782
11
5.210294
21
33.6485782
0
LINE
8
DEFAULT_255_2_778
10
5.210294
20
33.6485782
11
4.710194
21
33.6485782
0
LINE
8
DEFAULT_255_2_778
10
4.710194
20
33.6485782
11
4.710194
21
34.8886782
0
LINE
8
DEFAULT_255_2_778
10
4.710194
20
34.8886782
11
5.210294
21
34.8886782
0
LINE
8
DEFAULT_255_2_778
10
7.750294
20
27.2686782
11
7.750294
21
26.0285782
0
LINE
8
DEFAULT_255_2_778
10
7.750294
20
26.0285782
11
7.250194
21
26.0285782
0
LINE
8
DEFAULT_255_2_778
10
7.250194
20
26.0285782
11
7.250194
21
27.2686782
0
LINE
8
DEFAULT_255_2_778
10
7.250194
20
27.2686782
11
7.750294
21
27.2686782
0
LINE
8
DEFAULT_255_2_778
10
7.750294
20
29.8086782
11
7.750294
21
28.5685782
0
LINE
8
DEFAULT_255_2_778
10
7.750294
20
28.5685782
11
7.250194
21
28.5685782
0
LINE
8
DEFAULT_255_2_778
10
7.250194
20
28.5685782
11
7.250194
21
29.8086782
0
LINE
8
DEFAULT_255_2_778
10
7.250194
20
29.8086782
11
7.750294
21
29.8086782
0
LINE
8
DEFAULT_255_2_778
10
7.750294
20
32.3486782
11
7.750294
21
31.1085782
0
LINE
8
DEFAULT_255_2_778
10
7.750294
20
31.1085782
11
7.250194
21
31.1085782
0
LINE
8
DEFAULT_255_2_778
10
7.250194
20
31.1085782
11
7.250194
21
32.3486782
0
LINE
8
DEFAULT_255_2_778
10
7.250194
20
32.3486782
11
7.750294
21
32.3486782
0
LINE
8
DEFAULT_255_2_778
10
7.750294
20
34.8886782
11
7.750294
21
33.6485782
0
LINE
8
DEFAULT_255_2_778
10
7.750294
20
33.6485782
11
7.250194
21
33.6485782
0
LINE
8
DEFAULT_255_2_778
10
7.250194
20
33.6485782
11
7.250194
21
34.8886782
0
LINE
8
DEFAULT_255_2_778
10
7.250194
20
34.8886782
11
7.750294
21
34.8886782
0
LINE
8
DEFAULT_255_2_778
10
5.210294
20
17.1086782
11
5.210294
21
15.8685782
0
LINE
8
DEFAULT_255_2_778
10
5.210294
20
15.8685782
11
4.710194
21
15.8685782
0
LINE
8
DEFAULT_255_2_778
10
4.710194
20
15.8685782
11
4.710194
21
17.1086782
0
LINE
8
DEFAULT_255_2_778
10
4.710194
20
17.1086782
11
5.210294
21
17.1086782
0
LINE
8
DEFAULT_255_2_778
10
5.210294
20
19.6486782
11
5.210294
21
18.4085782
0
LINE
8
DEFAULT_255_2_778
10
5.210294
20
18.4085782
11
4.710194
21
18.4085782
0
LINE
8
DEFAULT_255_2_778
10
4.710194
20
18.4085782
11
4.710194
21
19.6486782
0
LINE
8
DEFAULT_255_2_778
10
4.710194
20
19.6486782
11
5.210294
21
19.6486782
0
LINE
8
DEFAULT_255_2_778
10
5.210294
20
22.1886782
11
5.210294
21
20.9485782
0
LINE
8
DEFAULT_255_2_778
10
5.210294
20
20.9485782
11
4.710194
21
20.9485782
0
LINE
8
DEFAULT_255_2_778
10
4.710194
20
20.9485782
11
4.710194
21
22.1886782
0
LINE
8
DEFAULT_255_2_778
10
4.710194
20
22.1886782
11
5.210294
21
22.1886782
0
LINE
8
DEFAULT_255_2_778
10
5.210294
20
24.7286782
11
5.210294
21
23.4885782
0
LINE
8
DEFAULT_255_2_778
10
5.210294
20
23.4885782
11
4.710194
21
23.4885782
0
LINE
8
DEFAULT_255_2_778
10
4.710194
20
23.4885782
11
4.710194
21
24.7286782
0
LINE
8
DEFAULT_255_2_778
10
4.710194
20
24.7286782
11
5.210294
21
24.7286782
0
LINE
8
DEFAULT_255_2_778
10
7.750294
20
17.1086782
11
7.750294
21
15.8685782
0
LINE
8
DEFAULT_255_2_778
10
7.750294
20
15.8685782
11
7.250194
21
15.8685782
0
LINE
8
DEFAULT_255_2_778
10
7.250194
20
15.8685782
11
7.250194
21
17.1086782
0
LINE
8
DEFAULT_255_2_778
10
7.250194
20
17.1086782
11
7.750294
21
17.1086782
0
LINE
8
DEFAULT_255_2_778
10
7.750294
20
19.6486782
11
7.750294
21
18.4085782
0
LINE
8
DEFAULT_255_2_778
10
7.750294
20
18.4085782
11
7.250194
21
18.4085782
0
LINE
8
DEFAULT_255_2_778
10
7.250194
20
18.4085782
11
7.250194
21
19.6486782
0
LINE
8
DEFAULT_255_2_778
10
7.250194
20
19.6486782
11
7.750294
21
19.6486782
0
LINE
8
DEFAULT_255_2_778
10
7.750294
20
22.1886782
11
7.750294
21
20.9485782
0
LINE
8
DEFAULT_255_2_778
10
7.750294
20
20.9485782
11
7.250194
21
20.9485782
0
LINE
8
DEFAULT_255_2_778
10
7.250194
20
20.9485782
11
7.250194
21
22.1886782
0
LINE
8
DEFAULT_255_2_778
10
7.250194
20
22.1886782
11
7.750294
21
22.1886782
0
LINE
8
DEFAULT_255_2_778
10
7.750294
20
24.7286782
11
7.750294
21
23.4885782
0
LINE
8
DEFAULT_255_2_778
10
7.750294
20
23.4885782
11
7.250194
21
23.4885782
0
LINE
8
DEFAULT_255_2_778
10
7.250194
20
23.4885782
11
7.250194
21
24.7286782
0
LINE
8
DEFAULT_255_2_778
10
7.250194
20
24.7286782
11
7.750294
21
24.7286782
0
ARC
8
DEFAULT_255_2_778
10
6.2242018
20
8.6308688
40
1.2938085
50
146.7148745
51
180.0917915
0
ARC
8
DEFAULT_255_2_778
10
6.2300536
20
8.6291359
40
1.2996527
50
96.4921002
51
146.792589
0
ARC
8
DEFAULT_255_2_778
10
6.2300399
20
8.6148013
40
1.3138949
50
89.9888749
51
96.4208275
0
ARC
8
DEFAULT_255_2_778
10
6.2323678
20
8.6348892
40
1.2938085
50
56.7148745
51
90.0917915
0
ARC
8
DEFAULT_255_2_778
10
6.2306348
20
8.6290374
40
1.2996527
50
6.4921002
51
56.792589
0
ARC
8
DEFAULT_255_2_778
10
6.2163002
20
8.6290512
40
1.3138949
50
359.9888749
51
6.4208275
0
ARC
8
DEFAULT_255_2_778
10
6.2363882
20
8.6267233
40
1.2938085
50
326.7148745
51
0.0917915
0
ARC
8
DEFAULT_255_2_778
10
6.2305364
20
8.6284563
40
1.2996527
50
276.4921002
51
326.792589
0
ARC
8
DEFAULT_255_2_778
10
6.2305501
20
8.6427908
40
1.3138949
50
269.9888749
51
276.4208275
0
ARC
8
DEFAULT_255_2_778
10
6.2282222
20
8.6227029
40
1.2938085
50
236.7148745
51
270.0917915
0
ARC
8
DEFAULT_255_2_778
10
6.2299552
20
8.6285547
40
1.2996527
50
186.4921002
51
236.792589
0
ARC
8
DEFAULT_255_2_778
10
6.2442898
20
8.6285409
40
1.3138949
50
179.9888749
51
186.4208275
0
ARC
8
DEFAULT_255_2_778
10
17.9741018
20
8.6308688
40
1.2938085
50
146.7148745
51
180.0917915
0
ARC
8
DEFAULT_255_2_778
10
17.9799536
20
8.6291359
40
1.2996527
50
96.4921002
51
146.792589
0
ARC
8
DEFAULT_255_2_778
10
17.9799399
20
8.6148013
40
1.3138949
50
89.9888749
51
96.4208275
0
ARC
8
DEFAULT_255_2_778
10
17.9822678
20
8.6348892
40
1.2938085
50
56.7148745
51
90.0917915
0
ARC
8
DEFAULT_255_2_778
10
17.9805348
20
8.6290374
40
1.2996527
50
6.4921002
51
56.792589
0
ARC
8
DEFAULT_255_2_778
10
17.9662002
20
8.6290512
40
1.3138949
50
359.9888749
51
6.4208275
0
ARC
8
DEFAULT_255_2_778
10
17.9862882
20
8.6267233
40
1.2938085
50
326.7148745
51
0.0917915
0
ARC
8
DEFAULT_255_2_778
10
17.9804364
20
8.6284563
40
1.2996527
50
276.4921002
51
326.792589
0
ARC
8
DEFAULT_255_2_778
10
17.9804501
20
8.6427908
40
1.3138949
50
269.9888749
51
276.4208275
0
ARC
8
DEFAULT_255_2_778
10
17.9781222
20
8.6227029
40
1.2938085
50
236.7148745
51
270.0917915
0
ARC
8
DEFAULT_255_2_778
10
17.9798552
20
8.6285547
40
1.2996527
50
186.4921002
51
236.792589
0
ARC
8
DEFAULT_255_2_778
10
17.9941898
20
8.6285409
40
1.3138949
50
179.9888749
51
186.4208275
0
LINE
8
DEFAULT_255_2_778
10
16.960195
20
56.5085961
11
16.960195
21
57.7486961
0
LINE
8
DEFAULT_255_2_778
10
16.960195
20
57.7486961
11
16.460095
21
57.7486961
0
LINE
8
DEFAULT_255_2_778
10
16.460095
20
57.7486961
11
16.460095
21
56.5085961
0
LINE
8
DEFAULT_255_2_778
10
16.460095
20
56.5085961
11
16.960195
21
56.5085961
0
LINE
8
DEFAULT_255_2_778
10
16.960195
20
59.0485961
11
16.960195
21
60.2886961
0
LINE
8
DEFAULT_255_2_778
10
16.960195
20
60.2886961
11
16.460095
21
60.2886961
0
LINE
8
DEFAULT_255_2_778
10
16.460095
20
60.2886961
11
16.460095
21
59.0485961
0
LINE
8
DEFAULT_255_2_778
10
16.460095
20
59.0485961
11
16.960195
21
59.0485961
0
LINE
8
DEFAULT_255_2_778
10
16.960195
20
61.5885961
11
16.960195
21
62.8286961
0
LINE
8
DEFAULT_255_2_778
10
16.960195
20
62.8286961
11
16.460095
21
62.8286961
0
LINE
8
DEFAULT_255_2_778
10
16.460095
20
62.8286961
11
16.460095
21
61.5885961
0
LINE
8
DEFAULT_255_2_778
10
16.460095
20
61.5885961
11
16.960195
21
61.5885961
0
LINE
8
DEFAULT_255_2_778
10
16.960195
20
64.1285961
11
16.960195
21
65.3686961
0
LINE
8
DEFAULT_255_2_778
10
16.960195
20
65.3686961
11
16.460095
21
65.3686961
0
LINE
8
DEFAULT_255_2_778
10
16.460095
20
65.3686961
11
16.460095
21
64.1285961
0
LINE
8
DEFAULT_255_2_778
10
16.460095
20
64.1285961
11
16.960195
21
64.1285961
0
LINE
8
DEFAULT_255_2_778
10
19.500195
20
57.7486961
11
19.500195
21
56.5085961
0
LINE
8
DEFAULT_255_2_778
10
19.500195
20
56.5085961
11
19.000095
21
56.5085961
0
LINE
8
DEFAULT_255_2_778
10
19.000095
20
56.5085961
11
19.000095
21
57.7486961
0
LINE
8
DEFAULT_255_2_778
10
19.000095
20
57.7486961
11
19.500195
21
57.7486961
0
LINE
8
DEFAULT_255_2_778
10
19.500195
20
60.2886961
11
19.500195
21
59.0485961
0
LINE
8
DEFAULT_255_2_778
10
19.500195
20
59.0485961
11
19.000095
21
59.0485961
0
LINE
8
DEFAULT_255_2_778
10
19.000095
20
59.0485961
11
19.000095
21
60.2886961
0
LINE
8
DEFAULT_255_2_778
10
19.000095
20
60.2886961
11
19.500195
21
60.2886961
0
LINE
8
DEFAULT_255_2_778
10
19.500195
20
62.8286961
11
19.500195
21
61.5885961
0
LINE
8
DEFAULT_255_2_778
10
19.500195
20
61.5885961
11
19.000095
21
61.5885961
0
LINE
8
DEFAULT_255_2_778
10
19.000095
20
61.5885961
11
19.000095
21
62.8286961
0
LINE
8
DEFAULT_255_2_778
10
19.000095
20
62.8286961
11
19.500195
21
62.8286961
0
LINE
8
DEFAULT_255_2_778
10
19.500195
20
65.3686961
11
19.500195
21
64.1285961
0
LINE
8
DEFAULT_255_2_778
10
19.500195
20
64.1285961
11
19.000095
21
64.1285961
0
LINE
8
DEFAULT_255_2_778
10
19.000095
20
64.1285961
11
19.000095
21
65.3686961
0
LINE
8
DEFAULT_255_2_778
10
19.000095
20
65.3686961
11
19.500195
21
65.3686961
0
LINE
8
DEFAULT_255_2_778
10
16.960195
20
46.3485961
11
16.960195
21
47.5886961
0
LINE
8
DEFAULT_255_2_778
10
16.960195
20
47.5886961
11
16.460095
21
47.5886961
0
LINE
8
DEFAULT_255_2_778
10
16.460095
20
47.5886961
11
16.460095
21
46.3485961
0
LINE
8
DEFAULT_255_2_778
10
16.460095
20
46.3485961
11
16.960195
21
46.3485961
0
LINE
8
DEFAULT_255_2_778
10
16.960195
20
48.8885961
11
16.960195
21
50.1286961
0
LINE
8
DEFAULT_255_2_778
10
16.960195
20
50.1286961
11
16.460095
21
50.1286961
0
LINE
8
DEFAULT_255_2_778
10
16.460095
20
50.1286961
11
16.460095
21
48.8885961
0
LINE
8
DEFAULT_255_2_778
10
16.460095
20
48.8885961
11
16.960195
21
48.8885961
0
LINE
8
DEFAULT_255_2_778
10
16.960195
20
51.4285961
11
16.960195
21
52.6686961
0
LINE
8
DEFAULT_255_2_778
10
16.960195
20
52.6686961
11
16.460095
21
52.6686961
0
LINE
8
DEFAULT_255_2_778
10
16.460095
20
52.6686961
11
16.460095
21
51.4285961
0
LINE
8
DEFAULT_255_2_778
10
16.460095
20
51.4285961
11
16.960195
21
51.4285961
0
LINE
8
DEFAULT_255_2_778
10
16.960195
20
53.9685961
11
16.960195
21
55.2086961
0
LINE
8
DEFAULT_255_2_778
10
16.960195
20
55.2086961
11
16.460095
21
55.2086961
0
LINE
8
DEFAULT_255_2_778
10
16.460095
20
55.2086961
11
16.460095
21
53.9685961
0
LINE
8
DEFAULT_255_2_778
10
16.460095
20
53.9685961
11
16.960195
21
53.9685961
0
LINE
8
DEFAULT_255_2_778
10
19.500195
20
47.5886961
11
19.500195
21
46.3485961
0
LINE
8
DEFAULT_255_2_778
10
19.500195
20
46.3485961
11
19.000095
21
46.3485961
0
LINE
8
DEFAULT_255_2_778
10
19.000095
20
46.3485961
11
19.000095
21
47.5886961
0
LINE
8
DEFAULT_255_2_778
10
19.000095
20
47.5886961
11
19.500195
21
47.5886961
0
LINE
8
DEFAULT_255_2_778
10
19.500195
20
50.1286961
11
19.500195
21
48.8885961
0
LINE
8
DEFAULT_255_2_778
10
19.500195
20
48.8885961
11
19.000095
21
48.8885961
0
LINE
8
DEFAULT_255_2_778
10
19.000095
20
48.8885961
11
19.000095
21
50.1286961
0
LINE
8
DEFAULT_255_2_778
10
19.000095
20
50.1286961
11
19.500195
21
50.1286961
0
LINE
8
DEFAULT_255_2_778
10
19.500195
20
52.6686961
11
19.500195
21
51.4285961
0
LINE
8
DEFAULT_255_2_778
10
19.500195
20
51.4285961
11
19.000095
21
51.4285961
0
LINE
8
DEFAULT_255_2_778
10
19.000095
20
51.4285961
11
19.000095
21
52.6686961
0
LINE
8
DEFAULT_255_2_778
10
19.000095
20
52.6686961
11
19.500195
21
52.6686961
0
LINE
8
DEFAULT_255_2_778
10
19.500195
20
55.2086961
11
19.500195
21
53.9685961
0
LINE
8
DEFAULT_255_2_778
10
19.500195
20
53.9685961
11
19.000095
21
53.9685961
0
LINE
8
DEFAULT_255_2_778
10
19.000095
20
53.9685961
11
19.000095
21
55.2086961
0
LINE
8
DEFAULT_255_2_778
10
19.000095
20
55.2086961
11
19.500195
21
55.2086961
0
LINE
8
DEFAULT_255_2_778
10
16.960195
20
36.1885961
11
16.960195
21
37.4286961
0
LINE
8
DEFAULT_255_2_778
10
16.960195
20
37.4286961
11
16.460095
21
37.4286961
0
LINE
8
DEFAULT_255_2_778
10
16.460095
20
37.4286961
11
16.460095
21
36.1885961
0
LINE
8
DEFAULT_255_2_778
10
16.460095
20
36.1885961
11
16.960195
21
36.1885961
0
LINE
8
DEFAULT_255_2_778
10
16.960195
20
38.7285961
11
16.960195
21
39.9686961
0
LINE
8
DEFAULT_255_2_778
10
16.960195
20
39.9686961
11
16.460095
21
39.9686961
0
LINE
8
DEFAULT_255_2_778
10
16.460095
20
39.9686961
11
16.460095
21
38.7285961
0
LINE
8
DEFAULT_255_2_778
10
16.460095
20
38.7285961
11
16.960195
21
38.7285961
0
LINE
8
DEFAULT_255_2_778
10
16.960195
20
41.2685961
11
16.960195
21
42.5086961
0
LINE
8
DEFAULT_255_2_778
10
16.960195
20
42.5086961
11
16.460095
21
42.5086961
0
LINE
8
DEFAULT_255_2_778
10
16.460095
20
42.5086961
11
16.460095
21
41.2685961
0
LINE
8
DEFAULT_255_2_778
10
16.460095
20
41.2685961
11
16.960195
21
41.2685961
0
LINE
8
DEFAULT_255_2_778
10
16.960195
20
43.8085961
11
16.960195
21
45.0486961
0
LINE
8
DEFAULT_255_2_778
10
16.960195
20
45.0486961
11
16.460095
21
45.0486961
0
LINE
8
DEFAULT_255_2_778
10
16.460095
20
45.0486961
11
16.460095
21
43.8085961
0
LINE
8
DEFAULT_255_2_778
10
16.460095
20
43.8085961
11
16.960195
21
43.8085961
0
LINE
8
DEFAULT_255_2_778
10
19.500195
20
37.4286961
11
19.500195
21
36.1885961
0
LINE
8
DEFAULT_255_2_778
10
19.500195
20
36.1885961
11
19.000095
21
36.1885961
0
LINE
8
DEFAULT_255_2_778
10
19.000095
20
36.1885961
11
19.000095
21
37.4286961
0
LINE
8
DEFAULT_255_2_778
10
19.000095
20
37.4286961
11
19.500195
21
37.4286961
0
LINE
8
DEFAULT_255_2_778
10
19.500195
20
39.9686961
11
19.500195
21
38.7285961
0
LINE
8
DEFAULT_255_2_778
10
19.500195
20
38.7285961
11
19.000095
21
38.7285961
0
LINE
8
DEFAULT_255_2_778
10
19.000095
20
38.7285961
11
19.000095
21
39.9686961
0
LINE
8
DEFAULT_255_2_778
10
19.000095
20
39.9686961
11
19.500195
21
39.9686961
0
LINE
8
DEFAULT_255_2_778
10
19.500195
20
42.5086961
11
19.500195
21
41.2685961
0
LINE
8
DEFAULT_255_2_778
10
19.500195
20
41.2685961
11
19.000095
21
41.2685961
0
LINE
8
DEFAULT_255_2_778
10
19.000095
20
41.2685961
11
19.000095
21
42.5086961
0
LINE
8
DEFAULT_255_2_778
10
19.000095
20
42.5086961
11
19.500195
21
42.5086961
0
LINE
8
DEFAULT_255_2_778
10
19.500195
20
45.0486961
11
19.500195
21
43.8085961
0
LINE
8
DEFAULT_255_2_778
10
19.500195
20
43.8085961
11
19.000095
21
43.8085961
0
LINE
8
DEFAULT_255_2_778
10
19.000095
20
43.8085961
11
19.000095
21
45.0486961
0
LINE
8
DEFAULT_255_2_778
10
19.000095
20
45.0486961
11
19.500195
21
45.0486961
0
LINE
8
DEFAULT_255_2_778
10
16.960195
20
26.0285961
11
16.960195
21
27.2686961
0
LINE
8
DEFAULT_255_2_778
10
16.960195
20
27.2686961
11
16.460095
21
27.2686961
0
LINE
8
DEFAULT_255_2_778
10
16.460095
20
27.2686961
11
16.460095
21
26.0285961
0
LINE
8
DEFAULT_255_2_778
10
16.460095
20
26.0285961
11
16.960195
21
26.0285961
0
LINE
8
DEFAULT_255_2_778
10
16.960195
20
28.5685961
11
16.960195
21
29.8086961
0
LINE
8
DEFAULT_255_2_778
10
16.960195
20
29.8086961
11
16.460095
21
29.8086961
0
LINE
8
DEFAULT_255_2_778
10
16.460095
20
29.8086961
11
16.460095
21
28.5685961
0
LINE
8
DEFAULT_255_2_778
10
16.460095
20
28.5685961
11
16.960195
21
28.5685961
0
LINE
8
DEFAULT_255_2_778
10
16.960195
20
31.1085961
11
16.960195
21
32.3486961
0
LINE
8
DEFAULT_255_2_778
10
16.960195
20
32.3486961
11
16.460095
21
32.3486961
0
LINE
8
DEFAULT_255_2_778
10
16.460095
20
32.3486961
11
16.460095
21
31.1085961
0
LINE
8
DEFAULT_255_2_778
10
16.460095
20
31.1085961
11
16.960195
21
31.1085961
0
LINE
8
DEFAULT_255_2_778
10
16.960195
20
33.6485961
11
16.960195
21
34.8886961
0
LINE
8
DEFAULT_255_2_778
10
16.960195
20
34.8886961
11
16.460095
21
34.8886961
0
LINE
8
DEFAULT_255_2_778
10
16.460095
20
34.8886961
11
16.460095
21
33.6485961
0
LINE
8
DEFAULT_255_2_778
10
16.460095
20
33.6485961
11
16.960195
21
33.6485961
0
LINE
8
DEFAULT_255_2_778
10
19.500195
20
27.2686961
11
19.500195
21
26.0285961
0
LINE
8
DEFAULT_255_2_778
10
19.500195
20
26.0285961
11
19.000095
21
26.0285961
0
LINE
8
DEFAULT_255_2_778
10
19.000095
20
26.0285961
11
19.000095
21
27.2686961
0
LINE
8
DEFAULT_255_2_778
10
19.000095
20
27.2686961
11
19.500195
21
27.2686961
0
LINE
8
DEFAULT_255_2_778
10
19.500195
20
29.8086961
11
19.500195
21
28.5685961
0
LINE
8
DEFAULT_255_2_778
10
19.500195
20
28.5685961
11
19.000095
21
28.5685961
0
LINE
8
DEFAULT_255_2_778
10
19.000095
20
28.5685961
11
19.000095
21
29.8086961
0
LINE
8
DEFAULT_255_2_778
10
19.000095
20
29.8086961
11
19.500195
21
29.8086961
0
LINE
8
DEFAULT_255_2_778
10
19.500195
20
32.3486961
11
19.500195
21
31.1085961
0
LINE
8
DEFAULT_255_2_778
10
19.500195
20
31.1085961
11
19.000095
21
31.1085961
0
LINE
8
DEFAULT_255_2_778
10
19.000095
20
31.1085961
11
19.000095
21
32.3486961
0
LINE
8
DEFAULT_255_2_778
10
19.000095
20
32.3486961
11
19.500195
21
32.3486961
0
LINE
8
DEFAULT_255_2_778
10
19.500195
20
34.8886961
11
19.500195
21
33.6485961
0
LINE
8
DEFAULT_255_2_778
10
19.500195
20
33.6485961
11
19.000095
21
33.6485961
0
LINE
8
DEFAULT_255_2_778
10
19.000095
20
33.6485961
11
19.000095
21
34.8886961
0
LINE
8
DEFAULT_255_2_778
10
19.000095
20
34.8886961
11
19.500195
21
34.8886961
0
LINE
8
DEFAULT_255_2_778
10
16.960195
20
15.8685961
11
16.960195
21
17.1086961
0
LINE
8
DEFAULT_255_2_778
10
16.960195
20
17.1086961
11
16.460095
21
17.1086961
0
LINE
8
DEFAULT_255_2_778
10
16.460095
20
17.1086961
11
16.460095
21
15.8685961
0
LINE
8
DEFAULT_255_2_778
10
16.460095
20
15.8685961
11
16.960195
21
15.8685961
0
LINE
8
DEFAULT_255_2_778
10
16.960195
20
18.4085961
11
16.960195
21
19.6486961
0
LINE
8
DEFAULT_255_2_778
10
16.960195
20
19.6486961
11
16.460095
21
19.6486961
0
LINE
8
DEFAULT_255_2_778
10
16.460095
20
19.6486961
11
16.460095
21
18.4085961
0
LINE
8
DEFAULT_255_2_778
10
16.460095
20
18.4085961
11
16.960195
21
18.4085961
0
LINE
8
DEFAULT_255_2_778
10
16.960195
20
20.9485961
11
16.960195
21
22.1886961
0
LINE
8
DEFAULT_255_2_778
10
16.960195
20
22.1886961
11
16.460095
21
22.1886961
0
LINE
8
DEFAULT_255_2_778
10
16.460095
20
22.1886961
11
16.460095
21
20.9485961
0
LINE
8
DEFAULT_255_2_778
10
16.460095
20
20.9485961
11
16.960195
21
20.9485961
0
LINE
8
DEFAULT_255_2_778
10
16.960195
20
23.4885961
11
16.960195
21
24.7286961
0
LINE
8
DEFAULT_255_2_778
10
16.960195
20
24.7286961
11
16.460095
21
24.7286961
0
LINE
8
DEFAULT_255_2_778
10
16.460095
20
24.7286961
11
16.460095
21
23.4885961
0
LINE
8
DEFAULT_255_2_778
10
16.460095
20
23.4885961
11
16.960195
21
23.4885961
0
LINE
8
DEFAULT_255_2_778
10
19.500195
20
17.1086961
11
19.500195
21
15.8685961
0
LINE
8
DEFAULT_255_2_778
10
19.500195
20
15.8685961
11
19.000095
21
15.8685961
0
LINE
8
DEFAULT_255_2_778
10
19.000095
20
15.8685961
11
19.000095
21
17.1086961
0
LINE
8
DEFAULT_255_2_778
10
19.000095
20
17.1086961
11
19.500195
21
17.1086961
0
LINE
8
DEFAULT_255_2_778
10
19.500195
20
19.6486961
11
19.500195
21
18.4085961
0
LINE
8
DEFAULT_255_2_778
10
19.500195
20
18.4085961
11
19.000095
21
18.4085961
0
LINE
8
DEFAULT_255_2_778
10
19.000095
20
18.4085961
11
19.000095
21
19.6486961
0
LINE
8
DEFAULT_255_2_778
10
19.000095
20
19.6486961
11
19.500195
21
19.6486961
0
LINE
8
DEFAULT_255_2_778
10
19.500195
20
22.1886961
11
19.500195
21
20.9485961
0
LINE
8
DEFAULT_255_2_778
10
19.500195
20
20.9485961
11
19.000095
21
20.9485961
0
LINE
8
DEFAULT_255_2_778
10
19.000095
20
20.9485961
11
19.000095
21
22.1886961
0
LINE
8
DEFAULT_255_2_778
10
19.000095
20
22.1886961
11
19.500195
21
22.1886961
0
LINE
8
DEFAULT_255_2_778
10
19.500195
20
24.7286961
11
19.500195
21
23.4885961
0
LINE
8
DEFAULT_255_2_778
10
19.500195
20
23.4885961
11
19.000095
21
23.4885961
0
LINE
8
DEFAULT_255_2_778
10
19.000095
20
23.4885961
11
19.000095
21
24.7286961
0
LINE
8
DEFAULT_255_2_778
10
19.000095
20
24.7286961
11
19.500195
21
24.7286961
0
LINE
8
DEFAULT_255_2_778
10
7.516195
20
8.8187961
11
4.944695
21
8.8187961
0
LINE
8
DEFAULT_255_2_778
10
4.930395
20
8.6287961
11
4.930395
21
8.6287961
0
LINE
8
DEFAULT_255_2_778
10
19.266095
20
8.8187961
11
16.694595
21
8.8187961
0
LINE
8
DEFAULT_255_2_778
10
18.685795
20
9.7188961
11
17.274795
21
9.7188961
0
LINE
8
DEFAULT_255_2_778
10
16.680295
20
8.6287961
11
16.680295
21
8.6287961
0
LINE
8
DEFAULT_255_2_778
10
2.3470552
20
81.0612
11
2.3470552
21
80.8207
0
LINE
8
DEFAULT_255_2_778
10
2.3470552
20
80.8207
11
2.1546552
21
80.8207
0
LINE
8
DEFAULT_255_2_778
10
2.1546552
20
80.8207
11
2.1546552
21
81.0612
0
LINE
8
DEFAULT_255_2_778
10
2.1546552
20
81.0612
11
2.3470552
21
81.0612
0
LINE
8
DEFAULT_255_2_778
10
2.6494552
20
81.602
11
2.8113552
21
81.7666
0
LINE
8
DEFAULT_255_2_778
10
2.8113552
20
81.7666
11
2.8113552
21
80.8413
0
LINE
8
DEFAULT_255_2_778
10
2.8113552
20
80.8413
11
3.0036552
21
80.8413
0
LINE
8
DEFAULT_255_2_778
10
3.0036552
20
80.8413
11
3.0036552
21
82.0399
0
LINE
8
DEFAULT_255_2_778
10
3.0036552
20
82.0399
11
2.8335552
21
82.0399
0
LINE
8
DEFAULT_255_2_778
10
2.8335552
20
82.0399
11
2.5533552
21
81.7584
0
LINE
8
DEFAULT_255_2_778
10
2.5533552
20
81.7584
11
2.6494552
21
81.602
0
LINE
8
DEFAULT_255_2_778
10
3.8463552
20
81.7788
11
3.7074552
21
81.2845
0
LINE
8
DEFAULT_255_2_778
10
3.7074552
20
81.2845
11
3.9876552
21
81.2845
0
LINE
8
DEFAULT_255_2_778
10
3.9876552
20
81.2845
11
3.8490552
21
81.7788
0
LINE
8
DEFAULT_255_2_778
10
3.8490552
20
81.7788
11
3.8463552
21
81.7788
0
LINE
8
DEFAULT_255_2_778
10
3.3698552
20
80.8207
11
3.7429552
21
82.0193
0
LINE
8
DEFAULT_255_2_778
10
3.7429552
20
82.0193
11
3.9599552
21
82.0193
0
LINE
8
DEFAULT_255_2_778
10
3.9599552
20
82.0193
11
4.3361552
21
80.8207
0
LINE
8
DEFAULT_255_2_778
10
4.3361552
20
80.8207
11
4.1231552
21
80.8207
0
LINE
8
DEFAULT_255_2_778
10
4.1231552
20
80.8207
11
4.0408552
21
81.0953
0
LINE
8
DEFAULT_255_2_778
10
4.0408552
20
81.0953
11
3.6524552
21
81.0953
0
LINE
8
DEFAULT_255_2_778
10
3.6524552
20
81.0953
11
3.5683552
21
80.8207
0
LINE
8
DEFAULT_255_2_778
10
3.5683552
20
80.8207
11
3.3698552
21
80.8207
0
ARC
8
DEFAULT_255_2_778
10
0.5069904
20
81.4269939
40
1.5585788
50
359.5438389
51
8.220501
0
ARC
8
DEFAULT_255_2_778
10
1.3118416
20
81.5487779
40
0.7446044
50
7.8009343
51
23.174691
0
ARC
8
DEFAULT_255_2_778
10
1.7154472
20
81.7389627
40
0.29915
50
20.1077298
51
91.6717853
0
ARC
8
DEFAULT_255_2_778
10
1.6911897
20
81.7208649
40
0.3175005
50
87.1963295
51
159.9520442
0
ARC
8
DEFAULT_255_2_778
10
2.0719883
20
81.5514966
40
0.7338417
50
157.7211994
51
173.7445819
0
ARC
8
DEFAULT_255_2_778
10
2.7408411
20
81.4621313
40
1.40854
50
173.0955798
51
180.2947444
0
ARC
8
DEFAULT_255_2_778
10
3.0993081
20
81.4424295
40
1.7670322
50
179.5961144
51
187.5742312
0
ARC
8
DEFAULT_255_2_778
10
2.2168569
20
81.3203139
40
0.8761973
50
187.2646878
51
200.58913
0
ARC
8
DEFAULT_255_2_778
10
1.7652552
20
81.1428169
40
0.3910906
50
199.512641
51
229.7153246
0
ARC
8
DEFAULT_255_2_778
10
1.6976993
20
81.0834945
40
0.3024437
50
232.2124732
51
271.7091224
0
ARC
8
DEFAULT_255_2_778
10
1.7133066
20
81.0831224
40
0.3020088
50
268.7502801
51
342.331066
0
ARC
8
DEFAULT_255_2_778
10
1.2541145
20
81.2873329
40
0.8034192
50
338.3910359
51
352.891506
0
ARC
8
DEFAULT_255_2_778
10
0.4247221
20
81.4033155
40
1.6408363
50
352.4565928
51
0.3935332
0
ARC
8
DEFAULT_255_2_778
10
1.7069203
20
81.7282788
40
0.0888585
50
95.1009275
51
163.555222
0
ARC
8
DEFAULT_255_2_778
10
2.0332153
20
81.5784765
40
0.4471662
50
156.9672083
51
172.3574058
0
ARC
8
DEFAULT_255_2_778
10
2.9281646
20
81.4378884
40
1.3530154
50
171.4970121
51
178.4063633
0
ARC
8
DEFAULT_255_2_778
10
4.092796
20
81.387051
40
2.5186774
50
177.9871397
51
180.0583643
0
ARC
8
DEFAULT_255_2_778
10
3.2210941
20
81.373767
40
1.6470092
50
179.627127
51
185.4545781
0
ARC
8
DEFAULT_255_2_778
10
2.1812535
20
81.2679117
40
0.6018505
50
184.8326985
51
197.1539325
0
ARC
8
DEFAULT_255_2_778
10
1.7429313
20
81.1242177
40
0.1408742
50
193.8890359
51
232.739112
0
ARC
8
DEFAULT_255_2_778
10
1.6924015
20
81.0677612
40
0.0656262
50
238.0152646
51
270.4218651
0
ARC
8
DEFAULT_255_2_778
10
1.6928419
20
81.0789575
40
0.0768208
50
270.0319263
51
274.6127028
0
ARC
8
DEFAULT_255_2_778
10
1.6919194
20
81.0959096
40
0.0937934
50
274.3415697
51
344.2123497
0
ARC
8
DEFAULT_255_2_778
10
1.3629487
20
81.2412661
40
0.4527126
50
337.824351
51
353.5785693
0
ARC
8
DEFAULT_255_2_778
10
0.4735955
20
81.3621375
40
1.3501623
50
352.7023461
51
359.7624777
0
ARC
8
DEFAULT_255_2_778
10
-0.3883626
20
81.3842397
40
2.2122824
50
359.2825975
51
0.006364
0
ARC
8
DEFAULT_255_2_778
10
-0.7672482
20
81.4312899
40
2.5915906
50
358.965174
51
359.9855127
0
ARC
8
DEFAULT_255_2_778
10
0.2317584
20
81.4414497
40
1.5926208
50
359.6109151
51
5.6980902
0
ARC
8
DEFAULT_255_2_778
10
1.2300761
20
81.5473548
40
0.5887541
50
5.0886591
51
17.7200753
0
ARC
8
DEFAULT_255_2_778
10
1.6507866
20
81.6899148
40
0.1448209
50
14.6540586
51
53.3624483
0
ARC
8
DEFAULT_255_2_778
10
1.6996186
20
81.7452092
40
0.0715787
50
58.3211456
51
90.479305
0
LINE
8
DEFAULT_255_2_778
10
2.0655198
20
81.4145854
11
2.0655198
21
81.4145854
0
LINE
8
DEFAULT_255_2_778
10
1.6990198
20
81.8167854
11
1.6990198
21
81.8167854
0
ARC
8
DEFAULT_255_2_778
10
6.2075065
20
82.7523212
40
0.2131682
50
270.0192602
51
281.5508324
0
ARC
8
DEFAULT_255_2_778
10
6.2001845
20
82.7732168
40
0.2351258
50
282.2793874
51
324.3489645
0
ARC
8
DEFAULT_255_2_778
10
6.0894345
20
82.8547715
40
0.3726571
50
324.0845707
51
346.8368413
0
ARC
8
DEFAULT_255_2_778
10
5.812456
20
82.9239518
40
0.6581261
50
346.4635569
51
0.6436272
0
ARC
8
DEFAULT_255_2_778
10
5.5409816
20
82.9308684
40
0.9295592
50
0.0293555
51
2.7125274
0
ARC
8
DEFAULT_255_2_778
10
5.4556755
20
82.9272687
40
1.0149402
50
2.6876077
51
3.5409334
0
ARC
8
DEFAULT_255_2_778
10
5.6844173
20
82.9059574
40
0.7887461
50
6.1131661
51
17.4824172
0
ARC
8
DEFAULT_255_2_778
10
6.1403395
20
83.0563129
40
0.3087818
50
16.2863506
51
45.3192807
0
ARC
8
DEFAULT_255_2_778
10
6.172355
20
83.0596417
40
0.2846367
50
49.433951
51
89.4268698
0
ARC
8
DEFAULT_255_2_778
10
6.1322886
20
82.7135328
40
0.6321896
50
86.1077214
51
90.1011681
0
ARC
8
DEFAULT_255_2_778
10
6.1334148
20
82.4336688
40
0.9120555
50
90.1408702
51
93.9901146
0
ARC
8
DEFAULT_255_2_778
10
6.1522551
20
82.1271381
40
1.2191568
50
93.8709769
51
94.8924685
0
ARC
8
DEFAULT_255_2_778
10
6.1651794
20
82.8802672
40
0.5337142
50
269.9998674
51
278.7052601
0
ARC
8
DEFAULT_255_2_778
10
6.1798647
20
82.8238657
40
0.4757775
50
277.985139
51
320.6658723
0
ARC
8
DEFAULT_255_2_778
10
6.1383191
20
82.8466527
40
0.5224272
50
321.6209902
51
345.5935263
0
ARC
8
DEFAULT_255_2_778
10
5.896351
20
82.911009
40
0.7728014
50
345.4355271
51
0.5432425
0
ARC
8
DEFAULT_255_2_778
10
5.6479697
20
82.9178529
40
1.0211482
50
0.0271097
51
2.9686013
0
ARC
8
DEFAULT_255_2_778
10
5.5535267
20
82.9132833
40
1.1157011
50
2.9517794
51
4.6356374
0
ARC
8
DEFAULT_255_2_778
10
5.7058759
20
82.8620764
40
0.9700597
50
8.380142
51
20.3242952
0
ARC
8
DEFAULT_255_2_778
10
6.1616276
20
83.0373302
40
0.4818487
50
19.6054661
51
47.3856078
0
ARC
8
DEFAULT_255_2_778
10
6.1682428
20
83.0137228
40
0.4951823
50
49.7990354
51
80.4663653
0
ARC
8
DEFAULT_255_2_778
10
6.0385201
20
82.376543
40
1.1452663
50
79.3458007
51
90.1937242
0
ARC
8
DEFAULT_255_2_778
10
6.0186262
20
81.7090878
40
1.8127856
50
89.4936042
51
90.0031631
0
ARC
8
DEFAULT_255_2_778
10
6.0203548
20
81.3787379
40
2.1431365
50
90.0488901
51
92.105711
0
ARC
8
DEFAULT_255_2_778
10
6.045898
20
80.6762232
40
2.8461153
50
92.0999381
51
93.7474778
0
ARC
8
DEFAULT_255_2_778
10
7.2571997
20
82.6947609
40
0.8719529
50
70.4710946
51
76.4446893
0
ARC
8
DEFAULT_255_2_778
10
7.2993014
20
82.8711903
40
0.6905705
50
76.4095724
51
84.0834728
0
ARC
8
DEFAULT_255_2_778
10
7.3120881
20
82.9865349
40
0.5745229
50
84.1661368
51
89.9356462
0
ARC
8
DEFAULT_255_2_778
10
7.3072673
20
83.1122239
40
0.4488668
50
89.3022651
51
115.4539688
0
ARC
8
DEFAULT_255_2_778
10
7.3727418
20
83.0452804
40
0.5383082
50
118.6857747
51
166.4195778
0
ARC
8
DEFAULT_255_2_778
10
7.5697877
20
82.9635957
40
0.7497578
50
163.8867952
51
168.891236
0
ARC
8
DEFAULT_255_2_778
10
8.5455055
20
82.9174595
40
1.7220074
50
173.6454247
51
175.8579316
0
ARC
8
DEFAULT_255_2_778
10
8.31178
20
82.9342649
40
1.4876786
50
175.8532936
51
178.359326
0
ARC
8
DEFAULT_255_2_778
10
8.1446116
20
82.9394991
40
1.3204289
50
178.3786703
51
179.987755
0
ARC
8
DEFAULT_255_2_778
10
7.816951
20
82.932834
40
0.9927925
50
179.5990567
51
189.9322279
0
ARC
8
DEFAULT_255_2_778
10
7.4427802
20
82.8651121
40
0.6125525
50
189.7293766
51
205.64119
0
ARC
8
DEFAULT_255_2_778
10
7.2628812
20
82.7777772
40
0.4125779
50
205.51816
51
234.1758913
0
ARC
8
DEFAULT_255_2_778
10
7.305711
20
82.8726603
40
0.5149997
50
236.4914723
51
272.0371623
0
ARC
8
DEFAULT_255_2_778
10
7.3239919
20
83.1233412
40
0.7653551
50
270.0019553
51
270.4441915
0
ARC
8
DEFAULT_255_2_778
10
7.3154345
20
83.3026859
40
0.9447881
50
270.8788207
51
283.4855399
0
ARC
8
DEFAULT_255_2_778
10
7.2861478
20
83.4506095
40
1.0954794
50
283.1708608
51
283.8658219
0
ARC
8
DEFAULT_255_2_778
10
7.2416521
20
83.3460316
40
0.8159958
50
286.209395
51
291.6028693
0
ARC
8
DEFAULT_255_2_778
10
7.3007542
20
83.1413264
40
0.6029299
50
279.4026933
51
286.2465088
0
ARC
8
DEFAULT_255_2_778
10
7.3265467
20
82.9832887
40
0.4428019
50
270.5387296
51
279.4509584
0
ARC
8
DEFAULT_255_2_778
10
7.3286394
20
82.9233655
40
0.3828646
50
270.00033
51
270.309884
0
ARC
8
DEFAULT_255_2_778
10
7.3237721
20
82.835132
40
0.2946714
50
246.0235445
51
270.9468581
0
ARC
8
DEFAULT_255_2_778
10
7.3626169
20
82.8584501
40
0.332781
50
189.4749701
51
241.5394999
0
ARC
8
DEFAULT_255_2_778
10
7.6903524
20
82.9596407
40
0.6742644
50
183.6730611
51
193.374895
0
ARC
8
DEFAULT_255_2_778
10
7.7307753
20
82.9641714
40
0.7148972
50
180.0255217
51
183.8278849
0
ARC
8
DEFAULT_255_2_778
10
7.7897116
20
82.9133431
40
0.7754801
50
164.9046457
51
176.2654685
0
ARC
8
DEFAULT_255_2_778
10
7.4733014
20
83.0011995
40
0.4471146
50
146.9834737
51
165.2151761
0
ARC
8
DEFAULT_255_2_778
10
7.3302809
20
83.0959782
40
0.2755511
50
111.6587901
51
147.3045445
0
ARC
8
DEFAULT_255_2_778
10
7.3284502
20
83.0891884
40
0.2812174
50
89.6247329
51
110.801536
0
ARC
8
DEFAULT_255_2_778
10
7.330094
20
83.0425727
40
0.3278272
50
84.5358456
51
89.9653705
0
ARC
8
DEFAULT_255_2_778
10
7.3168691
20
82.9609273
40
0.4103963
50
57.8134105
51
83.7832819
0
ARC
8
DEFAULT_255_2_778
10
-0.268954
20
85.672793
40
4.9362122
50
323.0733122
51
324.5466494
0
ARC
8
DEFAULT_255_2_778
10
3.2673551
20
83.1969007
40
0.6204135
50
321.3710857
51
355.5425105
0
ARC
8
DEFAULT_255_2_778
10
3.3503541
20
83.1722293
40
0.5360551
50
357.4824171
51
0.0088346
0
ARC
8
DEFAULT_255_2_778
10
3.2831653
20
83.1708518
40
0.6032456
50
0.138688
51
8.3638648
0
ARC
8
DEFAULT_255_2_778
10
3.1333641
20
83.149451
40
0.7545668
50
8.3170318
51
14.0121905
0
ARC
8
DEFAULT_255_2_778
10
3.4628983
20
83.1740365
40
0.4325175
50
21.4428148
51
35.9224704
0
ARC
8
DEFAULT_255_2_778
10
3.5948306
20
83.2709265
40
0.2688349
50
35.6967102
51
60.9145659
0
ARC
8
DEFAULT_255_2_778
10
3.601467
20
83.2706681
40
0.2659008
50
62.1914179
51
91.0210504
0
ARC
8
DEFAULT_255_2_778
10
3.5970519
20
83.1698995
40
0.3666272
50
90.0505068
51
94.4195252
0
ARC
8
DEFAULT_255_2_778
10
3.644954
20
82.8559909
40
0.6836999
50
96.3951666
51
113.8661508
0
LINE
8
DEFAULT_255_2_778
10
3.3683281
20
83.4812298
11
3.367977
21
83.4810863
0
ARC
8
DEFAULT_255_2_778
10
4.407477
20
80.9575013
40
2.7292933
50
112.387448
51
113.5735679
0
ARC
8
DEFAULT_255_2_778
10
0.2604627
20
90.5106684
40
7.6851615
50
293.2998741
51
293.4272384
0
ARC
8
DEFAULT_255_2_778
10
3.6802423
20
82.7878042
40
0.5876193
50
117.6142365
51
127.8256863
0
ARC
8
DEFAULT_255_2_778
10
3.5736531
20
82.9944013
40
0.3551524
50
102.9839889
51
117.8261667
0
ARC
8
DEFAULT_255_2_778
10
3.5450616
20
83.1123165
40
0.2338322
50
90.3209833
51
102.6489199
0
ARC
8
DEFAULT_255_2_778
10
3.5474623
20
83.1929892
40
0.1532006
50
59.125772
51
91.3878757
0
ARC
8
DEFAULT_255_2_778
10
3.5721766
20
83.2358617
40
0.103724
50
27.6226926
51
58.6904875
0
ARC
8
DEFAULT_255_2_778
10
3.5391568
20
83.2064887
40
0.14699
50
5.1388673
51
31.8032233
0
ARC
8
DEFAULT_255_2_778
10
3.4829512
20
83.1983652
40
0.2037203
50
359.9096476
51
5.9985457
0
ARC
8
DEFAULT_255_2_778
10
3.3367648
20
83.2078559
40
0.3500439
50
338.6057139
51
358.3937492
0
ARC
8
DEFAULT_255_2_778
10
2.9084173
20
83.3649665
40
0.8062481
50
328.8386417
51
339.3142339
0
ARC
8
DEFAULT_255_2_778
10
2.2700099
20
83.7423986
40
1.5478616
50
322.698134
51
329.1114598
0
ARC
8
DEFAULT_255_2_778
10
1.4526446
20
84.358521
40
2.5714222
50
318.484172
51
322.8148509
0
ARC
8
DEFAULT_255_2_778
10
0.6671516
20
85.0445788
40
3.6143223
50
316.4652316
51
318.5942603
0
LINE
8
DEFAULT_255_2_778
10
5.0303782
20
83.512553
11
5.2719782
21
82.600753
0
LINE
8
DEFAULT_255_2_778
10
5.2719782
20
82.600753
11
5.2745782
21
82.600753
0
LINE
8
DEFAULT_255_2_778
10
5.2745782
20
82.600753
11
5.5132782
21
83.512553
0
LINE
8
DEFAULT_255_2_778
10
5.5132782
20
83.512553
11
5.7008782
21
83.512553
0
LINE
8
DEFAULT_255_2_778
10
5.7008782
20
83.512553
11
5.3838782
21
82.351253
0
LINE
8
DEFAULT_255_2_778
10
5.3838782
20
82.351253
11
5.1515782
21
82.351253
0
LINE
8
DEFAULT_255_2_778
10
5.1515782
20
82.351253
11
4.8277782
21
83.512553
0
LINE
8
DEFAULT_255_2_778
10
4.8277782
20
83.512553
11
5.0301782
21
83.512553
0
LINE
8
DEFAULT_255_2_778
10
4.6110782
20
83.512553
11
4.6110782
21
82.765653
0
LINE
8
DEFAULT_255_2_778
10
4.6110782
20
82.765653
11
4.7308782
21
82.765653
0
LINE
8
DEFAULT_255_2_778
10
4.7308782
20
82.765653
11
4.7308782
21
82.592553
0
LINE
8
DEFAULT_255_2_778
10
4.7308782
20
82.592553
11
4.6110782
21
82.592553
0
LINE
8
DEFAULT_255_2_778
10
4.6110782
20
82.592553
11
4.6110782
21
82.351253
0
LINE
8
DEFAULT_255_2_778
10
4.6110782
20
82.351253
11
4.4303782
21
82.351253
0
LINE
8
DEFAULT_255_2_778
10
4.4303782
20
82.351253
11
4.4303782
21
82.592553
0
LINE
8
DEFAULT_255_2_778
10
4.4303782
20
82.592553
11
4.0239782
21
82.592553
0
LINE
8
DEFAULT_255_2_778
10
4.0239782
20
82.592553
11
4.0239782
21
82.780753
0
LINE
8
DEFAULT_255_2_778
10
4.0239782
20
82.780753
11
4.3760782
21
83.512853
0
LINE
8
DEFAULT_255_2_778
10
4.3760782
20
83.512853
11
4.6110782
21
83.512553
0
LINE
8
DEFAULT_255_2_778
10
4.4303782
20
82.765653
11
4.4303782
21
83.275753
0
LINE
8
DEFAULT_255_2_778
10
4.4303782
20
83.275753
11
4.1940782
21
82.765653
0
LINE
8
DEFAULT_255_2_778
10
4.1940782
20
82.765653
11
4.4303782
21
82.765653
0
LINE
8
DEFAULT_255_2_778
10
6.0482782
20
83.341853
11
6.0482782
21
82.539153
0
LINE
8
DEFAULT_255_2_778
10
6.0482782
20
82.539153
11
6.2075782
21
82.539153
0
LINE
8
DEFAULT_255_2_778
10
6.0482782
20
83.341853
11
6.0482782
21
83.341853
0
LINE
8
DEFAULT_255_2_778
10
5.8598782
20
83.516253
11
5.8598782
21
82.346553
0
LINE
8
DEFAULT_255_2_778
10
5.8598782
20
82.346553
11
6.1651782
21
82.346553
0
LINE
8
DEFAULT_255_2_778
10
5.8598782
20
83.516253
11
5.8598782
21
83.516253
0
LINE
8
DEFAULT_255_2_778
10
7.5486782
20
82.387053
11
7.5420782
21
82.587353
0
LINE
8
DEFAULT_255_2_778
10
7.5354782
20
83.308253
11
7.5486782
21
83.516553
0
LINE
8
DEFAULT_255_2_778
10
3.2870782
20
82.346753
11
3.9172782
21
82.354753
0
LINE
8
DEFAULT_255_2_778
10
3.9172782
20
82.354753
11
3.9172782
21
82.538853
0
LINE
8
DEFAULT_255_2_778
10
3.9172782
20
82.538853
11
3.5275782
21
82.530953
0
LINE
8
DEFAULT_255_2_778
10
3.5275782
20
82.530953
11
3.6770782
21
82.707153
0
LINE
8
DEFAULT_255_2_778
10
3.3002782
20
83.452253
11
3.3198782
21
83.251953
0
LINE
8
DEFAULT_255_2_778
10
3.2873782
20
82.555053
11
3.2873782
21
82.346753
0
LINE
8
DEFAULT_255_2_778
10
3.2873782
20
82.346753
11
3.2870782
21
82.346753
0
ARC
8
DEFAULT_255_2_778
10
2.1128583
20
83.1945483
40
0.2423
50
359.8509186
51
8.8909914
0
ARC
8
DEFAULT_255_2_778
10
1.9410046
20
83.2065271
40
0.4143449
50
336.5041052
51
358.2561191
0
ARC
8
DEFAULT_255_2_778
10
1.4059875
20
83.4240659
40
0.9918282
50
326.5633235
51
337.3013281
0
ARC
8
DEFAULT_255_2_778
10
0.5365272
20
83.985781
40
2.0269287
50
320.584361
51
326.8555265
0
ARC
8
DEFAULT_255_2_778
10
-0.5705912
20
84.8815014
40
3.4509919
50
317.3478554
51
320.766283
0
LINE
8
DEFAULT_255_2_778
10
1.9675469
20
82.543297
11
1.9675469
21
82.346497
0
LINE
8
DEFAULT_255_2_778
10
1.9675469
20
82.346497
11
2.5628469
21
82.346497
0
LINE
8
DEFAULT_255_2_778
10
2.5628469
20
82.346497
11
2.5628469
21
82.532197
0
LINE
8
DEFAULT_255_2_778
10
2.5628469
20
82.532197
11
2.1964469
21
82.532197
0
ARC
8
DEFAULT_255_2_778
10
0.9472226
20
83.7010293
40
1.7107689
50
316.9041844
51
326.4629727
0
ARC
8
DEFAULT_255_2_778
10
1.5009883
20
83.3384499
40
1.0488795
50
326.2596704
51
341.3059119
0
ARC
8
DEFAULT_255_2_778
10
1.8124057
20
83.2306146
40
0.7193325
50
341.4916838
51
359.6714782
0
ARC
8
DEFAULT_255_2_778
10
1.8841924
20
83.2266317
40
0.647534
50
359.9874707
51
10.1727548
0
ARC
8
DEFAULT_255_2_778
10
2.1619281
20
83.2552426
40
0.3697019
50
13.4122281
51
34.5342355
0
ARC
8
DEFAULT_255_2_778
10
2.2795589
20
83.3307211
40
0.2300547
50
35.6566621
51
92.9218203
0
ARC
8
DEFAULT_255_2_778
10
2.2727765
20
83.1006566
40
0.4598469
50
90.6160522
51
103.5487919
0
ARC
8
DEFAULT_255_2_778
10
2.3466842
20
82.7817956
40
0.7871538
50
103.3413611
51
111.5908522
0
ARC
8
DEFAULT_255_2_778
10
2.4838508
20
82.4218659
40
1.1723135
50
111.3512115
51
115.1436795
0
ARC
8
DEFAULT_255_2_778
10
0.3280112
20
83.2597352
40
1.6727158
50
4.7541998
51
7.6737653
0
ARC
8
DEFAULT_255_2_778
10
-3.0853496
20
82.9616448
40
5.0990585
50
3.5277176
51
4.9133224
0
ARC
8
DEFAULT_255_2_778
10
2.4441297
20
82.630038
40
0.7811281
50
116.5198189
51
124.2908353
0
ARC
8
DEFAULT_255_2_778
10
2.2636038
20
82.9971371
40
0.3720566
50
103.3742814
51
116.8865703
0
ARC
8
DEFAULT_255_2_778
10
2.2213348
20
83.1673554
40
0.1966851
50
90.4791093
51
102.8646894
0
ARC
8
DEFAULT_255_2_778
10
2.2209719
20
83.2415262
40
0.122514
50
15.8804902
51
90.5994714
0
ARC
8
DEFAULT_255_2_778
10
2.0643301
20
83.168063
40
0.2945938
50
12.4944676
51
21.2948472
0
LINE
8
DEFAULT_255_2_778
10
1.2555469
20
83.258697
11
1.5357469
21
83.540297
0
LINE
8
DEFAULT_255_2_778
10
1.5357469
20
83.540297
11
1.7058469
21
83.540297
0
LINE
8
DEFAULT_255_2_778
10
1.7058469
20
83.540297
11
1.7058469
21
82.341697
0
LINE
8
DEFAULT_255_2_778
10
1.7058469
20
82.341697
11
1.5140469
21
82.341697
0
LINE
8
DEFAULT_255_2_778
10
1.5140469
20
82.341697
11
1.5140469
21
83.266897
0
LINE
8
DEFAULT_255_2_778
10
1.5140469
20
83.266897
11
1.3518469
21
83.102397
0
LINE
8
DEFAULT_255_2_778
10
1.3518469
20
83.102397
11
1.2555469
21
83.258697
0
LINE
8
DEFAULT_255_2_778
10
2.3519469
20
83.231797
11
2.3522469
21
83.231997
0
ARC
8
DEFAULT_255_2_778
10
2.1662794
20
104.4708218
40
0.2009468
50
358.4586283
51
78.488364
0
ARC
8
DEFAULT_255_2_778
10
2.033277
20
104.0877429
40
0.6052654
50
73.381482
51
87.6334848
0
ARC
8
DEFAULT_255_2_778
10
1.9995166
20
103.6484095
40
1.0457342
50
86.779234
51
90.0695554
0
ARC
8
DEFAULT_255_2_778
10
2.0001059
20
103.3193565
40
1.3747878
50
90.0774674
51
93.2411246
0
ARC
8
DEFAULT_255_2_778
10
2.0179186
20
102.9778505
40
1.7167552
50
93.1902646
51
94.8271535
0
LINE
8
DEFAULT_255_2_778
10
1.8734535
20
104.6885165
11
1.8734535
21
104.2421165
0
ARC
8
DEFAULT_255_2_778
10
2.0333288
20
105.8115061
40
1.5775119
50
264.1832847
51
267.1661674
0
ARC
8
DEFAULT_255_2_778
10
2.0150695
20
105.4514469
40
1.2169903
50
267.1866882
51
269.9447112
0
ARC
8
DEFAULT_255_2_778
10
2.0242987
20
104.9536091
40
0.719227
50
269.1711892
51
282.0629101
0
ARC
8
DEFAULT_255_2_778
10
2.1204658
20
104.5322723
40
0.2871587
50
280.8676071
51
310.0869228
0
ARC
8
DEFAULT_255_2_778
10
2.1713935
20
104.4556191
40
0.195995
50
313.1278911
51
2.8067677
0
ARC
8
DEFAULT_255_2_778
10
1.9174017
20
102.7935338
40
1.065266
50
90.0266707
51
91.8961856
0
ARC
8
DEFAULT_255_2_778
10
1.9281675
20
103.2488341
40
0.6100696
50
76.7632562
51
91.0577228
0
ARC
8
DEFAULT_255_2_778
10
2.0287886
20
103.6435914
40
0.202901
50
39.9360874
51
78.8980631
0
ARC
8
DEFAULT_255_2_778
10
2.0752421
20
103.6921894
40
0.1362892
50
29.5073328
51
36.805483
0
ARC
8
DEFAULT_255_2_778
10
2.4089172
20
103.7992726
40
0.2717153
50
27.3526451
51
70.8271938
0
ARC
8
DEFAULT_255_2_778
10
2.3779772
20
104.5512639
40
0.5097169
50
283.6370544
51
311.9400006
0
ARC
8
DEFAULT_255_2_778
10
2.4104351
20
104.4878463
40
0.4412281
50
314.3094511
51
354.4757846
0
ARC
8
DEFAULT_255_2_778
10
2.122033
20
104.5397995
40
0.733683
50
352.6052291
51
0.1769991
0
ARC
8
DEFAULT_255_2_778
10
1.9862786
20
104.5419895
40
0.8694339
50
0.0050454
51
1.0957919
0
ARC
8
DEFAULT_255_2_778
10
2.34696
20
104.5477448
40
0.5087097
50
1.2245691
51
31.4337606
0
ARC
8
DEFAULT_255_2_778
10
2.3870354
20
104.5496588
40
0.4739092
50
33.7637659
51
69.8883698
0
ARC
8
DEFAULT_255_2_778
10
2.2190522
20
104.1362129
40
0.920038
50
68.9182657
51
83.723891
0
ARC
8
DEFAULT_255_2_778
10
2.1319406
20
103.4689848
40
1.5928487
50
83.2329489
51
90.2477078
0
ARC
8
DEFAULT_255_2_778
10
2.1254097
20
102.9863391
40
2.0754797
50
90.0098149
51
91.26049
0
LINE
8
DEFAULT_255_2_778
10
2.0797535
20
105.0613165
11
1.3876535
21
105.0613165
0
ARC
8
DEFAULT_255_2_778
10
11.0617537
20
106.8716265
40
4.2083347
50
305.3063651
51
309.2600734
0
ARC
8
DEFAULT_255_2_778
10
11.9107455
20
105.8380424
40
2.8707744
50
309.1949354
51
314.7924506
0
ARC
8
DEFAULT_255_2_778
10
12.6365779
20
105.1115071
40
1.8438032
50
314.692292
51
322.7610631
0
ARC
8
DEFAULT_255_2_778
10
13.2080785
20
104.6813411
40
1.128515
50
322.5897233
51
334.9122574
0
ARC
8
DEFAULT_255_2_778
10
13.6151679
20
104.4956164
40
0.6810965
50
334.5417087
51
357.2917711
0
ARC
8
DEFAULT_255_2_778
10
13.7292809
20
104.482616
40
0.5665476
50
358.0597837
51
359.9978441
0
ARC
8
DEFAULT_255_2_778
10
13.7279398
20
104.4811359
40
0.5678906
50
0.1471826
51
25.7716704
0
ARC
8
DEFAULT_255_2_778
10
13.6364645
20
104.4425597
40
0.6670586
50
25.3393669
51
28.6138273
0
ARC
8
DEFAULT_255_2_778
10
13.6534738
20
104.339256
40
0.7085261
50
36.6322026
51
76.4417773
0
ARC
8
DEFAULT_255_2_778
10
13.5530296
20
103.9818453
40
1.0796129
50
75.7064028
51
88.4266487
0
ARC
8
DEFAULT_255_2_778
10
13.5348458
20
103.6772596
40
1.3846179
50
88.0205393
51
90.0132273
0
ARC
8
DEFAULT_255_2_778
10
13.5394563
20
103.3823539
40
1.6795308
50
90.1681897
51
96.6045063
0
ARC
8
DEFAULT_255_2_778
10
13.6062
20
102.7945836
40
2.2710773
50
96.5716634
51
101.6372215
0
ARC
8
DEFAULT_255_2_778
10
13.7564843
20
102.058121
40
3.0227163
50
101.6114447
51
105.6480673
0
ARC
8
DEFAULT_255_2_778
10
13.9142634
20
101.4757684
40
3.6260459
50
105.5667645
51
106.7582016
0
ARC
8
DEFAULT_255_2_778
10
14.1234623
20
100.9817208
40
3.7528769
50
106.7067762
51
109.1177783
0
ARC
8
DEFAULT_255_2_778
10
13.793884
20
102.0833393
40
2.6030144
50
103.638318
51
106.7292309
0
ARC
8
DEFAULT_255_2_778
10
13.5863375
20
102.9445812
40
1.7171192
50
99.4488521
51
103.6843508
0
ARC
8
DEFAULT_255_2_778
10
13.4794755
20
103.596651
40
1.0563543
50
93.3847416
51
99.5376043
0
ARC
8
DEFAULT_255_2_778
10
13.4569254
20
103.9286705
40
0.7235884
50
90.0582218
51
93.154466
0
ARC
8
DEFAULT_255_2_778
10
13.4620931
20
104.1990333
40
0.4532636
50
77.5055567
51
90.7461927
0
ARC
8
DEFAULT_255_2_778
10
13.5174884
20
104.4343917
40
0.2115182
50
50.2993966
51
78.3628753
0
ARC
8
DEFAULT_255_2_778
10
13.5386929
20
104.4724639
40
0.1688706
50
1.982144
51
47.5823584
0
ARC
8
DEFAULT_255_2_778
10
13.428002
20
104.4562213
40
0.2803317
50
359.9352223
51
4.5182369
0
ARC
8
DEFAULT_255_2_778
10
13.3322837
20
104.4579483
40
0.3760551
50
351.0004968
51
359.6885754
0
ARC
8
DEFAULT_255_2_778
10
13.1468567
20
104.4865014
40
0.5636664
50
344.8343529
51
351.0822265
0
ARC
8
DEFAULT_255_2_778
10
12.9717625
20
104.531791
40
0.744514
50
342.6375461
51
344.9955132
0
ARC
8
DEFAULT_255_2_778
10
12.0895718
20
105.1694951
40
1.8100676
50
318.699881
51
331.6371796
0
ARC
8
DEFAULT_255_2_778
10
11.4430626
20
105.7279285
40
2.6643433
50
310.5278101
51
318.8540241
0
ARC
8
DEFAULT_255_2_778
10
10.6622137
20
106.6363373
40
3.8622267
50
304.1777239
51
310.5755264
0
ARC
8
DEFAULT_255_2_778
10
10.1721246
20
107.3303138
40
4.7116919
50
304.2789203
51
304.3674353
0
LINE
8
DEFAULT_255_2_778
10
12.8258535
20
103.4370165
11
12.8258535
21
103.0655165
0
LINE
8
DEFAULT_255_2_778
10
12.8258535
20
103.0655165
11
14.3249535
21
103.0655165
0
ARC
8
DEFAULT_255_2_778
10
14.3728471
20
103.0849973
40
0.051704
50
175.8541225
51
202.1340486
0
ARC
8
DEFAULT_255_2_778
10
15.6328127
20
103.169339
40
1.3140087
50
181.4266488
51
183.5168375
0
ARC
8
DEFAULT_255_2_778
10
20.3029794
20
103.294748
40
5.985857
50
180.4459235
51
181.5137171
0
ARC
8
DEFAULT_255_2_778
10
33.1165341
20
103.4148621
40
18.7999696
50
180.0154848
51
180.5080522
0
ARC
8
DEFAULT_255_2_778
10
45.6788007
20
103.436987
40
31.3622473
50
179.999946
51
180.0497023
0
LINE
8
DEFAULT_255_2_778
10
14.3165535
20
103.4370165
11
13.4941535
21
103.4370165
0
ARC
8
DEFAULT_255_2_778
10
5.3938018
20
106.7485079
40
4.1490822
50
306.0184771
51
310.4494104
0
ARC
8
DEFAULT_255_2_778
10
6.2822576
20
105.7100548
40
2.7824329
50
310.4005581
51
316.2793459
0
ARC
8
DEFAULT_255_2_778
10
6.9988781
20
105.0286788
40
1.7935924
50
316.1884785
51
324.4794206
0
ARC
8
DEFAULT_255_2_778
10
7.5567362
20
104.6346742
40
1.1106381
50
324.3024775
51
337.0705506
0
ARC
8
DEFAULT_255_2_778
10
7.9433607
20
104.4747718
40
0.6922733
50
336.7924468
51
359.3352102
0
ARC
8
DEFAULT_255_2_778
10
8.0376339
20
104.4653671
40
0.5979551
50
0.1315202
51
25.5530419
0
ARC
8
DEFAULT_255_2_778
10
7.9476638
20
104.4279456
40
0.6952848
50
25.1371303
51
27.949106
0
ARC
8
DEFAULT_255_2_778
10
7.9846566
20
104.3376687
40
0.7115724
50
35.7908819
51
77.3046231
0
ARC
8
DEFAULT_255_2_778
10
7.8876154
20
103.9731169
40
1.0886355
50
76.5387077
51
89.2948714
0
ARC
8
DEFAULT_255_2_778
10
7.8740546
20
103.6885427
40
1.3733918
50
88.8752764
51
90.0038605
0
ARC
8
DEFAULT_255_2_778
10
7.8789006
20
103.4254498
40
1.6364919
50
90.1729075
51
96.777181
0
ARC
8
DEFAULT_255_2_778
10
7.9460316
20
102.8495824
40
2.2162578
50
96.7436933
51
101.9360787
0
ARC
8
DEFAULT_255_2_778
10
8.0977916
20
102.1250905
40
2.9564728
50
101.9097054
51
106.0410935
0
ARC
8
DEFAULT_255_2_778
10
8.2575528
20
101.550643
40
3.5527035
50
105.9573194
51
107.1752901
0
ARC
8
DEFAULT_255_2_778
10
8.4689709
20
101.045242
40
3.6813469
50
107.1346327
51
109.5984105
0
ARC
8
DEFAULT_255_2_778
10
8.1360085
20
102.1287348
40
2.5478482
50
103.9946086
51
107.1578554
0
ARC
8
DEFAULT_255_2_778
10
7.9267615
20
102.9740653
40
1.6770065
50
99.7011653
51
104.0421139
0
ARC
8
DEFAULT_255_2_778
10
7.8192546
20
103.6126554
40
1.0294336
50
93.4771378
51
99.792386
0
ARC
8
DEFAULT_255_2_778
10
7.7966327
20
103.9368774
40
0.7044424
50
90.0598402
51
93.2399537
0
ARC
8
DEFAULT_255_2_778
10
7.8018189
20
104.2001868
40
0.4411722
50
77.1147293
51
90.769112
0
ARC
8
DEFAULT_255_2_778
10
7.8572097
20
104.4277628
40
0.2070002
50
48.432885
51
78.0133975
0
ARC
8
DEFAULT_255_2_778
10
7.8722051
20
104.4576705
40
0.1748873
50
2.8073192
51
45.6062525
0
ARC
8
DEFAULT_255_2_778
10
7.7563201
20
104.4400306
40
0.2917415
50
359.9139107
51
5.1534937
0
ARC
8
DEFAULT_255_2_778
10
7.654447
20
104.4415228
40
0.3936191
50
351.526266
51
359.7189822
0
ARC
8
DEFAULT_255_2_778
10
7.46818
20
104.4685888
40
0.5818412
50
345.5387355
51
351.5929396
0
ARC
8
DEFAULT_255_2_778
10
7.2829632
20
104.5143772
40
0.7726266
50
343.0568705
51
345.6807955
0
ARC
8
DEFAULT_255_2_778
10
6.3767757
20
105.1520784
40
1.8578131
50
319.4902642
51
332.325347
0
ARC
8
DEFAULT_255_2_778
10
5.7347697
20
105.6917589
40
2.6965
50
311.2946382
51
319.6329624
0
ARC
8
DEFAULT_255_2_778
10
4.9541168
20
106.576305
40
3.8762606
50
304.8416116
51
311.3358041
0
ARC
8
DEFAULT_255_2_778
10
3.7931457
20
108.2109149
40
5.8811462
50
304.990735
51
305.0265252
0
LINE
8
DEFAULT_255_2_778
10
7.1656535
20
103.3928165
11
7.1656535
21
103.0110165
0
LINE
8
DEFAULT_255_2_778
10
7.1656535
20
103.0110165
11
8.6647535
21
103.0110165
0
ARC
8
DEFAULT_255_2_778
10
8.7147554
20
103.03103
40
0.0538585
50
175.9018509
51
201.8139804
0
ARC
8
DEFAULT_255_2_778
10
10.0298393
20
103.1177087
40
1.3713084
50
181.404565
51
183.4628839
0
ARC
8
DEFAULT_255_2_778
10
14.903128
20
103.2465805
40
6.2462988
50
180.4389668
51
181.4906038
0
ARC
8
DEFAULT_255_2_778
10
28.2918569
20
103.3701043
40
19.6355923
50
180.0154014
51
180.5000821
0
ARC
8
DEFAULT_255_2_778
10
41.7817512
20
103.3927862
40
33.1254977
50
179.9999474
51
180.0483613
0
LINE
8
DEFAULT_255_2_778
10
8.6562535
20
103.3928165
11
7.8339535
21
103.3928165
0
ARC
8
DEFAULT_255_2_778
10
15.2584053
20
104.4093444
40
0.2581629
50
357.6628269
51
75.813572
0
ARC
8
DEFAULT_255_2_778
10
15.102644
20
103.9894383
40
0.7050797
50
71.9017396
51
86.9314889
0
ARC
8
DEFAULT_255_2_778
10
15.0554983
20
103.457424
40
1.2389945
50
86.0713488
51
90.0991825
0
LINE
8
DEFAULT_255_2_778
10
15.0533535
20
104.6964165
11
15.0533535
21
104.1342165
0
ARC
8
DEFAULT_255_2_778
10
15.0652961
20
105.2419698
40
1.1078176
50
269.3823222
51
279.621848
0
ARC
8
DEFAULT_255_2_778
10
15.1798715
20
104.6049122
40
0.4606168
50
278.8154274
51
299.7673375
0
ARC
8
DEFAULT_255_2_778
10
15.3030209
20
104.3906527
40
0.2134887
50
299.6266323
51
2.1915228
0
ARC
8
DEFAULT_255_2_778
10
15.2156427
20
106.2421956
40
2.5101308
50
266.2930301
51
268.0587546
0
ARC
8
DEFAULT_255_2_778
10
15.2055475
20
105.9426237
40
2.2103889
50
268.0572394
51
269.9791904
0
ARC
8
DEFAULT_255_2_778
10
15.2158489
20
105.328625
40
1.5964288
50
269.6014667
51
279.1335373
0
ARC
8
DEFAULT_255_2_778
10
15.3278973
20
104.6603533
40
0.9188551
50
278.8498845
51
294.6833179
0
ARC
8
DEFAULT_255_2_778
10
15.4829954
20
104.3320244
40
0.5557692
50
294.289939
51
352.3440779
0
ARC
8
DEFAULT_255_2_778
10
15.1185382
20
104.4115267
40
0.9280619
50
350.4768645
51
0.2831925
0
ARC
8
DEFAULT_255_2_778
10
14.8772828
20
104.4157115
40
1.1693059
50
0.0197082
51
2.3357071
0
ARC
8
DEFAULT_255_2_778
10
14.4761972
20
104.3997623
40
1.5707083
50
2.3207478
51
2.3773557
0
ARC
8
DEFAULT_255_2_778
10
15.4709106
20
104.4782052
40
0.5747965
50
358.6752669
51
25.932835
0
ARC
8
DEFAULT_255_2_778
10
15.5386807
20
104.4914339
40
0.5083748
50
27.9326435
51
65.4335226
0
ARC
8
DEFAULT_255_2_778
10
15.3425542
20
104.099862
40
0.9461689
50
64.4901779
51
79.2897675
0
ARC
8
DEFAULT_255_2_778
10
15.1929248
20
103.353186
40
1.707665
50
79.0126605
51
88.0406024
0
ARC
8
DEFAULT_255_2_778
10
15.1516363
20
102.6024177
40
2.4594555
50
87.6773047
51
90.0342922
0
ARC
8
DEFAULT_255_2_778
10
15.1504911
20
102.2676353
40
2.7942375
50
90.0067023
51
90.9865674
0
ARC
8
DEFAULT_255_2_778
10
15.1543678
20
102.0415412
40
3.020365
50
90.9862487
51
91.9165801
0
LINE
8
DEFAULT_255_2_778
10
15.0533535
20
105.0602165
11
14.5242535
21
105.0602165
0
ARC
8
DEFAULT_255_2_778
10
18.6001031
20
78.9281101
40
1.0594056
50
242.7595474
51
270.2731432
0
ARC
8
DEFAULT_255_2_778
10
18.4770574
20
78.7384163
40
0.8347341
50
181.3454394
51
244.309022
0
ARC
8
DEFAULT_255_2_778
10
18.4781069
20
78.6987771
40
0.8357937
50
115.3450825
51
178.6261117
0
ARC
8
DEFAULT_255_2_778
10
18.6002869
20
78.5091888
40
1.0598389
50
89.7369079
51
116.9272549
0
ARC
8
DEFAULT_255_2_778
10
20.1999162
20
78.8082263
40
0.7607916
50
77.8644713
51
89.8917571
0
ARC
8
DEFAULT_255_2_778
10
20.197491
20
78.8006997
40
0.7686603
50
65.8922407
51
77.8056845
0
ARC
8
DEFAULT_255_2_778
10
20.1867186
20
78.7806758
40
0.7913395
50
54.1522468
51
65.7724849
0
ARC
8
DEFAULT_255_2_778
10
20.1721451
20
78.7641687
40
0.8132573
50
42.6549153
51
54.0010626
0
ARC
8
DEFAULT_255_2_778
10
20.1522614
20
78.7465696
40
0.8398057
50
31.560004
51
42.6187843
0
ARC
8
DEFAULT_255_2_778
10
20.1251849
20
78.7291156
40
0.8720129
50
20.8944309
51
31.6060544
0
ARC
8
DEFAULT_255_2_778
10
20.1016788
20
78.7218282
40
0.8965736
50
10.3181203
51
20.7937658
0
ARC
8
DEFAULT_255_2_778
10
20.0818948
20
78.7183609
40
0.9166587
50
0.0284817
51
10.3098507
0
ARC
8
DEFAULT_255_2_778
10
20.0985516
20
78.7188182
40
0.9000019
50
358.8388885
51
359.9998928
0
ARC
8
DEFAULT_255_2_778
10
20.0803361
20
78.7195765
40
0.918229
50
349.6950145
51
358.8146146
0
ARC
8
DEFAULT_255_2_778
10
20.1007273
20
78.7161698
40
0.8975573
50
339.2119903
51
349.6761235
0
ARC
8
DEFAULT_255_2_778
10
20.1387366
20
78.7019339
40
0.8569699
50
328.2996838
51
339.1999017
0
ARC
8
DEFAULT_255_2_778
10
20.1432394
20
78.6979841
40
0.8510638
50
317.4545868
51
328.3666316
0
ARC
8
DEFAULT_255_2_778
10
20.1796364
20
78.665148
40
0.8020458
50
305.9193678
51
317.4246492
0
ARC
8
DEFAULT_255_2_778
10
20.1898653
20
78.6516155
40
0.7850859
50
294.1810721
51
305.8941926
0
ARC
8
DEFAULT_255_2_778
10
20.199535
20
78.6307988
40
0.7621349
50
282.1431275
51
294.1589476
0
ARC
8
DEFAULT_255_2_778
10
20.2006343
20
78.6228115
40
0.7540953
50
270.0546427
51
282.1891281
0
ARC
8
DEFAULT_255_2_778
10
19.7572314
20
78.7124033
40
1.3436885
50
269.907131
51
301.9819006
0
ARC
8
DEFAULT_255_2_778
10
19.7552228
20
78.7183952
40
1.3498357
50
301.9195098
51
353.358327
0
ARC
8
DEFAULT_255_2_778
10
19.7404401
20
78.7183348
40
1.3645134
50
353.4326384
51
0.011829
0
ARC
8
DEFAULT_255_2_778
10
19.7612667
20
78.7207945
40
1.3436885
50
359.907131
51
31.9819006
0
ARC
8
DEFAULT_255_2_778
10
19.7552748
20
78.7187858
40
1.3498357
50
31.9195098
51
83.358327
0
ARC
8
DEFAULT_255_2_778
10
19.7553352
20
78.7040032
40
1.3645134
50
83.4326384
51
90.011829
0
ARC
8
DEFAULT_255_2_778
10
17.4528872
20
78.7246898
40
1.3438285
50
89.9076392
51
121.9801887
0
ARC
8
DEFAULT_255_2_778
10
17.4548038
20
78.7187757
40
1.349861
50
121.9162429
51
173.3557961
0
ARC
8
DEFAULT_255_2_778
10
17.4693843
20
78.7188966
40
1.3643308
50
173.4316845
51
180.01176
0
ARC
8
DEFAULT_255_2_778
10
17.4486177
20
78.7164486
40
1.3435659
50
179.9075469
51
211.9856704
0
ARC
8
DEFAULT_255_2_778
10
17.4548536
20
78.7186114
40
1.3500015
50
211.9233341
51
263.3581679
0
ARC
8
DEFAULT_255_2_778
10
17.4547724
20
78.7332652
40
1.3645486
50
263.4327216
51
270.0118023
0
ARC
8
DEFAULT_255_2_778
10
18.6031318
20
78.7190643
40
1.9981892
50
139.5063284
51
156.9016673
0
ARC
8
DEFAULT_255_2_778
10
18.6059329
20
78.7193494
40
2.0006544
50
156.9406478
51
180.0181231
0
ARC
8
DEFAULT_255_2_778
10
18.6035783
20
78.7177286
40
1.9983
50
179.9716731
51
208.1551202
0
ARC
8
DEFAULT_255_2_778
10
18.6074923
20
78.7214578
40
2.0035112
50
208.1963322
51
220.4798762
0
ARC
8
DEFAULT_255_2_778
10
18.6059778
20
78.7197156
40
1.9986771
50
23.9863724
51
40.4571829
0
ARC
8
DEFAULT_255_2_778
10
18.6064821
20
78.7177342
40
1.9983044
50
319.5330706
51
336.0020727
0
LINE
8
DEFAULT_255_2_778
10
2.7248535
20
82.3211165
11
3.0600535
21
83.5610165
0
LINE
8
DEFAULT_255_2_778
10
3.0600535
20
83.5610165
11
3.2026535
21
83.5610165
0
LINE
8
DEFAULT_255_2_778
10
3.2026535
20
83.5610165
11
2.8677535
21
82.3211165
0
LINE
8
DEFAULT_255_2_778
10
2.8677535
20
82.3211165
11
2.7248535
21
82.3211165
0
LINE
8
DEFAULT_255_2_778
10
6.5962535
20
103.8048165
11
6.5962535
21
105.0618165
0
LINE
8
DEFAULT_255_2_778
10
6.5962535
20
105.0618165
11
6.0064535
21
105.0618165
0
LINE
8
DEFAULT_255_2_778
10
6.0064535
20
105.0618165
11
5.2050535
21
103.8678165
0
LINE
8
DEFAULT_255_2_778
10
5.2050535
20
103.8678165
11
5.2050535
21
103.4439165
0
LINE
8
DEFAULT_255_2_778
10
5.2050535
20
103.4439165
11
6.0980535
21
103.4439165
0
LINE
8
DEFAULT_255_2_778
10
6.0980535
20
103.4439165
11
6.0980535
21
103.0629165
0
LINE
8
DEFAULT_255_2_778
10
6.0980535
20
103.0629165
11
6.5962535
21
103.0629165
0
LINE
8
DEFAULT_255_2_778
10
6.5962535
20
103.0629165
11
6.5962535
21
103.4439165
0
LINE
8
DEFAULT_255_2_778
10
6.5962535
20
103.4439165
11
6.8801535
21
103.4439165
0
LINE
8
DEFAULT_255_2_778
10
6.8801535
20
103.4439165
11
6.8801535
21
103.8048165
0
LINE
8
DEFAULT_255_2_778
10
6.8801535
20
103.8048165
11
6.5962535
21
103.8048165
0
LINE
8
DEFAULT_255_2_778
10
6.1930535
20
104.6493165
11
6.1985535
21
103.8045165
0
LINE
8
DEFAULT_255_2_778
10
6.1985535
20
103.8045165
11
5.6487535
21
103.8045165
0
LINE
8
DEFAULT_255_2_778
10
5.6487535
20
103.8045165
11
6.1930535
21
104.6493165
0
LINE
8
DEFAULT_255_2_778
10
2.3671535
20
104.4652165
11
2.3671535
21
104.4654165
0
LINE
8
DEFAULT_255_2_778
10
1.3876535
20
105.0613165
11
1.3876535
21
103.0671165
0
LINE
8
DEFAULT_255_2_778
10
1.3876535
20
103.0671165
11
1.8821535
21
103.0671165
0
LINE
8
DEFAULT_255_2_778
10
1.8821535
20
103.0671165
11
1.8821535
21
103.8582165
0
LINE
8
DEFAULT_255_2_778
10
2.1938535
20
103.7593165
11
2.4295535
21
103.0753165
0
LINE
8
DEFAULT_255_2_778
10
2.4295535
20
103.0753165
11
2.9391535
21
103.0671165
0
LINE
8
DEFAULT_255_2_778
10
2.9391535
20
103.0671165
11
2.6502535
21
103.9241165
0
LINE
8
DEFAULT_255_2_778
10
1.3876535
20
105.0613165
11
1.3876535
21
105.0613165
0
LINE
8
DEFAULT_255_2_778
10
12.8687535
20
104.9478165
11
12.8943535
21
104.5276165
0
LINE
8
DEFAULT_255_2_778
10
13.4941535
20
103.4370165
11
13.4939535
21
103.4373165
0
LINE
8
DEFAULT_255_2_778
10
4.9195535
20
105.0618165
11
4.9195535
21
103.0629165
0
LINE
8
DEFAULT_255_2_778
10
4.9195535
20
103.0629165
11
4.3869535
21
103.0629165
0
LINE
8
DEFAULT_255_2_778
10
4.3869535
20
103.0629165
11
4.3869535
21
103.9191165
0
LINE
8
DEFAULT_255_2_778
10
4.3869535
20
103.9191165
11
3.7572535
21
103.9191165
0
LINE
8
DEFAULT_255_2_778
10
3.7572535
20
103.9191165
11
3.7572535
21
103.0629165
0
LINE
8
DEFAULT_255_2_778
10
3.7572535
20
103.0629165
11
3.2246535
21
103.0629165
0
LINE
8
DEFAULT_255_2_778
10
3.2246535
20
103.0629165
11
3.2246535
21
105.0618165
0
LINE
8
DEFAULT_255_2_778
10
3.2246535
20
105.0618165
11
3.7572535
21
105.0618165
0
LINE
8
DEFAULT_255_2_778
10
3.7572535
20
105.0618165
11
3.7572535
21
104.2972165
0
LINE
8
DEFAULT_255_2_778
10
3.7572535
20
104.2972165
11
4.3869535
21
104.2972165
0
LINE
8
DEFAULT_255_2_778
10
4.3869535
20
104.2972165
11
4.3869535
21
105.0618165
0
LINE
8
DEFAULT_255_2_778
10
4.3869535
20
105.0618165
11
4.9195535
21
105.0618165
0
LINE
8
DEFAULT_255_2_778
10
10.2916535
20
103.5675165
11
10.2916535
21
105.0618165
0
LINE
8
DEFAULT_255_2_778
10
10.2916535
20
105.0618165
11
10.7001535
21
105.0618165
0
LINE
8
DEFAULT_255_2_778
10
10.7001535
20
105.0618165
11
10.7001535
21
103.0629165
0
LINE
8
DEFAULT_255_2_778
10
10.7001535
20
103.0629165
11
10.1789535
21
103.0629165
0
LINE
8
DEFAULT_255_2_778
10
10.1789535
20
103.0629165
11
9.3645535
21
104.5581165
0
LINE
8
DEFAULT_255_2_778
10
9.3645535
20
104.5581165
11
9.3584535
21
104.5581165
0
LINE
8
DEFAULT_255_2_778
10
9.3584535
20
104.5581165
11
9.3584535
21
103.0629165
0
LINE
8
DEFAULT_255_2_778
10
9.3584535
20
103.0629165
11
8.9499535
21
103.0629165
0
LINE
8
DEFAULT_255_2_778
10
8.9499535
20
103.0629165
11
8.9499535
21
105.0618165
0
LINE
8
DEFAULT_255_2_778
10
8.9499535
20
105.0618165
11
9.4743535
21
105.0618165
0
LINE
8
DEFAULT_255_2_778
10
9.4743535
20
105.0618165
11
10.2858535
21
103.5675165
0
LINE
8
DEFAULT_255_2_778
10
10.2858535
20
103.5675165
11
10.2916535
21
103.5675165
0
LINE
8
DEFAULT_255_2_778
10
7.2084535
20
104.9449165
11
7.2341535
21
104.5133165
0
LINE
8
DEFAULT_255_2_778
10
7.8339535
20
103.3928165
11
7.8336535
21
103.3926165
0
LINE
8
DEFAULT_255_2_778
10
12.5403535
20
105.0618165
11
12.5403535
21
104.6668165
0
LINE
8
DEFAULT_255_2_778
10
12.5403535
20
104.6668165
11
12.0477535
21
104.6668165
0
LINE
8
DEFAULT_255_2_778
10
12.0477535
20
104.6668165
11
12.0477535
21
103.0632165
0
LINE
8
DEFAULT_255_2_778
10
12.0477535
20
103.0632165
11
11.5151535
21
103.0632165
0
LINE
8
DEFAULT_255_2_778
10
11.5151535
20
103.0632165
11
11.5151535
21
104.6665165
0
LINE
8
DEFAULT_255_2_778
10
11.5151535
20
104.6665165
11
11.0224535
21
104.6665165
0
LINE
8
DEFAULT_255_2_778
10
11.0224535
20
104.6665165
11
11.0224535
21
105.0618165
0
LINE
8
DEFAULT_255_2_778
10
11.0224535
20
105.0618165
11
12.5403535
21
105.0618165
0
LINE
8
DEFAULT_255_2_778
10
15.5163535
20
104.3988165
11
15.5163535
21
104.3988165
0
LINE
8
DEFAULT_255_2_778
10
14.5242535
20
105.0602165
11
14.5242535
21
103.0759165
0
LINE
8
DEFAULT_255_2_778
10
14.5242535
20
103.0759165
11
15.0533535
21
103.0759165
0
LINE
8
DEFAULT_255_2_778
10
15.0533535
20
103.0759165
11
15.0533535
21
103.7373165
0
LINE
8
DEFAULT_255_2_778
10
14.5242535
20
105.0602165
11
14.5242535
21
105.0602165
0
LINE
8
DEFAULT_255_2_778
10
27.0551535
20
103.4190165
11
27.0551535
21
105.0190165
0
LINE
8
DEFAULT_255_2_778
10
27.0551535
20
105.0190165
11
21.7552535
21
105.0190165
0
LINE
8
DEFAULT_255_2_778
10
21.7552535
20
105.0190165
11
21.7552535
21
103.4190165
0
LINE
8
DEFAULT_255_2_778
10
21.7552535
20
103.4190165
11
27.0551535
21
103.4190165
0
LINE
8
DEFAULT_255_2_778
10
26.7553535
20
104.7192165
11
26.7553535
21
103.7193165
0
LINE
8
DEFAULT_255_2_778
10
26.7553535
20
103.7193165
11
24.4050535
21
103.7193165
0
LINE
8
DEFAULT_255_2_778
10
24.4050535
20
103.7193165
11
24.4050535
21
104.7192165
0
LINE
8
DEFAULT_255_2_778
10
24.4050535
20
104.7192165
11
26.7553535
21
104.7192165
0
LINE
8
DEFAULT_255_2_778
10
18.6051535
20
77.8687165
11
18.6051535
21
77.8687165
0
LINE
8
DEFAULT_255_2_778
10
18.6051535
20
79.5690165
11
20.2013535
21
79.5690165
0
LINE
8
DEFAULT_255_2_778
10
20.2013535
20
77.8687165
11
18.6051535
21
77.8687165
0
LINE
8
DEFAULT_255_2_778
10
19.7550535
20
80.0685165
11
17.4550535
21
80.0685165
0
LINE
8
DEFAULT_255_2_778
10
17.4550535
20
77.3687165
11
19.7550535
21
77.3687165
0
ENDSEC
0
EOF