0
SECTION
2
HEADER
9
$MEASUREMENT
70
1
0
ENDSEC
0
SECTION
2
TABLES
0
TABLE
2
LTYPE
0
LTYPE
72
65
70
64
2
CONTINUOUS
3
______
73
0
40
0
0
ENDTAB
0
TABLE
2
LAYER
0
LAYER
2
DEFAULT_255_2_778
70
0
62
255
6
CONTINUOUS
0
ENDTAB
0
ENDSEC
0
SECTION
2
ENTITIES
0
ARC
8
DEFAULT_255_2_778
10
2.9553498
20
13.5394597
40
0.5000665
50
121.6186663
51
179.9845667
0
ARC
8
DEFAULT_255_2_778
10
1.8047915
20
18.2187371
40
0.6994897
50
179.9957699
51
220.1948217
0
ARC
8
DEFAULT_255_2_778
10
1.8059479
20
18.2187814
40
0.700646
50
175.1766592
51
179.9994037
0
ARC
8
DEFAULT_255_2_778
10
1.8056148
20
18.2188074
40
0.7003118
50
130.2010653
51
175.1764869
0
ARC
8
DEFAULT_255_2_778
10
1.8015698
20
18.2211205
40
0.9959461
50
130.1130964
51
156.3441602
0
ARC
8
DEFAULT_255_2_778
10
1.8090227
20
18.2186732
40
1.0037551
50
156.3868992
51
180.012682
0
ARC
8
DEFAULT_255_2_778
10
1.8101931
20
18.2184525
40
1.0049255
50
180.0000835
51
181.108298
0
ARC
8
DEFAULT_255_2_778
10
1.8006701
20
18.2174367
40
0.995385
50
181.0604425
51
211.4167576
0
ARC
8
DEFAULT_255_2_778
10
1.8106244
20
18.224107
40
1.007357
50
211.4454027
51
220.2153548
0
ARC
8
DEFAULT_255_2_778
10
60.0922472
20
-56.1832904
40
60.0020847
50
81.0001528
51
89.9998701
0
LINE
8
DEFAULT_255_2_778
10
2.9553832
20
6.7759944
11
2.4552832
21
6.9831944
0
LINE
8
DEFAULT_255_2_778
10
2.4552832
20
6.9831944
11
2.4552832
21
13.5395944
0
LINE
8
DEFAULT_255_2_778
10
2.6931832
20
13.9652944
11
5.0553832
21
15.4188944
0
LINE
8
DEFAULT_255_2_778
10
5.5553832
20
15.1391944
11
5.0553832
21
15.4185944
0
LINE
8
DEFAULT_255_2_778
10
5.0553832
20
15.4185944
11
5.0553832
21
24.8186944
0
LINE
8
DEFAULT_255_2_778
10
5.0553832
20
24.8186944
11
2.4552832
21
24.8186944
0
LINE
8
DEFAULT_255_2_778
10
2.4552832
20
24.8186944
11
2.4552832
21
28.1257944
0
LINE
8
DEFAULT_255_2_778
10
3.8705832
20
14.6899944
11
1.2704832
21
17.7672944
0
LINE
8
DEFAULT_255_2_778
10
1.3535832
20
18.7536944
11
2.1173832
21
19.3989944
0
LINE
8
DEFAULT_255_2_778
10
2.1173832
20
19.3989944
11
1.9236832
21
19.6281944
0
LINE
8
DEFAULT_255_2_778
10
1.9236832
20
19.6281944
11
1.1598832
21
18.9827944
0
LINE
8
DEFAULT_255_2_778
10
1.0413832
20
17.5736944
11
3.6120832
21
14.5309944
0
LINE
8
DEFAULT_255_2_778
10
19.3518832
20
4.3187944
11
19.6404832
21
3.8187944
0
LINE
8
DEFAULT_255_2_778
10
19.6404832
20
3.8187944
11
60.0923832
21
3.8187944
0
LINE
8
DEFAULT_255_2_778
10
69.4784832
20
3.0800944
11
84.6554832
21
0.6762944
0
LINE
8
DEFAULT_255_2_778
10
84.6554832
20
0.6762944
11
84.6554832
21
104.9612944
0
LINE
8
DEFAULT_255_2_778
10
84.6554832
20
104.9612944
11
19.3555832
21
94.6186944
0
LINE
8
DEFAULT_255_2_778
10
107.8551832
20
73.6086944
11
108.6552832
21
73.6086944
0
LINE
8
DEFAULT_255_2_778
10
108.6552832
20
73.6086944
11
108.6552832
21
7.6287944
0
LINE
8
DEFAULT_255_2_778
10
108.6552832
20
7.6287944
11
107.8551832
21
7.6287944
0
LINE
8
DEFAULT_255_2_778
10
84.7552011
20
20.8187707
11
82.6552011
21
20.8187707
0
LINE
8
DEFAULT_255_2_778
10
82.6552011
20
20.8187707
11
82.6552011
21
12.8188707
0
LINE
8
DEFAULT_255_2_778
10
82.6552011
20
12.8188707
11
84.7552011
21
12.8188707
0
ARC
8
DEFAULT_255_2_778
10
96.6551093
20
31.8187582
40
0.5000969
50
359.9996485
51
90.0003515
0
ARC
8
DEFAULT_255_2_778
10
96.1551032
20
31.8187582
40
0.5000969
50
89.9996485
51
180.0003515
0
ARC
8
DEFAULT_255_2_778
10
96.1551032
20
29.8188521
40
0.5000969
50
179.9996485
51
270.0003515
0
ARC
8
DEFAULT_255_2_778
10
96.6551093
20
29.8188521
40
0.5000969
50
269.9996485
51
0.0003515
0
LINE
8
DEFAULT_255_2_778
10
96.6551063
20
32.3188552
11
96.1551063
21
32.3188552
0
LINE
8
DEFAULT_255_2_778
10
95.6550063
20
31.8187552
11
95.6550063
21
29.8188552
0
LINE
8
DEFAULT_255_2_778
10
96.1551063
20
29.3187552
11
96.6551063
21
29.3187552
0
LINE
8
DEFAULT_255_2_778
10
97.1552063
20
29.8188552
11
97.1552063
21
31.8187552
0
ARC
8
DEFAULT_255_2_778
10
4.5062796
20
94.1681918
40
0.1511155
50
135.1934312
51
179.8508059
0
ARC
8
DEFAULT_255_2_778
10
4.5048594
20
94.1691586
40
0.149427
50
89.8829561
51
135.0726754
0
ARC
8
DEFAULT_255_2_778
10
8.9558684
20
98.9947636
40
0.3007041
50
131.8702512
51
179.9386896
0
LINE
8
DEFAULT_255_2_778
10
4.3551647
20
94.1185853
11
4.3551647
21
94.1685853
0
LINE
8
DEFAULT_255_2_778
10
4.5051647
20
94.3185853
11
8.6551647
21
94.3185853
0
LINE
8
DEFAULT_255_2_778
10
8.6551647
20
98.9950853
11
8.6551647
21
94.1185853
0
LINE
8
DEFAULT_255_2_778
10
8.6551647
20
94.1185853
11
9.1552647
21
93.6184853
0
ARC
8
DEFAULT_255_2_778
10
60.0900591
20
161.8450359
40
60.0262437
50
270.0019434
51
278.9980312
0
ARC
8
DEFAULT_255_2_778
10
9.2552854
20
101.3188021
40
0.4999902
50
89.9988868
51
180.0011189
0
ARC
8
DEFAULT_255_2_778
10
27.5060242
20
104.7385018
40
0.2992709
50
359.9981751
51
30.0785145
0
ARC
8
DEFAULT_255_2_778
10
27.054635
20
105.5187013
40
0.300091
50
30.0100381
51
90.0076063
0
ARC
8
DEFAULT_255_2_778
10
22.555955
20
105.5187019
40
0.3000904
50
89.9923441
51
149.9900357
0
ARC
8
DEFAULT_255_2_778
10
22.1082133
20
104.7374976
40
0.302919
50
150.1450817
51
179.8685937
0
ARC
8
DEFAULT_255_2_778
10
96.6551194
20
73.8187681
40
0.5000757
50
270.008676
51
0.0027763
0
ARC
8
DEFAULT_255_2_778
10
96.1550921
20
73.8187892
40
0.5000969
50
179.9996485
51
270.0003515
0
ARC
8
DEFAULT_255_2_778
10
96.1550708
20
75.8187167
40
0.5000757
50
89.9972098
51
179.9913379
0
ARC
8
DEFAULT_255_2_778
10
96.6551408
20
75.8187379
40
0.5000544
50
0.0062367
51
89.9937747
0
ARC
8
DEFAULT_255_2_778
10
109.2564525
20
78.3727426
40
0.504051
50
270.0957802
51
286.557435
0
ARC
8
DEFAULT_255_2_778
10
109.2503139
20
78.3919833
40
0.5242434
50
286.6012555
51
302.3065355
0
ARC
8
DEFAULT_255_2_778
10
109.2236871
20
78.4341811
40
0.5741397
50
302.3017851
51
316.4480947
0
ARC
8
DEFAULT_255_2_778
10
109.1508026
20
78.5024071
40
0.6739717
50
316.5136749
51
328.4735188
0
ARC
8
DEFAULT_255_2_778
10
109.0315309
20
78.5774421
40
0.8148755
50
328.3614831
51
338.3641445
0
ARC
8
DEFAULT_255_2_778
10
108.8197487
20
78.6635585
40
1.0434904
50
338.2563224
51
346.2871218
0
ARC
8
DEFAULT_255_2_778
10
108.6434038
20
78.7049912
40
1.2246315
50
346.3597338
51
353.4309322
0
ARC
8
DEFAULT_255_2_778
10
108.5034017
20
78.7187768
40
1.3652935
50
353.5283464
51
0.0048484
0
ARC
8
DEFAULT_255_2_778
10
108.5269034
20
78.7202357
40
1.3417924
50
359.942637
51
6.5284266
0
ARC
8
DEFAULT_255_2_778
10
108.6399923
20
78.7320852
40
1.2280901
50
6.5790511
51
13.6303095
0
ARC
8
DEFAULT_255_2_778
10
108.8509466
20
78.7841003
40
1.0108198
50
13.5828366
51
21.873645
0
ARC
8
DEFAULT_255_2_778
10
109.0320906
20
78.8616151
40
0.8138499
50
21.5605628
51
31.5695333
0
ARC
8
DEFAULT_255_2_778
10
109.1512821
20
78.9359305
40
0.6733921
50
31.491558
51
43.4565251
0
ARC
8
DEFAULT_255_2_778
10
109.2239871
20
79.0035035
40
0.5741397
50
43.5519053
51
57.6982149
0
ARC
8
DEFAULT_255_2_778
10
109.2506128
20
79.045698
40
0.5242467
50
57.6935599
51
73.3987384
0
ARC
8
DEFAULT_255_2_778
10
109.2566504
20
79.0642447
40
0.5047485
50
73.4540088
51
89.9041103
0
ARC
8
DEFAULT_255_2_778
10
1.3625834
20
93.618737
40
0.4999553
50
90.010115
51
134.994569
0
ARC
8
DEFAULT_255_2_778
10
1.1556755
20
93.4113275
40
0.5003807
50
134.9931668
51
179.9582319
0
ARC
8
DEFAULT_255_2_778
10
1.1555017
20
34.7260847
40
0.5002066
50
180.0334905
51
225.0150528
0
ARC
8
DEFAULT_255_2_778
10
2.8555857
20
28.4257365
40
0.5000906
50
179.9936065
51
224.9719389
0
ARC
8
DEFAULT_255_2_778
10
3.5554067
20
25.3187039
40
0.5000116
50
179.9898688
51
269.9986732
0
ARC
8
DEFAULT_255_2_778
10
1.2055962
20
4.3186388
40
1.0003119
50
135.0140784
51
180.0136584
0
ARC
8
DEFAULT_255_2_778
10
1.2047073
20
4.3183947
40
0.9994229
50
179.9996751
51
183.3035589
0
ARC
8
DEFAULT_255_2_778
10
1.2040762
20
4.3184177
40
0.9987942
50
183.3069635
51
202.5126332
0
ARC
8
DEFAULT_255_2_778
10
1.2053977
20
4.3188866
40
1.0001944
50
202.5084624
51
269.9998536
0
ARC
8
DEFAULT_255_2_778
10
6.4984469
20
3.8185516
40
0.4998593
50
269.9940647
51
314.9828922
0
ARC
8
DEFAULT_255_2_778
10
7.20513
20
4.5257086
40
0.500265
50
315.0363451
51
359.99813
0
ARC
8
DEFAULT_255_2_778
10
8.0051804
20
6.5187172
40
0.2997853
50
134.9743446
51
180.023866
0
ARC
8
DEFAULT_255_2_778
10
8.005236
20
6.5188893
40
0.2997029
50
89.9695787
51
135.0051204
0
ARC
8
DEFAULT_255_2_778
10
13.650261
20
3.7187354
40
1.0001432
50
209.998117
51
269.9847705
0
ARC
8
DEFAULT_255_2_778
10
18.7168591
20
3.2186327
40
0.5000404
50
269.9926657
51
329.9973272
0
ARC
8
DEFAULT_255_2_778
10
104.252394
20
80.622303
40
0.2751453
50
298.101053
51
310.3109213
0
ARC
8
DEFAULT_255_2_778
10
104.3661769
20
80.5166816
40
0.1182293
50
330.5164699
51
345.6065692
0
ARC
8
DEFAULT_255_2_778
10
104.3806147
20
80.513301
40
0.1034047
50
345.4323494
51
0.1386893
0
ARC
8
DEFAULT_255_2_778
10
104.3727499
20
80.5135364
40
0.1112693
50
0.0076442
51
2.707413
0
ARC
8
DEFAULT_255_2_778
10
-389.4296439
20
52.8110399
40
494.6901087
50
3.2108354
51
6.0889889
0
ARC
8
DEFAULT_255_2_778
10
102.1772595
20
105.2510537
40
0.2942192
50
6.4866843
51
17.7994258
0
ARC
8
DEFAULT_255_2_778
10
102.1671802
20
105.2484712
40
0.3046061
50
17.682387
51
28.451974
0
ARC
8
DEFAULT_255_2_778
10
101.8645004
20
105.023935
40
0.6843732
50
42.3980526
51
51.64295
0
ARC
8
DEFAULT_255_2_778
10
101.7339171
20
104.8556379
40
0.897382
50
51.7732271
51
58.7096441
0
LINE
8
DEFAULT_255_2_778
10
60.0920951
20
101.8187923
11
9.2552951
21
101.8187923
0
LINE
8
DEFAULT_255_2_778
10
8.7552951
20
101.3187923
11
8.7552951
21
99.2187923
0
LINE
8
DEFAULT_255_2_778
10
8.7552951
20
99.2187923
11
9.0316951
21
99.2187923
0
LINE
8
DEFAULT_255_2_778
10
9.0316951
20
99.2187923
11
9.0849951
21
99.2187923
0
LINE
8
DEFAULT_255_2_778
10
9.0849951
20
99.2187923
11
9.1404951
21
99.2187923
0
LINE
8
DEFAULT_255_2_778
10
9.1404951
20
99.2187923
11
9.1687951
21
99.2187923
0
LINE
8
DEFAULT_255_2_778
10
9.1687951
20
99.2187923
11
9.1973951
21
99.2187923
0
LINE
8
DEFAULT_255_2_778
10
9.1973951
20
99.2187923
11
9.2261951
21
99.2187923
0
LINE
8
DEFAULT_255_2_778
10
9.2261951
20
99.2187923
11
9.2552951
21
99.2187923
0
LINE
8
DEFAULT_255_2_778
10
19.3946951
20
94.1188923
11
19.3552951
21
94.6189923
0
LINE
8
DEFAULT_255_2_778
10
19.3552951
20
94.6189923
11
15.2552951
21
94.6189923
0
LINE
8
DEFAULT_255_2_778
10
15.2552951
20
94.6189923
11
15.2552951
21
101.8187923
0
LINE
8
DEFAULT_255_2_778
10
15.2552951
20
101.8187923
11
14.7551951
21
101.3187923
0
LINE
8
DEFAULT_255_2_778
10
27.8052951
20
101.8187923
11
27.8052951
21
104.7384923
0
LINE
8
DEFAULT_255_2_778
10
27.7649951
20
104.8884923
11
27.3144951
21
105.6687923
0
LINE
8
DEFAULT_255_2_778
10
27.0545951
20
105.8187923
11
22.5559951
21
105.8187923
0
LINE
8
DEFAULT_255_2_778
10
22.2960951
20
105.6687923
11
21.8454951
21
104.8882923
0
LINE
8
DEFAULT_255_2_778
10
21.8052951
20
104.7381923
11
21.8052951
21
101.8185923
0
LINE
8
DEFAULT_255_2_778
10
96.6551951
20
73.3186923
11
96.1550951
21
73.3186923
0
LINE
8
DEFAULT_255_2_778
10
95.6549951
20
73.8187923
11
95.6549951
21
75.8187923
0
LINE
8
DEFAULT_255_2_778
10
96.1550951
20
76.3187923
11
96.6551951
21
76.3187923
0
LINE
8
DEFAULT_255_2_778
10
97.1551951
20
75.8187923
11
97.1551951
21
73.8187923
0
LINE
8
DEFAULT_255_2_778
10
107.8551951
20
77.8686923
11
109.2572951
21
77.8686923
0
LINE
8
DEFAULT_255_2_778
10
109.2574951
20
79.5689923
11
107.8554951
21
79.5689923
0
LINE
8
DEFAULT_255_2_778
10
84.7551951
20
92.8187923
11
82.6552951
21
92.8187923
0
LINE
8
DEFAULT_255_2_778
10
82.6552951
20
92.8187923
11
82.6552951
21
84.8187923
0
LINE
8
DEFAULT_255_2_778
10
82.6552951
20
84.8187923
11
84.7551951
21
84.8187923
0
LINE
8
DEFAULT_255_2_778
10
8.6552951
20
94.1186923
11
1.3624951
21
94.1186923
0
LINE
8
DEFAULT_255_2_778
10
1.0090951
20
93.9722923
11
0.8018951
21
93.7651923
0
LINE
8
DEFAULT_255_2_778
10
0.6552951
20
93.4116923
11
0.6552951
21
34.7257923
0
LINE
8
DEFAULT_255_2_778
10
0.8018951
20
34.3722923
11
2.3554951
21
32.8186923
0
LINE
8
DEFAULT_255_2_778
10
2.3554951
20
32.8186923
11
2.3554951
21
28.4257923
0
LINE
8
DEFAULT_255_2_778
10
2.5017951
20
28.0722923
11
3.0553951
21
27.5187923
0
LINE
8
DEFAULT_255_2_778
10
3.0553951
20
27.5187923
11
3.0553951
21
25.3187923
0
LINE
8
DEFAULT_255_2_778
10
15.2552951
20
94.6186923
11
14.7551951
21
94.1186923
0
LINE
8
DEFAULT_255_2_778
10
101.8758951
20
105.1186923
11
101.3760951
21
105.1186923
0
LINE
8
DEFAULT_255_2_778
10
10.9938951
20
7.3186923
11
10.7051951
21
6.8185923
0
LINE
8
DEFAULT_255_2_778
10
107.3553951
20
80.3187923
11
107.3553951
21
80.1187923
0
LINE
8
DEFAULT_255_2_778
10
5.0552951
20
24.8186923
11
5.5553951
21
25.3187923
0
LINE
8
DEFAULT_255_2_778
10
2.4552951
20
6.9828923
11
0.4980951
21
5.0257923
0
LINE
8
DEFAULT_255_2_778
10
1.2053951
20
3.3186923
11
6.4983951
21
3.3186923
0
LINE
8
DEFAULT_255_2_778
10
6.8517951
20
3.4649923
11
7.5590951
21
4.1721923
0
LINE
8
DEFAULT_255_2_778
10
7.7053951
20
4.5256923
11
7.7053951
21
6.5185923
0
LINE
8
DEFAULT_255_2_778
10
8.0053951
20
6.8185923
11
10.7054951
21
6.8185923
0
LINE
8
DEFAULT_255_2_778
10
10.7054951
20
6.8185923
11
12.7840951
21
3.2186923
0
LINE
8
DEFAULT_255_2_778
10
13.6499951
20
2.7185923
11
18.7167951
21
2.7185923
0
LINE
8
DEFAULT_255_2_778
10
19.1498951
20
2.9685923
11
19.6406951
21
3.8187923
0
LINE
8
DEFAULT_255_2_778
10
2.8552951
20
33.0257923
11
2.3552951
21
32.8186923
0
LINE
8
DEFAULT_255_2_778
10
3.5553951
20
27.7259923
11
3.0553951
21
27.5187923
0
LINE
8
DEFAULT_255_2_778
10
84.7139951
20
7.7755923
11
84.7551951
21
7.8168923
0
LINE
8
DEFAULT_255_2_778
10
84.6551951
20
6.2235923
11
84.6837951
21
6.2520923
0
LINE
8
DEFAULT_255_2_778
10
84.7438951
20
4.8188923
11
84.7551951
21
4.8302923
0
LINE
8
DEFAULT_255_2_778
10
104.1044951
20
80.3187923
11
104.1615951
21
80.3208923
0
LINE
8
DEFAULT_255_2_778
10
104.1615951
20
80.3208923
11
104.2184951
21
80.3274923
0
LINE
8
DEFAULT_255_2_778
10
104.2184951
20
80.3274923
11
104.2745951
21
80.3388923
0
LINE
8
DEFAULT_255_2_778
10
104.2745951
20
80.3388923
11
104.3293951
21
80.3557923
0
LINE
8
DEFAULT_255_2_778
10
104.3293951
20
80.3557923
11
104.3819951
21
80.3795923
0
LINE
8
DEFAULT_255_2_778
10
104.4303951
20
80.4124923
11
104.4515951
21
80.4335923
0
LINE
8
DEFAULT_255_2_778
10
104.4515951
20
80.4335923
11
104.4690951
21
80.4584923
0
LINE
8
DEFAULT_255_2_778
10
102.4349951
20
105.3935923
11
102.4050951
21
105.4417923
0
LINE
8
DEFAULT_255_2_778
10
102.4050951
20
105.4417923
11
102.3698951
21
105.4853923
0
LINE
8
DEFAULT_255_2_778
10
102.1999951
20
105.6224923
11
102.1534951
21
105.6494923
0
LINE
8
DEFAULT_255_2_778
10
102.1534951
20
105.6494923
11
102.1057951
21
105.6740923
0
LINE
8
DEFAULT_255_2_778
10
102.1057951
20
105.6740923
11
102.0084951
21
105.7168923
0
LINE
8
DEFAULT_255_2_778
10
102.0084951
20
105.7168923
11
101.9086951
21
105.7526923
0
LINE
8
DEFAULT_255_2_778
10
101.9086951
20
105.7526923
11
101.8073951
21
105.7817923
0
LINE
8
DEFAULT_255_2_778
10
109.687245
20
80.3187431
11
109.6876069
21
80.3187427
0
ARC
8
DEFAULT_255_2_778
10
109.6876398
20
80.5173058
40
0.198563
50
269.9905027
51
316.8249087
0
ARC
8
DEFAULT_255_2_778
10
109.6864826
20
80.5192569
40
0.2007428
50
316.6447881
51
359.9959429
0
ARC
8
DEFAULT_255_2_778
10
109.6865316
20
80.5192379
40
0.2006937
50
0.0013637
51
3.0290645
0
ARC
8
DEFAULT_255_2_778
10
-389.3754169
20
52.8168375
40
500.0309158
50
3.1771081
51
5.9990486
0
ARC
8
DEFAULT_255_2_778
10
107.4197778
20
105.0238276
40
0.5001006
50
5.9931773
51
87.0006942
0
ARC
8
DEFAULT_255_2_778
10
-389.3494456
20
52.8206204
40
494.0045081
50
3.1909448
51
6.158697
0
ARC
8
DEFAULT_255_2_778
10
86.1541373
20
2.0200507
40
0.5987937
50
89.8748728
51
180.1251224
0
ARC
8
DEFAULT_255_2_778
10
86.1553969
20
2.018795
40
0.600048
50
359.9950382
51
89.9954133
0
ARC
8
DEFAULT_255_2_778
10
86.1553969
20
2.0186911
40
0.600048
50
270.0045867
51
0.0049618
0
ARC
8
DEFAULT_255_2_778
10
86.1534945
20
2.0519299
40
0.6332899
50
270.0060885
51
270.1764664
0
ARC
8
DEFAULT_255_2_778
10
86.1534601
20
2.0171531
40
0.598513
50
225.0267324
51
270.0097331
0
ARC
8
DEFAULT_255_2_778
10
86.1536161
20
2.0166611
40
0.5982753
50
180.0162291
51
224.98286
0
ARC
8
DEFAULT_255_2_778
10
86.1314651
20
2.0165426
40
0.5761244
50
179.7811582
51
180.0050702
0
LINE
8
DEFAULT_255_2_778
10
107.445945
20
105.5232431
11
101.803945
21
105.8187431
0
LINE
8
DEFAULT_255_2_778
10
103.889145
20
80.3187431
11
109.686945
21
80.3187431
0
LINE
8
DEFAULT_255_2_778
10
85.555345
20
2.0187431
11
85.555345
21
2.0187431
0
ARC
8
DEFAULT_255_2_778
10
-389.3623351
20
52.8194361
40
500.017549
50
353.9153539
51
358.4790766
0
ARC
8
DEFAULT_255_2_778
10
-389.3477982
20
52.8189078
40
500.0030033
50
358.4790929
51
359.9999977
0
ARC
8
DEFAULT_255_2_778
10
-389.346999
20
52.8188777
40
500.002204
50
0.0000012
51
0.4862306
0
ARC
8
DEFAULT_255_2_778
10
-389.3365335
20
52.8189714
40
499.9917381
50
0.4862301
51
3.1350547
0
ARC
8
DEFAULT_255_2_778
10
-388.8341004
20
52.8465349
40
499.4885496
50
3.1350497
51
3.177153
0
LINE
8
DEFAULT_255_2_778
10
22.3874074
20
3.8186718
11
22.3874074
21
3.6186718
0
LINE
8
DEFAULT_255_2_778
10
21.5214074
20
3.8186718
11
21.5214074
21
3.6186718
0
ARC
8
DEFAULT_255_2_778
10
-389.1183182
20
52.8347609
40
493.2730426
50
3.1707774
51
6.1662206
0
ARC
8
DEFAULT_255_2_778
10
94.7923869
20
45.8055805
40
60.0132285
50
90.0009659
51
98.9990086
0
ARC
8
DEFAULT_255_2_778
10
94.7923869
20
59.8320374
40
60.0132285
50
261.0009914
51
269.9990341
0
ARC
8
DEFAULT_255_2_778
10
107.3553848
20
0.3187993
40
0.4999904
50
269.9989007
51
0.0011051
0
LINE
8
DEFAULT_255_2_778
10
23.2032752
20
3.8188089
11
23.2032752
21
3.6187089
0
LINE
8
DEFAULT_255_2_778
10
23.2032752
20
3.6187089
11
20.6553752
21
3.6187089
0
LINE
8
DEFAULT_255_2_778
10
20.6553752
20
3.6187089
11
20.6553752
21
3.8188089
0
LINE
8
DEFAULT_255_2_778
10
107.8551752
20
80.1188089
11
103.3995752
21
80.1188089
0
LINE
8
DEFAULT_255_2_778
10
101.3008752
20
105.8188089
11
94.7913752
21
105.8188089
0
LINE
8
DEFAULT_255_2_778
10
85.4052752
20
105.0801089
11
84.7551752
21
104.9772089
0
LINE
8
DEFAULT_255_2_778
10
84.7551752
20
104.9772089
11
84.7551752
21
0.6604089
0
LINE
8
DEFAULT_255_2_778
10
84.7551752
20
0.6604089
11
85.4052752
21
0.5575089
0
LINE
8
DEFAULT_255_2_778
10
94.7913752
20
-0.1811911
11
107.3553752
21
-0.1811911
0
LINE
8
DEFAULT_255_2_778
10
107.8553752
20
0.3188089
11
107.8553752
21
80.3188089
0
ARC
8
DEFAULT_255_2_778
10
96.6551093
20
53.8185582
40
0.5000969
50
359.9996485
51
90.0003515
0
ARC
8
DEFAULT_255_2_778
10
96.1551032
20
53.8185582
40
0.5000969
50
89.9996485
51
180.0003515
0
ARC
8
DEFAULT_255_2_778
10
96.1551032
20
51.8186521
40
0.5000969
50
179.9996485
51
270.0003515
0
ARC
8
DEFAULT_255_2_778
10
96.6551093
20
51.8186521
40
0.5000969
50
269.9996485
51
0.0003515
0
LINE
8
DEFAULT_255_2_778
10
96.6551063
20
54.3186552
11
96.1551063
21
54.3186552
0
LINE
8
DEFAULT_255_2_778
10
95.6550063
20
53.8185552
11
95.6550063
21
51.8186552
0
LINE
8
DEFAULT_255_2_778
10
96.1551063
20
51.3185552
11
96.6551063
21
51.3185552
0
LINE
8
DEFAULT_255_2_778
10
97.1552063
20
51.8186552
11
97.1552063
21
53.8185552
0
LINE
8
DEFAULT_255_2_778
10
88.7052
20
13.818878
11
88.7052
21
19.818878
0
LINE
8
DEFAULT_255_2_778
10
90.6553823
20
13.5686093
11
90.6553823
21
20.0686093
0
LINE
8
DEFAULT_255_2_778
10
90.6553823
20
20.0686093
11
88.2553823
21
20.0686093
0
LINE
8
DEFAULT_255_2_778
10
88.2553823
20
20.0686093
11
88.2553823
21
13.5686093
0
LINE
8
DEFAULT_255_2_778
10
88.2553823
20
13.5686093
11
90.6553823
21
13.5686093
0
LINE
8
DEFAULT_255_2_778
10
88.2553774
20
19.818878
11
90.4373774
21
19.818878
0
LINE
8
DEFAULT_255_2_778
10
90.4373774
20
19.818878
11
90.4373774
21
18.818978
0
LINE
8
DEFAULT_255_2_778
10
90.4373774
20
18.818978
11
89.2552774
21
18.818978
0
LINE
8
DEFAULT_255_2_778
10
89.2552774
20
18.818978
11
89.2552774
21
14.819078
0
LINE
8
DEFAULT_255_2_778
10
89.2552774
20
14.819078
11
90.4373774
21
14.819078
0
LINE
8
DEFAULT_255_2_778
10
90.4373774
20
14.819078
11
90.4373774
21
13.818878
0
LINE
8
DEFAULT_255_2_778
10
90.4373774
20
13.818878
11
88.2553774
21
13.818878
0
LINE
8
DEFAULT_255_2_778
10
88.7052
20
85.818878
11
88.7052
21
91.818878
0
LINE
8
DEFAULT_255_2_778
10
90.6553823
20
85.5686093
11
90.6553823
21
92.0686093
0
LINE
8
DEFAULT_255_2_778
10
90.6553823
20
92.0686093
11
88.2553823
21
92.0686093
0
LINE
8
DEFAULT_255_2_778
10
88.2553823
20
92.0686093
11
88.2553823
21
85.5686093
0
LINE
8
DEFAULT_255_2_778
10
88.2553823
20
85.5686093
11
90.6553823
21
85.5686093
0
LINE
8
DEFAULT_255_2_778
10
88.2553774
20
91.818878
11
90.4373774
21
91.818878
0
LINE
8
DEFAULT_255_2_778
10
90.4373774
20
91.818878
11
90.4373774
21
90.818978
0
LINE
8
DEFAULT_255_2_778
10
90.4373774
20
90.818978
11
89.2552774
21
90.818978
0
LINE
8
DEFAULT_255_2_778
10
89.2552774
20
90.818978
11
89.2552774
21
86.819078
0
LINE
8
DEFAULT_255_2_778
10
89.2552774
20
86.819078
11
90.4373774
21
86.819078
0
LINE
8
DEFAULT_255_2_778
10
90.4373774
20
86.819078
11
90.4373774
21
85.818878
0
LINE
8
DEFAULT_255_2_778
10
90.4373774
20
85.818878
11
88.2553774
21
85.818878
0
LINE
8
DEFAULT_255_2_778
10
104.4552625
20
99.8185552
11
104.4552625
21
102.8186552
0
LINE
8
DEFAULT_255_2_778
10
103.8551625
20
99.8185552
11
103.8551625
21
102.8186552
0
LINE
8
DEFAULT_255_2_778
10
104.5550698
20
103.0186479
11
104.5550698
21
99.6187479
0
LINE
8
DEFAULT_255_2_778
10
104.5550698
20
99.6187479
11
103.5551698
21
99.6187479
0
LINE
8
DEFAULT_255_2_778
10
103.5551698
20
99.6187479
11
103.5551698
21
103.0186479
0
LINE
8
DEFAULT_255_2_778
10
103.5551698
20
103.0186479
11
104.5550698
21
103.0186479
0
LINE
8
DEFAULT_255_2_778
10
104.5552625
20
99.8185081
11
103.6551625
21
99.8185081
0
LINE
8
DEFAULT_255_2_778
10
103.6551625
20
99.8185081
11
103.6551625
21
102.8186081
0
LINE
8
DEFAULT_255_2_778
10
103.6551625
20
102.8186081
11
104.5552625
21
102.8186081
0
LINE
8
DEFAULT_255_2_778
10
105.7551625
20
83.3185081
11
105.7551625
21
86.3187081
0
LINE
8
DEFAULT_255_2_778
10
105.1553625
20
83.3185081
11
105.1553625
21
86.3187081
0
LINE
8
DEFAULT_255_2_778
10
105.8554625
20
86.5187081
11
105.8554625
21
83.1188081
0
LINE
8
DEFAULT_255_2_778
10
105.8554625
20
83.1188081
11
104.8555625
21
83.1188081
0
LINE
8
DEFAULT_255_2_778
10
104.8555625
20
83.1188081
11
104.8555625
21
86.5187081
0
LINE
8
DEFAULT_255_2_778
10
104.8555625
20
86.5187081
11
105.8554625
21
86.5187081
0
ARC
8
DEFAULT_255_2_778
10
84.9553874
20
10.0186042
40
0.3002217
50
131.8291887
51
179.9797533
0
LINE
8
DEFAULT_255_2_778
10
105.8554659
20
83.3186103
11
104.9553659
21
83.3186103
0
LINE
8
DEFAULT_255_2_778
10
104.9553659
20
83.3186103
11
104.9553659
21
86.3187103
0
LINE
8
DEFAULT_255_2_778
10
104.9553659
20
86.3187103
11
105.8554659
21
86.3187103
0
LINE
8
DEFAULT_255_2_778
10
84.6551659
20
6.2441103
11
84.7551659
21
6.2772103
0
LINE
8
DEFAULT_255_2_778
10
84.7551659
20
7.7602103
11
84.6551659
21
7.7933103
0
LINE
8
DEFAULT_255_2_778
10
84.6551659
20
5.2279103
11
84.7551659
21
5.3279103
0
LINE
8
DEFAULT_255_2_778
10
84.655207
20
5.7255531
11
84.755207
21
5.8255531
0
LINE
8
DEFAULT_255_2_778
10
84.655207
20
8.2147531
11
84.755207
21
8.3147531
0
LINE
8
DEFAULT_255_2_778
10
84.655207
20
8.7124531
11
84.755207
21
8.8124531
0
LINE
8
DEFAULT_255_2_778
10
84.655207
20
9.2103531
11
84.755207
21
9.3103531
0
LINE
8
DEFAULT_255_2_778
10
84.655207
20
9.3188531
11
84.755207
21
9.3188531
0
ARC
8
DEFAULT_255_2_778
10
84.9548335
20
97.2186634
40
0.2996266
50
179.9693718
51
228.2216275
0
LINE
8
DEFAULT_255_2_778
10
84.655207
20
7.8187236
11
84.755207
21
7.8187236
0
LINE
8
DEFAULT_255_2_778
10
84.755207
20
4.8189236
11
84.655207
21
4.8189236
0
LINE
8
DEFAULT_255_2_778
10
84.755207
20
1.8188236
11
84.655207
21
1.8188236
0
LINE
8
DEFAULT_255_2_778
10
84.755207
20
103.8188236
11
84.655207
21
103.8188236
0
LINE
8
DEFAULT_255_2_778
10
84.655207
20
100.8187236
11
84.755207
21
100.8187236
0
LINE
8
DEFAULT_255_2_778
10
84.755207
20
99.8188236
11
84.655207
21
99.8188236
0
ENDSEC
0
EOF