0
SECTION
2
HEADER
9
$MEASUREMENT
70
1
0
ENDSEC
0
SECTION
2
TABLES
0
TABLE
2
LTYPE
0
LTYPE
72
65
70
64
2
CONTINUOUS
3
______
73
0
40
0
0
ENDTAB
0
TABLE
2
LAYER
0
LAYER
2
DEFAULT_255_2_778
70
0
62
255
6
CONTINUOUS
0
ENDTAB
0
ENDSEC
0
SECTION
2
ENTITIES
0
ARC
8
DEFAULT_255_2_778
10
19.0398004
20
40.4805809
40
3.9626266
50
270.3658693
51
272.9930702
0
ARC
8
DEFAULT_255_2_778
10
19.0579814
20
39.1062477
40
2.5882224
50
269.9984115
51
270.1576769
0
ARC
8
DEFAULT_255_2_778
10
19.0339397
20
37.9187725
40
1.4009524
50
259.8009974
51
270.9803633
0
ARC
8
DEFAULT_255_2_778
10
18.8575059
20
36.9554142
40
0.4215868
50
238.7938871
51
260.2177365
0
ARC
8
DEFAULT_255_2_778
10
18.7484003
20
36.7625507
40
0.2002083
50
223.0974904
51
236.9027239
0
ARC
8
DEFAULT_255_2_778
10
18.7781683
20
36.7840569
40
0.236684
50
212.7499587
51
221.9753703
0
ARC
8
DEFAULT_255_2_778
10
18.8963637
20
36.8643915
40
0.3795674
50
211.7964017
51
213.2969983
0
ARC
8
DEFAULT_255_2_778
10
19.2727929
20
37.0802138
40
0.8133582
50
202.3509986
51
210.7461367
0
ARC
8
DEFAULT_255_2_778
10
20.6381662
20
37.6610421
40
2.2971005
50
199.3126378
51
202.7991742
0
ARC
8
DEFAULT_255_2_778
10
23.0218631
20
38.5113298
40
4.8278919
50
198.3893737
51
199.4799481
0
ARC
8
DEFAULT_255_2_778
10
13.6474965
20
35.3860213
40
5.0537257
50
18.4840758
51
21.0435536
0
ARC
8
DEFAULT_255_2_778
10
16.5853758
20
36.519327
40
1.9048379
50
20.9594333
51
27.951149
0
ARC
8
DEFAULT_255_2_778
10
15.7389626
20
38.7906549
40
1.9986521
50
329.8320671
51
332.675198
0
ARC
8
DEFAULT_255_2_778
10
8.8080148
20
42.2955779
40
9.7653491
50
333.0724321
51
334.2251894
0
ARC
8
DEFAULT_255_2_778
10
18.8873583
20
37.6035734
40
1.3606145
50
152.0761906
51
160.8790914
0
ARC
8
DEFAULT_255_2_778
10
18.0844569
20
38.0276857
40
0.4525851
50
137.1017125
51
151.9163077
0
ARC
8
DEFAULT_255_2_778
10
18.1114074
20
38.0259004
40
0.4738497
50
107.7743827
51
139.1622343
0
ARC
8
DEFAULT_255_2_778
10
18.2910593
20
37.5127419
40
1.0174575
50
97.6157844
51
108.5867052
0
ARC
8
DEFAULT_255_2_778
10
18.4712064
20
36.2671278
40
2.2759987
50
92.5822719
51
97.9550659
0
ARC
8
DEFAULT_255_2_778
10
18.5913285
20
33.9383322
40
4.6078661
50
90.2339997
51
92.7697671
0
ARC
8
DEFAULT_255_2_778
10
19.1325544
20
38.6883997
40
0.5778255
50
194.2506249
51
269.0138524
0
ARC
8
DEFAULT_255_2_778
10
19.1118694
20
38.6923826
40
0.5818218
50
271.0577275
51
350.188115
0
ARC
8
DEFAULT_255_2_778
10
18.9988038
20
38.7352069
40
0.7009064
50
348.3133659
51
0.0697357
0
ARC
8
DEFAULT_255_2_778
10
19.0396431
20
38.7425152
40
0.6600981
50
359.4396832
51
35.9743628
0
ARC
8
DEFAULT_255_2_778
10
19.1216946
20
38.8039532
40
0.5576076
50
35.8180145
51
89.9059701
0
ARC
8
DEFAULT_255_2_778
10
19.130808
20
38.7869426
40
0.5746758
50
90.8174053
51
166.2884876
0
ARC
8
DEFAULT_255_2_778
10
18.5969277
20
34.7649371
40
4.1582946
50
90.3364497
51
94.8275477
0
ARC
8
DEFAULT_255_2_778
10
18.3884647
20
37.1382
40
1.7759251
50
94.5695472
51
104.5689577
0
ARC
8
DEFAULT_255_2_778
10
18.1404282
20
38.0348898
40
0.8457998
50
103.5864431
51
138.1893497
0
ARC
8
DEFAULT_255_2_778
10
18.7042986
20
37.6672274
40
1.5146217
50
142.0461522
51
158.8807992
0
ARC
8
DEFAULT_255_2_778
10
13.7059438
20
39.7839418
40
3.9145306
50
334.6122695
51
336.3392363
0
ARC
8
DEFAULT_255_2_778
10
15.4798528
20
38.9431201
40
1.951438
50
332.1551855
51
334.5850363
0
ARC
8
DEFAULT_255_2_778
10
16.4569398
20
38.413844
40
0.8403492
50
322.058785
51
332.947344
0
ARC
8
DEFAULT_255_2_778
10
16.8971694
20
38.0591705
40
0.275242
50
287.504232
51
323.9397085
0
ARC
8
DEFAULT_255_2_778
10
16.9230126
20
38.0086392
40
0.2194811
50
269.7643027
51
285.0370991
0
ARC
8
DEFAULT_255_2_778
10
15.5797907
20
37.6274724
40
0.6691472
50
13.9828958
51
73.2587484
0
ARC
8
DEFAULT_255_2_778
10
15.6196904
20
37.7143459
40
0.574614
50
74.5735316
51
89.988111
0
ARC
8
DEFAULT_255_2_778
10
15.6423193
20
37.6421259
40
0.6472256
50
91.9930661
51
163.2871441
0
ARC
8
DEFAULT_255_2_778
10
15.7065507
20
37.6023776
40
0.7204411
50
161.7283577
51
180.0252603
0
ARC
8
DEFAULT_255_2_778
10
15.6994231
20
37.6005023
40
0.7133151
50
179.874886
51
224.4345564
0
ARC
8
DEFAULT_255_2_778
10
15.6266519
20
37.520814
40
0.6055928
50
223.8711539
51
269.3526338
0
ARC
8
DEFAULT_255_2_778
10
15.5976187
20
37.5614026
40
0.6465236
50
271.9669829
51
342.5137839
0
ARC
8
DEFAULT_255_2_778
10
15.5254551
20
37.6067545
40
0.7292987
50
340.818723
51
344.7608938
0
ARC
8
DEFAULT_255_2_778
10
17.7350927
20
37.2030719
40
0.2121009
50
36.1260038
51
88.1311651
0
ARC
8
DEFAULT_255_2_778
10
17.3918369
20
36.9084887
40
0.6639852
50
26.6860679
51
39.1968779
0
ARC
8
DEFAULT_255_2_778
10
16.6526491
20
36.5130289
40
1.5021887
50
24.0491746
51
27.5009948
0
ARC
8
DEFAULT_255_2_778
10
15.2898169
20
35.9061921
40
2.9940205
50
21.5676496
51
24.0258037
0
ARC
8
DEFAULT_255_2_778
10
10.4258381
20
33.9763034
40
8.2268727
50
20.6231713
51
21.6147975
0
ARC
8
DEFAULT_255_2_778
10
-5.2533796
20
28.0286224
40
24.9962537
50
20.6747405
51
20.7240268
0
ARC
8
DEFAULT_255_2_778
10
-73.3699927
20
4.8201122
40
96.9483302
50
19.2261129
51
19.2943202
0
ARC
8
DEFAULT_255_2_778
10
19.7998897
20
37.273282
40
1.7122724
50
197.9737005
51
207.5936002
0
ARC
8
DEFAULT_255_2_778
10
18.7708978
20
36.7441339
40
0.5552759
50
208.3846069
51
224.6268585
0
ARC
8
DEFAULT_255_2_778
10
18.8669195
20
36.8777252
40
0.7179919
50
226.8316786
51
265.6552716
0
ARC
8
DEFAULT_255_2_778
10
19.031884
20
37.9190132
40
1.7708551
50
262.8844412
51
269.3627628
0
ARC
8
DEFAULT_255_2_778
10
19.0573042
20
38.8787576
40
2.7308627
50
269.053405
51
270.0144189
0
ARC
8
DEFAULT_255_2_778
10
19.0351335
20
41.2589394
40
5.1110956
50
270.2562398
51
272.4352946
0
ARC
8
DEFAULT_255_2_778
10
19.5672777
20
21.3613894
40
0.0099357
50
1.5601101
51
53.3416643
0
ARC
8
DEFAULT_255_2_778
10
17.542186
20
21.3615967
40
0.0096765
50
126.6513608
51
179.6252763
0
ARC
8
DEFAULT_255_2_778
10
18.454995
20
22.149264
40
0.7140946
50
10.2766994
51
18.162778
0
ARC
8
DEFAULT_255_2_778
10
17.416452
20
21.9316855
40
1.775027
50
10.6313902
51
11.2066871
0
ARC
8
DEFAULT_255_2_778
10
19.4599543
20
21.2724252
40
0.1566808
50
181.2307328
51
200.9279173
0
ARC
8
DEFAULT_255_2_778
10
19.4584751
20
21.2733725
40
0.1556439
50
201.4481401
51
221.8350006
0
ARC
8
DEFAULT_255_2_778
10
19.4571579
20
21.2724287
40
0.1540331
50
221.900223
51
242.5320125
0
ARC
8
DEFAULT_255_2_778
10
19.4560536
20
21.2728353
40
0.1538889
50
242.9666391
51
263.7535483
0
ARC
8
DEFAULT_255_2_778
10
12.483155
20
21.1256608
40
7.1215577
50
359.9468936
51
1.8679262
0
ARC
8
DEFAULT_255_2_778
10
16.0539291
20
21.2475576
40
3.548712
50
1.7800917
51
4.2251035
0
ARC
8
DEFAULT_255_2_778
10
18.7344021
20
21.4528118
40
0.8604318
50
3.7448417
51
9.4031983
0
ARC
8
DEFAULT_255_2_778
10
19.5488608
20
21.5948026
40
0.0344404
50
357.6494037
51
45.0099746
0
ARC
8
DEFAULT_255_2_778
10
15.3173499
20
21.3611231
40
0.0098656
50
1.9567747
51
53.5615001
0
ARC
8
DEFAULT_255_2_778
10
13.2871365
20
21.3663735
40
0.002783
50
105.1397453
51
164.1212793
0
ARC
8
DEFAULT_255_2_778
10
13.3113361
20
21.3547274
40
0.0296021
50
155.2194878
51
166.853942
0
ARC
8
DEFAULT_255_2_778
10
14.5458776
20
22.1132398
40
0.8595922
50
162.9163991
51
170.2467087
0
ARC
8
DEFAULT_255_2_778
10
14.013891
20
22.2692845
40
0.3053207
50
160.4288617
51
161.5800825
0
ARC
8
DEFAULT_255_2_778
10
13.421153
20
6.9690496
40
0.1501592
50
96.094947
51
117.9774884
0
ARC
8
DEFAULT_255_2_778
10
13.4206665
20
6.9698348
40
0.1492375
50
117.953956
51
139.9011311
0
ARC
8
DEFAULT_255_2_778
10
13.4163423
20
6.9742012
40
0.1431184
50
140.1232133
51
162.1545518
0
ARC
8
DEFAULT_255_2_778
10
13.4133971
20
6.9757286
40
0.1398481
50
162.3804285
51
179.9613509
0
ARC
8
DEFAULT_255_2_778
10
13.4118917
20
6.9758198
40
0.1383425
50
179.9987303
51
182.7593216
0
ARC
8
DEFAULT_255_2_778
10
15.3170386
20
6.8769549
40
0.0101789
50
307.3197128
51
357.776378
0
ARC
8
DEFAULT_255_2_778
10
13.4034354
20
6.9662265
40
0.1529128
50
1.2866
51
22.7907749
0
ARC
8
DEFAULT_255_2_778
10
13.3984972
20
6.9632799
40
0.158609
50
23.0810923
51
44.353114
0
ARC
8
DEFAULT_255_2_778
10
13.4050006
20
6.9679879
40
0.1506721
50
44.8018143
51
89.996532
0
ARC
8
DEFAULT_255_2_778
10
13.4051338
20
6.9684344
40
0.1502256
50
90.0473214
51
112.7624824
0
ARC
8
DEFAULT_255_2_778
10
13.4038397
20
6.970017
40
0.1482667
50
112.5379806
51
135.4883319
0
ARC
8
DEFAULT_255_2_778
10
13.4000516
20
6.9726497
40
0.1437217
50
135.1780813
51
158.741441
0
ARC
8
DEFAULT_255_2_778
10
13.4011185
20
6.9714837
40
0.1451404
50
158.4651599
51
180.0300236
0
ARC
8
DEFAULT_255_2_778
10
13.4030753
20
6.9713991
40
0.1470972
50
179.9966684
51
181.183858
0
ARC
8
DEFAULT_255_2_778
10
14.4098946
20
6.0899073
40
0.7196826
50
190.2892147
51
198.1216864
0
ARC
8
DEFAULT_255_2_778
10
15.4445027
20
6.3066266
40
1.77659
50
190.631518
51
191.2063149
0
ARC
8
DEFAULT_255_2_778
10
17.6708979
20
6.9676315
40
0.150768
50
96.0491733
51
117.8309622
0
ARC
8
DEFAULT_255_2_778
10
17.6702167
20
6.9697116
40
0.1486109
50
117.9731344
51
140.0387035
0
ARC
8
DEFAULT_255_2_778
10
17.6662022
20
6.9730829
40
0.1433686
50
140.0409423
51
162.0530538
0
ARC
8
DEFAULT_255_2_778
10
17.6624721
20
6.9753398
40
0.1391281
50
162.4639257
51
180.0501571
0
ARC
8
DEFAULT_255_2_778
10
17.666006
20
6.9752277
40
0.1426618
50
180.0038852
51
182.7592847
0
ARC
8
DEFAULT_255_2_778
10
17.5418417
20
6.8763305
40
0.0099357
50
181.5601101
51
233.3416643
0
ARC
8
DEFAULT_255_2_778
10
19.5669334
20
6.8761232
40
0.0096765
50
306.6513608
51
359.6252763
0
ARC
8
DEFAULT_255_2_778
10
18.6541243
20
6.0884559
40
0.7140946
50
190.2766994
51
198.162778
0
ARC
8
DEFAULT_255_2_778
10
19.6926673
20
6.3060344
40
1.775027
50
190.6313902
51
191.2066871
0
ARC
8
DEFAULT_255_2_778
10
17.6504173
20
6.9654893
40
0.1554431
50
1.4637139
51
22.6137851
0
ARC
8
DEFAULT_255_2_778
10
17.6548738
20
6.9672401
40
0.1511199
50
90.0622406
51
112.595682
0
ARC
8
DEFAULT_255_2_778
10
17.6543191
20
6.9688063
40
0.1494608
50
112.6300249
51
135.4488274
0
ARC
8
DEFAULT_255_2_778
10
17.6497531
20
6.9723486
40
0.1437236
50
135.1781593
51
158.7412112
0
ARC
8
DEFAULT_255_2_778
10
17.6520558
20
6.970982
40
0.1463656
50
158.5694904
51
180.2007832
0
ARC
8
DEFAULT_255_2_778
10
17.6601205
20
6.9704567
40
0.1544295
50
179.9954037
51
180.8892582
0
ARC
8
DEFAULT_255_2_778
10
17.6374941
20
21.2651235
40
0.1318292
50
178.5062648
51
180.0002562
0
ARC
8
DEFAULT_255_2_778
10
17.6392144
20
21.2651237
40
0.1335496
50
180.0003451
51
181.8068496
0
ARC
8
DEFAULT_255_2_778
10
17.6557126
20
21.2664995
40
0.1500853
50
182.1332272
51
201.2266165
0
ARC
8
DEFAULT_255_2_778
10
17.6544253
20
21.2673099
40
0.1491838
50
201.6957649
51
224.3847106
0
ARC
8
DEFAULT_255_2_778
10
17.6551
20
21.2693692
40
0.1511097
50
224.7637725
51
269.852009
0
ARC
8
DEFAULT_255_2_778
10
15.2051142
20
21.2689473
40
0.1506874
50
270.0363222
51
292.430025
0
ARC
8
DEFAULT_255_2_778
10
15.205995
20
21.2662728
40
0.1478793
50
292.5099561
51
315.4114692
0
ARC
8
DEFAULT_255_2_778
10
15.2099207
20
21.2631233
40
0.1428734
50
315.2057656
51
338.6723137
0
ARC
8
DEFAULT_255_2_778
10
15.2098809
20
21.2640777
40
0.1432605
50
338.3225118
51
0.0598049
0
ARC
8
DEFAULT_255_2_778
10
15.2075361
20
21.2642362
40
0.1456052
50
359.9964994
51
1.1899469
0
ARC
8
DEFAULT_255_2_778
10
15.1916525
20
21.2613174
40
0.1438884
50
0.268168
51
2.4466981
0
ARC
8
DEFAULT_255_2_778
10
15.1952335
20
21.2613207
40
0.1403073
50
7e-7
51
0.2736505
0
ARC
8
DEFAULT_255_2_778
10
15.1955295
20
21.2611235
40
0.1400114
50
342.4307445
51
0.0806783
0
ARC
8
DEFAULT_255_2_778
10
15.1946989
20
21.2615869
40
0.1409431
50
320.089909
51
342.3530777
0
ARC
8
DEFAULT_255_2_778
10
15.1877484
20
21.2683241
40
0.1505987
50
298.3277545
51
319.8203975
0
ARC
8
DEFAULT_255_2_778
10
15.1911201
20
21.26311
40
0.1444099
50
275.4794617
51
298.1318326
0
ARC
8
DEFAULT_255_2_778
10
15.200135
20
21.2556683
40
0.1363919
50
269.9956933
51
272.0061643
0
ARC
8
DEFAULT_255_2_778
10
15.2001385
20
21.2568437
40
0.1375675
50
247.055692
51
269.9942762
0
ARC
8
DEFAULT_255_2_778
10
15.2075978
20
21.2744106
40
0.1566525
50
225.1971955
51
247.0480155
0
ARC
8
DEFAULT_255_2_778
10
15.208559
20
21.2725151
40
0.1559979
50
202.7615793
51
224.4561382
0
ARC
8
DEFAULT_255_2_778
10
15.2109397
20
21.2724686
40
0.1581782
50
181.4159341
51
202.4123724
0
ARC
8
DEFAULT_255_2_778
10
14.0824719
20
22.1169332
40
0.8400791
50
9.7126143
51
17.2384886
0
ARC
8
DEFAULT_255_2_778
10
14.6036134
20
22.2710347
40
0.2967686
50
18.6404692
51
19.7586565
0
ARC
8
DEFAULT_255_2_778
10
13.4204044
20
21.2707571
40
0.1519788
50
242.4920357
51
264.1862294
0
ARC
8
DEFAULT_255_2_778
10
13.4199143
20
21.2672054
40
0.1486072
50
219.9610296
51
242.027154
0
ARC
8
DEFAULT_255_2_778
10
13.415213
20
21.2629918
40
0.1422976
50
197.6444863
51
219.8764192
0
ARC
8
DEFAULT_255_2_778
10
13.4134136
20
21.2622712
40
0.1403645
50
180.032272
51
197.5868082
0
ARC
8
DEFAULT_255_2_778
10
13.4114934
20
21.2621975
40
0.1384442
50
177.241664
51
180.0022544
0
ARC
8
DEFAULT_255_2_778
10
10.8537291
20
8.768843
40
0.1503809
50
0.1207463
51
22.6521113
0
ARC
8
DEFAULT_255_2_778
10
10.855861
20
8.7694823
40
0.1481675
50
22.7414806
51
45.6641757
0
ARC
8
DEFAULT_255_2_778
10
10.857272
20
8.7718968
40
0.1454559
50
45.3970343
51
68.5305202
0
ARC
8
DEFAULT_255_2_778
10
10.858065
20
8.775422
40
0.1418862
50
68.3075132
51
89.9837062
0
ARC
8
DEFAULT_255_2_778
10
10.8580994
20
8.7760592
40
0.1412489
50
89.9975627
51
91.496839
0
ARC
8
DEFAULT_255_2_778
10
10.0119348
20
20.0598932
40
0.9361469
50
98.9429653
51
105.649434
0
ARC
8
DEFAULT_255_2_778
10
9.7828565
20
20.8471085
40
0.1166105
50
101.6000677
51
129.9714489
0
ARC
8
DEFAULT_255_2_778
10
9.7180568
20
20.9269974
40
0.0138585
50
136.8545705
51
177.6734731
0
ARC
8
DEFAULT_255_2_778
10
9.7423602
20
19.824234
40
0.0407334
50
200.5134028
51
260.8156519
0
ARC
8
DEFAULT_255_2_778
10
9.9154485
20
20.2745012
40
0.5223232
50
249.8896807
51
259.8702168
0
ARC
8
DEFAULT_255_2_778
10
10.1027961
20
21.1604516
40
1.4277002
50
258.7220714
51
260.3963119
0
ARC
8
DEFAULT_255_2_778
10
10.8526551
20
19.4838395
40
0.1363283
50
86.1719307
51
89.3886759
0
ARC
8
DEFAULT_255_2_778
10
10.8504028
20
19.4639396
40
0.1563369
50
67.3891299
51
85.8352194
0
ARC
8
DEFAULT_255_2_778
10
10.8514798
20
19.4668665
40
0.1532208
50
23.0102542
51
67.3401124
0
ARC
8
DEFAULT_255_2_778
10
10.8548375
20
19.4690654
40
0.1492725
50
359.9211227
51
22.7371692
0
ARC
8
DEFAULT_255_2_778
10
13.4031101
20
21.2707751
40
0.1524294
50
337.1810947
51
358.8665848
0
ARC
8
DEFAULT_255_2_778
10
13.3981981
20
21.273506
40
0.1580172
50
315.6065024
51
336.9591092
0
ARC
8
DEFAULT_255_2_778
10
13.4041925
20
21.2698415
40
0.1511786
50
270.0006345
51
315.0095559
0
ARC
8
DEFAULT_255_2_778
10
13.4041885
20
21.2691949
40
0.1505319
50
266.7871866
51
270.0021455
0
ARC
8
DEFAULT_255_2_778
10
13.4041754
20
21.269035
40
0.1503716
50
247.4500954
51
266.7887593
0
ARC
8
DEFAULT_255_2_778
10
13.4039546
20
21.2676968
40
0.1490513
50
224.4813449
51
247.3312027
0
ARC
8
DEFAULT_255_2_778
10
13.4013669
20
21.2663564
40
0.1462684
50
201.7481545
51
224.8169729
0
ARC
8
DEFAULT_255_2_778
10
13.3988033
20
21.2648827
40
0.1433418
50
180.0150859
51
201.5807193
0
ARC
8
DEFAULT_255_2_778
10
13.3981833
20
21.2648511
40
0.1427218
50
178.5108923
51
180.0024287
0
ARC
8
DEFAULT_255_2_778
10
17.6597997
20
21.261639
40
0.1367504
50
177.2248672
51
179.5313755
0
ARC
8
DEFAULT_255_2_778
10
17.668252
20
21.2616014
40
0.1452027
50
179.5438278
51
179.9898592
0
ARC
8
DEFAULT_255_2_778
10
17.6633097
20
21.2617552
40
0.1402605
50
180.0523311
51
197.5934423
0
ARC
8
DEFAULT_255_2_778
10
17.6651481
20
21.2628365
40
0.1423407
50
197.7846575
51
219.9378998
0
ARC
8
DEFAULT_255_2_778
10
17.6685751
20
21.2656147
40
0.1467518
50
219.9106299
51
242.234283
0
ARC
8
DEFAULT_255_2_778
10
17.6789929
20
21.2879129
40
0.1713397
50
242.6253536
51
261.9536341
0
ARC
8
DEFAULT_255_2_778
10
17.6542788
20
21.269218
40
0.1509598
50
270.2773924
51
315.1537286
0
ARC
8
DEFAULT_255_2_778
10
17.6497702
20
21.2728127
40
0.1566929
50
315.3844134
51
336.9094072
0
ARC
8
DEFAULT_255_2_778
10
17.6509323
20
21.2710006
40
0.1549178
50
337.3573452
51
358.69039
0
ARC
8
DEFAULT_255_2_778
10
18.8093425
20
22.1127923
40
0.8731501
50
163.518318
51
170.5228655
0
ARC
8
DEFAULT_255_2_778
10
18.2805841
20
22.2628266
40
0.3236105
50
160.460568
51
162.4304524
0
ARC
8
DEFAULT_255_2_778
10
15.2049072
20
6.9670736
40
0.1515865
50
90.0746511
51
112.658776
0
ARC
8
DEFAULT_255_2_778
10
15.2044754
20
6.9670369
40
0.1514546
50
112.5026742
51
135.0916497
0
ARC
8
DEFAULT_255_2_778
10
15.2080394
20
6.9651724
40
0.1552995
50
135.5327561
51
157.3573715
0
ARC
8
DEFAULT_255_2_778
10
15.2099547
20
6.9648525
40
0.1571911
50
157.5185267
51
178.6120563
0
ARC
8
DEFAULT_255_2_778
10
14.1443915
20
6.1044548
40
0.7761035
50
342.0957888
51
350.7992165
0
ARC
8
DEFAULT_255_2_778
10
22.7543128
20
21.868063
40
0.5000969
50
359.9996485
51
90.0003515
0
ARC
8
DEFAULT_255_2_778
10
9.7548066
20
21.868063
40
0.5000969
50
89.9996485
51
180.0003515
0
ARC
8
DEFAULT_255_2_778
10
9.7548066
20
6.3680569
40
0.5000969
50
179.9996485
51
270.0003515
0
ARC
8
DEFAULT_255_2_778
10
22.7548128
20
6.3680569
40
0.5000969
50
269.9996485
51
0.0003515
0
ARC
8
DEFAULT_255_2_778
10
21.6547858
20
9.0193838
40
0.1500761
50
90.0290701
51
180.0091144
0
ARC
8
DEFAULT_255_2_778
10
21.6547644
20
9.0194147
40
0.1500547
50
180.0208901
51
269.9791099
0
ARC
8
DEFAULT_255_2_778
10
21.7048121
20
7.1695576
40
0.1999024
50
89.9433584
51
180.0280008
0
ARC
8
DEFAULT_255_2_778
10
19.5531736
20
6.640822
40
0.029157
50
312.6011488
51
1.8725215
0
ARC
8
DEFAULT_255_2_778
10
18.910554
20
6.7627735
40
0.6825714
50
349.7892644
51
355.6837291
0
ARC
8
DEFAULT_255_2_778
10
16.7577393
20
6.9494403
40
2.8434314
50
355.1978521
51
357.708876
0
ARC
8
DEFAULT_255_2_778
10
13.3473781
20
7.094783
40
6.2568829
50
357.6274642
51
359.5161756
0
ARC
8
DEFAULT_255_2_778
10
11.6002223
20
7.1190763
40
8.0041873
50
359.4478926
51
0.0027462
0
ARC
8
DEFAULT_255_2_778
10
19.4553541
20
6.9673567
40
0.1521728
50
96.1279864
51
117.1519767
0
ARC
8
DEFAULT_255_2_778
10
19.4580823
20
6.9651862
40
0.1556313
50
138.2293946
51
178.4264078
0
ARC
8
DEFAULT_255_2_778
10
18.3129876
20
6.1216691
40
0.8587946
50
343.4607954
51
350.5833818
0
ARC
8
DEFAULT_255_2_778
10
18.8226619
20
5.9767113
40
0.3289998
50
340.4577097
51
342.3932911
0
ARC
8
DEFAULT_255_2_778
10
13.29325
20
6.8795149
40
0.0129883
50
188.6568066
51
232.8686325
0
ARC
8
DEFAULT_255_2_778
10
18.9708947
20
21.2644468
40
0.6134254
50
2.6799354
51
8.4190833
0
ARC
8
DEFAULT_255_2_778
10
16.9061553
20
21.1434487
40
2.6816745
50
0.540011
51
3.1996725
0
ARC
8
DEFAULT_255_2_778
10
15.5685725
20
21.1197124
40
4.0194371
50
359.9949761
51
0.6986483
0
ARC
8
DEFAULT_255_2_778
10
10.753071
20
21.3713126
40
0.2520794
50
314.7727409
51
335.0954358
0
ARC
8
DEFAULT_255_2_778
10
10.7594461
20
21.3670808
40
0.2445178
50
335.3657847
51
355.2093864
0
ARC
8
DEFAULT_255_2_778
10
13.4548039
20
8.1190541
40
0.2000942
50
179.998317
51
269.9730137
0
ARC
8
DEFAULT_255_2_778
10
16.2548644
20
7.7690147
40
0.1500547
50
180.0208901
51
269.9791099
0
ARC
8
DEFAULT_255_2_778
10
16.254755
20
7.7690147
40
0.1500547
50
270.0208901
51
359.9791099
0
ARC
8
DEFAULT_255_2_778
10
18.5548644
20
7.7690147
40
0.1500547
50
180.0208901
51
269.9791099
0
ARC
8
DEFAULT_255_2_778
10
18.554755
20
7.7690147
40
0.1500547
50
270.0208901
51
359.9791099
0
ARC
8
DEFAULT_255_2_778
10
20.8047483
20
8.0691212
40
0.1501613
50
270.0234162
51
359.976622
0
ARC
8
DEFAULT_255_2_778
10
20.8025037
20
8.0682136
40
0.1524083
50
0.3181772
51
25.722169
0
ARC
8
DEFAULT_255_2_778
10
20.8014429
20
8.0663035
40
0.154198
50
26.1905032
51
51.3687303
0
ARC
8
DEFAULT_255_2_778
10
20.8055697
20
8.0711184
40
0.1478605
50
51.4531468
51
71.1633342
0
ARC
8
DEFAULT_255_2_778
10
20.8038596
20
8.0626067
40
0.1564726
50
71.576988
51
84.8987715
0
ARC
8
DEFAULT_255_2_778
10
20.8042692
20
8.0669134
40
0.1521465
50
84.9081971
51
89.9847618
0
ARC
8
DEFAULT_255_2_778
10
20.8024896
20
20.1705294
40
0.1526486
50
308.7373332
51
334.1032434
0
ARC
8
DEFAULT_255_2_778
10
20.8024017
20
20.1700286
40
0.1525098
50
334.2869198
51
359.7112281
0
ARC
8
DEFAULT_255_2_778
10
20.8048338
20
20.1691841
40
0.1500759
50
0.0289723
51
90.0091931
0
ARC
8
DEFAULT_255_2_778
10
18.554755
20
20.4692052
40
0.1500547
50
0.0208901
51
89.9791099
0
ARC
8
DEFAULT_255_2_778
10
18.5548644
20
20.4692052
40
0.1500547
50
90.0208901
51
179.9791099
0
ARC
8
DEFAULT_255_2_778
10
16.254755
20
20.4692052
40
0.1500547
50
0.0208901
51
89.9791099
0
ARC
8
DEFAULT_255_2_778
10
16.2548644
20
20.4692052
40
0.1500547
50
90.0208901
51
179.9791099
0
ARC
8
DEFAULT_255_2_778
10
13.4549322
20
20.1190375
40
0.2002225
50
90.0636877
51
179.9649733
0
ARC
8
DEFAULT_255_2_778
10
11.2558903
20
20.8683511
40
0.5014476
50
121.6844298
51
148.5933336
0
ARC
8
DEFAULT_255_2_778
10
11.2558919
20
7.3701697
40
0.5014495
50
211.4066655
51
238.3154709
0
ARC
8
DEFAULT_255_2_778
10
10.4567847
20
13.9823866
40
8.4868253
50
74.9799192
51
81.3491653
0
ARC
8
DEFAULT_255_2_778
10
21.7048121
20
21.0694623
40
0.1999024
50
179.9719992
51
270.0566416
0
ARC
8
DEFAULT_255_2_778
10
21.6549644
20
19.2196052
40
0.1500547
50
90.0208901
51
179.9791099
0
ARC
8
DEFAULT_255_2_778
10
21.6550498
20
19.2197
40
0.1501402
50
180.0152977
51
269.9465178
0
ARC
8
DEFAULT_255_2_778
10
10.7624686
20
6.8718916
40
0.2427637
50
4.7181537
51
24.7066018
0
ARC
8
DEFAULT_255_2_778
10
10.7613531
20
6.872108
40
0.2436875
50
24.5507565
51
45.5811346
0
ARC
8
DEFAULT_255_2_778
10
10.74506
20
6.8605914
40
0.263341
50
44.8028908
51
67.0344589
0
ARC
8
DEFAULT_255_2_778
10
10.7465243
20
6.8624981
40
0.2610148
50
67.1671158
51
86.4310816
0
ARC
8
DEFAULT_255_2_778
10
10.7471647
20
6.8698205
40
0.253667
50
86.4725032
51
88.1825832
0
ARC
8
DEFAULT_255_2_778
10
10.8610317
20
19.4750071
40
0.1380699
50
267.5833007
51
270.0023717
0
ARC
8
DEFAULT_255_2_778
10
10.8609249
20
19.4770126
40
0.1400755
50
270.0460125
51
287.9565873
0
ARC
8
DEFAULT_255_2_778
10
10.8616429
20
19.4772792
40
0.14011
50
287.6436385
51
310.3241541
0
ARC
8
DEFAULT_255_2_778
10
10.8556291
20
19.484749
40
0.1496967
50
310.2288966
51
332.1686215
0
ARC
8
DEFAULT_255_2_778
10
10.8539812
20
19.4848247
40
0.151191
50
332.4348193
51
354.2434448
0
ARC
8
DEFAULT_255_2_778
10
10.8813981
20
19.4647739
40
0.1231086
50
0.0004226
51
2.2746205
0
ARC
8
DEFAULT_255_2_778
10
10.8636185
20
19.4661065
40
0.1408944
50
337.3112389
51
359.4584479
0
ARC
8
DEFAULT_255_2_778
10
10.8591021
20
19.4668252
40
0.1453425
50
291.1357775
51
337.7366027
0
ARC
8
DEFAULT_255_2_778
10
10.8591437
20
19.4626883
40
0.1414765
50
269.984956
51
291.7242055
0
ARC
8
DEFAULT_255_2_778
10
10.8590999
20
19.4624975
40
0.1412857
50
268.5033192
51
270.0026751
0
ARC
8
DEFAULT_255_2_778
10
10.6832107
20
21.1701428
40
0.1778012
50
179.9696212
51
180.0911392
0
ARC
8
DEFAULT_255_2_778
10
10.9550155
20
21.1702269
40
0.449606
50
134.9975479
51
179.9987063
0
ARC
8
DEFAULT_255_2_778
10
10.9555248
20
21.1694309
40
0.4505291
50
90.0019248
51
134.9717667
0
ARC
8
DEFAULT_255_2_778
10
10.7474033
20
21.3764473
40
0.260639
50
292.8488173
51
315.3138389
0
ARC
8
DEFAULT_255_2_778
10
10.7465003
20
21.3793056
40
0.2636238
50
275.0014279
51
292.7884634
0
ARC
8
DEFAULT_255_2_778
10
10.7469269
20
21.3744403
40
0.2587398
50
272.0117232
51
275.0012464
0
ARC
8
DEFAULT_255_2_778
10
13.0563086
20
18.569761
40
0.2002011
50
270.0575346
51
359.9424595
0
ARC
8
DEFAULT_255_2_778
10
12.956604
20
18.1694658
40
0.2000942
50
90.0269965
51
180.0016788
0
ARC
8
DEFAULT_255_2_778
10
12.5565008
20
17.719469
40
0.2000089
50
270.0025581
51
359.9974132
0
ARC
8
DEFAULT_255_2_778
10
11.456404
20
17.3193658
40
0.2000942
50
90.0269965
51
180.0016788
0
ARC
8
DEFAULT_255_2_778
10
11.0564926
20
16.569077
40
0.1998171
50
269.947541
51
0.052459
0
ARC
8
DEFAULT_255_2_778
10
10.0121856
20
8.1667252
40
0.9249241
50
254.261891
51
261.0510556
0
ARC
8
DEFAULT_255_2_778
10
9.785262
20
7.3917335
40
0.117721
50
230.1604836
51
258.2596958
0
ARC
8
DEFAULT_255_2_778
10
9.7197743
20
7.3107491
40
0.0136773
50
182.4686623
51
223.4523595
0
ARC
8
DEFAULT_255_2_778
10
9.7443012
20
8.4133334
40
0.0408255
50
99.0074668
51
159.3062878
0
ARC
8
DEFAULT_255_2_778
10
9.9179152
20
7.9585944
40
0.5267709
50
99.9797847
51
109.9814297
0
ARC
8
DEFAULT_255_2_778
10
10.1040707
20
7.0672957
40
1.4371343
50
99.4420161
51
101.1310939
0
ARC
8
DEFAULT_255_2_778
10
10.8537149
20
8.7599044
40
0.1424629
50
270.922952
51
275.2369834
0
ARC
8
DEFAULT_255_2_778
10
10.8520296
20
8.7733422
40
0.1559992
50
275.4029012
51
292.7314563
0
ARC
8
DEFAULT_255_2_778
10
10.853198
20
8.7711829
40
0.1535565
50
292.6406702
51
336.8687267
0
ARC
8
DEFAULT_255_2_778
10
10.8540159
20
8.7690988
40
0.151994
50
337.4701005
51
359.9099608
0
ARC
8
DEFAULT_255_2_778
10
10.8398579
20
8.7468094
40
0.1676086
50
7.5597415
51
27.2911406
0
ARC
8
DEFAULT_255_2_778
10
10.8591015
20
8.7559195
40
0.1463318
50
27.5759327
51
50.0266375
0
ARC
8
DEFAULT_255_2_778
10
10.8619951
20
8.7618351
40
0.1396806
50
72.1074227
51
89.9124013
0
ARC
8
DEFAULT_255_2_778
10
10.8622093
20
8.7655141
40
0.1360013
50
90.000269
51
92.7392755
0
ARC
8
DEFAULT_255_2_778
10
11.0561286
20
11.6693789
40
0.1998811
50
359.965908
51
90.0340777
0
ARC
8
DEFAULT_255_2_778
10
11.4559973
20
10.9190476
40
0.1999877
50
179.967808
51
270.032192
0
ARC
8
DEFAULT_255_2_778
10
12.5562007
20
10.519051
40
0.2000089
50
0.0025627
51
89.9974373
0
ARC
8
DEFAULT_255_2_778
10
12.956112
20
10.0688623
40
0.1999024
50
179.9433584
51
270.0280008
0
ARC
8
DEFAULT_255_2_778
10
13.0563009
20
9.6689512
40
0.2000087
50
0.0024936
51
89.9974862
0
ARC
8
DEFAULT_255_2_778
10
15.2003098
20
6.9762931
40
0.1370604
50
357.2260404
51
0.0039758
0
ARC
8
DEFAULT_255_2_778
10
15.1960884
20
6.9761239
40
0.1412821
50
0.072457
51
17.394416
0
ARC
8
DEFAULT_255_2_778
10
15.1948011
20
6.9744538
40
0.143015
50
17.8787442
51
39.7796044
0
ARC
8
DEFAULT_255_2_778
10
15.1924154
20
6.9719883
40
0.1464264
50
39.9237137
51
62.1544202
0
ARC
8
DEFAULT_255_2_778
10
15.1916793
20
6.9706655
40
0.1479398
50
62.1416421
51
84.2466419
0
ARC
8
DEFAULT_255_2_778
10
15.2113775
20
6.9794971
40
0.1384484
50
90.0008307
51
92.0149105
0
ARC
8
DEFAULT_255_2_778
10
15.2114654
20
6.9809451
40
0.1370005
50
67.2206689
51
90.0376198
0
ARC
8
DEFAULT_255_2_778
10
15.2079643
20
6.9710708
40
0.1474614
50
44.5174993
51
67.4519215
0
ARC
8
DEFAULT_255_2_778
10
15.2095666
20
6.9722869
40
0.1454665
50
359.9929253
51
44.6184137
0
ARC
8
DEFAULT_255_2_778
10
15.2082008
20
6.9722701
40
0.1468322
50
358.9814479
51
359.9995619
0
ARC
8
DEFAULT_255_2_778
10
10.6843107
20
7.0680771
40
0.1778012
50
179.9088608
51
180.0303788
0
ARC
8
DEFAULT_255_2_778
10
10.9561155
20
7.067993
40
0.449606
50
180.0012937
51
225.0024521
0
ARC
8
DEFAULT_255_2_778
10
10.9561427
20
7.0679658
40
0.449606
50
224.9975479
51
269.9987063
0
LINE
8
DEFAULT_255_2_778
10
10.9561326
20
6.6183598
11
10.9565097
21
6.61836
0
ARC
8
DEFAULT_255_2_778
10
2.1586319
20
7.2706862
40
1.0041234
50
180.0870877
51
202.8503191
0
ARC
8
DEFAULT_255_2_778
10
2.1588692
20
7.2735934
40
1.0054743
50
202.9977319
51
247.01304
0
ARC
8
DEFAULT_255_2_778
10
2.1560235
20
7.2714535
40
1.0023947
50
247.115013
51
269.919187
0
ARC
8
DEFAULT_255_2_778
10
2.156022
20
9.8664711
40
1.0023898
50
90.0807291
51
112.8850153
0
ARC
8
DEFAULT_255_2_778
10
2.1591263
20
9.864069
40
1.0058119
50
112.9947181
51
156.9944907
0
ARC
8
DEFAULT_255_2_778
10
2.1590031
20
9.8671583
40
1.0044947
50
157.1539391
51
179.9086429
0
ARC
8
DEFAULT_255_2_778
10
2.1582599
20
18.3710108
40
1.0037512
50
180.0828177
51
202.8546002
0
ARC
8
DEFAULT_255_2_778
10
2.158803
20
18.3737532
40
1.0053195
50
202.9866023
51
247.0133902
0
ARC
8
DEFAULT_255_2_778
10
2.156321
20
18.3732255
40
1.0038666
50
247.1320434
51
269.9194496
0
ARC
8
DEFAULT_255_2_778
10
2.155693
20
20.9672183
40
1.001942
50
90.0447931
51
112.8753988
0
ARC
8
DEFAULT_255_2_778
10
2.1590596
20
20.9646098
40
1.0056562
50
112.9943514
51
157.0056294
0
ARC
8
DEFAULT_255_2_778
10
2.1586309
20
20.9675337
40
1.0041224
50
157.1496587
51
179.9129122
0
LINE
8
DEFAULT_255_2_778
10
20.2849097
20
35.78966
11
20.2849097
21
36.91496
0
LINE
8
DEFAULT_255_2_778
10
20.2849097
20
36.91496
11
19.2467097
21
36.91496
0
LINE
8
DEFAULT_255_2_778
10
19.2467097
20
36.91496
11
19.2467097
21
36.52336
0
LINE
8
DEFAULT_255_2_778
10
18.2680097
20
37.41216
11
20.8623097
21
37.41216
0
LINE
8
DEFAULT_255_2_778
10
20.8623097
20
37.41216
11
20.8623097
21
36.78666
0
LINE
8
DEFAULT_255_2_778
10
20.8623097
20
36.78666
11
22.1296097
21
37.54946
0
LINE
8
DEFAULT_255_2_778
10
22.1296097
20
37.54946
11
20.8623097
21
38.41166
0
LINE
8
DEFAULT_255_2_778
10
20.8623097
20
38.41166
11
20.8623097
21
37.78626
0
LINE
8
DEFAULT_255_2_778
10
20.8623097
20
37.78626
11
17.4669097
21
37.78626
0
LINE
8
DEFAULT_255_2_778
10
16.9221097
20
37.78916
11
16.2291097
21
37.78916
0
LINE
8
DEFAULT_255_2_778
10
16.2291097
20
37.41506
11
17.7420097
21
37.41506
0
LINE
8
DEFAULT_255_2_778
10
19.2523097
20
36.15246
11
19.2523097
21
35.79286
0
LINE
8
DEFAULT_255_2_778
10
19.2523097
20
35.79286
11
20.2852097
21
35.79286
0
LINE
8
DEFAULT_255_2_778
10
20.2852097
20
35.79286
11
20.2849097
21
35.78966
0
LINE
8
DEFAULT_255_2_778
10
19.5732097
20
21.36936
11
19.3004097
21
21.36936
0
LINE
8
DEFAULT_255_2_778
10
17.8092097
20
21.36936
11
17.5364097
21
21.36936
0
LINE
8
DEFAULT_255_2_778
10
19.1610097
20
22.25916
11
19.2835097
21
21.59236
0
LINE
8
DEFAULT_255_2_778
10
19.2835097
20
21.59236
11
19.2869097
21
21.57016
0
LINE
8
DEFAULT_255_2_778
10
19.2869097
20
21.57016
11
19.2901097
21
21.54186
0
LINE
8
DEFAULT_255_2_778
10
19.2901097
20
21.54186
11
19.2959097
21
21.46836
0
LINE
8
DEFAULT_255_2_778
10
19.2959097
20
21.46836
11
19.3004097
21
21.37576
0
LINE
8
DEFAULT_255_2_778
10
19.3004097
20
21.37576
11
19.3033097
21
21.26906
0
LINE
8
DEFAULT_255_2_778
10
19.4393097
20
21.11986
11
19.4549097
21
21.11906
0
LINE
8
DEFAULT_255_2_778
10
19.4549097
20
21.11906
11
19.6047097
21
21.11906
0
LINE
8
DEFAULT_255_2_778
10
15.3232097
20
21.36906
11
15.0504097
21
21.36906
0
LINE
8
DEFAULT_255_2_778
10
13.5592097
20
21.36906
11
13.2864097
21
21.36906
0
LINE
8
DEFAULT_255_2_778
10
13.2825097
20
21.36146
11
13.5590097
21
21.36066
0
LINE
8
DEFAULT_255_2_778
10
13.2737097
20
6.96916
11
13.2769097
21
6.91836
0
LINE
8
DEFAULT_255_2_778
10
13.2769097
20
6.91836
11
13.2788097
21
6.89906
0
LINE
8
DEFAULT_255_2_778
10
13.2788097
20
6.89906
11
13.2809097
21
6.88426
0
LINE
8
DEFAULT_255_2_778
10
13.2809097
20
6.88426
11
13.5584097
21
6.88426
0
LINE
8
DEFAULT_255_2_778
10
15.0504097
20
6.86886
11
15.3232097
21
6.86886
0
LINE
8
DEFAULT_255_2_778
10
13.6987097
20
5.98096
11
13.5762097
21
6.64586
0
LINE
8
DEFAULT_255_2_778
10
13.5762097
20
6.64586
11
13.5727097
21
6.66806
0
LINE
8
DEFAULT_255_2_778
10
13.5727097
20
6.66806
11
13.5695097
21
6.69636
0
LINE
8
DEFAULT_255_2_778
10
13.5695097
20
6.69636
11
13.5637097
21
6.76996
0
LINE
8
DEFAULT_255_2_778
10
13.5637097
20
6.76996
11
13.5592097
21
6.86276
0
LINE
8
DEFAULT_255_2_778
10
13.5592097
20
6.86276
11
13.5563097
21
6.96966
0
LINE
8
DEFAULT_255_2_778
10
13.2560097
20
6.96836
11
13.2579097
21
6.89506
0
LINE
8
DEFAULT_255_2_778
10
13.2579097
20
6.89506
11
13.2605097
21
6.82736
0
LINE
8
DEFAULT_255_2_778
10
13.2605097
20
6.82736
11
13.2637097
21
6.76706
0
LINE
8
DEFAULT_255_2_778
10
13.2637097
20
6.76706
11
13.2674097
21
6.71546
0
LINE
8
DEFAULT_255_2_778
10
13.2674097
20
6.71546
11
13.2716097
21
6.67386
0
LINE
8
DEFAULT_255_2_778
10
13.2716097
20
6.67386
11
13.2740097
21
6.65716
0
LINE
8
DEFAULT_255_2_778
10
13.2740097
20
6.65716
11
13.2788097
21
6.63256
0
LINE
8
DEFAULT_255_2_778
10
13.2788097
20
6.63256
11
13.2838097
21
6.62016
0
LINE
8
DEFAULT_255_2_778
10
13.2838097
20
6.62016
11
13.2862097
21
6.61856
0
LINE
8
DEFAULT_255_2_778
10
17.5235097
20
6.96836
11
17.5267097
21
6.91756
0
LINE
8
DEFAULT_255_2_778
10
17.5267097
20
6.91756
11
17.5285097
21
6.89826
0
LINE
8
DEFAULT_255_2_778
10
17.5285097
20
6.89826
11
17.5306097
21
6.88346
0
LINE
8
DEFAULT_255_2_778
10
17.5306097
20
6.88346
11
17.8082097
21
6.88346
0
LINE
8
DEFAULT_255_2_778
10
17.5359097
20
6.86836
11
17.8087097
21
6.86836
0
LINE
8
DEFAULT_255_2_778
10
19.2999097
20
6.86836
11
19.5727097
21
6.86836
0
LINE
8
DEFAULT_255_2_778
10
17.9481097
20
5.97856
11
17.8256097
21
6.64526
0
LINE
8
DEFAULT_255_2_778
10
17.8256097
20
6.64526
11
17.8222097
21
6.66756
0
LINE
8
DEFAULT_255_2_778
10
17.8222097
20
6.66756
11
17.8190097
21
6.69586
0
LINE
8
DEFAULT_255_2_778
10
17.8190097
20
6.69586
11
17.8132097
21
6.76966
0
LINE
8
DEFAULT_255_2_778
10
17.8132097
20
6.76966
11
17.8087097
21
6.86256
0
LINE
8
DEFAULT_255_2_778
10
17.8087097
20
6.86256
11
17.8058097
21
6.96946
0
LINE
8
DEFAULT_255_2_778
10
17.7939097
20
7.02526
11
17.7801097
21
7.05086
0
LINE
8
DEFAULT_255_2_778
10
17.7801097
20
7.05086
11
17.7616097
21
7.07396
0
LINE
8
DEFAULT_255_2_778
10
17.7616097
20
7.07396
11
17.7388097
21
7.09276
0
LINE
8
DEFAULT_255_2_778
10
17.7388097
20
7.09276
11
17.7129097
21
7.10676
0
LINE
8
DEFAULT_255_2_778
10
17.7129097
20
7.10676
11
17.6846097
21
7.11546
0
LINE
8
DEFAULT_255_2_778
10
17.6846097
20
7.11546
11
17.6547097
21
7.11836
0
LINE
8
DEFAULT_255_2_778
10
17.5057097
20
6.96806
11
17.5076097
21
6.89476
0
LINE
8
DEFAULT_255_2_778
10
17.5076097
20
6.89476
11
17.5102097
21
6.82706
0
LINE
8
DEFAULT_255_2_778
10
17.5102097
20
6.82706
11
17.5134097
21
6.76676
0
LINE
8
DEFAULT_255_2_778
10
17.5134097
20
6.76676
11
17.5171097
21
6.71516
0
LINE
8
DEFAULT_255_2_778
10
17.5171097
20
6.71516
11
17.5214097
21
6.67366
0
LINE
8
DEFAULT_255_2_778
10
17.5214097
20
6.67366
11
17.5237097
21
6.65696
0
LINE
8
DEFAULT_255_2_778
10
17.5237097
20
6.65696
11
17.5285097
21
6.63236
0
LINE
8
DEFAULT_255_2_778
10
17.5285097
20
6.63236
11
17.5335097
21
6.61986
0
LINE
8
DEFAULT_255_2_778
10
17.5335097
20
6.61986
11
17.5359097
21
6.61836
0
LINE
8
DEFAULT_255_2_778
10
22.0542097
20
21.36826
11
21.5041097
21
21.36826
0
LINE
8
DEFAULT_255_2_778
10
17.5356097
20
21.61836
11
17.5306097
21
21.61196
0
LINE
8
DEFAULT_255_2_778
10
17.5306097
20
21.61196
11
17.5259097
21
21.59346
0
LINE
8
DEFAULT_255_2_778
10
17.5259097
20
21.59346
11
17.5214097
21
21.56306
0
LINE
8
DEFAULT_255_2_778
10
17.5214097
20
21.56306
11
17.5171097
21
21.52146
0
LINE
8
DEFAULT_255_2_778
10
17.5171097
20
21.52146
11
17.5134097
21
21.46986
0
LINE
8
DEFAULT_255_2_778
10
17.5134097
20
21.46986
11
17.5102097
21
21.40956
0
LINE
8
DEFAULT_255_2_778
10
17.5102097
20
21.40956
11
17.5076097
21
21.34186
0
LINE
8
DEFAULT_255_2_778
10
17.5076097
20
21.34186
11
17.5057097
21
21.26856
0
LINE
8
DEFAULT_255_2_778
10
15.3531097
20
21.26726
11
15.3512097
21
21.34076
0
LINE
8
DEFAULT_255_2_778
10
15.3512097
20
21.34076
11
15.3486097
21
21.40876
0
LINE
8
DEFAULT_255_2_778
10
15.3486097
20
21.40876
11
15.3454097
21
21.46936
0
LINE
8
DEFAULT_255_2_778
10
15.3454097
20
21.46936
11
15.3417097
21
21.52126
0
LINE
8
DEFAULT_255_2_778
10
15.3417097
20
21.52126
11
15.3375097
21
21.56306
0
LINE
8
DEFAULT_255_2_778
10
15.3375097
20
21.56306
11
15.3351097
21
21.57966
0
LINE
8
DEFAULT_255_2_778
10
15.3351097
20
21.57966
11
15.3303097
21
21.60436
0
LINE
8
DEFAULT_255_2_778
10
15.3303097
20
21.60436
11
15.3253097
21
21.61676
0
LINE
8
DEFAULT_255_2_778
10
15.3253097
20
21.61676
11
15.3229097
21
21.61836
0
LINE
8
DEFAULT_255_2_778
10
15.0507097
20
21.35326
11
15.3282097
21
21.35326
0
LINE
8
DEFAULT_255_2_778
10
15.3282097
20
21.35326
11
15.3303097
21
21.33836
0
LINE
8
DEFAULT_255_2_778
10
15.3303097
20
21.33836
11
15.3322097
21
21.31886
0
LINE
8
DEFAULT_255_2_778
10
15.3322097
20
21.31886
11
15.3354097
21
21.26746
0
LINE
8
DEFAULT_255_2_778
10
15.0528097
20
21.26856
11
15.0499097
21
21.37516
0
LINE
8
DEFAULT_255_2_778
10
15.0499097
20
21.37516
11
15.0454097
21
21.46776
0
LINE
8
DEFAULT_255_2_778
10
15.0454097
20
21.46776
11
15.0396097
21
21.54136
0
LINE
8
DEFAULT_255_2_778
10
15.0396097
20
21.54136
11
15.0364097
21
21.56966
0
LINE
8
DEFAULT_255_2_778
10
15.0364097
20
21.56966
11
15.0330097
21
21.59186
0
LINE
8
DEFAULT_255_2_778
10
15.0330097
20
21.59186
11
14.9105097
21
22.25866
0
LINE
8
DEFAULT_255_2_778
10
13.2732097
20
21.26886
11
13.2764097
21
21.31966
0
LINE
8
DEFAULT_255_2_778
10
13.2764097
20
21.31966
11
13.2782097
21
21.33896
0
LINE
8
DEFAULT_255_2_778
10
13.2782097
20
21.33896
11
13.2804097
21
21.35376
0
LINE
8
DEFAULT_255_2_778
10
13.2804097
20
21.35376
11
13.5579097
21
21.35376
0
LINE
8
DEFAULT_255_2_778
10
10.7541097
20
16.36896
11
10.7541097
21
11.86896
0
LINE
8
DEFAULT_255_2_778
10
10.8544097
20
8.91726
11
10.7811097
21
8.91546
0
LINE
8
DEFAULT_255_2_778
10
10.7811097
20
8.91546
11
10.5043097
21
8.88926
0
LINE
8
DEFAULT_255_2_778
10
11.0044097
20
21.36856
11
10.7544097
21
21.36856
0
LINE
8
DEFAULT_255_2_778
10
10.7544097
20
21.36856
11
10.7544097
21
21.11456
0
LINE
8
DEFAULT_255_2_778
10
10.7544097
20
21.11456
11
10.5313097
21
21.09866
0
LINE
8
DEFAULT_255_2_778
10
10.5313097
20
21.09866
11
9.8664097
21
20.98466
0
LINE
8
DEFAULT_255_2_778
10
9.7042097
20
20.92756
11
9.7042097
21
20.92756
0
LINE
8
DEFAULT_255_2_778
10
9.7042097
20
20.92756
11
9.7042097
21
19.80996
0
LINE
8
DEFAULT_255_2_778
10
9.8646097
20
19.75276
11
10.5816097
21
19.63266
0
LINE
8
DEFAULT_255_2_778
10
10.5816097
20
19.63266
11
10.8541097
21
19.62016
0
LINE
8
DEFAULT_255_2_778
10
13.6979097
20
22.25676
11
13.5754097
21
21.59186
0
LINE
8
DEFAULT_255_2_778
10
13.5754097
20
21.59186
11
13.5719097
21
21.56966
0
LINE
8
DEFAULT_255_2_778
10
13.5719097
20
21.56966
11
13.5687097
21
21.54136
0
LINE
8
DEFAULT_255_2_778
10
13.5687097
20
21.54136
11
13.5629097
21
21.46756
0
LINE
8
DEFAULT_255_2_778
10
13.5629097
20
21.46756
11
13.5584097
21
21.37466
0
LINE
8
DEFAULT_255_2_778
10
13.5584097
20
21.37466
11
13.5555097
21
21.26776
0
LINE
8
DEFAULT_255_2_778
10
13.2555097
20
21.26856
11
13.2573097
21
21.34186
0
LINE
8
DEFAULT_255_2_778
10
13.2573097
20
21.34186
11
13.2600097
21
21.40956
0
LINE
8
DEFAULT_255_2_778
10
13.2600097
20
21.40956
11
13.2632097
21
21.46986
0
LINE
8
DEFAULT_255_2_778
10
13.2632097
20
21.46986
11
13.2669097
21
21.52146
0
LINE
8
DEFAULT_255_2_778
10
13.2669097
20
21.52146
11
13.2711097
21
21.56306
0
LINE
8
DEFAULT_255_2_778
10
13.2711097
20
21.56306
11
13.2735097
21
21.57966
0
LINE
8
DEFAULT_255_2_778
10
13.2735097
20
21.57966
11
13.2782097
21
21.60436
0
LINE
8
DEFAULT_255_2_778
10
13.2782097
20
21.60436
11
13.2833097
21
21.61676
0
LINE
8
DEFAULT_255_2_778
10
13.2833097
20
21.61676
11
13.2856097
21
21.61836
0
LINE
8
DEFAULT_255_2_778
10
17.8079097
20
21.35326
11
17.5304097
21
21.35326
0
LINE
8
DEFAULT_255_2_778
10
17.5304097
20
21.35326
11
17.5282097
21
21.33836
0
LINE
8
DEFAULT_255_2_778
10
17.5282097
20
21.33836
11
17.5264097
21
21.31906
0
LINE
8
DEFAULT_255_2_778
10
17.5264097
20
21.31906
11
17.5232097
21
21.26826
0
LINE
8
DEFAULT_255_2_778
10
17.8058097
20
21.26746
11
17.8087097
21
21.37436
0
LINE
8
DEFAULT_255_2_778
10
17.8087097
20
21.37436
11
17.8132097
21
21.46726
0
LINE
8
DEFAULT_255_2_778
10
17.8132097
20
21.46726
11
17.8190097
21
21.54106
0
LINE
8
DEFAULT_255_2_778
10
17.8190097
20
21.54106
11
17.8222097
21
21.56936
0
LINE
8
DEFAULT_255_2_778
10
17.8222097
20
21.56936
11
17.8256097
21
21.59166
0
LINE
8
DEFAULT_255_2_778
10
17.8256097
20
21.59166
11
17.9481097
21
22.25656
0
LINE
8
DEFAULT_255_2_778
10
15.0528097
20
6.96866
11
15.0499097
21
6.86196
0
LINE
8
DEFAULT_255_2_778
10
15.0499097
20
6.86196
11
15.0454097
21
6.76936
0
LINE
8
DEFAULT_255_2_778
10
15.0454097
20
6.76936
11
15.0396097
21
6.69586
0
LINE
8
DEFAULT_255_2_778
10
15.0396097
20
6.69586
11
15.0364097
21
6.66756
0
LINE
8
DEFAULT_255_2_778
10
15.0364097
20
6.66756
11
15.0330097
21
6.64526
0
LINE
8
DEFAULT_255_2_778
10
15.0330097
20
6.64526
11
14.9105097
21
5.98036
0
LINE
8
DEFAULT_255_2_778
10
20.2542097
20
20.06816
11
20.2542097
21
8.16826
0
LINE
8
DEFAULT_255_2_778
10
22.0042097
20
8.86836
11
22.0042097
21
19.36836
0
LINE
8
DEFAULT_255_2_778
10
22.0542097
20
19.36836
11
22.0542097
21
8.86836
0
LINE
8
DEFAULT_255_2_778
10
10.5043097
20
8.59366
11
10.5043097
21
19.64266
0
LINE
8
DEFAULT_255_2_778
10
11.0044097
20
16.36826
11
10.7544097
21
16.11816
0
LINE
8
DEFAULT_255_2_778
10
10.7544097
20
16.11816
11
11.7545097
21
16.11816
0
LINE
8
DEFAULT_255_2_778
10
11.7545097
20
16.11816
11
11.2544097
21
16.61826
0
LINE
8
DEFAULT_255_2_778
10
11.2544097
20
16.11816
11
11.2544097
21
12.11816
0
LINE
8
DEFAULT_255_2_778
10
22.7543097
20
22.36816
11
9.7548097
21
22.36816
0
LINE
8
DEFAULT_255_2_778
10
9.2547097
20
21.86806
11
9.2547097
21
6.36806
0
LINE
8
DEFAULT_255_2_778
10
9.7548097
20
5.86796
11
22.7548097
21
5.86796
0
LINE
8
DEFAULT_255_2_778
10
23.2549097
20
6.36806
11
23.2544097
21
21.86806
0
LINE
8
DEFAULT_255_2_778
10
17.8955097
20
6.26936
11
14.9639097
21
6.26936
0
LINE
8
DEFAULT_255_2_778
10
15.0285097
20
6.61936
11
17.8312097
21
6.61936
0
LINE
8
DEFAULT_255_2_778
10
19.2785097
20
6.61936
11
22.0547097
21
6.61936
0
LINE
8
DEFAULT_255_2_778
10
22.0047097
20
9.16946
11
21.6547097
21
9.16946
0
LINE
8
DEFAULT_255_2_778
10
21.6547097
20
8.86936
11
22.6048097
21
8.86936
0
LINE
8
DEFAULT_255_2_778
10
22.6048097
20
8.86936
11
22.6048097
21
7.36946
0
LINE
8
DEFAULT_255_2_778
10
22.6048097
20
7.36946
11
21.7050097
21
7.36946
0
LINE
8
DEFAULT_255_2_778
10
21.5049097
20
7.16946
11
21.5049097
21
6.61936
0
LINE
8
DEFAULT_255_2_778
10
22.0550097
20
7.36946
11
22.0550097
21
5.86956
0
LINE
8
DEFAULT_255_2_778
10
20.5051097
20
6.61966
11
20.5051097
21
5.86956
0
LINE
8
DEFAULT_255_2_778
10
21.2052097
20
6.61966
11
21.2052097
21
5.86956
0
LINE
8
DEFAULT_255_2_778
10
21.9052097
20
6.61966
11
21.9052097
21
5.86956
0
LINE
8
DEFAULT_255_2_778
10
16.7554097
20
6.61966
11
16.7554097
21
6.26956
0
LINE
8
DEFAULT_255_2_778
10
20.2553097
20
6.61966
11
20.2553097
21
6.26956
0
LINE
8
DEFAULT_255_2_778
10
13.5553097
20
6.61966
11
13.5553097
21
6.86966
0
LINE
8
DEFAULT_255_2_778
10
15.0552097
20
6.86966
11
15.0552097
21
6.61966
0
LINE
8
DEFAULT_255_2_778
10
17.8053097
20
6.86966
11
17.8053097
21
6.61966
0
LINE
8
DEFAULT_255_2_778
10
19.3052097
20
6.86966
11
19.3052097
21
6.61966
0
LINE
8
DEFAULT_255_2_778
10
13.5553097
20
21.61966
11
13.5553097
21
21.36966
0
LINE
8
DEFAULT_255_2_778
10
15.0552097
20
21.61966
11
15.0552097
21
21.36966
0
LINE
8
DEFAULT_255_2_778
10
17.8053097
20
21.61966
11
17.8053097
21
21.36966
0
LINE
8
DEFAULT_255_2_778
10
19.3052097
20
21.61966
11
19.3052097
21
21.36966
0
LINE
8
DEFAULT_255_2_778
10
15.9053097
20
7.91956
11
15.9053097
21
8.16956
0
LINE
8
DEFAULT_255_2_778
10
18.9051097
20
8.16956
11
18.9051097
21
7.91956
0
LINE
8
DEFAULT_255_2_778
10
15.9053097
20
20.31946
11
15.9053097
21
20.06946
0
LINE
8
DEFAULT_255_2_778
10
18.9051097
20
20.31946
11
18.9051097
21
20.06946
0
LINE
8
DEFAULT_255_2_778
10
10.9552097
20
22.36946
11
10.9552097
21
21.61936
0
LINE
8
DEFAULT_255_2_778
10
10.9552097
20
21.61936
11
13.5814097
21
21.61936
0
LINE
8
DEFAULT_255_2_778
10
12.6551097
20
21.61936
11
12.6551097
21
22.36946
0
LINE
8
DEFAULT_255_2_778
10
17.8092097
20
21.36086
11
17.5317097
21
21.36086
0
LINE
8
DEFAULT_255_2_778
10
19.3015097
20
21.35426
11
19.5790097
21
21.35586
0
LINE
8
DEFAULT_255_2_778
10
19.5790097
20
21.35586
11
19.5788097
21
21.36086
0
LINE
8
DEFAULT_255_2_778
10
19.5788097
20
21.36086
11
19.3012097
21
21.36086
0
LINE
8
DEFAULT_255_2_778
10
15.3290097
20
21.35426
11
15.3288097
21
21.36086
0
LINE
8
DEFAULT_255_2_778
10
15.3288097
20
21.36086
11
15.0507097
21
21.36086
0
LINE
8
DEFAULT_255_2_778
10
22.0047097
20
17.06936
11
22.0547097
21
17.06936
0
LINE
8
DEFAULT_255_2_778
10
22.0547097
20
17.51946
11
22.0047097
21
17.51946
0
LINE
8
DEFAULT_255_2_778
10
22.0547097
20
18.33936
11
22.0047097
21
18.33936
0
LINE
8
DEFAULT_255_2_778
10
22.0047097
20
18.61926
11
22.0547097
21
18.61926
0
LINE
8
DEFAULT_255_2_778
10
22.0047097
20
21.01936
11
22.0547097
21
21.01936
0
LINE
8
DEFAULT_255_2_778
10
20.2548097
20
10.31326
11
16.9546097
21
10.31326
0
LINE
8
DEFAULT_255_2_778
10
16.9546097
20
10.31326
11
15.9048097
21
10.21316
0
LINE
8
DEFAULT_255_2_778
10
15.9048097
20
10.21316
11
15.9048097
21
9.61926
0
LINE
8
DEFAULT_255_2_778
10
15.9048097
20
9.61926
11
20.2548097
21
9.61926
0
LINE
8
DEFAULT_255_2_778
10
20.2548097
20
11.32926
11
16.9546097
21
11.32926
0
LINE
8
DEFAULT_255_2_778
10
16.9546097
20
11.32926
11
15.9048097
21
11.22916
0
LINE
8
DEFAULT_255_2_778
10
15.9048097
20
11.22916
11
15.9048097
21
10.91326
0
LINE
8
DEFAULT_255_2_778
10
15.9048097
20
10.91326
11
16.9546097
21
10.81326
0
LINE
8
DEFAULT_255_2_778
10
16.9546097
20
10.81326
11
20.2545097
21
10.81326
0
LINE
8
DEFAULT_255_2_778
10
20.2545097
20
12.34526
11
16.9546097
21
12.34526
0
LINE
8
DEFAULT_255_2_778
10
16.9546097
20
12.34526
11
15.9048097
21
12.24516
0
LINE
8
DEFAULT_255_2_778
10
15.9048097
20
12.24516
11
15.9048097
21
11.92926
0
LINE
8
DEFAULT_255_2_778
10
15.9048097
20
11.92926
11
16.9546097
21
11.82926
0
LINE
8
DEFAULT_255_2_778
10
16.9546097
20
11.82926
11
20.2545097
21
11.82926
0
LINE
8
DEFAULT_255_2_778
10
20.2545097
20
13.36126
11
16.9546097
21
13.36126
0
LINE
8
DEFAULT_255_2_778
10
16.9546097
20
13.36126
11
15.9048097
21
13.26116
0
LINE
8
DEFAULT_255_2_778
10
15.9048097
20
13.26116
11
15.9048097
21
12.94526
0
LINE
8
DEFAULT_255_2_778
10
15.9048097
20
12.94526
11
16.9546097
21
12.84526
0
LINE
8
DEFAULT_255_2_778
10
16.9546097
20
12.84526
11
20.2545097
21
12.84526
0
LINE
8
DEFAULT_255_2_778
10
20.2545097
20
14.37726
11
16.9546097
21
14.37726
0
LINE
8
DEFAULT_255_2_778
10
16.9546097
20
14.37726
11
15.9048097
21
14.27716
0
LINE
8
DEFAULT_255_2_778
10
15.9048097
20
14.27716
11
15.9048097
21
13.96126
0
LINE
8
DEFAULT_255_2_778
10
15.9048097
20
13.96126
11
16.9546097
21
13.86126
0
LINE
8
DEFAULT_255_2_778
10
16.9546097
20
13.86126
11
20.2545097
21
13.86126
0
LINE
8
DEFAULT_255_2_778
10
20.2545097
20
15.39326
11
16.9546097
21
15.39326
0
LINE
8
DEFAULT_255_2_778
10
16.9546097
20
15.39326
11
15.9048097
21
15.29316
0
LINE
8
DEFAULT_255_2_778
10
15.9048097
20
15.29316
11
15.9048097
21
14.97726
0
LINE
8
DEFAULT_255_2_778
10
15.9048097
20
14.97726
11
16.9546097
21
14.87726
0
LINE
8
DEFAULT_255_2_778
10
16.9546097
20
14.87726
11
20.2545097
21
14.87726
0
LINE
8
DEFAULT_255_2_778
10
20.2545097
20
16.40926
11
16.9546097
21
16.40926
0
LINE
8
DEFAULT_255_2_778
10
16.9546097
20
16.40926
11
15.9048097
21
16.30916
0
LINE
8
DEFAULT_255_2_778
10
15.9048097
20
16.30916
11
15.9048097
21
15.99326
0
LINE
8
DEFAULT_255_2_778
10
15.9048097
20
15.99326
11
16.9546097
21
15.89326
0
LINE
8
DEFAULT_255_2_778
10
16.9546097
20
15.89326
11
20.2545097
21
15.89326
0
LINE
8
DEFAULT_255_2_778
10
20.2545097
20
17.42526
11
16.9546097
21
17.42526
0
LINE
8
DEFAULT_255_2_778
10
16.9546097
20
17.42526
11
15.9048097
21
17.32516
0
LINE
8
DEFAULT_255_2_778
10
15.9048097
20
17.32516
11
15.9048097
21
17.00926
0
LINE
8
DEFAULT_255_2_778
10
15.9048097
20
17.00926
11
16.9546097
21
16.90926
0
LINE
8
DEFAULT_255_2_778
10
16.9546097
20
16.90926
11
20.2545097
21
16.90926
0
LINE
8
DEFAULT_255_2_778
10
20.2545097
20
17.92526
11
16.9546097
21
17.92526
0
LINE
8
DEFAULT_255_2_778
10
16.9546097
20
17.92526
11
15.9048097
21
18.02526
0
LINE
8
DEFAULT_255_2_778
10
15.9048097
20
18.02526
11
15.9048097
21
18.61926
0
LINE
8
DEFAULT_255_2_778
10
15.9048097
20
18.61926
11
20.2548097
21
18.61926
0
LINE
8
DEFAULT_255_2_778
10
20.2548097
20
10.33836
11
17.5547097
21
10.33836
0
LINE
8
DEFAULT_255_2_778
10
17.5547097
20
10.33836
11
17.5547097
21
10.78846
0
LINE
8
DEFAULT_255_2_778
10
17.5547097
20
10.78846
11
20.2548097
21
10.78846
0
LINE
8
DEFAULT_255_2_778
10
20.2548097
20
11.35436
11
17.5547097
21
11.35436
0
LINE
8
DEFAULT_255_2_778
10
17.5547097
20
11.35436
11
17.5547097
21
11.80446
0
LINE
8
DEFAULT_255_2_778
10
17.5547097
20
11.80446
11
20.2548097
21
11.80446
0
LINE
8
DEFAULT_255_2_778
10
20.2548097
20
12.37036
11
17.5547097
21
12.37036
0
LINE
8
DEFAULT_255_2_778
10
17.5547097
20
12.37036
11
17.5547097
21
12.82046
0
LINE
8
DEFAULT_255_2_778
10
17.5547097
20
12.82046
11
20.2548097
21
12.82046
0
LINE
8
DEFAULT_255_2_778
10
20.2548097
20
13.38636
11
17.5547097
21
13.38636
0
LINE
8
DEFAULT_255_2_778
10
17.5547097
20
13.38636
11
17.5547097
21
13.83646
0
LINE
8
DEFAULT_255_2_778
10
17.5547097
20
13.83646
11
20.2548097
21
13.83646
0
LINE
8
DEFAULT_255_2_778
10
20.2548097
20
14.40236
11
17.5547097
21
14.40236
0
LINE
8
DEFAULT_255_2_778
10
17.5547097
20
14.40236
11
17.5547097
21
14.85246
0
LINE
8
DEFAULT_255_2_778
10
17.5547097
20
14.85246
11
20.2548097
21
14.85246
0
LINE
8
DEFAULT_255_2_778
10
20.2548097
20
15.41836
11
17.5547097
21
15.41836
0
LINE
8
DEFAULT_255_2_778
10
17.5547097
20
15.41836
11
17.5547097
21
15.86846
0
LINE
8
DEFAULT_255_2_778
10
17.5547097
20
15.86846
11
20.2548097
21
15.86846
0
LINE
8
DEFAULT_255_2_778
10
20.2548097
20
16.43436
11
17.5547097
21
16.43436
0
LINE
8
DEFAULT_255_2_778
10
17.5547097
20
16.43436
11
17.5547097
21
16.88446
0
LINE
8
DEFAULT_255_2_778
10
17.5547097
20
16.88446
11
20.2548097
21
16.88446
0
LINE
8
DEFAULT_255_2_778
10
20.2548097
20
17.45036
11
17.5547097
21
17.45036
0
LINE
8
DEFAULT_255_2_778
10
17.5547097
20
17.45036
11
17.5547097
21
17.90046
0
LINE
8
DEFAULT_255_2_778
10
17.5547097
20
17.90046
11
20.2548097
21
17.90046
0
LINE
8
DEFAULT_255_2_778
10
22.0047097
20
7.21946
11
22.0547097
21
7.21946
0
LINE
8
DEFAULT_255_2_778
10
22.0047097
20
9.61946
11
22.0547097
21
9.61946
0
LINE
8
DEFAULT_255_2_778
10
22.0547097
20
9.89946
11
22.0047097
21
9.89946
0
LINE
8
DEFAULT_255_2_778
10
22.0047097
20
10.71936
11
22.0547097
21
10.71936
0
LINE
8
DEFAULT_255_2_778
10
22.0047097
20
11.16946
11
22.0547097
21
11.16946
0
LINE
8
DEFAULT_255_2_778
10
22.0047097
20
11.98936
11
22.0547097
21
11.98936
0
LINE
8
DEFAULT_255_2_778
10
22.0047097
20
12.43946
11
22.0547097
21
12.43946
0
LINE
8
DEFAULT_255_2_778
10
22.0047097
20
13.25936
11
22.0547097
21
13.25936
0
LINE
8
DEFAULT_255_2_778
10
22.0047097
20
13.70946
11
22.0547097
21
13.70946
0
LINE
8
DEFAULT_255_2_778
10
22.0047097
20
14.52936
11
22.0547097
21
14.52936
0
LINE
8
DEFAULT_255_2_778
10
22.0547097
20
14.97946
11
22.0047097
21
14.97946
0
LINE
8
DEFAULT_255_2_778
10
22.0547097
20
15.79936
11
22.0047097
21
15.79936
0
LINE
8
DEFAULT_255_2_778
10
22.0547097
20
16.24946
11
22.0047097
21
16.24946
0
LINE
8
DEFAULT_255_2_778
10
9.2547097
20
9.00536
11
10.5046097
21
9.00536
0
LINE
8
DEFAULT_255_2_778
10
10.5046097
20
9.54676
11
9.2547097
21
9.54676
0
LINE
8
DEFAULT_255_2_778
10
9.2547097
20
10.43146
11
10.5046097
21
10.43146
0
LINE
8
DEFAULT_255_2_778
10
9.2547097
20
13.76946
11
10.5046097
21
13.76946
0
LINE
8
DEFAULT_255_2_778
10
9.7045097
20
7.86956
11
9.2545097
21
7.86956
0
LINE
8
DEFAULT_255_2_778
10
9.2545097
20
8.13356
11
9.7045097
21
8.13356
0
LINE
8
DEFAULT_255_2_778
10
21.5044097
20
6.86936
11
22.0545097
21
6.86936
0
LINE
8
DEFAULT_255_2_778
10
19.6044097
20
7.11946
11
19.6044097
21
7.11946
0
LINE
8
DEFAULT_255_2_778
10
19.6044097
20
7.11946
11
19.4547097
21
7.11946
0
LINE
8
DEFAULT_255_2_778
10
19.4547097
20
7.11946
11
19.4391097
21
7.11866
0
LINE
8
DEFAULT_255_2_778
10
19.3859097
20
7.10276
11
19.3623097
21
7.08796
0
LINE
8
DEFAULT_255_2_778
10
19.3623097
20
7.08796
11
19.3420097
21
7.06886
0
LINE
8
DEFAULT_255_2_778
10
19.3025097
20
6.96946
11
19.2996097
21
6.86276
0
LINE
8
DEFAULT_255_2_778
10
19.2996097
20
6.86276
11
19.2951097
21
6.77016
0
LINE
8
DEFAULT_255_2_778
10
19.2951097
20
6.77016
11
19.2893097
21
6.69666
0
LINE
8
DEFAULT_255_2_778
10
19.2893097
20
6.69666
11
19.2861097
21
6.66836
0
LINE
8
DEFAULT_255_2_778
10
19.2861097
20
6.66836
11
19.2827097
21
6.64606
0
LINE
8
DEFAULT_255_2_778
10
19.2827097
20
6.64606
11
19.1602097
21
5.98116
0
LINE
8
DEFAULT_255_2_778
10
19.3002097
20
6.88426
11
19.5777097
21
6.88266
0
LINE
8
DEFAULT_255_2_778
10
19.5777097
20
6.88266
11
19.5774097
21
6.87756
0
LINE
8
DEFAULT_255_2_778
10
19.5774097
20
6.87756
11
19.2999097
21
6.87756
0
LINE
8
DEFAULT_255_2_778
10
17.8079097
20
6.87756
11
17.5304097
21
6.87756
0
LINE
8
DEFAULT_255_2_778
10
13.5579097
20
6.87756
11
13.2804097
21
6.87756
0
LINE
8
DEFAULT_255_2_778
10
13.2854097
20
6.86916
11
13.5582097
21
6.86916
0
LINE
8
DEFAULT_255_2_778
10
19.5880097
20
7.11916
11
19.5880097
21
7.11916
0
LINE
8
DEFAULT_255_2_778
10
19.5880097
20
7.11916
11
19.5777097
21
6.88426
0
LINE
8
DEFAULT_255_2_778
10
11.0031097
20
21.34666
11
11.0039097
21
21.61916
0
LINE
8
DEFAULT_255_2_778
10
16.4038097
20
8.16906
11
13.5047097
21
8.16906
0
LINE
8
DEFAULT_255_2_778
10
13.5047097
20
8.16906
11
13.5047097
21
9.91896
0
LINE
8
DEFAULT_255_2_778
10
13.5047097
20
9.91896
11
13.2547097
21
9.66896
0
LINE
8
DEFAULT_255_2_778
10
13.2547097
20
9.66896
11
13.2547097
21
8.11906
0
LINE
8
DEFAULT_255_2_778
10
13.4547097
20
7.91896
11
16.1048097
21
7.91896
0
LINE
8
DEFAULT_255_2_778
10
16.1048097
20
7.91896
11
16.1048097
21
7.76896
0
LINE
8
DEFAULT_255_2_778
10
16.4048097
20
7.76896
11
16.4048097
21
8.76916
0
LINE
8
DEFAULT_255_2_778
10
16.4048097
20
8.76916
11
18.4048097
21
8.76916
0
LINE
8
DEFAULT_255_2_778
10
18.4048097
20
8.76916
11
18.4048097
21
7.76896
0
LINE
8
DEFAULT_255_2_778
10
18.7048097
20
7.76896
11
18.7048097
21
7.91896
0
LINE
8
DEFAULT_255_2_778
10
18.7048097
20
7.91896
11
20.8048097
21
7.91896
0
LINE
8
DEFAULT_255_2_778
10
20.8043097
20
8.21906
11
20.4548097
21
8.21906
0
LINE
8
DEFAULT_255_2_778
10
20.4548097
20
8.21906
11
20.4548097
21
20.01896
0
LINE
8
DEFAULT_255_2_778
10
20.4548097
20
20.01896
11
20.8048097
21
20.01896
0
LINE
8
DEFAULT_255_2_778
10
20.8048097
20
20.01896
11
20.8390097
21
20.02286
0
LINE
8
DEFAULT_255_2_778
10
20.8390097
20
20.02286
11
20.8710097
21
20.03426
0
LINE
8
DEFAULT_255_2_778
10
20.8710097
20
20.03426
11
20.8980097
21
20.05146
0
LINE
8
DEFAULT_255_2_778
10
20.8048097
20
20.31926
11
18.7048097
21
20.31926
0
LINE
8
DEFAULT_255_2_778
10
18.7048097
20
20.31926
11
18.7048097
21
20.46926
0
LINE
8
DEFAULT_255_2_778
10
18.4048097
20
20.46926
11
18.4048097
21
19.46936
0
LINE
8
DEFAULT_255_2_778
10
18.4048097
20
19.46936
11
16.4048097
21
19.46936
0
LINE
8
DEFAULT_255_2_778
10
16.4048097
20
19.46936
11
16.4048097
21
20.46926
0
LINE
8
DEFAULT_255_2_778
10
16.1048097
20
20.46926
11
16.1048097
21
20.31926
0
LINE
8
DEFAULT_255_2_778
10
16.1048097
20
20.31926
11
13.4547097
21
20.31926
0
LINE
8
DEFAULT_255_2_778
10
13.2547097
20
20.11916
11
13.2547097
21
18.56926
0
LINE
8
DEFAULT_255_2_778
10
13.2547097
20
18.56926
11
13.5047097
21
18.31926
0
LINE
8
DEFAULT_255_2_778
10
13.5047097
20
18.31926
11
13.5047097
21
20.06916
0
LINE
8
DEFAULT_255_2_778
10
13.5045097
20
8.16926
11
13.3132097
21
7.97796
0
LINE
8
DEFAULT_255_2_778
10
11.7545097
20
10.96936
11
11.5045097
21
10.71936
0
LINE
8
DEFAULT_255_2_778
10
20.7546097
20
20.06916
11
20.9326097
21
20.24726
0
LINE
8
DEFAULT_255_2_778
10
12.9547097
20
9.86926
11
13.0047097
21
9.91926
0
LINE
8
DEFAULT_255_2_778
10
13.0047097
20
10.96936
11
12.6962097
21
10.66086
0
LINE
8
DEFAULT_255_2_778
10
11.2547097
20
11.61946
11
11.7548097
21
12.11956
0
LINE
8
DEFAULT_255_2_778
10
11.0047097
20
7.11946
11
10.9316097
21
7.04646
0
LINE
8
DEFAULT_255_2_778
10
22.0047097
20
20.86956
11
22.0047097
21
21.36966
0
LINE
8
DEFAULT_255_2_778
10
22.0047097
20
21.36966
11
21.5634097
21
20.92826
0
LINE
8
DEFAULT_255_2_778
10
21.5049097
20
21.61966
11
21.5049097
21
21.06956
0
LINE
8
DEFAULT_255_2_778
10
21.7050097
20
20.86956
11
22.6048097
21
20.86956
0
LINE
8
DEFAULT_255_2_778
10
22.6048097
20
20.86956
11
22.6048097
21
19.36966
0
LINE
8
DEFAULT_255_2_778
10
22.6048097
20
19.36966
11
21.6549097
21
19.36966
0
LINE
8
DEFAULT_255_2_778
10
21.6549097
20
19.06956
11
22.0050097
21
19.06956
0
LINE
8
DEFAULT_255_2_778
10
20.7551097
20
8.21956
11
20.7551097
21
8.16956
0
LINE
8
DEFAULT_255_2_778
10
17.3552097
20
5.86956
11
17.3552097
21
6.26956
0
LINE
8
DEFAULT_255_2_778
10
17.3552097
20
6.26956
11
16.9552097
21
5.86956
0
LINE
8
DEFAULT_255_2_778
10
13.0052097
20
18.31956
11
13.0052097
21
17.26936
0
LINE
8
DEFAULT_255_2_778
10
11.7553097
20
17.26936
11
11.7553097
21
16.11946
0
LINE
8
DEFAULT_255_2_778
10
11.0052097
20
6.61936
11
11.0044097
21
6.89186
0
LINE
8
DEFAULT_255_2_778
10
10.7552097
20
7.12336
11
10.7552097
21
6.86936
0
LINE
8
DEFAULT_255_2_778
10
10.7552097
20
6.86936
11
11.0052097
21
6.86936
0
LINE
8
DEFAULT_255_2_778
10
10.7552097
20
19.62336
11
10.7568097
21
19.34716
0
LINE
8
DEFAULT_255_2_778
10
10.7568097
20
19.34716
11
10.8552097
21
19.33706
0
LINE
8
DEFAULT_255_2_778
10
10.8554097
20
19.32126
11
10.7822097
21
19.32306
0
LINE
8
DEFAULT_255_2_778
10
10.7822097
20
19.32306
11
10.5054097
21
19.34926
0
LINE
8
DEFAULT_255_2_778
10
10.5054097
20
21.09526
11
10.5054097
21
21.16986
0
LINE
8
DEFAULT_255_2_778
10
9.9556097
20
21.00106
11
9.9556097
21
22.37006
0
LINE
8
DEFAULT_255_2_778
10
11.0057097
20
21.12016
11
10.9327097
21
21.19316
0
LINE
8
DEFAULT_255_2_778
10
22.0060097
20
7.36976
11
22.0060097
21
6.86966
0
LINE
8
DEFAULT_255_2_778
10
22.0060097
20
6.86966
11
21.5647097
21
7.31096
0
LINE
8
DEFAULT_255_2_778
10
19.2798097
20
21.61966
11
22.0561097
21
21.61966
0
LINE
8
DEFAULT_255_2_778
10
22.0561097
20
21.61966
11
22.0561097
21
20.86956
0
LINE
8
DEFAULT_255_2_778
10
15.0298097
20
21.61966
11
17.8325097
21
21.61966
0
LINE
8
DEFAULT_255_2_778
10
9.2563097
20
20.46976
11
9.7064097
21
20.46976
0
LINE
8
DEFAULT_255_2_778
10
12.7652097
20
19.11296
11
12.7652097
21
20.22666
0
LINE
8
DEFAULT_255_2_778
10
12.7652097
20
20.22666
11
11.6137097
21
20.22666
0
LINE
8
DEFAULT_255_2_778
10
11.6137097
20
20.22666
11
11.6137097
21
19.11296
0
LINE
8
DEFAULT_255_2_778
10
11.6137097
20
19.11296
11
12.7652097
21
19.11296
0
LINE
8
DEFAULT_255_2_778
10
18.4064097
20
20.06976
11
20.7564097
21
20.06976
0
LINE
8
DEFAULT_255_2_778
10
20.7564097
20
20.06976
11
20.7564097
21
20.01976
0
LINE
8
DEFAULT_255_2_778
10
13.3150097
20
20.26106
11
13.5063097
21
20.06946
0
LINE
8
DEFAULT_255_2_778
10
13.5063097
20
20.06946
11
16.4064097
21
20.06946
0
LINE
8
DEFAULT_255_2_778
10
13.0565097
20
18.36956
11
12.9565097
21
18.36956
0
LINE
8
DEFAULT_255_2_778
10
12.7565097
20
18.16946
11
12.7565097
21
17.71946
0
LINE
8
DEFAULT_255_2_778
10
12.5565097
20
17.51946
11
11.4563097
21
17.51946
0
LINE
8
DEFAULT_255_2_778
10
11.2563097
20
17.31936
11
11.2563097
21
16.56926
0
LINE
8
DEFAULT_255_2_778
10
11.0563097
20
16.36926
11
10.5062097
21
16.36926
0
LINE
8
DEFAULT_255_2_778
10
12.9562097
20
18.36926
11
13.0062097
21
18.31926
0
LINE
8
DEFAULT_255_2_778
10
13.0062097
20
18.31926
11
14.7062097
21
18.31926
0
LINE
8
DEFAULT_255_2_778
10
14.7062097
20
18.31926
11
14.7062097
21
20.06916
0
LINE
8
DEFAULT_255_2_778
10
10.7562097
20
7.12316
11
10.5332097
21
7.13906
0
LINE
8
DEFAULT_255_2_778
10
10.5332097
20
7.13906
11
9.8683097
21
7.25306
0
LINE
8
DEFAULT_255_2_778
10
9.7061097
20
7.31016
11
9.7061097
21
8.42776
0
LINE
8
DEFAULT_255_2_778
10
9.7061097
20
8.42776
11
9.7061097
21
8.42776
0
LINE
8
DEFAULT_255_2_778
10
9.8683097
20
8.48496
11
10.5835097
21
8.60506
0
LINE
8
DEFAULT_255_2_778
10
10.5835097
20
8.60506
11
10.8560097
21
8.61746
0
LINE
8
DEFAULT_255_2_778
10
10.9531097
20
8.86806
11
10.9298097
21
8.88396
0
LINE
8
DEFAULT_255_2_778
10
10.9298097
20
8.88396
11
10.9049097
21
8.89476
0
LINE
8
DEFAULT_255_2_778
10
10.8557097
20
8.90136
11
10.7557097
21
8.88946
0
LINE
8
DEFAULT_255_2_778
10
10.7557097
20
8.88946
11
10.7557097
21
8.61486
0
LINE
8
DEFAULT_255_2_778
10
12.6972097
20
17.57766
11
13.0057097
21
17.26916
0
LINE
8
DEFAULT_255_2_778
10
13.0057097
20
17.26916
11
11.7558097
21
17.26916
0
LINE
8
DEFAULT_255_2_778
10
11.7558097
20
17.26916
11
11.5058097
21
17.51916
0
LINE
8
DEFAULT_255_2_778
10
10.5059097
20
11.86926
11
11.0560097
21
11.86926
0
LINE
8
DEFAULT_255_2_778
10
11.2560097
20
11.66926
11
11.2560097
21
10.91916
0
LINE
8
DEFAULT_255_2_778
10
11.4561097
20
10.71906
11
12.5562097
21
10.71906
0
LINE
8
DEFAULT_255_2_778
10
12.7562097
20
10.51906
11
12.7562097
21
10.06906
0
LINE
8
DEFAULT_255_2_778
10
12.9562097
20
9.86896
11
13.0563097
21
9.86896
0
LINE
8
DEFAULT_255_2_778
10
14.7062097
20
8.16906
11
14.7062097
21
9.91896
0
LINE
8
DEFAULT_255_2_778
10
14.7062097
20
9.91896
11
13.0062097
21
9.91896
0
LINE
8
DEFAULT_255_2_778
10
13.0062097
20
9.91896
11
13.0062097
21
10.96916
0
LINE
8
DEFAULT_255_2_778
10
13.0062097
20
10.96916
11
11.7564097
21
10.96916
0
LINE
8
DEFAULT_255_2_778
10
11.7564097
20
10.96916
11
11.7564097
21
12.11896
0
LINE
8
DEFAULT_255_2_778
10
11.7564097
20
12.11896
11
10.7562097
21
12.11896
0
LINE
8
DEFAULT_255_2_778
10
10.7562097
20
12.11896
11
11.0063097
21
11.86896
0
LINE
8
DEFAULT_255_2_778
10
12.7652097
20
8.01216
11
12.7652097
21
9.12576
0
LINE
8
DEFAULT_255_2_778
10
12.7652097
20
9.12576
11
11.6137097
21
9.12576
0
LINE
8
DEFAULT_255_2_778
10
11.6137097
20
9.12576
11
11.6137097
21
8.01216
0
LINE
8
DEFAULT_255_2_778
10
11.6137097
20
8.01216
11
12.7652097
21
8.01216
0
LINE
8
DEFAULT_255_2_778
10
20.9345097
20
7.99066
11
20.7564097
21
8.16876
0
LINE
8
DEFAULT_255_2_778
10
20.7564097
20
8.16876
11
18.4064097
21
8.16876
0
LINE
8
DEFAULT_255_2_778
10
15.0525097
20
6.88396
11
15.3301097
21
6.88396
0
LINE
8
DEFAULT_255_2_778
10
15.3301097
20
6.88396
11
15.3322097
21
6.89876
0
LINE
8
DEFAULT_255_2_778
10
15.3322097
20
6.89876
11
15.3340097
21
6.91836
0
LINE
8
DEFAULT_255_2_778
10
15.3340097
20
6.91836
11
15.3372097
21
6.96966
0
LINE
8
DEFAULT_255_2_778
10
15.3550097
20
6.96966
11
15.3531097
21
6.89616
0
LINE
8
DEFAULT_255_2_778
10
15.3531097
20
6.89616
11
15.3505097
21
6.82816
0
LINE
8
DEFAULT_255_2_778
10
15.3505097
20
6.82816
11
15.3473097
21
6.76756
0
LINE
8
DEFAULT_255_2_778
10
15.3473097
20
6.76756
11
15.3436097
21
6.71566
0
LINE
8
DEFAULT_255_2_778
10
15.3436097
20
6.71566
11
15.3393097
21
6.67386
0
LINE
8
DEFAULT_255_2_778
10
15.3393097
20
6.67386
11
15.3370097
21
6.65716
0
LINE
8
DEFAULT_255_2_778
10
15.3370097
20
6.65716
11
15.3322097
21
6.63256
0
LINE
8
DEFAULT_255_2_778
10
15.3322097
20
6.63256
11
15.3272097
21
6.62016
0
LINE
8
DEFAULT_255_2_778
10
15.3272097
20
6.62016
11
15.3248097
21
6.61856
0
LINE
8
DEFAULT_255_2_778
10
10.5065097
20
7.14296
11
10.5065097
21
7.06836
0
LINE
8
DEFAULT_255_2_778
10
10.9565097
20
6.61836
11
13.5828097
21
6.61836
0
LINE
8
DEFAULT_255_2_778
10
13.6473097
20
6.26826
11
9.2650097
21
6.26826
0
LINE
8
DEFAULT_255_2_778
10
20.5048097
20
6.26826
11
19.2139097
21
6.26826
0
LINE
8
DEFAULT_255_2_778
10
21.9047097
20
6.16826
11
22.0547097
21
6.16826
0
LINE
8
DEFAULT_255_2_778
10
2.1546097
20
6.26906
11
8.7547097
21
6.26906
0
LINE
8
DEFAULT_255_2_778
10
8.7547097
20
6.26906
11
8.7547097
21
10.86886
0
LINE
8
DEFAULT_255_2_778
10
8.7547097
20
10.86886
11
2.1546097
21
10.86886
0
LINE
8
DEFAULT_255_2_778
10
1.1545097
20
9.86876
11
1.1545097
21
7.26896
0
LINE
8
DEFAULT_255_2_778
10
2.1549097
20
17.36936
11
8.7547097
21
17.36936
0
LINE
8
DEFAULT_255_2_778
10
8.7547097
20
17.36936
11
8.7547097
21
21.96916
0
LINE
8
DEFAULT_255_2_778
10
8.7547097
20
21.96916
11
2.1549097
21
21.96916
0
LINE
8
DEFAULT_255_2_778
10
1.1545097
20
20.96906
11
1.1545097
21
18.36926
0
ARC
8
DEFAULT_255_2_778
10
2.1636553
20
19.3255058
40
1.1020081
50
63.4744535
51
71.2157236
0
ARC
8
DEFAULT_255_2_778
10
2.3034092
20
19.7421842
40
0.662524
50
71.0546401
51
82.7168151
0
ARC
8
DEFAULT_255_2_778
10
2.3323661
20
19.9430396
40
0.4596297
50
83.1232167
51
89.879978
0
ARC
8
DEFAULT_255_2_778
10
2.3239827
20
20.0955732
40
0.3072374
50
88.2567887
51
145.0650807
0
ARC
8
DEFAULT_255_2_778
10
2.4181886
20
20.1153358
40
0.379687
50
155.7117741
51
168.3149797
0
ARC
8
DEFAULT_255_2_778
10
2.304206
20
20.1401515
40
0.2630434
50
168.5799177
51
179.7665679
0
ARC
8
DEFAULT_255_2_778
10
2.2657661
20
20.1442867
40
0.2246222
50
180.7814621
51
236.5644945
0
ARC
8
DEFAULT_255_2_778
10
2.4596498
20
20.3965705
40
0.5424632
50
234.1567451
51
249.9141816
0
ARC
8
DEFAULT_255_2_778
10
2.5951031
20
20.7250954
40
0.8976407
50
248.9956005
51
252.1403291
0
ARC
8
DEFAULT_255_2_778
10
1.9410572
20
18.8687057
40
1.0711993
50
56.9301769
51
69.2937439
0
ARC
8
DEFAULT_255_2_778
10
2.1852884
20
19.2358906
40
0.6302435
50
34.5136803
51
57.3219061
0
ARC
8
DEFAULT_255_2_778
10
2.2674328
20
19.3049081
40
0.5235535
50
358.9953637
51
33.3835135
0
ARC
8
DEFAULT_255_2_778
10
2.0431468
20
19.2987979
40
0.7477654
50
349.881442
51
359.7648116
0
ARC
8
DEFAULT_255_2_778
10
1.7949785
20
19.3419456
40
0.9996548
50
342.8217485
51
349.9458032
0
ARC
8
DEFAULT_255_2_778
10
1.6209818
20
19.3921955
40
1.1807354
50
342.0756554
51
342.9858064
0
ARC
8
DEFAULT_255_2_778
10
1.9214377
20
19.4181577
40
0.9104238
50
321.6700853
51
334.6812379
0
ARC
8
DEFAULT_255_2_778
10
2.1885398
20
19.2019661
40
0.566829
50
296.430993
51
322.0681844
0
ARC
8
DEFAULT_255_2_778
10
2.2145613
20
19.1718068
40
0.5283318
50
269.320435
51
295.3598042
0
ARC
8
DEFAULT_255_2_778
10
2.2132584
20
19.3972987
40
0.7538026
50
257.2052676
51
269.62274
0
ARC
8
DEFAULT_255_2_778
10
2.2870823
20
19.7320043
40
1.0965484
50
248.8349544
51
257.3167015
0
ARC
8
DEFAULT_255_2_778
10
2.4546935
20
20.170947
40
1.5664004
50
242.8793642
51
248.9146176
0
ARC
8
DEFAULT_255_2_778
10
2.6005299
20
20.4675137
40
1.8968487
50
242.283408
51
243.0422658
0
ARC
8
DEFAULT_255_2_778
10
-24.8732898
20
21.7305185
40
26.7538724
50
353.6862333
51
354.4200406
0
ARC
8
DEFAULT_255_2_778
10
2.3412408
20
20.1971552
40
1.2189316
50
241.1888723
51
248.7558949
0
ARC
8
DEFAULT_255_2_778
10
2.172028
20
19.7562641
40
0.746691
50
248.5993998
51
260.0016979
0
ARC
8
DEFAULT_255_2_778
10
2.1273941
20
19.5168824
40
0.5032013
50
260.2743798
51
269.7772016
0
ARC
8
DEFAULT_255_2_778
10
2.1324055
20
19.3623125
40
0.3486973
50
268.854976
51
322.3283823
0
ARC
8
DEFAULT_255_2_778
10
2.1243239
20
19.287624
40
0.3160097
50
334.023587
51
348.5855365
0
ARC
8
DEFAULT_255_2_778
10
2.210474
20
19.2686391
40
0.2278117
50
348.9778536
51
359.8338217
0
ARC
8
DEFAULT_255_2_778
10
2.2192014
20
19.2630363
40
0.219139
50
1.2922456
51
51.7230296
0
ARC
8
DEFAULT_255_2_778
10
2.0119388
20
19.0314316
40
0.5296955
50
49.6418941
51
65.630746
0
ARC
8
DEFAULT_255_2_778
10
1.8151399
20
18.6307815
40
0.9759517
50
64.8117114
51
70.3698242
0
ARC
8
DEFAULT_255_2_778
10
2.3445717
20
20.3081401
40
0.784466
50
236.5179464
51
255.1112497
0
ARC
8
DEFAULT_255_2_778
10
2.1891577
20
20.0668601
40
0.4974984
50
181.8140498
51
236.1167038
0
ARC
8
DEFAULT_255_2_778
10
3.0027969
20
20.0791678
40
1.3111885
50
180.0063705
51
181.226093
0
ARC
8
DEFAULT_255_2_778
10
2.6464869
20
20.0888316
40
0.9549289
50
167.5401624
51
180.5885871
0
ARC
8
DEFAULT_255_2_778
10
2.2424783
20
20.1829635
40
0.5401471
50
142.4681938
51
168.0437932
0
ARC
8
DEFAULT_255_2_778
10
2.1844006
20
20.2097692
40
0.4779692
50
104.3290322
51
140.7748898
0
ARC
8
DEFAULT_255_2_778
10
2.2874837
20
19.8549985
40
0.8473011
50
90.5504911
51
105.145524
0
ARC
8
DEFAULT_255_2_778
10
2.3040161
20
19.5344258
40
1.1680952
50
89.9942768
51
91.2103192
0
ARC
8
DEFAULT_255_2_778
10
2.3015692
20
19.328304
40
1.3742194
50
85.1669267
51
89.8931139
0
ARC
8
DEFAULT_255_2_778
10
2.2664929
20
18.9102885
40
1.793704
50
81.094811
51
85.1754729
0
ARC
8
DEFAULT_255_2_778
10
2.1914244
20
18.4226444
40
2.2870908
50
78.1784592
51
81.1279709
0
ARC
8
DEFAULT_255_2_778
10
2.1205399
20
18.0733288
40
2.6435202
50
77.3333059
51
78.2257326
0
ARC
8
DEFAULT_255_2_778
10
3.4657435
20
20.0184741
40
0.3010753
50
357.3990445
51
33.8598976
0
ARC
8
DEFAULT_255_2_778
10
3.4968886
20
20.0147635
40
0.2780315
50
38.0747211
51
80.2392703
0
ARC
8
DEFAULT_255_2_778
10
3.4128109
20
19.6710454
40
0.6315068
50
78.0078041
51
90.6534735
0
LINE
8
DEFAULT_255_2_778
10
3.4056086
20
20.3025114
11
3.4056086
21
19.7402114
0
ARC
8
DEFAULT_255_2_778
10
3.4178687
20
20.3741791
40
0.6340863
50
268.892115
51
285.0098981
0
ARC
8
DEFAULT_255_2_778
10
3.5352831
20
19.9883664
40
0.2314219
50
281.668547
51
2.6171225
0
ARC
8
DEFAULT_255_2_778
10
3.386432
20
20.0047821
40
0.3800766
50
359.1182981
51
0.0044075
0
ARC
8
DEFAULT_255_2_778
10
3.5305632
20
20.8423237
40
1.5041282
50
265.2270476
51
268.088781
0
ARC
8
DEFAULT_255_2_778
10
3.5239194
20
20.6601048
40
1.3217893
50
268.1131838
51
269.9844585
0
ARC
8
DEFAULT_255_2_778
10
3.5349467
20
20.2718939
40
0.9336478
50
269.3012606
51
284.1433828
0
ARC
8
DEFAULT_255_2_778
10
3.6502227
20
19.8610359
40
0.5072044
50
282.8567436
51
342.6693343
0
ARC
8
DEFAULT_255_2_778
10
3.2889078
20
19.9867568
40
0.8896529
50
341.8718286
51
357.3799719
0
ARC
8
DEFAULT_255_2_778
10
2.8708516
20
20.0214819
40
1.308952
50
356.6980514
51
0.0473778
0
ARC
8
DEFAULT_255_2_778
10
2.6778964
20
20.0221593
40
1.5019068
50
0.015446
51
1.8345902
0
ARC
8
DEFAULT_255_2_778
10
3.413116
20
20.046151
40
0.766296
50
1.8015483
51
1.8591303
0
ARC
8
DEFAULT_255_2_778
10
3.4403027
20
20.0832499
40
0.7388073
50
359.0508377
51
17.9438355
0
ARC
8
DEFAULT_255_2_778
10
3.6841952
20
20.1555272
40
0.4845526
50
18.6980002
51
74.8953595
0
ARC
8
DEFAULT_255_2_778
10
3.5237364
20
19.6908731
40
0.9755533
50
72.9078169
51
87.1013981
0
ARC
8
DEFAULT_255_2_778
10
3.4824457
20
19.1949087
40
1.4730599
50
86.4729194
51
90.0605035
0
ARC
8
DEFAULT_255_2_778
10
3.4814552
20
18.9356905
40
1.7322772
50
90.0186891
51
91.8794515
0
ARC
8
DEFAULT_255_2_778
10
3.4854763
20
18.7966432
40
1.8713818
50
91.8628765
51
92.4521676
0
LINE
8
DEFAULT_255_2_778
10
3.4054086
20
20.6663114
11
2.9928086
21
20.6663114
0
LINE
8
DEFAULT_255_2_778
10
6.8476086
20
18.6764114
11
7.3317086
21
18.6764114
0
ARC
8
DEFAULT_255_2_778
10
7.344795
20
19.5328824
40
0.856571
50
269.1246216
51
288.2935475
0
ARC
8
DEFAULT_255_2_778
10
7.4129114
20
19.2971032
40
0.6113984
50
289.1682778
51
338.9041403
0
ARC
8
DEFAULT_255_2_778
10
6.939797
20
19.5092943
40
1.1295176
50
337.4997962
51
351.8430057
0
ARC
8
DEFAULT_255_2_778
10
6.2766443
20
19.6189482
40
1.8015773
50
351.3833693
51
357.730673
0
ARC
8
DEFAULT_255_2_778
10
5.3062584
20
19.7271421
40
2.7763609
50
356.2924356
51
358.0602852
0
ARC
8
DEFAULT_255_2_778
10
5.6317332
20
19.7161927
40
2.4507019
50
358.0585672
51
359.9797534
0
ARC
8
DEFAULT_255_2_778
10
6.287719
20
19.7268037
40
1.7947526
50
359.6336042
51
8.823456
0
ARC
8
DEFAULT_255_2_778
10
7.0107435
20
19.8436705
40
1.0623685
50
8.5765146
51
23.5091814
0
ARC
8
DEFAULT_255_2_778
10
7.4002116
20
20.0221154
40
0.6341007
50
22.761357
51
78.8703143
0
ARC
8
DEFAULT_255_2_778
10
7.3022725
20
19.6296252
40
1.0383137
50
77.7481505
51
90.4173949
0
LINE
8
DEFAULT_255_2_778
10
7.2947086
20
20.6679114
11
6.8478086
21
20.6679114
0
LINE
8
DEFAULT_255_2_778
10
6.8478086
20
20.6679114
11
6.8478086
21
18.6766114
0
ARC
8
DEFAULT_255_2_778
10
6.5813695
20
19.7109766
40
1.1975642
50
359.6284819
51
10.8416428
0
ARC
8
DEFAULT_255_2_778
10
7.1374379
20
19.8227769
40
0.6304137
50
10.3680307
51
30.9327796
0
ARC
8
DEFAULT_255_2_778
10
7.3133339
20
19.9178565
40
0.4307523
50
32.111314
51
85.3754757
0
ARC
8
DEFAULT_255_2_778
10
7.2583076
20
19.6236001
40
0.7291518
50
82.9291632
51
90.1586462
0
ARC
8
DEFAULT_255_2_778
10
7.257387
20
19.4344083
40
0.9183416
50
90.0685261
51
94.3070215
0
ARC
8
DEFAULT_255_2_778
10
7.2680846
20
19.2814823
40
1.0716393
50
94.263313
51
96.5572061
0
LINE
8
DEFAULT_255_2_778
10
7.1457086
20
20.3461114
11
7.1457086
21
18.9666114
0
ARC
8
DEFAULT_255_2_778
10
7.2144659
20
20.0496038
40
1.0851728
50
266.3672648
51
269.0307958
0
ARC
8
DEFAULT_255_2_778
10
7.2125185
20
19.9616505
40
0.9971993
50
269.0571911
51
269.9959294
0
ARC
8
DEFAULT_255_2_778
10
7.2241078
20
19.6694375
40
0.7050827
50
269.0524407
51
287.8945752
0
ARC
8
DEFAULT_255_2_778
10
7.2935666
20
19.4351669
40
0.4608403
50
288.6262627
51
344.9777173
0
ARC
8
DEFAULT_255_2_778
10
6.853045
20
19.5868303
40
0.9261807
50
342.9791864
51
357.1050995
0
ARC
8
DEFAULT_255_2_778
10
6.3858109
20
19.6256144
40
1.3948595
50
356.4832992
51
0.0602332
0
ARC
8
DEFAULT_255_2_778
10
6.1360967
20
19.6264934
40
1.644573
50
0.0204626
51
1.9888621
0
ARC
8
DEFAULT_255_2_778
10
5.992927
20
19.622072
40
1.78781
50
1.9712349
51
2.5916249
0
ARC
8
DEFAULT_255_2_778
10
7.5088004
20
24.0309447
40
0.9791767
50
61.2009189
51
69.4659123
0
ARC
8
DEFAULT_255_2_778
10
7.6499294
20
24.4130825
40
0.5718186
50
69.2777222
51
81.973934
0
ARC
8
DEFAULT_255_2_778
10
7.6783263
20
24.5916589
40
0.3910395
50
82.4406464
51
89.8659721
0
ARC
8
DEFAULT_255_2_778
10
7.6743927
20
24.7027443
40
0.279995
50
89.0078251
51
148.7946926
0
ARC
8
DEFAULT_255_2_778
10
7.8191248
20
24.6903017
40
0.4152486
50
157.7087921
51
169.8037185
0
ARC
8
DEFAULT_255_2_778
10
7.700814
20
24.7130182
40
0.2947883
50
170.078608
51
179.8144683
0
ARC
8
DEFAULT_255_2_778
10
7.6508767
20
24.7160073
40
0.2448579
50
180.4760854
51
237.5522646
0
ARC
8
DEFAULT_255_2_778
10
7.8465848
20
24.978595
40
0.571969
50
235.1205217
51
250.4795279
0
ARC
8
DEFAULT_255_2_778
10
7.9537299
20
25.2405668
40
0.854791
50
249.5779197
51
250.358704
0
ARC
8
DEFAULT_255_2_778
10
7.2994717
20
23.5520817
40
0.9566037
50
53.436765
51
67.4442018
0
ARC
8
DEFAULT_255_2_778
10
7.5398602
20
23.8591113
40
0.5668873
50
359.9338326
51
54.4656728
0
ARC
8
DEFAULT_255_2_778
10
7.3799291
20
23.8446882
40
0.7269485
50
359.9975388
51
1.0852524
0
ARC
8
DEFAULT_255_2_778
10
7.2646051
20
23.8477436
40
0.8422782
50
350.7732301
51
359.7900283
0
ARC
8
DEFAULT_255_2_778
10
6.9973891
20
23.8899955
40
1.1128121
50
344.2810716
51
350.8319684
0
ARC
8
DEFAULT_255_2_778
10
6.8155262
20
23.9378026
40
1.3008296
50
343.5810307
51
344.4242549
0
ARC
8
DEFAULT_255_2_778
10
7.1718765
20
23.9534246
40
0.9703506
50
325.1618905
51
336.7324329
0
ARC
8
DEFAULT_255_2_778
10
7.4886286
20
23.7289758
40
0.5821608
50
305.2060718
51
325.4840247
0
ARC
8
DEFAULT_255_2_778
10
7.5682139
20
23.6262713
40
0.4523974
50
269.237645
51
304.4693601
0
ARC
8
DEFAULT_255_2_778
10
7.5670026
20
23.8176989
40
0.6438028
50
255.9589849
51
269.5721126
0
ARC
8
DEFAULT_255_2_778
10
7.6410117
20
24.1222812
40
0.9572432
50
246.9217063
51
256.0846078
0
ARC
8
DEFAULT_255_2_778
10
7.813256
20
24.5323925
40
1.4020531
50
240.6040458
51
247.0156713
0
ARC
8
DEFAULT_255_2_778
10
7.9661146
20
24.8150288
40
1.723338
50
239.9908964
51
240.7886317
0
ARC
8
DEFAULT_255_2_778
10
-20.2952841
20
26.0884152
40
27.538724
50
354.236089
51
354.9681581
0
ARC
8
DEFAULT_255_2_778
10
7.7043883
20
24.6090141
40
1.0943859
50
238.7903147
51
246.8175941
0
ARC
8
DEFAULT_255_2_778
10
7.5310478
20
24.1989044
40
0.6491563
50
246.6323032
51
258.9919695
0
ARC
8
DEFAULT_255_2_778
10
7.4866198
20
23.9829478
40
0.4286965
50
259.3093022
51
269.7490497
0
ARC
8
DEFAULT_255_2_778
10
7.4873138
20
23.8701904
40
0.3159453
50
269.5336519
51
326.0208598
0
ARC
8
DEFAULT_255_2_778
10
7.4342329
20
23.8331652
40
0.3445983
50
336.1104073
51
350.3407355
0
ARC
8
DEFAULT_255_2_778
10
7.5220931
20
23.8163936
40
0.2551761
50
350.7430908
51
359.8789098
0
ARC
8
DEFAULT_255_2_778
10
7.5366817
20
23.8114781
40
0.2406268
50
1.0420684
51
51.9369158
0
ARC
8
DEFAULT_255_2_778
10
7.3265791
20
23.5751691
40
0.5565645
50
49.9054581
51
65.605552
0
ARC
8
DEFAULT_255_2_778
10
7.1608886
20
23.2437646
40
0.9269212
50
64.7387233
51
68.4533391
0
ARC
8
DEFAULT_255_2_778
10
7.6907871
20
24.7597326
40
0.6807234
50
231.1888177
51
253.8383214
0
ARC
8
DEFAULT_255_2_778
10
7.6007705
20
24.6253309
40
0.5197683
50
183.8885225
51
229.6349128
0
ARC
8
DEFAULT_255_2_778
10
7.8424457
20
24.6693239
40
0.7643655
50
183.6238598
51
185.950515
0
ARC
8
DEFAULT_255_2_778
10
8.5621666
20
24.6501136
40
1.4828436
50
180.0062676
51
181.1245571
0
ARC
8
DEFAULT_255_2_778
10
8.1618824
20
24.6596935
40
1.0826034
50
168.9777338
51
180.5155979
0
ARC
8
DEFAULT_255_2_778
10
7.6955746
20
24.7548985
40
0.6067105
50
148.5959511
51
169.3833566
0
ARC
8
DEFAULT_255_2_778
10
7.5606707
20
24.8259769
40
0.4546331
50
100.6305251
51
147.3824809
0
ARC
8
DEFAULT_255_2_778
10
7.6452309
20
24.4888247
40
0.8018707
50
89.5100827
51
102.124971
0
ARC
8
DEFAULT_255_2_778
10
7.6491543
20
24.1049824
40
1.1856873
50
84.199067
51
89.858263
0
ARC
8
DEFAULT_255_2_778
10
7.6103435
20
23.7149234
40
1.5776717
50
79.7636968
51
84.2285626
0
ARC
8
DEFAULT_255_2_778
10
7.5249574
20
23.2379897
40
2.0621882
50
76.1660036
51
79.7839256
0
ARC
8
DEFAULT_255_2_778
10
7.4311432
20
22.843897
40
2.4672832
50
76.136964
51
76.238887
0
ARC
8
DEFAULT_255_2_778
10
20.4790405
20
23.9930609
40
0.9872215
50
61.6051745
51
69.779458
0
ARC
8
DEFAULT_255_2_778
10
20.6191743
20
24.3796161
40
0.5760589
50
69.5696304
51
82.4192811
0
ARC
8
DEFAULT_255_2_778
10
20.6464311
20
24.5584256
40
0.3952313
50
82.9164523
51
89.8812824
0
ARC
8
DEFAULT_255_2_778
10
20.6416696
20
24.6727455
40
0.280966
50
88.8619465
51
148.1497753
0
ARC
8
DEFAULT_255_2_778
10
20.7757637
20
24.6655904
40
0.403859
50
157.3662056
51
169.6292146
0
ARC
8
DEFAULT_255_2_778
10
20.6596293
20
24.6882784
40
0.285541
50
169.9123745
51
179.810031
0
ARC
8
DEFAULT_255_2_778
10
20.6128695
20
24.6915225
40
0.2387907
50
180.5512403
51
237.5979016
0
ARC
8
DEFAULT_255_2_778
10
20.8091975
20
24.9557201
40
0.5675744
50
235.155307
51
250.7349203
0
ARC
8
DEFAULT_255_2_778
10
20.9189797
20
25.2271637
40
0.8601544
50
249.7973452
51
250.6874581
0
ARC
8
DEFAULT_255_2_778
10
20.2711568
20
23.526245
40
0.9605422
50
53.879212
51
67.7729506
0
ARC
8
DEFAULT_255_2_778
10
20.5030982
20
23.8336873
40
0.5755033
50
22.6630633
51
54.4887974
0
ARC
8
DEFAULT_255_2_778
10
20.4879258
20
23.8405274
40
0.5869946
50
359.3567958
51
21.4762421
0
ARC
8
DEFAULT_255_2_778
10
20.2586898
20
23.8369888
40
0.8161992
50
350.6260361
51
359.7858361
0
ARC
8
DEFAULT_255_2_778
10
19.9978307
20
23.8789154
40
1.0804043
50
344.0391201
51
350.6855012
0
ARC
8
DEFAULT_255_2_778
10
19.8169103
20
23.9272981
40
1.2676588
50
343.3324767
51
344.1852079
0
ARC
8
DEFAULT_255_2_778
10
20.1641079
20
23.9425047
40
0.9463199
50
324.5161972
51
336.404291
0
ARC
8
DEFAULT_255_2_778
10
20.468649
20
23.7213427
40
0.5699695
50
303.7133565
51
324.8489161
0
ARC
8
DEFAULT_255_2_778
10
20.5363896
20
23.6320855
40
0.4581748
50
269.2290394
51
302.8620848
0
ARC
8
DEFAULT_255_2_778
10
20.535002
20
23.8279463
40
0.6540116
50
256.1848306
51
269.5814754
0
ARC
8
DEFAULT_255_2_778
10
20.6085337
20
24.1353614
40
0.9700944
50
247.1996508
51
256.3031481
0
ARC
8
DEFAULT_255_2_778
10
20.77858
20
24.5461655
40
1.4146972
50
241.0088115
51
247.2983218
0
ARC
8
DEFAULT_255_2_778
10
20.9293927
20
24.829361
40
1.7355101
50
240.402165
51
241.1851991
0
ARC
8
DEFAULT_255_2_778
10
-6.4523989
20
26.0406009
40
26.6637352
50
354.1443776
51
354.8887049
0
ARC
8
DEFAULT_255_2_778
10
20.6690409
20
24.6110309
40
1.1011621
50
239.2066533
51
247.1571418
0
ARC
8
DEFAULT_255_2_778
10
20.4977913
20
24.1987802
40
0.6547669
50
246.962991
51
259.3417295
0
ARC
8
DEFAULT_255_2_778
10
20.4545113
20
23.9825094
40
0.43423
50
259.6760566
51
269.7640011
0
ARC
8
DEFAULT_255_2_778
10
20.456015
20
23.8657512
40
0.3174851
50
269.4058489
51
325.3873014
0
ARC
8
DEFAULT_255_2_778
10
20.4123274
20
23.8229817
40
0.334573
50
335.7209123
51
350.1649213
0
ARC
8
DEFAULT_255_2_778
10
20.4984732
20
23.8062311
40
0.2468386
50
350.5803149
51
359.8756032
0
ARC
8
DEFAULT_255_2_778
10
20.5111049
20
23.8012002
40
0.2342494
50
1.0995256
51
51.922715
0
ARC
8
DEFAULT_255_2_778
10
20.3009603
20
23.5644264
40
0.5505759
50
49.9036877
51
65.8373361
0
ARC
8
DEFAULT_255_2_778
10
20.1316227
20
23.2227229
40
0.9317713
50
64.9375377
51
68.7449535
0
ARC
8
DEFAULT_255_2_778
10
20.6590019
20
24.7542111
40
0.6896716
50
232.2019614
51
254.043719
0
ARC
8
DEFAULT_255_2_778
10
20.5601226
20
24.605589
40
0.5117967
50
182.8002307
51
230.7514357
0
ARC
8
DEFAULT_255_2_778
10
20.7981677
20
24.6464736
40
0.7521221
50
183.6943593
51
185.0257029
0
ARC
8
DEFAULT_255_2_778
10
21.4830404
20
24.6264866
40
1.4357143
50
180.0063027
51
181.1364484
0
ARC
8
DEFAULT_255_2_778
10
21.095318
20
24.6359918
40
1.0480363
50
168.7395737
51
180.5282883
0
ARC
8
DEFAULT_255_2_778
10
20.6438374
20
24.7303915
40
0.5868301
50
147.5370573
51
169.1713723
0
ARC
8
DEFAULT_255_2_778
10
20.5248953
20
24.7934202
40
0.4527688
50
101.3679224
51
146.1875945
0
ARC
8
DEFAULT_255_2_778
10
20.6123127
20
24.4541205
40
0.8028633
50
89.456889
51
102.7113714
0
ARC
8
DEFAULT_255_2_778
10
20.616989
20
24.0530172
40
1.2039339
50
84.2836339
51
89.8603698
0
ARC
8
DEFAULT_255_2_778
10
20.57823
20
23.6576185
40
1.6012271
50
79.9118129
51
84.3128687
0
ARC
8
DEFAULT_255_2_778
10
20.4922705
20
23.1708715
40
2.0955058
50
76.3082051
51
79.9290373
0
ARC
8
DEFAULT_255_2_778
10
20.3456106
20
22.5538218
40
2.7297373
50
76.3368953
51
76.3829866
0
ARC
8
DEFAULT_255_2_778
10
0.611563
20
24.2526436
40
2.9713691
50
359.7718437
51
5.6130667
0
ARC
8
DEFAULT_255_2_778
10
1.8415241
20
24.3783251
40
1.7350194
50
5.4553292
51
14.4548656
0
ARC
8
DEFAULT_255_2_778
10
2.6139871
20
24.5825108
40
0.9360537
50
14.1548135
51
29.0963477
0
ARC
8
DEFAULT_255_2_778
10
3.0060597
20
24.8113909
40
0.48225
50
27.9866856
51
67.3966061
0
ARC
8
DEFAULT_255_2_778
10
3.0070555
20
24.776168
40
0.5145876
50
69.0065383
51
90.751249
0
ARC
8
DEFAULT_255_2_778
10
2.975731
20
24.790038
40
0.5012762
50
87.1896545
51
149.4062471
0
ARC
8
DEFAULT_255_2_778
10
3.2852031
20
24.6017619
40
0.8635039
50
149.1035107
51
165.6444665
0
ARC
8
DEFAULT_255_2_778
10
3.9766301
20
24.4151654
40
1.5796338
50
165.3057193
51
174.9972653
0
ARC
8
DEFAULT_255_2_778
10
4.9779569
20
24.3166324
40
2.5857611
50
174.7571002
51
180.1799472
0
ARC
8
DEFAULT_255_2_778
10
5.7205002
20
24.2958582
40
3.3283157
50
179.7821803
51
185.3842223
0
ARC
8
DEFAULT_255_2_778
10
4.3732445
20
24.165097
40
1.9747378
50
185.2749632
51
193.3708703
0
ARC
8
DEFAULT_255_2_778
10
3.5211032
20
23.9578159
40
1.09777
50
193.1306778
51
206.1139852
0
ARC
8
DEFAULT_255_2_778
10
3.0581691
20
23.7234437
40
0.5789699
50
205.4525913
51
232.1136449
0
ARC
8
DEFAULT_255_2_778
10
2.9874129
20
23.6577972
40
0.4839578
50
233.9525093
51
271.5268969
0
ARC
8
DEFAULT_255_2_778
10
3.0147161
20
23.639777
40
0.4659884
50
268.2282408
51
332.1781009
0
ARC
8
DEFAULT_255_2_778
10
2.6141059
20
23.882492
40
0.9339807
50
330.4796097
51
345.6158687
0
ARC
8
DEFAULT_255_2_778
10
1.8389424
20
24.0915395
40
1.7368046
50
345.2883879
51
354.2090578
0
ARC
8
DEFAULT_255_2_778
10
0.6110895
20
24.2239426
40
2.971761
50
354.057935
51
359.9010415
0
ARC
8
DEFAULT_255_2_778
10
-0.2511829
20
24.2407196
40
3.8340914
50
359.6725847
51
0.0013712
0
ARC
8
DEFAULT_255_2_778
10
2.9949627
20
24.7900253
40
0.128297
50
93.2860492
51
156.3092262
0
ARC
8
DEFAULT_255_2_778
10
3.3150057
20
24.6050806
40
0.4973535
50
151.6077007
51
167.6504767
0
ARC
8
DEFAULT_255_2_778
10
4.156722
20
24.4026168
40
1.3630109
50
166.9040168
51
174.6274485
0
ARC
8
DEFAULT_255_2_778
10
5.7064363
20
24.2442353
40
2.9207738
50
174.380594
51
178.7540354
0
ARC
8
DEFAULT_255_2_778
10
7.3797505
20
24.1925245
40
4.5948424
50
178.563086
51
180.031338
0
ARC
8
DEFAULT_255_2_778
10
5.9849462
20
24.1795623
40
3.2000546
50
179.8129132
51
183.7336741
0
ARC
8
DEFAULT_255_2_778
10
4.3635652
20
24.0680868
40
1.5748661
50
183.5278801
51
190.3478898
0
ARC
8
DEFAULT_255_2_778
10
3.4212972
20
23.8898436
40
0.6159371
50
189.781409
51
203.2577561
0
ARC
8
DEFAULT_255_2_778
10
3.0204974
20
23.7089052
40
0.1764406
50
200.66817
51
239.4772578
0
ARC
8
DEFAULT_255_2_778
10
2.9769575
20
23.6495216
40
0.1034341
50
243.5502815
51
270.3665612
0
ARC
8
DEFAULT_255_2_778
10
2.9775489
20
23.6663115
40
0.1202219
50
270.0335456
51
274.7999184
0
ARC
8
DEFAULT_255_2_778
10
2.9811416
20
23.6832065
40
0.1368481
50
272.7086046
51
336.9471626
0
ARC
8
DEFAULT_255_2_778
10
2.6605802
20
23.8634153
40
0.50399
50
332.361625
51
348.4701649
0
ARC
8
DEFAULT_255_2_778
10
1.8388249
20
24.0479288
40
1.3461448
50
347.7661935
51
355.7034354
0
ARC
8
DEFAULT_255_2_778
10
0.2984499
20
24.1753024
40
2.8917566
50
355.4733517
51
0.1238287
0
ARC
8
DEFAULT_255_2_778
10
-0.8621857
20
24.1899974
40
4.0523942
50
359.8805944
51
0.0001974
0
ARC
8
DEFAULT_255_2_778
10
-1.4356429
20
24.2713024
40
4.6265657
50
358.9932326
51
359.7309289
0
ARC
8
DEFAULT_255_2_778
10
-1.0301206
20
24.2688922
40
4.2210366
50
359.7377949
51
359.9996343
0
ARC
8
DEFAULT_255_2_778
10
0.1068864
20
24.2793992
40
3.0840476
50
359.8042982
51
3.9064405
0
ARC
8
DEFAULT_255_2_778
10
1.6610934
20
24.3910113
40
1.5258574
50
3.7010946
51
10.7555037
0
ARC
8
DEFAULT_255_2_778
10
2.5581301
20
24.5671221
40
0.6117397
50
10.2297374
51
23.7748662
0
ARC
8
DEFAULT_255_2_778
10
2.9446475
20
24.7457635
40
0.1861628
50
21.4169398
51
59.2654417
0
ARC
8
DEFAULT_255_2_778
10
2.988422
20
24.8050023
40
0.1131121
50
62.9918817
51
90.4120389
0
LINE
8
DEFAULT_255_2_778
10
2.7002086
20
20.6525114
11
2.6648086
21
20.3218114
0
LINE
8
DEFAULT_255_2_778
10
5.2680086
20
18.9838114
11
5.2680086
21
18.6689114
0
LINE
8
DEFAULT_255_2_778
10
5.2680086
20
18.6689114
11
4.2964086
21
18.6689114
0
LINE
8
DEFAULT_255_2_778
10
4.2964086
20
18.6689114
11
4.2964086
21
20.6679114
0
LINE
8
DEFAULT_255_2_778
10
4.2964086
20
20.6679114
11
5.2633086
21
20.6679114
0
LINE
8
DEFAULT_255_2_778
10
5.2633086
20
20.6679114
11
5.2633086
21
20.3528114
0
LINE
8
DEFAULT_255_2_778
10
5.2633086
20
20.3528114
11
4.6248086
21
20.3528114
0
LINE
8
DEFAULT_255_2_778
10
4.6248086
20
20.3528114
11
4.6248086
21
19.8604114
0
LINE
8
DEFAULT_255_2_778
10
4.6248086
20
19.8604114
11
5.2096086
21
19.8604114
0
LINE
8
DEFAULT_255_2_778
10
5.2096086
20
19.8604114
11
5.2096086
21
19.5452114
0
LINE
8
DEFAULT_255_2_778
10
5.2096086
20
19.5452114
11
4.6248086
21
19.5452114
0
LINE
8
DEFAULT_255_2_778
10
4.6248086
20
19.5452114
11
4.6248086
21
18.9841114
0
LINE
8
DEFAULT_255_2_778
10
4.6248086
20
18.9841114
11
5.2680086
21
18.9841114
0
LINE
8
DEFAULT_255_2_778
10
6.5436086
20
18.9838114
11
6.5436086
21
18.6689114
0
LINE
8
DEFAULT_255_2_778
10
6.5436086
20
18.6689114
11
5.5720086
21
18.6689114
0
LINE
8
DEFAULT_255_2_778
10
5.5720086
20
18.6689114
11
5.5720086
21
20.6679114
0
LINE
8
DEFAULT_255_2_778
10
5.5720086
20
20.6679114
11
6.5391086
21
20.6679114
0
LINE
8
DEFAULT_255_2_778
10
6.5391086
20
20.6679114
11
6.5391086
21
20.3528114
0
LINE
8
DEFAULT_255_2_778
10
6.5391086
20
20.3528114
11
5.9006086
21
20.3528114
0
LINE
8
DEFAULT_255_2_778
10
5.9006086
20
20.3528114
11
5.9006086
21
19.8604114
0
LINE
8
DEFAULT_255_2_778
10
5.9006086
20
19.8604114
11
6.4848086
21
19.8604114
0
LINE
8
DEFAULT_255_2_778
10
6.4848086
20
19.8604114
11
6.4848086
21
19.5452114
0
LINE
8
DEFAULT_255_2_778
10
6.4848086
20
19.5452114
11
5.9006086
21
19.5452114
0
LINE
8
DEFAULT_255_2_778
10
5.9006086
20
19.5452114
11
5.9006086
21
18.9841114
0
LINE
8
DEFAULT_255_2_778
10
5.9006086
20
18.9841114
11
6.5436086
21
18.9841114
0
LINE
8
DEFAULT_255_2_778
10
3.7665086
20
20.0048114
11
3.7665086
21
20.0048114
0
LINE
8
DEFAULT_255_2_778
10
2.9928086
20
20.6663114
11
2.9928086
21
18.6819114
0
LINE
8
DEFAULT_255_2_778
10
2.9928086
20
18.6819114
11
3.4054086
21
18.6819114
0
LINE
8
DEFAULT_255_2_778
10
3.4054086
20
18.6819114
11
3.4054086
21
19.3434114
0
LINE
8
DEFAULT_255_2_778
10
2.9928086
20
20.6663114
11
2.9928086
21
20.6663114
0
LINE
8
DEFAULT_255_2_778
10
6.8478086
20
18.6766114
11
6.8476086
21
18.6764114
0
LINE
8
DEFAULT_255_2_778
10
7.7789086
20
19.7029114
11
7.7789086
21
19.7032114
0
LINE
8
DEFAULT_255_2_778
10
8.0223086
20
25.2393114
11
7.9892086
21
24.8994114
0
LINE
8
DEFAULT_255_2_778
10
11.6926086
20
23.1891114
11
12.2655086
21
25.2568114
0
LINE
8
DEFAULT_255_2_778
10
12.2655086
20
25.2568114
11
12.5094086
21
25.2568114
0
LINE
8
DEFAULT_255_2_778
10
12.5094086
20
25.2568114
11
11.9368086
21
23.1891114
0
LINE
8
DEFAULT_255_2_778
10
11.9368086
20
23.1891114
11
11.6926086
21
23.1891114
0
LINE
8
DEFAULT_255_2_778
10
11.7053086
20
25.2907114
11
11.7053086
21
24.9647114
0
LINE
8
DEFAULT_255_2_778
10
11.7053086
20
24.9647114
11
11.2362086
21
24.9647114
0
LINE
8
DEFAULT_255_2_778
10
11.2362086
20
24.9647114
11
11.2362086
21
23.2235114
0
LINE
8
DEFAULT_255_2_778
10
11.2362086
20
23.2235114
11
10.9074086
21
23.2235114
0
LINE
8
DEFAULT_255_2_778
10
10.9074086
20
23.2235114
11
10.9074086
21
24.9647114
0
LINE
8
DEFAULT_255_2_778
10
10.9074086
20
24.9647114
11
10.4382086
21
24.9647114
0
LINE
8
DEFAULT_255_2_778
10
10.4382086
20
24.9647114
11
10.4382086
21
25.2907114
0
LINE
8
DEFAULT_255_2_778
10
10.4382086
20
25.2907114
11
11.7053086
21
25.2907114
0
LINE
8
DEFAULT_255_2_778
10
10.3718086
20
24.3805114
11
10.3718086
21
24.0657114
0
LINE
8
DEFAULT_255_2_778
10
10.3718086
20
24.0657114
11
9.7545086
21
24.0657114
0
LINE
8
DEFAULT_255_2_778
10
9.7545086
20
24.0657114
11
9.7545086
21
24.3805114
0
LINE
8
DEFAULT_255_2_778
10
9.7545086
20
24.3805114
11
10.3718086
21
24.3805114
0
LINE
8
DEFAULT_255_2_778
10
9.4577086
20
23.5492114
11
9.4577086
21
23.2235114
0
LINE
8
DEFAULT_255_2_778
10
9.4577086
20
23.2235114
11
8.4862086
21
23.2235114
0
LINE
8
DEFAULT_255_2_778
10
8.4862086
20
23.2235114
11
8.4862086
21
25.2907114
0
LINE
8
DEFAULT_255_2_778
10
8.4862086
20
25.2907114
11
9.4529086
21
25.2907114
0
LINE
8
DEFAULT_255_2_778
10
9.4529086
20
25.2907114
11
9.4529086
21
24.9647114
0
LINE
8
DEFAULT_255_2_778
10
9.4529086
20
24.9647114
11
8.8150086
21
24.9647114
0
LINE
8
DEFAULT_255_2_778
10
8.8150086
20
24.9647114
11
8.8150086
21
24.4556114
0
LINE
8
DEFAULT_255_2_778
10
8.8150086
20
24.4556114
11
9.3992086
21
24.4556114
0
LINE
8
DEFAULT_255_2_778
10
9.3992086
20
24.4556114
11
9.3992086
21
24.1297114
0
LINE
8
DEFAULT_255_2_778
10
9.3992086
20
24.1297114
11
8.8150086
21
24.1297114
0
LINE
8
DEFAULT_255_2_778
10
8.8150086
20
24.1297114
11
8.8150086
21
23.5492114
0
LINE
8
DEFAULT_255_2_778
10
8.8150086
20
23.5492114
11
9.4579086
21
23.5492114
0
LINE
8
DEFAULT_255_2_778
10
12.7306086
20
24.7525114
11
13.2095086
21
25.2224114
0
LINE
8
DEFAULT_255_2_778
10
13.2095086
20
25.2224114
11
13.5002086
21
25.2224114
0
LINE
8
DEFAULT_255_2_778
10
13.5002086
20
25.2224114
11
13.5002086
21
23.2235114
0
LINE
8
DEFAULT_255_2_778
10
13.5002086
20
23.2235114
11
13.1719086
21
23.2235114
0
LINE
8
DEFAULT_255_2_778
10
13.1719086
20
23.2235114
11
13.1719086
21
24.7668114
0
LINE
8
DEFAULT_255_2_778
10
13.1719086
20
24.7668114
11
12.8949086
21
24.4919114
0
LINE
8
DEFAULT_255_2_778
10
12.8949086
20
24.4919114
11
12.7306086
21
24.7522114
0
LINE
8
DEFAULT_255_2_778
10
20.9904086
20
25.2063114
11
20.9573086
21
24.8718114
0
LINE
8
DEFAULT_255_2_778
10
24.8345086
20
23.2235114
11
25.3719086
21
24.2982114
0
LINE
8
DEFAULT_255_2_778
10
25.3719086
20
24.2982114
11
24.8839086
21
25.2904114
0
LINE
8
DEFAULT_255_2_778
10
24.8839086
20
25.2904114
11
25.2644086
21
25.2904114
0
LINE
8
DEFAULT_255_2_778
10
25.2644086
20
25.2904114
11
25.6068086
21
24.5530114
0
LINE
8
DEFAULT_255_2_778
10
25.6068086
20
24.5530114
11
25.9566086
21
25.2904114
0
LINE
8
DEFAULT_255_2_778
10
25.9566086
20
25.2904114
11
26.3087086
21
25.2904114
0
LINE
8
DEFAULT_255_2_778
10
26.3087086
20
25.2904114
11
25.8158086
21
24.2982114
0
LINE
8
DEFAULT_255_2_778
10
25.8158086
20
24.2982114
11
26.3532086
21
23.2232114
0
LINE
8
DEFAULT_255_2_778
10
26.3532086
20
23.2232114
11
25.9659086
21
23.2232114
0
LINE
8
DEFAULT_255_2_778
10
25.9659086
20
23.2232114
11
25.5883086
21
24.0283114
0
LINE
8
DEFAULT_255_2_778
10
25.5883086
20
24.0283114
11
25.2054086
21
23.2232114
0
LINE
8
DEFAULT_255_2_778
10
25.2054086
20
23.2232114
11
24.8345086
21
23.2232114
0
LINE
8
DEFAULT_255_2_778
10
24.6739086
20
25.2907114
11
24.6739086
21
24.9647114
0
LINE
8
DEFAULT_255_2_778
10
24.6739086
20
24.9647114
11
24.2048086
21
24.9647114
0
LINE
8
DEFAULT_255_2_778
10
24.2048086
20
24.9647114
11
24.2048086
21
23.2235114
0
LINE
8
DEFAULT_255_2_778
10
24.2048086
20
23.2235114
11
23.8761086
21
23.2235114
0
LINE
8
DEFAULT_255_2_778
10
23.8761086
20
23.2235114
11
23.8761086
21
24.9647114
0
LINE
8
DEFAULT_255_2_778
10
23.8761086
20
24.9647114
11
23.4065086
21
24.9647114
0
LINE
8
DEFAULT_255_2_778
10
23.4065086
20
24.9647114
11
23.4065086
21
25.2907114
0
LINE
8
DEFAULT_255_2_778
10
23.4065086
20
25.2907114
11
24.6739086
21
25.2907114
0
LINE
8
DEFAULT_255_2_778
10
23.3401086
20
24.3805114
11
23.3401086
21
24.0657114
0
LINE
8
DEFAULT_255_2_778
10
23.3401086
20
24.0657114
11
22.7231086
21
24.0657114
0
LINE
8
DEFAULT_255_2_778
10
22.7231086
20
24.0657114
11
22.7231086
21
24.3805114
0
LINE
8
DEFAULT_255_2_778
10
22.7231086
20
24.3805114
11
23.3401086
21
24.3805114
0
LINE
8
DEFAULT_255_2_778
10
22.4260086
20
23.5492114
11
22.4260086
21
23.2235114
0
LINE
8
DEFAULT_255_2_778
10
22.4260086
20
23.2235114
11
21.4544086
21
23.2235114
0
LINE
8
DEFAULT_255_2_778
10
21.4544086
20
23.2235114
11
21.4544086
21
25.2907114
0
LINE
8
DEFAULT_255_2_778
10
21.4544086
20
25.2907114
11
22.4215086
21
25.2907114
0
LINE
8
DEFAULT_255_2_778
10
22.4215086
20
25.2907114
11
22.4215086
21
24.9647114
0
LINE
8
DEFAULT_255_2_778
10
22.4215086
20
24.9647114
11
21.7828086
21
24.9647114
0
LINE
8
DEFAULT_255_2_778
10
21.7828086
20
24.9647114
11
21.7828086
21
24.4556114
0
LINE
8
DEFAULT_255_2_778
10
21.7828086
20
24.4556114
11
22.3675086
21
24.4556114
0
LINE
8
DEFAULT_255_2_778
10
22.3675086
20
24.4556114
11
22.3675086
21
24.1297114
0
LINE
8
DEFAULT_255_2_778
10
22.3675086
20
24.1297114
11
21.7828086
21
24.1297114
0
LINE
8
DEFAULT_255_2_778
10
21.7828086
20
24.1297114
11
21.7828086
21
23.5492114
0
LINE
8
DEFAULT_255_2_778
10
21.7828086
20
23.5492114
11
22.4260086
21
23.5492114
0
LINE
8
DEFAULT_255_2_778
10
3.5829086
20
24.2408114
11
3.5829086
21
24.2408114
0
LINE
8
DEFAULT_255_2_778
10
2.9876086
20
24.9181114
11
2.9876086
21
24.9181114
0
ARC
8
DEFAULT_255_2_778
10
3.7018065
20
23.782365
40
1.2612719
50
352.9992479
51
357.1171945
0
ARC
8
DEFAULT_255_2_778
10
3.9175611
20
23.7705981
40
1.0451989
50
357.1665899
51
359.9667297
0
ARC
8
DEFAULT_255_2_778
10
4.2618269
20
23.7811425
40
0.7010215
50
359.0885428
51
16.8416174
0
ARC
8
DEFAULT_255_2_778
10
4.5258382
20
23.8587882
40
0.4258431
50
17.1343637
51
78.3802283
0
ARC
8
DEFAULT_255_2_778
10
4.4428085
20
23.6340331
40
0.6636957
50
75.2657925
51
75.972947
0
ARC
8
DEFAULT_255_2_778
10
4.5367311
20
24.6211
40
0.3496305
50
281.0386081
51
342.1022821
0
ARC
8
DEFAULT_255_2_778
10
4.1226073
20
24.7954675
40
0.7982369
50
339.3261693
51
353.6035621
0
ARC
8
DEFAULT_255_2_778
10
3.626702
20
24.72714
40
1.2893376
50
359.0844555
51
359.995324
0
ARC
8
DEFAULT_255_2_778
10
4.0220785
20
24.7391887
40
0.8940436
50
359.2210756
51
13.8223331
0
ARC
8
DEFAULT_255_2_778
10
4.455994
20
24.8536265
40
0.4454157
50
12.8631714
51
47.0205891
0
ARC
8
DEFAULT_255_2_778
10
4.4695574
20
24.8384667
40
0.4477183
50
49.6139336
51
83.3209402
0
ARC
8
DEFAULT_255_2_778
10
4.4120881
20
24.5252495
40
0.7657724
50
81.7757225
51
90.2384769
0
ARC
8
DEFAULT_255_2_778
10
4.4090193
20
24.348913
40
0.9421022
50
90.0072077
51
91.3894532
0
ARC
8
DEFAULT_255_2_778
10
4.3881937
20
23.9319859
40
0.7576847
50
270.5657452
51
289.2360589
0
ARC
8
DEFAULT_255_2_778
10
4.4771301
20
23.6620904
40
0.4735823
50
289.8348177
51
348.993527
0
ARC
8
DEFAULT_255_2_778
10
4.1810212
20
23.7606775
40
0.7841001
50
346.0517707
51
350.3276646
0
ARC
8
DEFAULT_255_2_778
10
4.3869715
20
23.8126466
40
0.3099341
50
269.2611699
51
300.9064991
0
ARC
8
DEFAULT_255_2_778
10
4.4101277
20
23.7407618
40
0.2369771
50
305.0334871
51
355.7684271
0
ARC
8
DEFAULT_255_2_778
10
4.1660761
20
23.7878471
40
0.4847031
50
352.3443974
51
0.2353637
0
ARC
8
DEFAULT_255_2_778
10
4.1199792
20
23.8021143
40
0.5309377
50
358.6751144
51
17.2629967
0
ARC
8
DEFAULT_255_2_778
10
4.4084401
20
23.895183
40
0.227876
50
16.4399935
51
95.1525459
0
LINE
8
DEFAULT_255_2_778
10
4.387975
20
24.1221382
11
4.187175
21
24.1221382
0
LINE
8
DEFAULT_255_2_778
10
4.187175
20
24.1221382
11
4.187175
21
23.5027382
0
ARC
8
DEFAULT_255_2_778
10
4.2775041
20
24.5597061
40
1.0608207
50
265.1153407
51
270.130758
0
ARC
8
DEFAULT_255_2_778
10
4.2771974
20
24.9529523
40
1.4540667
50
270.1074779
51
274.1717263
0
ARC
8
DEFAULT_255_2_778
10
4.3673162
20
24.7302215
40
0.2965245
50
269.0451967
51
299.7971946
0
ARC
8
DEFAULT_255_2_778
10
4.3966931
20
24.6469073
40
0.2102298
50
304.1370116
51
359.3895833
0
ARC
8
DEFAULT_255_2_778
10
4.189143
20
24.6796814
40
0.4192326
50
355.2091461
51
0.0897593
0
ARC
8
DEFAULT_255_2_778
10
4.1979352
20
24.6927319
40
0.4106269
50
358.2704101
51
20.810576
0
ARC
8
DEFAULT_255_2_778
10
4.3890863
20
24.7582779
40
0.2087652
50
22.6338856
51
95.3594445
0
ARC
8
DEFAULT_255_2_778
10
4.3670455
20
24.5521941
40
0.4139442
50
89.6482325
51
89.9959147
0
LINE
8
DEFAULT_255_2_778
10
4.367075
20
24.9661382
11
4.182675
21
24.9661382
0
LINE
8
DEFAULT_255_2_778
10
4.182675
20
24.9661382
11
4.182675
21
24.4337382
0
ARC
8
DEFAULT_255_2_778
10
4.2656493
20
25.474495
40
1.0440591
50
265.4417406
51
270.1207735
0
ARC
8
DEFAULT_255_2_778
10
4.265376
20
25.8567392
40
1.4263031
50
270.0993861
51
273.8995435
0
LINE
8
DEFAULT_255_2_778
10
4.386175
20
25.2907382
11
3.884775
21
25.2907382
0
LINE
8
DEFAULT_255_2_778
10
3.884775
20
25.2907382
11
3.884775
21
23.1743382
0
LINE
8
DEFAULT_255_2_778
10
3.884775
20
23.1743382
11
4.395675
21
23.1743382
0
LINE
8
DEFAULT_255_2_778
10
4.953975
20
23.6289382
11
4.953675
21
23.6286382
0
LINE
8
DEFAULT_255_2_778
10
4.382975
20
23.5027382
11
4.382975
21
23.5027382
0
LINE
8
DEFAULT_255_2_778
10
4.362375
20
24.4337382
11
4.362375
21
24.4337382
0
LINE
8
DEFAULT_255_2_778
10
5.197875
20
23.2235382
11
5.836375
21
25.2907382
0
LINE
8
DEFAULT_255_2_778
10
5.836375
20
25.2907382
11
6.206975
21
25.2907382
0
LINE
8
DEFAULT_255_2_778
10
6.206975
20
25.2907382
11
6.850175
21
23.2235382
0
LINE
8
DEFAULT_255_2_778
10
6.850175
20
23.2235382
11
6.486375
21
23.2235382
0
LINE
8
DEFAULT_255_2_778
10
6.486375
20
23.2235382
11
6.345375
21
23.6974382
0
LINE
8
DEFAULT_255_2_778
10
6.345375
20
23.6974382
11
5.681275
21
23.6974382
0
LINE
8
DEFAULT_255_2_778
10
5.681275
20
23.6974382
11
5.537875
21
23.2235382
0
LINE
8
DEFAULT_255_2_778
10
5.537875
20
23.2235382
11
5.197875
21
23.2235382
0
LINE
8
DEFAULT_255_2_778
10
6.011975
20
24.8759382
11
5.774975
21
24.0229382
0
LINE
8
DEFAULT_255_2_778
10
5.774975
20
24.0229382
11
6.253875
21
24.0229382
0
LINE
8
DEFAULT_255_2_778
10
6.253875
20
24.0229382
11
6.016775
21
24.8759382
0
LINE
8
DEFAULT_255_2_778
10
6.016775
20
24.8759382
11
6.011975
21
24.8759382
0
ARC
8
DEFAULT_255_2_778
10
12.2618373
20
24.2352689
40
2.8779737
50
359.7683334
51
5.703484
0
ARC
8
DEFAULT_255_2_778
10
13.4576973
20
24.3597622
40
1.6756694
50
5.5314188
51
14.828318
0
ARC
8
DEFAULT_255_2_778
10
14.2080252
20
24.563658
40
0.8981624
50
14.5043277
51
30.1626613
0
ARC
8
DEFAULT_255_2_778
10
14.5740939
20
24.7881808
40
0.4689563
50
28.9176546
51
92.0660186
0
ARC
8
DEFAULT_255_2_778
10
14.5314416
20
24.7541624
40
0.5033287
50
87.0679623
51
149.2624269
0
ARC
8
DEFAULT_255_2_778
10
14.836868
20
24.5702467
40
0.8598509
50
149.1309378
51
166.074924
0
ARC
8
DEFAULT_255_2_778
10
15.542918
20
24.3849567
40
1.5897726
50
165.7169845
51
175.5440088
0
ARC
8
DEFAULT_255_2_778
10
16.5059915
20
24.2968622
40
2.5568122
50
175.2526043
51
180.1463295
0
ARC
8
DEFAULT_255_2_778
10
17.1692009
20
24.2777392
40
3.220038
50
179.7759241
51
185.5081638
0
ARC
8
DEFAULT_255_2_778
10
15.8654194
20
24.1484503
40
1.9098699
50
185.401814
51
193.62635
0
ARC
8
DEFAULT_255_2_778
10
15.0376646
20
23.9424679
40
1.0568996
50
193.3458281
51
206.9906192
0
ARC
8
DEFAULT_255_2_778
10
14.5941215
20
23.708883
40
0.5556978
50
206.2850062
51
235.1349061
0
ARC
8
DEFAULT_255_2_778
10
14.5450417
20
23.6678044
40
0.4942215
50
237.0814904
51
271.4082273
0
ARC
8
DEFAULT_255_2_778
10
14.5728026
20
23.6411011
40
0.4676296
50
268.0864216
51
331.791177
0
ARC
8
DEFAULT_255_2_778
10
14.189386
20
23.8744752
40
0.9161464
50
330.2637357
51
345.466964
0
ARC
8
DEFAULT_255_2_778
10
13.4417268
20
24.0780804
40
1.6910015
50
345.1459498
51
354.1411564
0
ARC
8
DEFAULT_255_2_778
10
12.2340523
20
24.2088323
40
2.9057224
50
354.0072313
51
0.0786816
0
ARC
8
DEFAULT_255_2_778
10
11.4041876
20
24.2235494
40
3.7355998
50
359.8354745
51
0.0012715
0
ARC
8
DEFAULT_255_2_778
10
14.5516944
20
24.7610288
40
0.1293045
50
93.1950724
51
156.3062007
0
ARC
8
DEFAULT_255_2_778
10
14.8705824
20
24.5769739
40
0.4969189
50
151.6433828
51
167.7181008
0
ARC
8
DEFAULT_255_2_778
10
15.7071501
20
24.3768518
40
1.3570242
50
166.9755775
51
174.7334785
0
ARC
8
DEFAULT_255_2_778
10
17.278983
20
24.2200978
40
2.9366337
50
174.5029466
51
179.0185576
0
ARC
8
DEFAULT_255_2_778
10
18.8937198
20
24.1753277
40
4.5519327
50
178.8032485
51
180.0213402
0
ARC
8
DEFAULT_255_2_778
10
17.3600806
20
24.1616487
40
3.0183169
50
179.7725184
51
184.1661784
0
ARC
8
DEFAULT_255_2_778
10
15.7720332
20
24.0410034
40
1.4257098
50
183.9670233
51
191.29961
0
ARC
8
DEFAULT_255_2_778
10
14.9078953
20
23.8621056
40
0.5433037
50
190.6551103
51
205.4341039
0
ARC
8
DEFAULT_255_2_778
10
14.5570091
20
23.6856201
40
0.1508797
50
202.134388
51
249.5321502
0
ARC
8
DEFAULT_255_2_778
10
14.5341036
20
23.6470535
40
0.1070355
50
253.8042235
51
270.2200795
0
ARC
8
DEFAULT_255_2_778
10
14.5344448
20
23.6621435
40
0.1221248
50
270.0328108
51
274.7169198
0
ARC
8
DEFAULT_255_2_778
10
14.5379322
20
23.6789255
40
0.1386483
50
272.7099602
51
337.4212113
0
ARC
8
DEFAULT_255_2_778
10
14.2162338
20
23.8580442
40
0.5061973
50
332.6763003
51
348.462577
0
ARC
8
DEFAULT_255_2_778
10
13.4156441
20
24.0371059
40
1.3265126
50
347.8008764
51
355.710798
0
ARC
8
DEFAULT_255_2_778
10
11.9099466
20
24.1607592
40
2.8372612
50
355.4948293
51
0.2184916
0
ARC
8
DEFAULT_255_2_778
10
9.4820601
20
24.1741438
40
5.2651275
50
359.9720869
51
359.9944331
0
ARC
8
DEFAULT_255_2_778
10
10.2715641
20
24.2535616
40
4.4763371
50
358.9768734
51
359.7268587
0
ARC
8
DEFAULT_255_2_778
10
10.6637048
20
24.2512232
40
4.0841899
50
359.7334386
51
359.9996288
0
ARC
8
DEFAULT_255_2_778
10
11.7621998
20
24.2615558
40
2.9857127
50
359.801208
51
3.971267
0
ARC
8
DEFAULT_255_2_778
10
13.2704168
20
24.3718299
40
1.4734905
50
3.7552294
51
10.995491
0
ARC
8
DEFAULT_255_2_778
10
14.1423388
20
24.547209
40
0.584154
50
10.4210744
51
24.5988984
0
ARC
8
DEFAULT_255_2_778
10
14.5108548
20
24.7245715
40
0.1754299
50
22.0289342
51
62.9929907
0
ARC
8
DEFAULT_255_2_778
10
14.545238
20
24.7748456
40
0.1152892
50
66.8744942
51
90.372964
0
LINE
8
DEFAULT_255_2_778
10
15.1397875
20
24.2236323
11
15.1397875
21
24.2236323
0
LINE
8
DEFAULT_255_2_778
10
14.5444875
20
24.8901323
11
14.5444875
21
24.8901323
0
ARC
8
DEFAULT_255_2_778
10
13.6731373
20
24.2352689
40
2.8779737
50
359.7683334
51
5.703484
0
ARC
8
DEFAULT_255_2_778
10
14.8689973
20
24.3597622
40
1.6756694
50
5.5314188
51
14.828318
0
ARC
8
DEFAULT_255_2_778
10
15.6193252
20
24.563658
40
0.8981624
50
14.5043277
51
30.1626613
0
ARC
8
DEFAULT_255_2_778
10
15.9853939
20
24.7881808
40
0.4689563
50
28.9176546
51
92.0660186
0
ARC
8
DEFAULT_255_2_778
10
15.9427416
20
24.7541624
40
0.5033287
50
87.0679623
51
149.2624269
0
ARC
8
DEFAULT_255_2_778
10
16.248168
20
24.5702467
40
0.8598509
50
149.1309378
51
166.074924
0
ARC
8
DEFAULT_255_2_778
10
16.954218
20
24.3849567
40
1.5897726
50
165.7169845
51
175.5440088
0
ARC
8
DEFAULT_255_2_778
10
17.9172915
20
24.2968622
40
2.5568122
50
175.2526043
51
180.1463295
0
ARC
8
DEFAULT_255_2_778
10
18.5805009
20
24.2777392
40
3.220038
50
179.7759241
51
185.5081638
0
ARC
8
DEFAULT_255_2_778
10
17.2767194
20
24.1484503
40
1.9098699
50
185.401814
51
193.62635
0
ARC
8
DEFAULT_255_2_778
10
16.4489646
20
23.9424679
40
1.0568996
50
193.3458281
51
206.9906192
0
ARC
8
DEFAULT_255_2_778
10
16.0054215
20
23.708883
40
0.5556978
50
206.2850062
51
235.1349061
0
ARC
8
DEFAULT_255_2_778
10
15.9563417
20
23.6678044
40
0.4942215
50
237.0814904
51
271.4082273
0
ARC
8
DEFAULT_255_2_778
10
15.9841026
20
23.6411011
40
0.4676296
50
268.0864216
51
331.791177
0
ARC
8
DEFAULT_255_2_778
10
15.600686
20
23.8744752
40
0.9161464
50
330.2637357
51
345.466964
0
ARC
8
DEFAULT_255_2_778
10
14.8530268
20
24.0780804
40
1.6910015
50
345.1459498
51
354.1411564
0
ARC
8
DEFAULT_255_2_778
10
13.6453523
20
24.2088323
40
2.9057224
50
354.0072313
51
0.0786816
0
ARC
8
DEFAULT_255_2_778
10
12.8154876
20
24.2235494
40
3.7355998
50
359.8354745
51
0.0012715
0
ARC
8
DEFAULT_255_2_778
10
15.9629944
20
24.7610288
40
0.1293045
50
93.1950724
51
156.3062007
0
ARC
8
DEFAULT_255_2_778
10
16.2818824
20
24.5769739
40
0.4969189
50
151.6433828
51
167.7181008
0
ARC
8
DEFAULT_255_2_778
10
17.1184501
20
24.3768518
40
1.3570242
50
166.9755775
51
174.7334785
0
ARC
8
DEFAULT_255_2_778
10
18.690283
20
24.2200978
40
2.9366337
50
174.5029466
51
179.0185576
0
ARC
8
DEFAULT_255_2_778
10
20.3050198
20
24.1753277
40
4.5519327
50
178.8032485
51
180.0213402
0
ARC
8
DEFAULT_255_2_778
10
18.7713806
20
24.1616487
40
3.0183169
50
179.7725184
51
184.1661784
0
ARC
8
DEFAULT_255_2_778
10
17.1833332
20
24.0410034
40
1.4257098
50
183.9670233
51
191.29961
0
ARC
8
DEFAULT_255_2_778
10
16.3191953
20
23.8621056
40
0.5433037
50
190.6551103
51
205.4341039
0
ARC
8
DEFAULT_255_2_778
10
15.9683091
20
23.6856201
40
0.1508797
50
202.134388
51
249.5321502
0
ARC
8
DEFAULT_255_2_778
10
15.9454036
20
23.6470535
40
0.1070355
50
253.8042235
51
270.2200795
0
ARC
8
DEFAULT_255_2_778
10
15.9457448
20
23.6621435
40
0.1221248
50
270.0328108
51
274.7169198
0
ARC
8
DEFAULT_255_2_778
10
15.9492322
20
23.6789255
40
0.1386483
50
272.7099602
51
337.4212113
0
ARC
8
DEFAULT_255_2_778
10
15.6275338
20
23.8580442
40
0.5061973
50
332.6763003
51
348.462577
0
ARC
8
DEFAULT_255_2_778
10
14.8269441
20
24.0371059
40
1.3265126
50
347.8008764
51
355.710798
0
ARC
8
DEFAULT_255_2_778
10
13.3212466
20
24.1607592
40
2.8372612
50
355.4948293
51
0.2184916
0
ARC
8
DEFAULT_255_2_778
10
10.8933601
20
24.1741438
40
5.2651275
50
359.9720869
51
359.9944331
0
ARC
8
DEFAULT_255_2_778
10
11.6828641
20
24.2535616
40
4.4763371
50
358.9768734
51
359.7268587
0
ARC
8
DEFAULT_255_2_778
10
12.0750048
20
24.2512232
40
4.0841899
50
359.7334386
51
359.9996288
0
ARC
8
DEFAULT_255_2_778
10
13.1734998
20
24.2615558
40
2.9857127
50
359.801208
51
3.971267
0
ARC
8
DEFAULT_255_2_778
10
14.6817168
20
24.3718299
40
1.4734905
50
3.7552294
51
10.995491
0
ARC
8
DEFAULT_255_2_778
10
15.5536388
20
24.547209
40
0.584154
50
10.4210744
51
24.5988984
0
ARC
8
DEFAULT_255_2_778
10
15.9221548
20
24.7245715
40
0.1754299
50
22.0289342
51
62.9929907
0
ARC
8
DEFAULT_255_2_778
10
15.956538
20
24.7748456
40
0.1152892
50
66.8744942
51
90.372964
0
LINE
8
DEFAULT_255_2_778
10
16.5510875
20
24.2236323
11
16.5510875
21
24.2236323
0
LINE
8
DEFAULT_255_2_778
10
15.9557875
20
24.8901323
11
15.9557875
21
24.8901323
0
ARC
8
DEFAULT_255_2_778
10
16.6701065
20
23.782365
40
1.2612719
50
352.9992479
51
357.1171945
0
ARC
8
DEFAULT_255_2_778
10
16.8858611
20
23.7705981
40
1.0451989
50
357.1665899
51
359.9667297
0
ARC
8
DEFAULT_255_2_778
10
17.2301269
20
23.7811425
40
0.7010215
50
359.0885428
51
16.8416174
0
ARC
8
DEFAULT_255_2_778
10
17.4941382
20
23.8587882
40
0.4258431
50
17.1343637
51
78.3802283
0
ARC
8
DEFAULT_255_2_778
10
17.4111085
20
23.6340331
40
0.6636957
50
75.2657925
51
75.972947
0
ARC
8
DEFAULT_255_2_778
10
17.5050311
20
24.6211
40
0.3496305
50
281.0386081
51
342.1022821
0
ARC
8
DEFAULT_255_2_778
10
17.0909073
20
24.7954675
40
0.7982369
50
339.3261693
51
353.6035621
0
ARC
8
DEFAULT_255_2_778
10
16.595002
20
24.72714
40
1.2893376
50
359.0844555
51
359.995324
0
ARC
8
DEFAULT_255_2_778
10
16.9903785
20
24.7391887
40
0.8940436
50
359.2210756
51
13.8223331
0
ARC
8
DEFAULT_255_2_778
10
17.424294
20
24.8536265
40
0.4454157
50
12.8631714
51
47.0205891
0
ARC
8
DEFAULT_255_2_778
10
17.4378574
20
24.8384667
40
0.4477183
50
49.6139336
51
83.3209402
0
ARC
8
DEFAULT_255_2_778
10
17.3803881
20
24.5252495
40
0.7657724
50
81.7757225
51
90.2384769
0
ARC
8
DEFAULT_255_2_778
10
17.3773193
20
24.348913
40
0.9421022
50
90.0072077
51
91.3894532
0
ARC
8
DEFAULT_255_2_778
10
17.3564937
20
23.9319859
40
0.7576847
50
270.5657452
51
289.2360589
0
ARC
8
DEFAULT_255_2_778
10
17.4454301
20
23.6620904
40
0.4735823
50
289.8348177
51
348.993527
0
ARC
8
DEFAULT_255_2_778
10
17.1493212
20
23.7606775
40
0.7841001
50
346.0517707
51
350.3276646
0
ARC
8
DEFAULT_255_2_778
10
17.3555666
20
23.8124446
40
0.3097321
50
269.2615924
51
300.9167937
0
ARC
8
DEFAULT_255_2_778
10
17.3786105
20
23.7407435
40
0.2369945
50
305.0471818
51
355.7731738
0
ARC
8
DEFAULT_255_2_778
10
17.1343991
20
23.787847
40
0.4848801
50
352.3472177
51
0.2352865
0
ARC
8
DEFAULT_255_2_778
10
17.0882893
20
23.8021146
40
0.5311277
50
358.675558
51
17.2565972
0
ARC
8
DEFAULT_255_2_778
10
17.3770118
20
23.895264
40
0.2277929
50
16.4249259
51
95.1472943
0
LINE
8
DEFAULT_255_2_778
10
17.356575
20
24.1221382
11
17.155775
21
24.1221382
0
LINE
8
DEFAULT_255_2_778
10
17.155775
20
24.1221382
11
17.155775
21
23.5027382
0
ARC
8
DEFAULT_255_2_778
10
17.2461041
20
24.559707
40
1.0608215
50
265.1153413
51
270.1307546
0
ARC
8
DEFAULT_255_2_778
10
17.2457977
20
24.9529451
40
1.4540594
50
270.1074685
51
274.1717373
0
ARC
8
DEFAULT_255_2_778
10
17.3358211
20
24.7304358
40
0.2967388
50
269.0449416
51
299.7861903
0
ARC
8
DEFAULT_255_2_778
10
17.3653134
20
24.6469218
40
0.210209
50
304.1216342
51
359.385589
0
ARC
8
DEFAULT_255_2_778
10
17.1578587
20
24.6796837
40
0.4191169
50
355.2075083
51
0.0894727
0
ARC
8
DEFAULT_255_2_778
10
17.1665352
20
24.6927319
40
0.4106269
50
358.2704101
51
20.810576
0
ARC
8
DEFAULT_255_2_778
10
17.3576863
20
24.7582779
40
0.2087652
50
22.6338856
51
95.3594445
0
ARC
8
DEFAULT_255_2_778
10
17.3356455
20
24.5521941
40
0.4139442
50
89.6482325
51
89.9959147
0
LINE
8
DEFAULT_255_2_778
10
17.335675
20
24.9661382
11
17.151275
21
24.9661382
0
LINE
8
DEFAULT_255_2_778
10
17.151275
20
24.9661382
11
17.151275
21
24.4337382
0
ARC
8
DEFAULT_255_2_778
10
17.2341628
20
25.4723125
40
1.0418767
50
265.4369448
51
270.1216596
0
ARC
8
DEFAULT_255_2_778
10
17.2338873
20
25.8563957
40
1.4259597
50
270.099958
51
273.9000266
0
LINE
8
DEFAULT_255_2_778
10
17.354475
20
25.2907382
11
16.853075
21
25.2907382
0
LINE
8
DEFAULT_255_2_778
10
16.853075
20
25.2907382
11
16.853075
21
23.1743382
0
LINE
8
DEFAULT_255_2_778
10
16.853075
20
23.1743382
11
17.363975
21
23.1743382
0
LINE
8
DEFAULT_255_2_778
10
17.922275
20
23.6289382
11
17.921975
21
23.6286382
0
LINE
8
DEFAULT_255_2_778
10
17.351575
20
23.5027382
11
17.351575
21
23.5027382
0
LINE
8
DEFAULT_255_2_778
10
17.330875
20
24.4337382
11
17.330875
21
24.4337382
0
LINE
8
DEFAULT_255_2_778
10
18.166175
20
23.2235382
11
18.804675
21
25.2907382
0
LINE
8
DEFAULT_255_2_778
10
18.804675
20
25.2907382
11
19.175275
21
25.2907382
0
LINE
8
DEFAULT_255_2_778
10
19.175275
20
25.2907382
11
19.818475
21
23.2235382
0
LINE
8
DEFAULT_255_2_778
10
19.818475
20
23.2235382
11
19.454675
21
23.2235382
0
LINE
8
DEFAULT_255_2_778
10
19.454675
20
23.2235382
11
19.313675
21
23.6974382
0
LINE
8
DEFAULT_255_2_778
10
19.313675
20
23.6974382
11
18.649575
21
23.6974382
0
LINE
8
DEFAULT_255_2_778
10
18.649575
20
23.6974382
11
18.506675
21
23.2235382
0
LINE
8
DEFAULT_255_2_778
10
18.506675
20
23.2235382
11
18.166175
21
23.2235382
0
LINE
8
DEFAULT_255_2_778
10
18.980575
20
24.8759382
11
18.743475
21
24.0229382
0
LINE
8
DEFAULT_255_2_778
10
18.743475
20
24.0229382
11
19.222375
21
24.0229382
0
LINE
8
DEFAULT_255_2_778
10
19.222375
20
24.0229382
11
18.985375
21
24.8759382
0
LINE
8
DEFAULT_255_2_778
10
18.985375
20
24.8759382
11
18.980575
21
24.8759382
0
LINE
8
DEFAULT_255_2_778
10
1.5227771
20
24.4417333
11
1.3907771
21
24.8237333
0
LINE
8
DEFAULT_255_2_778
10
1.3907771
20
24.8237333
11
1.7675771
21
25.2907333
0
LINE
8
DEFAULT_255_2_778
10
1.7675771
20
25.2907333
11
2.0283771
21
25.2907333
0
LINE
8
DEFAULT_255_2_778
10
2.0283771
20
25.2907333
11
2.0283771
21
23.1740333
0
LINE
8
DEFAULT_255_2_778
10
2.0283771
20
23.1740333
11
1.7328771
21
23.1740333
0
LINE
8
DEFAULT_255_2_778
10
1.7328771
20
23.1740333
11
1.7328771
21
24.7266333
0
LINE
8
DEFAULT_255_2_778
10
1.7328771
20
24.7266333
11
1.5227771
21
24.4417333
0
LINE
8
DEFAULT_255_2_778
10
6.4540746
20
39.1765313
11
7.1200746
21
39.1765313
0
LINE
8
DEFAULT_255_2_778
10
7.1200746
20
39.1765313
11
7.1200746
21
37.5099313
0
ARC
8
DEFAULT_255_2_778
10
8.1068731
20
37.4975527
40
0.9868761
50
179.2813077
51
192.1701584
0
ARC
8
DEFAULT_255_2_778
10
7.596194
20
37.3807129
40
0.4630889
50
191.3591518
51
218.1803708
0
ARC
8
DEFAULT_255_2_778
10
7.5020387
20
37.3271691
40
0.3563433
50
220.7718612
51
268.6347394
0
ARC
8
DEFAULT_255_2_778
10
7.5356321
20
37.5620817
40
0.5926508
50
265.9280505
51
270.0524523
0
ARC
8
DEFAULT_255_2_778
10
7.5495639
20
37.3977048
40
0.4284827
50
268.2093249
51
298.0658156
0
ARC
8
DEFAULT_255_2_778
10
7.5635461
20
37.3322453
40
0.3646099
50
300.9678613
51
343.8540933
0
ARC
8
DEFAULT_255_2_778
10
7.1569026
20
37.4716119
40
0.7942419
50
342.3542731
51
357.7417669
0
ARC
8
DEFAULT_255_2_778
10
6.6830572
20
37.5087798
40
1.2693181
50
356.9081163
51
0.0519784
0
LINE
8
DEFAULT_255_2_778
10
7.9523746
20
37.5099313
11
7.9523746
21
39.1765313
0
LINE
8
DEFAULT_255_2_778
10
7.9523746
20
39.1765313
11
8.6598746
21
39.1765313
0
LINE
8
DEFAULT_255_2_778
10
8.6598746
20
39.1765313
11
8.6598746
21
37.3747313
0
ARC
8
DEFAULT_255_2_778
10
7.3369529
20
37.3617988
40
1.3229849
50
347.0846725
51
0.5600896
0
ARC
8
DEFAULT_255_2_778
10
7.8509357
20
37.2369286
40
0.7941246
50
319.693878
51
347.5774858
0
ARC
8
DEFAULT_255_2_778
10
7.8767998
20
37.2415712
40
0.777668
50
288.6524632
51
318.2002023
0
ARC
8
DEFAULT_255_2_778
10
7.7031823
20
37.7180251
40
1.2846812
50
275.6146814
51
289.1928164
0
ARC
8
DEFAULT_255_2_778
10
7.625018
20
38.3790539
40
1.9502302
50
269.8400785
51
276.0000086
0
ARC
8
DEFAULT_255_2_778
10
7.6068233
20
38.5382607
40
2.109468
50
261.1885935
51
270.3463428
0
ARC
8
DEFAULT_255_2_778
10
7.4777314
20
37.7346376
40
1.2955622
50
247.0441192
51
261.3861581
0
ARC
8
DEFAULT_255_2_778
10
7.2765396
20
37.2852636
40
0.803369
50
194.6262255
51
247.7568098
0
ARC
8
DEFAULT_255_2_778
10
7.7219392
20
37.4195179
40
1.2683556
50
182.0235805
51
195.413836
0
LINE
8
DEFAULT_255_2_778
10
6.4543746
20
37.3747313
11
6.4543746
21
39.1765313
0
ARC
8
DEFAULT_255_2_778
10
9.9264893
20
36.8329977
40
2.0189874
50
67.0615179
51
72.403915
0
ARC
8
DEFAULT_255_2_778
10
10.1164864
20
37.4383559
40
1.3845173
50
72.3254813
51
79.854812
0
ARC
8
DEFAULT_255_2_778
10
10.1951889
20
37.8829315
40
0.9330303
50
79.8034153
51
89.6780791
0
ARC
8
DEFAULT_255_2_778
10
10.1930761
20
38.2028326
40
0.6131585
50
89.3126949
51
108.5174031
0
ARC
8
DEFAULT_255_2_778
10
10.1587826
20
38.3202318
40
0.4909692
50
109.0737331
51
139.6930217
0
ARC
8
DEFAULT_255_2_778
10
10.2191918
20
38.4090612
40
0.4913265
50
152.2498235
51
162.9699077
0
ARC
8
DEFAULT_255_2_778
10
10.056
20
38.4581114
40
0.3209262
50
162.8100756
51
179.4793828
0
ARC
8
DEFAULT_255_2_778
10
10.0025918
20
38.4646776
40
0.2675296
50
180.7817695
51
231.4212111
0
ARC
8
DEFAULT_255_2_778
10
10.2184601
20
38.7047897
40
0.5901576
50
229.5739529
51
245.2496313
0
ARC
8
DEFAULT_255_2_778
10
10.4748977
20
39.2417805
40
1.1852099
50
244.8599027
51
253.8568327
0
ARC
8
DEFAULT_255_2_778
10
10.6324111
20
39.738415
40
1.706108
50
253.4128938
51
254.5662425
0
ARC
8
DEFAULT_255_2_778
10
9.5649557
20
36.2117145
40
1.9795571
50
64.0642106
51
71.9481898
0
ARC
8
DEFAULT_255_2_778
10
9.8899631
20
36.872605
40
1.2430861
50
52.4082514
51
64.2128474
0
ARC
8
DEFAULT_255_2_778
10
10.1802246
20
37.2428601
40
0.7726469
50
31.7835772
51
52.7144825
0
ARC
8
DEFAULT_255_2_778
10
10.2899332
20
37.3213829
40
0.638094
50
359.3163213
51
30.9787525
0
ARC
8
DEFAULT_255_2_778
10
10.0795123
20
37.3167908
40
0.8484748
50
349.882256
51
359.7959461
0
ARC
8
DEFAULT_255_2_778
10
9.8345592
20
37.359414
40
1.0971066
50
342.7862909
51
349.9381853
0
ARC
8
DEFAULT_255_2_778
10
9.5882719
20
37.4332429
40
1.354213
50
339.1583005
51
342.8862864
0
ARC
8
DEFAULT_255_2_778
10
9.7708204
20
37.5569522
40
1.2408311
50
318.1341366
51
330.7910342
0
ARC
8
DEFAULT_255_2_778
10
10.0330813
20
37.3134791
40
0.8830542
50
274.5872213
51
318.5420441
0
ARC
8
DEFAULT_255_2_778
10
10.001678
20
37.5401148
40
1.1115537
50
269.9450904
51
275.2664596
0
ARC
8
DEFAULT_255_2_778
10
10.0056029
20
37.7851449
40
1.3565923
50
260.8356427
51
269.789243
0
ARC
8
DEFAULT_255_2_778
10
10.0743772
20
38.2222911
40
1.7991129
50
254.3042846
51
260.8906265
0
ARC
8
DEFAULT_255_2_778
10
10.2255682
20
38.765333
40
2.3628077
50
249.1889473
51
254.337139
0
ARC
8
DEFAULT_255_2_778
10
10.4462708
20
39.3536596
40
2.9911643
50
245.8199691
51
249.2410807
0
ARC
8
DEFAULT_255_2_778
10
-25.0450755
20
41.0380116
40
34.5491581
50
352.6613682
51
353.4212883
0
ARC
8
DEFAULT_255_2_778
10
-28.4339989
20
41.4436395
40
37.9622416
50
353.3991099
51
353.4107321
0
ARC
8
DEFAULT_255_2_778
10
10.199584
20
39.0604746
40
2.1778855
50
244.9507832
51
250.5814491
0
ARC
8
DEFAULT_255_2_778
10
9.9764762
20
38.422772
40
1.5022835
50
250.5204868
51
258.1087443
0
ARC
8
DEFAULT_255_2_778
10
9.8778202
20
37.9457675
40
1.0151883
50
258.0099652
51
268.8180341
0
ARC
8
DEFAULT_255_2_778
10
9.8688399
20
37.7605507
40
0.8298415
50
269.1741516
51
269.9974136
0
ARC
8
DEFAULT_255_2_778
10
9.8761654
20
37.5967373
40
0.6660686
50
269.3666191
51
289.3543335
0
ARC
8
DEFAULT_255_2_778
10
9.9006177
20
37.5081729
40
0.57444
50
289.980787
51
316.7575045
0
ARC
8
DEFAULT_255_2_778
10
9.9576914
20
37.3193833
40
0.4153568
50
330.4650334
51
342.2294418
0
ARC
8
DEFAULT_255_2_778
10
10.0877589
20
37.278146
40
0.2789096
50
342.1415842
51
359.544458
0
ARC
8
DEFAULT_255_2_778
10
10.1092528
20
37.2705268
40
0.2574635
50
1.2021942
51
48.011114
0
ARC
8
DEFAULT_255_2_778
10
9.8813553
20
37.0432344
40
0.579124
50
46.2958252
51
62.0527561
0
ARC
8
DEFAULT_255_2_778
10
9.5922019
20
36.5171625
40
1.1793929
50
61.6211504
51
70.4161717
0
ARC
8
DEFAULT_255_2_778
10
9.3541628
20
35.8844537
40
1.8553282
50
70.0395944
51
72.9913984
0
ARC
8
DEFAULT_255_2_778
10
10.2366615
20
39.1186322
40
1.4990189
50
245.4992729
51
256.8987333
0
ARC
8
DEFAULT_255_2_778
10
9.9685558
20
38.5434553
40
0.8644656
50
225.7217732
51
245.8595526
0
ARC
8
DEFAULT_255_2_778
10
9.8194771
20
38.3775704
40
0.6416848
50
183.4789932
51
224.9112356
0
ARC
8
DEFAULT_255_2_778
10
10.697508
20
38.3769034
40
1.5190156
50
180.0083492
51
181.4437398
0
ARC
8
DEFAULT_255_2_778
10
10.3344245
20
38.3864356
40
1.1559732
50
167.7619862
51
180.4834412
0
ARC
8
DEFAULT_255_2_778
10
9.916371
20
38.4821163
40
0.7271544
50
143.2687143
51
168.1473123
0
ARC
8
DEFAULT_255_2_778
10
9.8752097
20
38.4941833
40
0.6871115
50
112.0174988
51
142.022326
0
ARC
8
DEFAULT_255_2_778
10
10.0340588
20
38.1251787
40
1.0887918
50
98.8082431
51
112.4873265
0
ARC
8
DEFAULT_255_2_778
10
10.1390883
20
37.4836128
40
1.7388831
50
90.1804506
51
98.9910859
0
ARC
8
DEFAULT_255_2_778
10
10.1528822
20
37.0068434
40
2.2157276
50
89.9993524
51
90.4983155
0
ARC
8
DEFAULT_255_2_778
10
10.1503441
20
36.7273208
40
2.4952515
50
86.6564353
51
89.9411444
0
ARC
8
DEFAULT_255_2_778
10
10.1164047
20
36.143128
40
3.0804293
50
83.7164122
51
86.6599746
0
ARC
8
DEFAULT_255_2_778
10
10.0413391
20
35.4552839
40
3.772357
50
81.2719293
51
83.7265828
0
ARC
8
DEFAULT_255_2_778
10
9.9212775
20
34.6708223
40
4.5659531
50
79.1153833
51
81.2765343
0
ARC
8
DEFAULT_255_2_778
10
12.0991062
20
37.2593364
40
1.2047857
50
350.4441509
51
355.1626629
0
ARC
8
DEFAULT_255_2_778
10
12.3147313
20
37.2408445
40
0.9883692
50
355.17675
51
359.9275378
0
ARC
8
DEFAULT_255_2_778
10
12.6260122
20
37.2514139
40
0.6771907
50
358.9999343
51
21.788838
0
ARC
8
DEFAULT_255_2_778
10
12.7409508
20
37.2823273
40
0.559163
50
23.2193097
51
63.277017
0
ARC
8
DEFAULT_255_2_778
10
12.5389224
20
36.9172704
40
0.9762122
50
62.3207526
51
76.6069082
0
ARC
8
DEFAULT_255_2_778
10
12.4242383
20
36.4954469
40
1.413196
50
76.0450547
51
79.7595928
0
ARC
8
DEFAULT_255_2_778
10
12.590787
20
38.5748518
40
0.6939077
50
277.0101102
51
301.0660368
0
ARC
8
DEFAULT_255_2_778
10
12.6382886
20
38.463576
40
0.5743236
50
302.7355502
51
343.4995686
0
ARC
8
DEFAULT_255_2_778
10
12.3186326
20
38.584308
40
0.9154464
50
341.9365325
51
350.4057876
0
ARC
8
DEFAULT_255_2_778
10
12.0261129
20
38.4580889
40
1.1954523
50
358.7366262
51
359.9946982
0
ARC
8
DEFAULT_255_2_778
10
12.3563099
20
38.4705592
40
0.8653469
50
359.1669722
51
17.221778
0
ARC
8
DEFAULT_255_2_778
10
12.6254625
20
38.5476044
40
0.5854822
50
17.81848
51
71.6615804
0
ARC
8
DEFAULT_255_2_778
10
12.4291237
20
38.0611339
40
1.1095212
50
69.9411934
51
83.7618182
0
ARC
8
DEFAULT_255_2_778
10
12.3421447
20
37.3779763
40
1.7981267
50
83.3720902
51
90.2170236
0
ARC
8
DEFAULT_255_2_778
10
12.3355469
20
36.9145904
40
2.2614996
50
90.0053977
51
91.0203646
0
ARC
8
DEFAULT_255_2_778
10
12.286092
20
38.4536583
40
1.9736968
50
270.7513839
51
279.8157679
0
ARC
8
DEFAULT_255_2_778
10
12.429995
20
37.6492486
40
1.1565395
50
279.5849039
51
294.0541493
0
ARC
8
DEFAULT_255_2_778
10
12.6459137
20
37.1982437
40
0.6568267
50
292.8905019
51
347.745672
0
ARC
8
DEFAULT_255_2_778
10
12.2848052
20
37.743598
40
0.8448807
50
270.3302238
51
284.3697999
0
ARC
8
DEFAULT_255_2_778
10
12.4084047
20
37.2907499
40
0.3755975
50
283.2492644
51
315.622772
0
ARC
8
DEFAULT_255_2_778
10
12.4281403
20
37.2446398
40
0.3297998
50
318.952346
51
1.0478146
0
ARC
8
DEFAULT_255_2_778
10
12.2302386
20
37.2648226
40
0.5278362
50
358.4636571
51
359.9575193
0
ARC
8
DEFAULT_255_2_778
10
12.2361174
20
37.2773308
40
0.5221166
50
358.5842998
51
21.5432631
0
ARC
8
DEFAULT_255_2_778
10
12.4075592
20
37.3330605
40
0.3423679
50
23.4041424
51
80.2011609
0
ARC
8
DEFAULT_255_2_778
10
12.3070394
20
36.952151
40
0.7356244
50
77.5343827
51
90.6281569
0
LINE
8
DEFAULT_255_2_778
10
12.2989746
20
37.6877313
11
11.9478746
21
37.6877313
0
LINE
8
DEFAULT_255_2_778
10
11.9478746
20
37.6877313
11
11.9478746
21
36.8987313
0
ARC
8
DEFAULT_255_2_778
10
12.1057642
20
39.5184752
40
2.6244975
50
266.5510071
51
270.0924637
0
ARC
8
DEFAULT_255_2_778
10
12.1053149
20
40.4833591
40
3.5893809
50
270.0747793
51
272.9489463
0
ARC
8
DEFAULT_255_2_778
10
12.2503803
20
38.8965367
40
0.8119113
50
270.2183616
51
284.164007
0
ARC
8
DEFAULT_255_2_778
10
12.3733213
20
38.4395946
40
0.3388578
50
282.914283
51
315.5656374
0
ARC
8
DEFAULT_255_2_778
10
12.4039408
20
38.3856294
40
0.2797362
50
319.0697592
51
2.664015
0
ARC
8
DEFAULT_255_2_778
10
12.2778122
20
38.4117779
40
0.4057754
50
358.1433627
51
26.4358661
0
ARC
8
DEFAULT_255_2_778
10
12.3723194
20
38.4404861
40
0.3088038
50
29.4742122
51
78.6452055
0
ARC
8
DEFAULT_255_2_778
10
12.2711239
20
38.0712663
40
0.6912296
50
76.4463181
51
90.7832756
0
LINE
8
DEFAULT_255_2_778
10
12.2616746
20
38.7624313
11
11.9391746
21
38.7624313
0
LINE
8
DEFAULT_255_2_778
10
11.9391746
20
38.7624313
11
11.9391746
21
38.0843313
0
ARC
8
DEFAULT_255_2_778
10
12.0840425
20
40.6397264
40
2.5594982
50
266.7553175
51
270.0885813
0
ARC
8
DEFAULT_255_2_778
10
12.0836315
20
41.5978421
40
3.5176136
50
270.0711484
51
272.767523
0
LINE
8
DEFAULT_255_2_778
10
6.4543746
20
39.1765313
11
6.4540746
21
39.1765313
0
LINE
8
DEFAULT_255_2_778
10
10.7834746
20
39.1546313
11
10.7270746
21
38.7058313
0
LINE
8
DEFAULT_255_2_778
10
12.2952746
20
39.1757313
11
11.4189746
21
39.1757313
0
LINE
8
DEFAULT_255_2_778
10
11.4189746
20
39.1757313
11
11.4189746
21
36.4801313
0
LINE
8
DEFAULT_255_2_778
10
11.4189746
20
36.4801313
11
12.3119746
21
36.4801313
0
LINE
8
DEFAULT_255_2_778
10
13.2877746
20
37.0588313
11
13.2871746
21
37.0593313
0
LINE
8
DEFAULT_255_2_778
10
12.2899746
20
36.8987313
11
12.2896746
21
36.8987313
0
LINE
8
DEFAULT_255_2_778
10
12.2534746
20
38.0843313
11
12.2534746
21
38.0846313
0
LINE
8
DEFAULT_255_2_778
10
9.4549746
20
41.6700313
11
10.6098746
21
43.6702313
0
LINE
8
DEFAULT_255_2_778
10
10.6098746
20
43.6702313
11
11.7647746
21
41.6700313
0
LINE
8
DEFAULT_255_2_778
10
11.7647746
20
41.6700313
11
9.4552746
21
41.6700313
0
LINE
8
DEFAULT_255_2_778
10
14.0769886
20
43.6689239
11
14.5182886
21
43.6689239
0
LINE
8
DEFAULT_255_2_778
10
14.5182886
20
43.6689239
11
14.5182886
21
42.4452239
0
ARC
8
DEFAULT_255_2_778
10
15.2697377
20
42.4329682
40
0.7515491
50
179.0656223
51
193.2977221
0
ARC
8
DEFAULT_255_2_778
10
14.829133
20
42.3210014
40
0.297102
50
191.8278865
51
226.741919
0
ARC
8
DEFAULT_255_2_778
10
14.7831947
20
42.2961178
40
0.2480421
50
230.5337331
51
272.5634453
0
ARC
8
DEFAULT_255_2_778
10
14.8081003
20
42.2882892
40
0.2403624
50
266.705857
51
346.3784022
0
ARC
8
DEFAULT_255_2_778
10
14.4231614
20
42.4191621
40
0.6463288
50
343.1378881
51
359.2120072
0
ARC
8
DEFAULT_255_2_778
10
14.0027716
20
42.4448254
40
1.0672171
50
358.1446745
51
0.0213942
0
LINE
8
DEFAULT_255_2_778
10
15.0699886
20
42.4452239
11
15.0699886
21
43.6689239
0
LINE
8
DEFAULT_255_2_778
10
15.0699886
20
43.6689239
11
15.5387886
21
43.6689239
0
LINE
8
DEFAULT_255_2_778
10
15.5387886
20
43.6689239
11
15.5387886
21
42.3460239
0
ARC
8
DEFAULT_255_2_778
10
14.512312
20
42.3332181
40
1.0265565
50
346.0693007
51
0.7147573
0
ARC
8
DEFAULT_255_2_778
10
14.9707247
20
42.2111127
40
0.5522903
50
312.0053846
51
346.9150354
0
ARC
8
DEFAULT_255_2_778
10
14.9607345
20
42.2540077
40
0.5912334
50
280.872559
51
309.9425464
0
ARC
8
DEFAULT_255_2_778
10
14.8586877
20
42.703535
40
1.0520531
50
269.4881084
51
281.7125305
0
ARC
8
DEFAULT_255_2_778
10
14.8365947
20
42.8451822
40
1.1937257
50
257.4057866
51
270.609282
0
ARC
8
DEFAULT_255_2_778
10
14.7148784
20
42.3296541
40
0.6640931
50
231.5489577
51
257.9562031
0
ARC
8
DEFAULT_255_2_778
10
14.6848368
20
42.2616676
40
0.5924656
50
193.2590788
51
229.7353612
0
ARC
8
DEFAULT_255_2_778
10
15.0940155
20
42.3776612
40
1.0175189
50
181.781757
51
194.3320826
0
LINE
8
DEFAULT_255_2_778
10
14.0769886
20
42.3460239
11
14.0769886
21
43.6689239
0
LINE
8
DEFAULT_255_2_778
10
14.0769886
20
43.6689239
11
14.0769886
21
43.6689239
0
LINE
8
DEFAULT_255_2_778
10
17.2504667
20
41.9848635
11
17.2504667
21
41.6700635
0
LINE
8
DEFAULT_255_2_778
10
17.2504667
20
41.6700635
11
16.0735667
21
41.6700635
0
LINE
8
DEFAULT_255_2_778
10
16.0735667
20
41.6700635
11
16.0735667
21
43.6689635
0
LINE
8
DEFAULT_255_2_778
10
16.0735667
20
43.6689635
11
16.4738667
21
43.6689635
0
LINE
8
DEFAULT_255_2_778
10
16.4738667
20
43.6689635
11
16.4738667
21
41.9848635
0
LINE
8
DEFAULT_255_2_778
10
16.4738667
20
41.9848635
11
17.2504667
21
41.9848635
0
LINE
8
DEFAULT_255_2_778
10
18.6831698
20
41.9848635
11
18.6831698
21
41.6700635
0
LINE
8
DEFAULT_255_2_778
10
18.6831698
20
41.6700635
11
17.5054698
21
41.6700635
0
LINE
8
DEFAULT_255_2_778
10
17.5054698
20
41.6700635
11
17.5054698
21
43.6689635
0
LINE
8
DEFAULT_255_2_778
10
17.5054698
20
43.6689635
11
17.9065698
21
43.6689635
0
LINE
8
DEFAULT_255_2_778
10
17.9065698
20
43.6689635
11
17.9065698
21
41.9848635
0
LINE
8
DEFAULT_255_2_778
10
17.9065698
20
41.9848635
11
18.6831698
21
41.9848635
0
ARC
8
DEFAULT_255_2_778
10
12.9831968
20
41.2974448
40
2.3714495
50
85.6991405
51
90.2919398
0
ARC
8
DEFAULT_255_2_778
10
13.1379164
20
42.8335891
40
0.8289499
50
56.2324487
51
88.4014871
0
ARC
8
DEFAULT_255_2_778
10
13.3045851
20
43.1352341
40
0.4864258
50
21.0074581
51
52.8015258
0
ARC
8
DEFAULT_255_2_778
10
13.1017263
20
43.0572327
40
0.7037641
50
4.7622116
51
21.0151285
0
ARC
8
DEFAULT_255_2_778
10
12.8967476
20
43.0298413
40
0.9103673
50
4.9544143
51
5.4091747
0
ARC
8
DEFAULT_255_2_778
10
13.1615619
20
43.0206499
40
0.6421526
50
328.0340908
51
0.0993634
0
ARC
8
DEFAULT_255_2_778
10
13.2884151
20
42.9654783
40
0.5057363
50
292.4684735
51
325.7277101
0
ARC
8
DEFAULT_255_2_778
10
13.1619109
20
43.2559907
40
0.8225637
50
277.327376
51
292.8776796
0
ARC
8
DEFAULT_255_2_778
10
13.0881226
20
43.756895
40
1.3288209
50
269.7352482
51
277.7284207
0
ARC
8
DEFAULT_255_2_778
10
13.0822755
20
44.127836
40
1.6997478
50
268.5873183
51
269.990121
0
ARC
8
DEFAULT_255_2_778
10
13.0834126
20
44.1882454
40
1.7601668
50
268.4015548
51
268.5987956
0
ARC
8
DEFAULT_255_2_778
10
13.0084886
20
43.7768126
40
1.0331534
50
269.8350101
51
273.1935907
0
ARC
8
DEFAULT_255_2_778
10
13.0816391
20
43.0565062
40
0.311633
50
267.1318095
51
328.1420865
0
ARC
8
DEFAULT_255_2_778
10
13.0153979
20
43.0692632
40
0.3754051
50
331.8271089
51
349.3311465
0
ARC
8
DEFAULT_255_2_778
10
13.1085066
20
43.0686151
40
0.2761852
50
2.9987533
51
76.4144571
0
ARC
8
DEFAULT_255_2_778
10
13.0406436
20
42.8458129
40
0.5088767
50
74.8797868
51
90.7270896
0
ARC
8
DEFAULT_255_2_778
10
13.0344353
20
42.6397291
40
0.7149196
50
90.0199719
51
92.3185034
0
LINE
8
DEFAULT_255_2_778
10
13.8037136
20
43.1084635
11
13.8048136
21
43.0645635
0
LINE
8
DEFAULT_255_2_778
10
13.8048136
20
43.0645635
11
13.8037136
21
43.0217635
0
LINE
8
DEFAULT_255_2_778
10
13.0343136
20
42.4287635
11
12.8647136
21
42.4287635
0
LINE
8
DEFAULT_255_2_778
10
12.8647136
20
42.4287635
11
12.8647136
21
41.6702635
0
LINE
8
DEFAULT_255_2_778
10
12.8647136
20
41.6702635
11
12.4636136
21
41.6702635
0
LINE
8
DEFAULT_255_2_778
10
12.4636136
20
41.6702635
11
12.4636136
21
43.6691635
0
LINE
8
DEFAULT_255_2_778
10
12.4636136
20
43.6691635
11
12.9711136
21
43.6688635
0
LINE
8
DEFAULT_255_2_778
10
13.3843136
20
42.9997635
11
13.3865136
21
43.0412635
0
LINE
8
DEFAULT_255_2_778
10
13.3865136
20
43.0412635
11
13.3843136
21
43.0830635
0
LINE
8
DEFAULT_255_2_778
10
13.0055136
20
43.3540635
11
12.8650136
21
43.3540635
0
LINE
8
DEFAULT_255_2_778
10
12.8650136
20
43.3540635
11
12.8650136
21
42.7436635
0
LINE
8
DEFAULT_255_2_778
10
12.8650136
20
42.7436635
11
13.0055136
21
42.7436635
0
LINE
8
DEFAULT_255_2_778
10
11.7645938
20
58.668725
11
10.6096938
21
56.668525
0
LINE
8
DEFAULT_255_2_778
10
10.6096938
20
56.668525
11
9.4547938
21
58.668725
0
LINE
8
DEFAULT_255_2_778
10
9.4547938
20
58.668725
11
11.7642938
21
58.668725
0
LINE
8
DEFAULT_255_2_778
10
14.0769886
20
58.6673239
11
14.5182886
21
58.6673239
0
LINE
8
DEFAULT_255_2_778
10
14.5182886
20
58.6673239
11
14.5182886
21
57.4436239
0
ARC
8
DEFAULT_255_2_778
10
15.2697377
20
57.4313682
40
0.7515491
50
179.0656223
51
193.2977221
0
ARC
8
DEFAULT_255_2_778
10
14.829133
20
57.3194014
40
0.297102
50
191.8278865
51
226.741919
0
ARC
8
DEFAULT_255_2_778
10
14.7831947
20
57.2945178
40
0.2480421
50
230.5337331
51
272.5634453
0
ARC
8
DEFAULT_255_2_778
10
14.8081003
20
57.2866892
40
0.2403624
50
266.705857
51
346.3784022
0
ARC
8
DEFAULT_255_2_778
10
14.4231614
20
57.4175621
40
0.6463288
50
343.1378881
51
359.2120072
0
ARC
8
DEFAULT_255_2_778
10
14.0027716
20
57.4432254
40
1.0672171
50
358.1446745
51
0.0213942
0
LINE
8
DEFAULT_255_2_778
10
15.0699886
20
57.4436239
11
15.0699886
21
58.6673239
0
LINE
8
DEFAULT_255_2_778
10
15.0699886
20
58.6673239
11
15.5387886
21
58.6673239
0
LINE
8
DEFAULT_255_2_778
10
15.5387886
20
58.6673239
11
15.5387886
21
57.3444239
0
ARC
8
DEFAULT_255_2_778
10
14.512312
20
57.3316181
40
1.0265565
50
346.0693007
51
0.7147573
0
ARC
8
DEFAULT_255_2_778
10
14.9707247
20
57.2095127
40
0.5522903
50
312.0053846
51
346.9150354
0
ARC
8
DEFAULT_255_2_778
10
14.9607345
20
57.2524077
40
0.5912334
50
280.872559
51
309.9425464
0
ARC
8
DEFAULT_255_2_778
10
14.8586877
20
57.701935
40
1.0520531
50
269.4881084
51
281.7125305
0
ARC
8
DEFAULT_255_2_778
10
14.8365947
20
57.8435822
40
1.1937257
50
257.4057866
51
270.609282
0
ARC
8
DEFAULT_255_2_778
10
14.7148784
20
57.3280541
40
0.6640931
50
231.5489577
51
257.9562031
0
ARC
8
DEFAULT_255_2_778
10
14.6848368
20
57.2600676
40
0.5924656
50
193.2590788
51
229.7353612
0
ARC
8
DEFAULT_255_2_778
10
15.0940155
20
57.3760612
40
1.0175189
50
181.781757
51
194.3320826
0
LINE
8
DEFAULT_255_2_778
10
14.0769886
20
57.3444239
11
14.0769886
21
58.6673239
0
LINE
8
DEFAULT_255_2_778
10
14.0769886
20
58.6673239
11
14.0769886
21
58.6673239
0
LINE
8
DEFAULT_255_2_778
10
17.2507667
20
56.9832635
11
17.2507667
21
56.6684635
0
LINE
8
DEFAULT_255_2_778
10
17.2507667
20
56.6684635
11
16.0738667
21
56.6684635
0
LINE
8
DEFAULT_255_2_778
10
16.0738667
20
56.6684635
11
16.0738667
21
58.6673635
0
LINE
8
DEFAULT_255_2_778
10
16.0738667
20
58.6673635
11
16.4741667
21
58.6673635
0
LINE
8
DEFAULT_255_2_778
10
16.4741667
20
58.6673635
11
16.4741667
21
56.9832635
0
LINE
8
DEFAULT_255_2_778
10
16.4741667
20
56.9832635
11
17.2507667
21
56.9832635
0
LINE
8
DEFAULT_255_2_778
10
18.6831698
20
56.9832635
11
18.6831698
21
56.6684635
0
LINE
8
DEFAULT_255_2_778
10
18.6831698
20
56.6684635
11
17.5054698
21
56.6684635
0
LINE
8
DEFAULT_255_2_778
10
17.5054698
20
56.6684635
11
17.5054698
21
58.6673635
0
LINE
8
DEFAULT_255_2_778
10
17.5054698
20
58.6673635
11
17.9065698
21
58.6673635
0
LINE
8
DEFAULT_255_2_778
10
17.9065698
20
58.6673635
11
17.9065698
21
56.9832635
0
LINE
8
DEFAULT_255_2_778
10
17.9065698
20
56.9832635
11
18.6831698
21
56.9832635
0
ARC
8
DEFAULT_255_2_778
10
12.9831968
20
56.2959448
40
2.3714495
50
85.6991405
51
90.2919398
0
ARC
8
DEFAULT_255_2_778
10
13.1379164
20
57.8320891
40
0.8289499
50
56.2324487
51
88.4014871
0
ARC
8
DEFAULT_255_2_778
10
13.3045851
20
58.1337341
40
0.4864258
50
21.0074581
51
52.8015258
0
ARC
8
DEFAULT_255_2_778
10
13.1017263
20
58.0557327
40
0.7037641
50
4.7622116
51
21.0151285
0
ARC
8
DEFAULT_255_2_778
10
12.8967476
20
58.0283413
40
0.9103673
50
4.9544143
51
5.4091747
0
ARC
8
DEFAULT_255_2_778
10
13.1615619
20
58.0191499
40
0.6421526
50
328.0340908
51
0.0993634
0
ARC
8
DEFAULT_255_2_778
10
13.2884151
20
57.9639783
40
0.5057363
50
292.4684735
51
325.7277101
0
ARC
8
DEFAULT_255_2_778
10
13.1619109
20
58.2544907
40
0.8225637
50
277.327376
51
292.8776796
0
ARC
8
DEFAULT_255_2_778
10
13.0881226
20
58.755395
40
1.3288209
50
269.7352482
51
277.7284207
0
ARC
8
DEFAULT_255_2_778
10
13.0822755
20
59.126336
40
1.6997478
50
268.5873183
51
269.990121
0
ARC
8
DEFAULT_255_2_778
10
13.0834126
20
59.1867454
40
1.7601668
50
268.4015548
51
268.5987956
0
ARC
8
DEFAULT_255_2_778
10
13.0084886
20
58.7753126
40
1.0331534
50
269.8350101
51
273.1935907
0
ARC
8
DEFAULT_255_2_778
10
13.0816391
20
58.0550062
40
0.311633
50
267.1318095
51
328.1420865
0
ARC
8
DEFAULT_255_2_778
10
13.0153979
20
58.0677632
40
0.3754051
50
331.8271089
51
349.3311465
0
ARC
8
DEFAULT_255_2_778
10
13.1085066
20
58.0671151
40
0.2761852
50
2.9987533
51
76.4144571
0
ARC
8
DEFAULT_255_2_778
10
13.0406436
20
57.8443129
40
0.5088767
50
74.8797868
51
90.7270896
0
ARC
8
DEFAULT_255_2_778
10
13.0344353
20
57.6382291
40
0.7149196
50
90.0199719
51
92.3185034
0
LINE
8
DEFAULT_255_2_778
10
13.8037136
20
58.1069635
11
13.8048136
21
58.0630635
0
LINE
8
DEFAULT_255_2_778
10
13.8048136
20
58.0630635
11
13.8037136
21
58.0202635
0
LINE
8
DEFAULT_255_2_778
10
13.0343136
20
57.4272635
11
12.8647136
21
57.4272635
0
LINE
8
DEFAULT_255_2_778
10
12.8647136
20
57.4272635
11
12.8647136
21
56.6687635
0
LINE
8
DEFAULT_255_2_778
10
12.8647136
20
56.6687635
11
12.4636136
21
56.6687635
0
LINE
8
DEFAULT_255_2_778
10
12.4636136
20
56.6687635
11
12.4636136
21
58.6676635
0
LINE
8
DEFAULT_255_2_778
10
12.4636136
20
58.6676635
11
12.9711136
21
58.6673635
0
LINE
8
DEFAULT_255_2_778
10
13.3843136
20
57.9982635
11
13.3865136
21
58.0397635
0
LINE
8
DEFAULT_255_2_778
10
13.3865136
20
58.0397635
11
13.3843136
21
58.0815635
0
LINE
8
DEFAULT_255_2_778
10
13.0055136
20
58.3525635
11
12.8650136
21
58.3525635
0
LINE
8
DEFAULT_255_2_778
10
12.8650136
20
58.3525635
11
12.8650136
21
57.7421635
0
LINE
8
DEFAULT_255_2_778
10
12.8650136
20
57.7421635
11
13.0055136
21
57.7421635
0
LINE
8
DEFAULT_255_2_778
10
22.4555909
20
80.0687448
11
22.4555909
21
79.8684448
0
LINE
8
DEFAULT_255_2_778
10
22.4555909
20
79.8684448
11
1.6553909
21
79.8684448
0
LINE
8
DEFAULT_255_2_778
10
1.6553909
20
79.8684448
11
1.6553909
21
80.0684448
0
LINE
8
DEFAULT_255_2_778
10
1.6553909
20
80.0684448
11
22.4555909
21
80.0684448
0
LINE
8
DEFAULT_255_2_778
10
22.4555909
20
86.0686448
11
22.4555909
21
85.8683448
0
LINE
8
DEFAULT_255_2_778
10
22.4555909
20
85.8683448
11
1.6553909
21
85.8683448
0
LINE
8
DEFAULT_255_2_778
10
1.6553909
20
85.8683448
11
1.6553909
21
86.0683448
0
LINE
8
DEFAULT_255_2_778
10
1.6553909
20
86.0683448
11
22.4555909
21
86.0683448
0
LINE
8
DEFAULT_255_2_778
10
22.4555909
20
95.0684448
11
22.4555909
21
94.8681448
0
LINE
8
DEFAULT_255_2_778
10
22.4555909
20
94.8681448
11
1.6553909
21
94.8681448
0
LINE
8
DEFAULT_255_2_778
10
1.6553909
20
94.8681448
11
1.6553909
21
95.0681448
0
LINE
8
DEFAULT_255_2_778
10
1.6553909
20
95.0681448
11
22.4555909
21
95.0681448
0
LINE
8
DEFAULT_255_2_778
10
13.0118678
20
98.5249864
11
13.0118678
21
98.1616864
0
LINE
8
DEFAULT_255_2_778
10
13.0118678
20
98.1616864
11
11.8828678
21
98.1616864
0
LINE
8
DEFAULT_255_2_778
10
11.8828678
20
98.1616864
11
11.8828678
21
100.4680864
0
LINE
8
DEFAULT_255_2_778
10
11.8828678
20
100.4680864
11
13.0067678
21
100.4680864
0
LINE
8
DEFAULT_255_2_778
10
13.0067678
20
100.4680864
11
13.0067678
21
100.1047864
0
LINE
8
DEFAULT_255_2_778
10
13.0067678
20
100.1047864
11
12.2649678
21
100.1047864
0
LINE
8
DEFAULT_255_2_778
10
12.2649678
20
100.1047864
11
12.2649678
21
99.5364864
0
LINE
8
DEFAULT_255_2_778
10
12.2649678
20
99.5364864
11
12.9438678
21
99.5364864
0
LINE
8
DEFAULT_255_2_778
10
12.9438678
20
99.5364864
11
12.9438678
21
99.1731864
0
LINE
8
DEFAULT_255_2_778
10
12.9438678
20
99.1731864
11
12.2649678
21
99.1731864
0
LINE
8
DEFAULT_255_2_778
10
12.2649678
20
99.1731864
11
12.2649678
21
98.5252864
0
LINE
8
DEFAULT_255_2_778
10
12.2649678
20
98.5252864
11
13.0120678
21
98.5252864
0
LINE
8
DEFAULT_255_2_778
10
19.0459678
20
100.4680864
11
18.3638678
21
99.0736864
0
LINE
8
DEFAULT_255_2_778
10
18.3638678
20
99.0736864
11
18.3638678
21
98.1616864
0
LINE
8
DEFAULT_255_2_778
10
18.3638678
20
98.1616864
11
17.9817678
21
98.1616864
0
LINE
8
DEFAULT_255_2_778
10
17.9817678
20
98.1616864
11
17.9817678
21
99.0736864
0
LINE
8
DEFAULT_255_2_778
10
17.9817678
20
99.0736864
11
17.2864678
21
100.4680864
0
LINE
8
DEFAULT_255_2_778
10
17.2864678
20
100.4680864
11
17.7333678
21
100.4680864
0
LINE
8
DEFAULT_255_2_778
10
17.7333678
20
100.4680864
11
18.1839678
21
99.4999864
0
LINE
8
DEFAULT_255_2_778
10
18.1839678
20
99.4999864
11
18.6421678
21
100.4680864
0
LINE
8
DEFAULT_255_2_778
10
18.6421678
20
100.4680864
11
19.0459678
21
100.4680864
0
ARC
8
DEFAULT_255_2_778
10
10.758811
20
99.7907217
40
0.2546557
50
357.2524871
51
36.8721974
0
ARC
8
DEFAULT_255_2_778
10
10.7669482
20
99.7738524
40
0.2589214
50
40.9423214
51
78.775308
0
ARC
8
DEFAULT_255_2_778
10
10.6828427
20
99.4417332
40
0.6013242
50
77.0745245
51
90.7919492
0
ARC
8
DEFAULT_255_2_778
10
10.6762521
20
99.0404469
40
1.0025544
50
90.0983342
51
94.07524
0
ARC
8
DEFAULT_255_2_778
10
10.6928991
20
98.78717
40
1.256375
50
94.0116417
51
96.064115
0
LINE
8
DEFAULT_255_2_778
10
10.560174
20
100.0365148
11
10.560174
21
99.5206148
0
ARC
8
DEFAULT_255_2_778
10
10.7061202
20
100.6567511
40
1.1454719
50
262.6799663
51
266.6525128
0
ARC
8
DEFAULT_255_2_778
10
10.689895
20
100.3917442
40
0.8799701
50
266.6996139
51
269.9393373
0
ARC
8
DEFAULT_255_2_778
10
10.6994856
20
100.0263534
40
0.5146864
50
268.8285567
51
286.4760997
0
ARC
8
DEFAULT_255_2_778
10
10.785342
20
99.7523406
40
0.2276218
50
285.3139115
51
2.1379206
0
ARC
8
DEFAULT_255_2_778
10
10.5956663
20
99.7783726
40
0.4175077
50
357.5921559
51
0.0195156
0
ARC
8
DEFAULT_255_2_778
10
10.6005742
20
98.3024088
40
0.7745965
50
90.0345335
51
92.4195035
0
ARC
8
DEFAULT_255_2_778
10
10.6113534
20
98.6418468
40
0.4353036
50
71.9697781
51
91.4804109
0
ARC
8
DEFAULT_255_2_778
10
10.6940727
20
98.886801
40
0.1767981
50
25.177382
51
72.8899588
0
ARC
8
DEFAULT_255_2_778
10
11.0136104
20
99.054994
40
0.2770917
50
20.6062783
51
64.4146158
0
ARC
8
DEFAULT_255_2_778
10
10.9913245
20
99.7382637
40
0.4560054
50
288.1369302
51
350.9320238
0
ARC
8
DEFAULT_255_2_778
10
10.5215664
20
99.8588866
40
0.9399848
50
348.1832535
51
0.5413312
0
ARC
8
DEFAULT_255_2_778
10
10.1932828
20
99.8676968
40
1.2682265
50
0.0031888
51
0.8366324
0
ARC
8
DEFAULT_255_2_778
10
10.7015519
20
99.8692754
40
0.7600109
50
1.2771381
51
19.8233355
0
ARC
8
DEFAULT_255_2_778
10
10.954309
20
99.9542849
40
0.4934365
50
20.4902243
51
77.6132547
0
ARC
8
DEFAULT_255_2_778
10
10.8101062
20
99.4653945
40
1.002525
50
75.5568237
51
89.7375859
0
ARC
8
DEFAULT_255_2_778
10
10.7913237
20
99.0628221
40
1.4052814
50
89.0469559
51
90.0042113
0
ARC
8
DEFAULT_255_2_778
10
10.7915437
20
98.9578111
40
1.5102926
50
90.0122616
51
91.5999941
0
LINE
8
DEFAULT_255_2_778
10
10.749374
20
100.4675148
11
10.114074
21
100.4675148
0
LINE
8
DEFAULT_255_2_778
10
11.013174
20
99.7785148
11
11.013174
21
99.7785148
0
LINE
8
DEFAULT_255_2_778
10
10.114074
20
100.4675148
11
10.114074
21
98.1617148
0
LINE
8
DEFAULT_255_2_778
10
10.114074
20
98.1617148
11
10.567874
21
98.1617148
0
LINE
8
DEFAULT_255_2_778
10
10.567874
20
98.1617148
11
10.567874
21
99.0763148
0
LINE
8
DEFAULT_255_2_778
10
10.854074
20
98.9620148
11
11.070574
21
98.1712148
0
LINE
8
DEFAULT_255_2_778
10
11.070574
20
98.1712148
11
11.538374
21
98.1617148
0
LINE
8
DEFAULT_255_2_778
10
11.538374
20
98.1617148
11
11.272974
21
99.1525148
0
LINE
8
DEFAULT_255_2_778
10
10.114074
20
100.4675148
11
10.114074
21
100.4675148
0
LINE
8
DEFAULT_255_2_778
10
15.5470105
20
98.1804989
11
16.1860105
21
98.1804989
0
ARC
8
DEFAULT_255_2_778
10
16.1989524
20
99.5294633
40
1.3490265
50
269.4503233
51
282.9883677
0
ARC
8
DEFAULT_255_2_778
10
16.3242518
20
99.0175433
40
0.8220723
50
282.4978352
51
311.0252201
0
ARC
8
DEFAULT_255_2_778
10
16.3072993
20
99.0057623
40
0.8245674
50
312.4513759
51
340.4712236
0
ARC
8
DEFAULT_255_2_778
10
15.8289174
20
99.1880741
40
1.3364259
50
339.960585
51
353.0269459
0
ARC
8
DEFAULT_255_2_778
10
15.2545837
20
99.2723735
40
1.9167964
50
352.6099494
51
357.2736324
0
ARC
8
DEFAULT_255_2_778
10
14.5787607
20
99.1928176
40
2.5904759
50
359.7430172
51
7.2027147
0
ARC
8
DEFAULT_255_2_778
10
15.525156
20
99.3174298
40
1.6359323
50
7.0286635
51
18.6481002
0
ARC
8
DEFAULT_255_2_778
10
16.1184399
20
99.523306
40
1.0079801
50
18.3432926
51
38.7504063
0
ARC
8
DEFAULT_255_2_778
10
16.2652006
20
99.6218289
40
0.8319918
50
39.7852218
51
78.5202404
0
ARC
8
DEFAULT_255_2_778
10
16.1472825
20
99.1419172
40
1.3259229
50
77.6539684
51
90.4525211
0
LINE
8
DEFAULT_255_2_778
10
16.1368105
20
100.4677989
11
15.5468105
21
100.4677989
0
LINE
8
DEFAULT_255_2_778
10
15.5468105
20
100.4677989
11
15.5468105
21
98.1801989
0
ARC
8
DEFAULT_255_2_778
10
15.3919377
20
99.2906162
40
1.3858108
50
2.8697984
51
13.5430229
0
ARC
8
DEFAULT_255_2_778
10
15.9684591
20
99.4342559
40
0.7916967
50
13.2073228
51
31.6025063
0
ARC
8
DEFAULT_255_2_778
10
16.1779568
20
99.5552404
40
0.5499093
50
32.3046418
51
84.173299
0
ARC
8
DEFAULT_255_2_778
10
16.1107741
20
99.2114248
40
0.8993361
50
82.1385456
51
90.1877059
0
ARC
8
DEFAULT_255_2_778
10
16.1090626
20
98.9747567
40
1.1360002
50
90.0622809
51
94.1753567
0
ARC
8
DEFAULT_255_2_778
10
16.1254118
20
98.7493255
40
1.3620235
50
94.1708295
51
97.8150109
0
LINE
8
DEFAULT_255_2_778
10
15.9402105
20
100.0986989
11
15.9402105
21
98.5141989
0
ARC
8
DEFAULT_255_2_778
10
15.9528114
20
99.7653313
40
1.2511959
50
269.4229598
51
282.5296522
0
ARC
8
DEFAULT_255_2_778
10
16.0748045
20
99.2463869
40
0.7181745
50
282.0106525
51
308.2726401
0
ARC
8
DEFAULT_255_2_778
10
16.0996461
20
99.1839123
40
0.6540221
50
309.9544267
51
344.6476941
0
ARC
8
DEFAULT_255_2_778
10
15.6378381
20
99.3266341
40
1.1372408
50
343.8736272
51
358.0266578
0
ARC
8
DEFAULT_255_2_778
10
15.1731342
20
99.3592084
40
1.6028764
50
357.4349469
51
0.0282576
0
LINE
8
DEFAULT_255_2_778
10
13.3031105
20
98.1616989
11
14.0450105
21
100.4680989
0
LINE
8
DEFAULT_255_2_778
10
14.0450105
20
100.4680989
11
14.4762105
21
100.4680989
0
LINE
8
DEFAULT_255_2_778
10
14.4762105
20
100.4680989
11
15.2237105
21
98.1616989
0
LINE
8
DEFAULT_255_2_778
10
15.2237105
20
98.1616989
11
14.8006105
21
98.1616989
0
LINE
8
DEFAULT_255_2_778
10
14.8006105
20
98.1616989
11
14.6369105
21
98.6903989
0
LINE
8
DEFAULT_255_2_778
10
14.6369105
20
98.6903989
11
13.8653105
21
98.6903989
0
LINE
8
DEFAULT_255_2_778
10
13.8653105
20
98.6903989
11
13.6989105
21
98.1616989
0
LINE
8
DEFAULT_255_2_778
10
13.6989105
20
98.1616989
11
13.3031105
21
98.1616989
0
LINE
8
DEFAULT_255_2_778
10
14.2498105
20
100.0052989
11
13.9743105
21
99.0535989
0
LINE
8
DEFAULT_255_2_778
10
13.9743105
20
99.0535989
11
14.5310105
21
99.0535989
0
LINE
8
DEFAULT_255_2_778
10
14.5310105
20
99.0535989
11
14.2551105
21
100.0052989
0
LINE
8
DEFAULT_255_2_778
10
14.2551105
20
100.0052989
11
14.2498105
21
100.0052989
0
LINE
8
DEFAULT_255_2_778
10
15.5468105
20
98.1801989
11
15.5470105
21
98.1804989
0
LINE
8
DEFAULT_255_2_778
10
16.7760105
20
99.3599989
11
16.7760105
21
99.3599989
0
LINE
8
DEFAULT_255_2_778
10
11.4095105
20
95.8508989
11
11.4095105
21
95.5486989
0
LINE
8
DEFAULT_255_2_778
10
11.4095105
20
95.5486989
11
10.1138105
21
95.5486989
0
LINE
8
DEFAULT_255_2_778
10
10.1138105
20
95.5486989
11
10.1138105
21
97.4668989
0
LINE
8
DEFAULT_255_2_778
10
10.1138105
20
97.4668989
11
11.4034105
21
97.4668989
0
LINE
8
DEFAULT_255_2_778
10
11.4034105
20
97.4668989
11
11.4034105
21
97.1647989
0
LINE
8
DEFAULT_255_2_778
10
11.4034105
20
97.1647989
11
10.5519105
21
97.1647989
0
LINE
8
DEFAULT_255_2_778
10
10.5519105
20
97.1647989
11
10.5519105
21
96.6919989
0
LINE
8
DEFAULT_255_2_778
10
10.5519105
20
96.6919989
11
11.3309105
21
96.6919989
0
LINE
8
DEFAULT_255_2_778
10
11.3309105
20
96.6919989
11
11.3309105
21
96.3897989
0
LINE
8
DEFAULT_255_2_778
10
11.3309105
20
96.3897989
11
10.5519105
21
96.3897989
0
LINE
8
DEFAULT_255_2_778
10
10.5519105
20
96.3897989
11
10.5519105
21
95.8510989
0
LINE
8
DEFAULT_255_2_778
10
10.5519105
20
95.8510989
11
11.4095105
21
95.8510989
0
ARC
8
DEFAULT_255_2_778
10
12.5516471
20
96.9003491
40
0.1946244
50
358.0108884
51
79.6466625
0
ARC
8
DEFAULT_255_2_778
10
12.4277282
20
96.513297
40
0.5999328
50
74.6415349
51
89.4705422
0
ARC
8
DEFAULT_255_2_778
10
12.4069832
20
96.1278848
40
0.9856699
50
88.4716849
51
90.0158078
0
ARC
8
DEFAULT_255_2_778
10
12.4084146
20
95.9036931
40
1.2098627
50
90.0806681
51
93.3726032
0
ARC
8
DEFAULT_255_2_778
10
12.4247938
20
95.6025365
40
1.5114621
50
93.3208231
51
95.0230968
0
LINE
8
DEFAULT_255_2_778
10
12.2924542
20
97.1081938
11
12.2924542
21
96.6789938
0
ARC
8
DEFAULT_255_2_778
10
12.4380147
20
98.0480741
40
1.3767965
50
263.9311149
51
267.2291723
0
ARC
8
DEFAULT_255_2_778
10
12.4220873
20
97.7337592
40
1.0620794
50
267.2677161
51
269.9501489
0
ARC
8
DEFAULT_255_2_778
10
12.431486
20
97.2939252
40
0.6223306
50
269.0495751
51
283.2943954
0
ARC
8
DEFAULT_255_2_778
10
12.5257923
20
96.9235037
40
0.2402404
50
281.7203994
51
317.3855014
0
ARC
8
DEFAULT_255_2_778
10
12.5478675
20
96.8851425
40
0.1984668
50
321.2235527
51
2.4405453
0
ARC
8
DEFAULT_255_2_778
10
12.3326214
20
95.374029
40
0.9359281
50
90.0279836
51
91.9879773
0
ARC
8
DEFAULT_255_2_778
10
12.3433564
20
95.7849209
40
0.5251555
50
75.326693
51
91.2211818
0
ARC
8
DEFAULT_255_2_778
10
12.4397967
20
96.1243556
40
0.1725171
50
31.4603432
51
77.7564389
0
ARC
8
DEFAULT_255_2_778
10
12.7777836
20
96.2608066
40
0.2547539
50
26.1027437
51
69.6070659
0
ARC
8
DEFAULT_255_2_778
10
12.7587479
20
96.933199
40
0.446806
50
283.9622284
51
318.0259671
0
ARC
8
DEFAULT_255_2_778
10
12.7459929
20
96.916954
40
0.4459006
50
320.6748882
51
354.9035711
0
ARC
8
DEFAULT_255_2_778
10
12.4542763
20
96.9647874
40
0.7410317
50
353.2231507
51
0.1569265
0
ARC
8
DEFAULT_255_2_778
10
12.3228267
20
96.9667513
40
0.8724786
50
0.0043137
51
1.066705
0
ARC
8
DEFAULT_255_2_778
10
12.6877029
20
96.9730371
40
0.507549
50
1.1240525
51
29.7629438
0
ARC
8
DEFAULT_255_2_778
10
12.7500071
20
96.9877572
40
0.4465253
50
32.0925313
51
71.0696407
0
ARC
8
DEFAULT_255_2_778
10
12.5933284
20
96.5823811
40
0.8809638
50
69.98391
51
85.1406814
0
ARC
8
DEFAULT_255_2_778
10
12.527872
20
96.0016991
40
1.465191
50
84.5137491
51
90.1582012
0
ARC
8
DEFAULT_255_2_778
10
12.5241413
20
95.6442836
40
1.8226009
50
90.009897
51
91.3294669
0
LINE
8
DEFAULT_255_2_778
10
12.4818542
20
97.4663938
11
11.8455542
21
97.4663938
0
ARC
8
DEFAULT_255_2_778
10
14.3392398
20
96.8989274
40
0.1942877
50
358.4269225
51
79.3564371
0
ARC
8
DEFAULT_255_2_778
10
14.2100381
20
96.5095397
40
0.6033568
50
74.1206196
51
88.622381
0
ARC
8
DEFAULT_255_2_778
10
14.1833516
20
96.094412
40
1.0191429
50
87.6835633
51
90.0358535
0
ARC
8
DEFAULT_255_2_778
10
14.1844722
20
95.8219557
40
1.2916001
50
90.0779996
51
93.2641174
0
ARC
8
DEFAULT_255_2_778
10
14.2013569
20
95.5011283
40
1.6128692
50
93.2140184
51
94.8620763
0
LINE
8
DEFAULT_255_2_778
10
14.0646542
20
97.1081938
11
14.0646542
21
96.6789938
0
ARC
8
DEFAULT_255_2_778
10
14.2150196
20
98.1404005
40
1.4691219
50
264.125462
51
267.3184952
0
ARC
8
DEFAULT_255_2_778
10
14.198601
20
97.8055571
40
1.1338773
50
267.3556504
51
269.9517897
0
ARC
8
DEFAULT_255_2_778
10
14.2077982
20
97.3434839
40
0.6718804
50
269.1342996
51
282.4241381
0
ARC
8
DEFAULT_255_2_778
10
14.3018247
20
96.9458659
40
0.2634193
50
281.0584177
51
312.5809058
0
ARC
8
DEFAULT_255_2_778
10
14.3425392
20
96.8846306
40
0.1911254
50
316.016849
51
2.6879683
0
ARC
8
DEFAULT_255_2_778
10
14.1064039
20
95.310605
40
0.9993521
50
90.0271267
51
91.9238623
0
ARC
8
DEFAULT_255_2_778
10
14.1171723
20
95.7456597
40
0.5644093
50
76.1134994
51
91.1412605
0
ARC
8
DEFAULT_255_2_778
10
14.2169731
20
96.115713
40
0.181399
50
34.4355743
51
78.6637302
0
ARC
8
DEFAULT_255_2_778
10
14.2546676
20
96.1504829
40
0.1308555
50
29.2360052
51
31.2106291
0
ARC
8
DEFAULT_255_2_778
10
14.5708031
20
96.2547453
40
0.2598628
50
27.0428809
51
70.428148
0
ARC
8
DEFAULT_255_2_778
10
14.5451901
20
96.9621537
40
0.4760828
50
283.6887976
51
313.7706713
0
ARC
8
DEFAULT_255_2_778
10
14.5633977
20
96.9156622
40
0.4303354
50
316.3030062
51
354.7698578
0
ARC
8
DEFAULT_255_2_778
10
14.2805529
20
96.9648259
40
0.7168589
50
352.9171817
51
0.1652022
0
ARC
8
DEFAULT_255_2_778
10
14.1532187
20
96.9668383
40
0.8441901
50
0.0037014
51
1.0965544
0
ARC
8
DEFAULT_255_2_778
10
14.5060506
20
96.9733179
40
0.4912989
50
1.1284838
51
31.7199125
0
ARC
8
DEFAULT_255_2_778
10
14.5458496
20
96.9752451
40
0.4568388
50
34.1394076
51
70.6272376
0
ARC
8
DEFAULT_255_2_778
10
14.3843008
20
96.5633224
40
0.8991644
50
69.6228106
51
84.5039034
0
ARC
8
DEFAULT_255_2_778
10
14.3090853
20
95.9387224
40
1.5281712
50
83.9397431
51
90.1979097
0
ARC
8
DEFAULT_255_2_778
10
14.3041317
20
95.5224668
40
1.9444177
50
90.0095765
51
91.2871445
0
LINE
8
DEFAULT_255_2_778
10
14.2604542
20
97.4663938
11
13.6031542
21
97.4663938
0
LINE
8
DEFAULT_255_2_778
10
12.7461542
20
96.8935938
11
12.7461542
21
96.8935938
0
LINE
8
DEFAULT_255_2_778
10
11.8455542
20
97.4663938
11
11.8455542
21
95.5486938
0
LINE
8
DEFAULT_255_2_778
10
11.8455542
20
95.5486938
11
12.3001542
21
95.5486938
0
LINE
8
DEFAULT_255_2_778
10
12.3001542
20
95.5486938
11
12.3001542
21
96.3093938
0
LINE
8
DEFAULT_255_2_778
10
12.5869542
20
96.2143938
11
12.8036542
21
95.5565938
0
LINE
8
DEFAULT_255_2_778
10
12.8036542
20
95.5565938
11
13.2721542
21
95.5486938
0
LINE
8
DEFAULT_255_2_778
10
13.2721542
20
95.5486938
11
13.0065542
21
96.3728938
0
LINE
8
DEFAULT_255_2_778
10
11.8455542
20
97.4663938
11
11.8455542
21
97.4663938
0
LINE
8
DEFAULT_255_2_778
10
14.5334542
20
96.8935938
11
14.5334542
21
96.8935938
0
LINE
8
DEFAULT_255_2_778
10
13.6031542
20
97.4663938
11
13.6031542
21
95.5486938
0
LINE
8
DEFAULT_255_2_778
10
13.6031542
20
95.5486938
11
14.0728542
21
95.5486938
0
LINE
8
DEFAULT_255_2_778
10
14.0728542
20
95.5486938
11
14.0728542
21
96.3093938
0
LINE
8
DEFAULT_255_2_778
10
14.3688542
20
96.2143938
11
14.5927542
21
95.5565938
0
LINE
8
DEFAULT_255_2_778
10
14.5927542
20
95.5565938
11
15.0766542
21
95.5486938
0
LINE
8
DEFAULT_255_2_778
10
15.0766542
20
95.5486938
11
14.8022542
21
96.3728938
0
LINE
8
DEFAULT_255_2_778
10
13.6031542
20
97.4663938
11
13.6031542
21
97.4663938
0
ARC
8
DEFAULT_255_2_778
10
14.9922519
20
96.5285054
40
1.8891306
50
359.6142734
51
8.9328786
0
ARC
8
DEFAULT_255_2_778
10
15.7740834
20
96.6562488
40
1.0969567
50
8.6825154
51
23.7706243
0
ARC
8
DEFAULT_255_2_778
10
16.1867085
20
96.8478028
40
0.6421881
50
22.9690104
51
80.2795655
0
ARC
8
DEFAULT_255_2_778
10
16.0959426
20
96.4591372
40
1.0408718
50
78.9671467
51
90.368975
0
ARC
8
DEFAULT_255_2_778
10
16.0762984
20
96.3802165
40
1.1198458
50
89.3378627
51
104.2585521
0
ARC
8
DEFAULT_255_2_778
10
15.950908
20
96.83235
40
0.6508366
50
103.3633756
51
160.2715063
0
ARC
8
DEFAULT_255_2_778
10
16.3821868
20
96.6601008
40
1.1150684
50
159.4208384
51
174.4171008
0
ARC
8
DEFAULT_255_2_778
10
17.0039509
20
96.5843287
40
1.7413186
50
173.9260482
51
180.1658759
0
ARC
8
DEFAULT_255_2_778
10
17.4206931
20
96.5675244
40
2.1580856
50
179.687697
51
187.8479203
0
ARC
8
DEFAULT_255_2_778
10
16.5644517
20
96.4444614
40
1.2930698
50
187.6265615
51
200.7151319
0
ARC
8
DEFAULT_255_2_778
10
16.0636814
20
96.248174
40
0.7552705
50
200.224755
51
226.3073423
0
ARC
8
DEFAULT_255_2_778
10
16.0076087
20
96.217486
40
0.6946164
50
227.9032065
51
261.5901817
0
ARC
8
DEFAULT_255_2_778
10
16.0841803
20
96.5979858
40
1.0824102
50
260.5262012
51
270.2678096
0
ARC
8
DEFAULT_255_2_778
10
16.1023511
20
96.4570636
40
0.9415674
50
269.2021214
51
287.0451612
0
ARC
8
DEFAULT_255_2_778
10
16.1825817
20
96.1731952
40
0.6466832
50
287.6212973
51
340.4062176
0
ARC
8
DEFAULT_255_2_778
10
15.6722249
20
96.3909724
40
1.2010006
50
338.7830781
51
352.5029508
0
ARC
8
DEFAULT_255_2_778
10
14.8775543
20
96.5052612
40
2.003813
50
352.2276797
51
0.3009829
0
ARC
8
DEFAULT_255_2_778
10
16.0752188
20
96.9467937
40
0.2040185
50
90.8928652
51
156.1517543
0
ARC
8
DEFAULT_255_2_778
10
16.4234084
20
96.7495985
40
0.6035079
50
152.3914056
51
168.2679373
0
ARC
8
DEFAULT_255_2_778
10
17.2106811
20
96.5724282
40
1.4104223
50
167.7240341
51
176.1605677
0
ARC
8
DEFAULT_255_2_778
10
18.4405331
20
96.4760272
40
2.6440054
50
175.8608038
51
180.1720548
0
ARC
8
DEFAULT_255_2_778
10
17.8169629
20
96.4567607
40
2.0204551
50
179.678795
51
185.936861
0
ARC
8
DEFAULT_255_2_778
10
16.7593369
20
96.3411661
40
0.9565618
50
185.6025279
51
196.6663696
0
ARC
8
DEFAULT_255_2_778
10
16.2048936
20
96.168467
40
0.3759353
50
195.6862058
51
219.3110729
0
ARC
8
DEFAULT_255_2_778
10
16.0552985
20
96.0489517
40
0.1844886
50
220.0260032
51
270.9681143
0
ARC
8
DEFAULT_255_2_778
10
16.0583205
20
96.1010096
40
0.2365203
50
270.0230517
51
273.3252537
0
ARC
8
DEFAULT_255_2_778
10
16.0709127
20
96.0809395
40
0.2160549
50
270.2988462
51
338.5359734
0
ARC
8
DEFAULT_255_2_778
10
15.7038968
20
96.2711229
40
0.6286603
50
334.6416484
51
350.2976431
0
ARC
8
DEFAULT_255_2_778
10
14.9145084
20
96.4194697
40
1.4318191
50
349.7698486
51
358.1130131
0
ARC
8
DEFAULT_255_2_778
10
14.0192253
20
96.4661015
40
2.3282152
50
357.6915384
51
0.0488722
0
ARC
8
DEFAULT_255_2_778
10
13.3568399
20
96.5440302
40
2.9915638
50
358.5453539
51
359.6117478
0
ARC
8
DEFAULT_255_2_778
10
13.600769
20
96.5418866
40
2.7476256
50
359.6219789
51
359.9979788
0
ARC
8
DEFAULT_255_2_778
10
14.3985632
20
96.5531991
40
1.9498647
50
359.6647385
51
6.2084149
0
ARC
8
DEFAULT_255_2_778
10
15.4029951
20
96.6673204
40
0.9389945
50
5.913859
51
17.0236914
0
ARC
8
DEFAULT_255_2_778
10
15.9316086
20
96.8357738
40
0.384277
50
16.0825628
51
39.6695969
0
ARC
8
DEFAULT_255_2_778
10
16.0761044
20
96.9518601
40
0.1989691
50
40.5001773
51
91.1705959
0
LINE
8
DEFAULT_255_2_778
10
16.8813396
20
96.5157875
11
16.8813396
21
96.5157875
0
LINE
8
DEFAULT_255_2_778
10
16.0720396
20
97.1507875
11
16.0720396
21
97.1507875
0
ARC
8
DEFAULT_255_2_778
10
17.8165955
20
96.9017136
40
0.1942375
50
357.4565186
51
79.363228
0
ARC
8
DEFAULT_255_2_778
10
17.7008062
20
96.5346492
40
0.5782037
50
74.7955516
51
89.8959102
0
ARC
8
DEFAULT_255_2_778
10
17.6835717
20
96.1811731
40
0.9318582
50
88.8756699
51
90.008689
0
ARC
8
DEFAULT_255_2_778
10
17.6850601
20
95.9890595
40
1.123973
50
90.0830745
51
93.4914235
0
ARC
8
DEFAULT_255_2_778
10
17.7007437
20
95.7101231
40
1.4033475
50
93.4370234
51
95.200535
0
LINE
8
DEFAULT_255_2_778
10
17.5735417
20
97.1076938
11
17.5735417
21
96.6784938
0
ARC
8
DEFAULT_255_2_778
10
17.7133422
20
97.9442065
40
1.2734099
50
263.697114
51
267.219096
0
ARC
8
DEFAULT_255_2_778
10
17.6983601
20
97.6527207
40
0.9815409
50
267.2671046
51
269.9522118
0
ARC
8
DEFAULT_255_2_778
10
17.7079546
20
97.242711
40
0.5716257
50
268.9562029
51
284.268259
0
ARC
8
DEFAULT_255_2_778
10
17.8024657
20
96.9007579
40
0.2170509
50
282.3363515
51
324.6020992
0
ARC
8
DEFAULT_255_2_778
10
17.7989922
20
96.8859436
40
0.2117701
50
328.4164769
51
1.9348901
0
ARC
8
DEFAULT_255_2_778
10
17.612212
20
95.4412439
40
0.8682132
50
90.0291271
51
92.0640607
0
ARC
8
DEFAULT_255_2_778
10
17.6228813
20
95.826638
40
0.4829469
50
74.4082539
51
91.3182611
0
ARC
8
DEFAULT_255_2_778
10
17.7140205
20
96.1315568
40
0.1648553
50
29.9636384
51
76.4345718
0
ARC
8
DEFAULT_255_2_778
10
18.0353177
20
96.2674762
40
0.248825
50
24.938936
51
68.5669799
0
ARC
8
DEFAULT_255_2_778
10
18.0316117
20
96.8911636
40
0.4033281
50
283.569399
51
350.3378151
0
ARC
8
DEFAULT_255_2_778
10
17.7383471
20
96.9611598
40
0.7044583
50
348.7286609
51
0.4253584
0
ARC
8
DEFAULT_255_2_778
10
17.5374561
20
96.9663359
40
0.9053298
50
0.0033989
51
1.0226432
0
ARC
8
DEFAULT_255_2_778
10
17.9161738
20
96.9722936
40
0.5265667
50
1.1099506
51
27.9524191
0
ARC
8
DEFAULT_255_2_778
10
18.0027291
20
96.9990673
40
0.4378865
50
30.1671026
51
72.039266
0
ARC
8
DEFAULT_255_2_778
10
17.8518445
20
96.5934819
40
0.8704303
50
70.8238304
51
86.1129765
0
ARC
8
DEFAULT_255_2_778
10
17.7988838
20
96.0640705
40
1.4023165
50
85.4204018
51
90.1075578
0
ARC
8
DEFAULT_255_2_778
10
17.7965546
20
95.7769311
40
1.6894535
50
90.0102857
51
91.3808641
0
LINE
8
DEFAULT_255_2_778
10
17.7558417
20
97.4658938
11
17.1430417
21
97.4658938
0
LINE
8
DEFAULT_255_2_778
10
18.0106417
20
96.8930938
11
18.0106417
21
96.8930938
0
LINE
8
DEFAULT_255_2_778
10
17.1433417
20
97.4658938
11
17.1433417
21
95.5481938
0
LINE
8
DEFAULT_255_2_778
10
17.1433417
20
95.5481938
11
17.5809417
21
95.5481938
0
LINE
8
DEFAULT_255_2_778
10
17.5809417
20
95.5481938
11
17.5809417
21
96.3088938
0
LINE
8
DEFAULT_255_2_778
10
17.8568417
20
96.2138938
11
18.0656417
21
95.5560938
0
LINE
8
DEFAULT_255_2_778
10
18.0656417
20
95.5560938
11
18.5167417
21
95.5481938
0
LINE
8
DEFAULT_255_2_778
10
18.5167417
20
95.5481938
11
18.2609417
21
96.3723938
0
LINE
8
DEFAULT_255_2_778
10
17.1430417
20
97.4658938
11
17.1433417
21
97.4658938
0
LINE
8
DEFAULT_255_2_778
10
12.2540356
20
91.4730261
11
12.7300356
21
91.4730261
0
LINE
8
DEFAULT_255_2_778
10
12.7300356
20
91.4730261
11
12.7300356
21
90.2342261
0
ARC
8
DEFAULT_255_2_778
10
13.4471829
20
90.2219118
40
0.7172531
50
179.0162611
51
194.1333138
0
ARC
8
DEFAULT_255_2_778
10
13.0335465
20
90.1090783
40
0.2887087
50
192.4627134
51
232.4334866
0
ARC
8
DEFAULT_255_2_778
10
13.0161963
20
90.1177144
40
0.2856097
50
236.2514683
51
272.2552874
0
ARC
8
DEFAULT_255_2_778
10
13.0466179
20
90.089284
40
0.2576729
50
265.7307079
51
343.9385006
0
ARC
8
DEFAULT_255_2_778
10
12.7062128
20
90.2081078
40
0.6179891
50
342.083348
51
359.140273
0
ARC
8
DEFAULT_255_2_778
10
12.3095066
20
90.233829
40
1.0152291
50
358.0246899
51
0.022412
0
LINE
8
DEFAULT_255_2_778
10
13.3247356
20
90.2342261
11
13.3247356
21
91.4730261
0
LINE
8
DEFAULT_255_2_778
10
13.3247356
20
91.4730261
11
13.8304356
21
91.4730261
0
LINE
8
DEFAULT_255_2_778
10
13.8304356
20
91.4730261
11
13.8304356
21
90.1337261
0
ARC
8
DEFAULT_255_2_778
10
12.8514059
20
90.1209172
40
0.9791135
50
345.1805154
51
0.7495724
0
ARC
8
DEFAULT_255_2_778
10
13.2662873
20
90.0024397
40
0.5477936
50
285.4657276
51
346.0612752
0
ARC
8
DEFAULT_255_2_778
10
13.1200591
20
90.4440642
40
1.0126855
50
271.9663872
51
286.7766923
0
ARC
8
DEFAULT_255_2_778
10
13.0874273
20
90.8966777
40
1.4662518
50
269.969063
51
272.6339029
0
ARC
8
DEFAULT_255_2_778
10
13.0738977
20
90.8156331
40
1.3852656
50
258.7495605
51
270.5268584
0
ARC
8
DEFAULT_255_2_778
10
12.9501082
20
90.2218192
40
0.7787312
50
237.8358872
51
259.1585686
0
ARC
8
DEFAULT_255_2_778
10
12.8657068
20
90.062068
40
0.5987211
50
191.4417791
51
236.5347796
0
ARC
8
DEFAULT_255_2_778
10
13.2609827
20
90.1698725
40
1.0078955
50
182.055256
51
192.991071
0
LINE
8
DEFAULT_255_2_778
10
12.2537356
20
90.1337261
11
12.2537356
21
91.4730261
0
ARC
8
DEFAULT_255_2_778
10
14.7413256
20
89.7949874
40
1.4333556
50
66.8803822
51
73.4744065
0
ARC
8
DEFAULT_255_2_778
10
14.8876936
20
90.294997
40
0.9123685
50
73.3549278
51
82.9894793
0
ARC
8
DEFAULT_255_2_778
10
14.9239037
20
90.5656014
40
0.6393744
50
83.2503985
51
89.8666058
0
ARC
8
DEFAULT_255_2_778
10
14.9177011
20
90.7735048
40
0.4315378
50
88.9787859
51
113.6695789
0
ARC
8
DEFAULT_255_2_778
10
14.8965512
20
90.8372439
40
0.3647228
50
114.6464556
51
139.7858108
0
ARC
8
DEFAULT_255_2_778
10
14.9314049
20
90.9078842
40
0.3540807
50
152.2542559
51
164.8328239
0
ARC
8
DEFAULT_255_2_778
10
14.8148001
20
90.9399886
40
0.2331385
50
164.9502956
51
179.6155054
0
ARC
8
DEFAULT_255_2_778
10
14.7860103
20
90.9458062
40
0.2043877
50
181.1923415
51
234.9836832
0
ARC
8
DEFAULT_255_2_778
10
14.979681
20
91.1851109
40
0.5119488
50
232.5993045
51
248.6067334
0
ARC
8
DEFAULT_255_2_778
10
15.1753631
20
91.6499541
40
1.0162208
50
247.8940712
51
254.8125359
0
ARC
8
DEFAULT_255_2_778
10
14.4749683
20
89.3338737
40
1.4041607
50
62.507553
51
71.988941
0
ARC
8
DEFAULT_255_2_778
10
14.7497703
20
89.8541137
40
0.8158212
50
47.3726524
51
62.7610707
0
ARC
8
DEFAULT_255_2_778
10
14.9801902
20
90.0949483
40
0.4826177
50
359.4703561
51
48.1368911
0
ARC
8
DEFAULT_255_2_778
10
14.816572
20
90.0936179
40
0.6462229
50
348.3789237
51
359.7224125
0
ARC
8
DEFAULT_255_2_778
10
14.5872778
20
90.1396042
40
0.8800809
50
340.4193449
51
348.4534643
0
ARC
8
DEFAULT_255_2_778
10
14.4154671
20
90.1968514
40
1.0611476
50
339.3036763
51
340.6160369
0
ARC
8
DEFAULT_255_2_778
10
14.6287328
20
90.2528133
40
0.8906283
50
315.632393
51
331.0586725
0
ARC
8
DEFAULT_255_2_778
10
14.796111
20
90.093245
40
0.659402
50
268.6346764
51
315.3742849
0
ARC
8
DEFAULT_255_2_778
10
14.7780384
20
90.3619767
40
0.9279495
50
270.0049732
51
270.1457805
0
ARC
8
DEFAULT_255_2_778
10
14.7831716
20
90.454193
40
1.0201782
50
259.4551782
51
269.7162276
0
ARC
8
DEFAULT_255_2_778
10
14.8551302
20
90.8510699
40
1.4235226
50
252.1799758
51
259.5311256
0
ARC
8
DEFAULT_255_2_778
10
15.0163139
20
91.3584306
40
1.9558691
50
246.7570382
51
252.2331786
0
ARC
8
DEFAULT_255_2_778
10
15.1702502
20
91.7303156
40
2.3583258
50
245.7711622
51
246.8861556
0
ARC
8
DEFAULT_255_2_778
10
-7.4318427
20
92.3705814
40
21.8135478
50
352.6493514
51
353.5571208
0
ARC
8
DEFAULT_255_2_778
10
14.9111495
20
91.3411938
40
1.5674634
50
244.8072526
51
251.2796637
0
ARC
8
DEFAULT_255_2_778
10
14.7370657
20
90.8208723
40
1.0187989
50
251.1602936
51
260.6845426
0
ARC
8
DEFAULT_255_2_778
10
14.6833327
20
90.5043962
40
0.6978009
50
260.8320399
51
269.7736704
0
ARC
8
DEFAULT_255_2_778
10
14.6881904
20
90.2790171
40
0.4724776
50
269.0766105
51
294.690636
0
ARC
8
DEFAULT_255_2_778
10
14.7004809
20
90.236699
40
0.4289439
50
295.5602677
51
316.7742448
0
ARC
8
DEFAULT_255_2_778
10
14.7559004
20
90.0892399
40
0.2958484
50
330.3594617
51
344.8543229
0
ARC
8
DEFAULT_255_2_778
10
14.8469419
20
90.0635691
40
0.2012645
50
345.1368415
51
359.7058859
0
ARC
8
DEFAULT_255_2_778
10
14.8504771
20
90.0567195
40
0.1978121
50
1.6849453
51
51.6271625
0
ARC
8
DEFAULT_255_2_778
10
14.6441823
20
89.8283846
40
0.5052823
50
49.3600913
51
65.2458346
0
ARC
8
DEFAULT_255_2_778
10
14.3828656
20
89.2850434
40
1.1081607
50
64.7394419
51
73.2930735
0
ARC
8
DEFAULT_255_2_778
10
14.9384433
20
91.3753567
40
1.0558744
50
243.270692
51
257.0285327
0
ARC
8
DEFAULT_255_2_778
10
14.7079924
20
90.9332698
40
0.5574208
50
214.573386
51
243.9886995
0
ARC
8
DEFAULT_255_2_778
10
14.6594625
20
90.8828784
40
0.4890652
50
183.7342609
51
212.9384667
0
ARC
8
DEFAULT_255_2_778
10
15.3028034
20
90.8794107
40
1.1317238
50
180.0080097
51
181.4371789
0
ARC
8
DEFAULT_255_2_778
10
14.9956353
20
90.8891899
40
0.8246157
50
165.1584617
51
180.6904868
0
ARC
8
DEFAULT_255_2_778
10
14.68226
20
90.9767127
40
0.4992954
50
108.7315145
51
165.6556671
0
ARC
8
DEFAULT_255_2_778
10
14.8256272
20
90.6147164
40
0.8883727
50
95.7228016
51
109.990842
0
ARC
8
DEFAULT_255_2_778
10
14.8864254
20
90.1150774
40
1.3916249
50
89.824475
51
96.1622461
0
ARC
8
DEFAULT_255_2_778
10
14.8877251
20
89.6242944
40
1.8824038
50
85.869018
51
89.9097969
0
ARC
8
DEFAULT_255_2_778
10
14.849459
20
89.084428
40
2.4236242
50
82.5850997
51
85.8861227
0
ARC
8
DEFAULT_255_2_778
10
14.7674666
20
88.4490029
40
3.0643172
50
79.8759676
51
82.5981341
0
ARC
8
DEFAULT_255_2_778
10
14.6839847
20
87.9657346
40
3.5547362
50
79.0989088
51
79.9205607
0
ARC
8
DEFAULT_255_2_778
10
18.2936946
20
90.8946157
40
0.1974174
50
358.4065706
51
79.0067515
0
ARC
8
DEFAULT_255_2_778
10
18.1618577
20
90.5014661
40
0.610924
50
73.8936638
51
88.5638692
0
ARC
8
DEFAULT_255_2_778
10
18.133816
20
90.0740701
40
1.0390328
50
87.6086729
51
90.038284
0
ARC
8
DEFAULT_255_2_778
10
18.1349181
20
89.7919361
40
1.3211679
50
90.0779052
51
93.2618745
0
ARC
8
DEFAULT_255_2_778
10
18.1521921
20
89.4635121
40
1.6500431
50
93.2118287
51
94.8586976
0
LINE
8
DEFAULT_255_2_778
10
18.0124356
20
91.1076261
11
18.0124356
21
90.6705261
0
ARC
8
DEFAULT_255_2_778
10
18.1667265
20
92.1782128
40
1.5155609
50
264.1569084
51
267.1546668
0
ARC
8
DEFAULT_255_2_778
10
18.1491778
20
91.8336677
40
1.1705694
50
267.1754147
51
269.9449536
0
ARC
8
DEFAULT_255_2_778
10
18.1584235
20
91.351099
40
0.6880783
50
269.1364337
51
282.3901629
0
ARC
8
DEFAULT_255_2_778
10
18.2538248
20
90.9452812
40
0.2713112
50
281.1010236
51
311.8736628
0
ARC
8
DEFAULT_255_2_778
10
18.2973718
20
90.8798989
40
0.1938836
50
315.1900853
51
2.7278198
0
ARC
8
DEFAULT_255_2_778
10
18.0551231
20
89.2758195
40
1.0191005
50
90.0276717
51
91.9562
0
ARC
8
DEFAULT_255_2_778
10
18.0656816
20
89.7141885
40
0.5808367
50
76.4450247
51
91.0901487
0
ARC
8
DEFAULT_255_2_778
10
18.1647933
20
90.0915933
40
0.190878
50
36.9771902
51
78.8156931
0
ARC
8
DEFAULT_255_2_778
10
18.2059892
20
90.1319299
40
0.1339125
50
29.3302655
51
33.7902491
0
ARC
8
DEFAULT_255_2_778
10
18.5296658
20
90.2379278
40
0.2648688
50
27.1093959
51
70.579201
0
ARC
8
DEFAULT_255_2_778
10
18.5022063
20
90.9620658
40
0.4882061
50
283.6883387
51
313.3849084
0
ARC
8
DEFAULT_255_2_778
10
18.5245131
20
90.9111498
40
0.4362837
50
315.8496827
51
354.3635788
0
ARC
8
DEFAULT_255_2_778
10
18.2393274
20
90.9621132
40
0.7254514
50
352.5698723
51
0.1803447
0
ARC
8
DEFAULT_255_2_778
10
18.1055422
20
90.9643268
40
0.859233
50
0.0046545
51
1.0335847
0
ARC
8
DEFAULT_255_2_778
10
18.4632384
20
90.9694023
40
0.5015055
50
1.1909737
51
31.1658194
0
ARC
8
DEFAULT_255_2_778
10
18.5075239
20
90.9743546
40
0.4614271
50
33.4860836
51
69.9295246
0
ARC
8
DEFAULT_255_2_778
10
18.3439068
20
90.5695362
40
0.897932
50
68.9878613
51
84.0547611
0
ARC
8
DEFAULT_255_2_778
10
18.2622894
20
89.9265308
40
1.5460015
50
83.5145089
51
90.2261877
0
ARC
8
DEFAULT_255_2_778
10
18.2565239
20
89.479748
40
1.9927724
50
90.0097096
51
91.276349
0
LINE
8
DEFAULT_255_2_778
10
18.2121356
20
91.4720261
11
17.5409356
21
91.4720261
0
ARC
8
DEFAULT_255_2_778
10
7.7043079
20
87.0496809
40
0.7233925
50
351.7617382
51
357.6974691
0
ARC
8
DEFAULT_255_2_778
10
7.8055222
20
87.0445001
40
0.6220528
50
357.7997341
51
359.9871502
0
ARC
8
DEFAULT_255_2_778
10
8.0088309
20
87.0585536
40
0.4189847
50
358.0587428
51
36.9089796
0
ARC
8
DEFAULT_255_2_778
10
7.9774842
20
87.0115465
40
0.4726514
50
39.1838572
51
67.46479
0
ARC
8
DEFAULT_255_2_778
10
7.800301
20
86.614854
40
0.9070341
50
66.7306662
51
80.0429859
0
ARC
8
DEFAULT_255_2_778
10
7.8922138
20
88.0806191
40
0.576063
50
276.4709295
51
298.7325898
0
ARC
8
DEFAULT_255_2_778
10
7.9720468
20
87.9121757
40
0.3901364
50
300.3440365
51
354.5291697
0
ARC
8
DEFAULT_255_2_778
10
7.7544926
20
87.964268
40
0.6124568
50
351.6172157
51
352.886679
0
ARC
8
DEFAULT_255_2_778
10
7.5070689
20
87.9519426
40
0.8575223
50
355.7522237
51
359.3990989
0
ARC
8
DEFAULT_255_2_778
10
7.574702
20
87.9505532
40
0.7898784
50
359.4484243
51
359.9974728
0
ARC
8
DEFAULT_255_2_778
10
7.8162648
20
87.9630617
40
0.5484592
50
358.6895191
51
23.5822605
0
ARC
8
DEFAULT_255_2_778
10
7.926868
20
87.9950744
40
0.4345413
50
25.5484924
51
69.8625864
0
ARC
8
DEFAULT_255_2_778
10
7.7633212
20
87.6062077
40
0.8561672
50
68.5459373
51
83.717069
0
ARC
8
DEFAULT_255_2_778
10
7.6875894
20
87.0564783
40
1.4109637
50
83.1032533
51
88.7879299
0
ARC
8
DEFAULT_255_2_778
10
7.7379216
20
87.9774408
40
1.5114647
50
269.5342618
51
279.0185685
0
ARC
8
DEFAULT_255_2_778
10
7.8596329
20
87.2456537
40
0.769665
50
278.6094549
51
295.3311779
0
ARC
8
DEFAULT_255_2_778
10
8.0258784
20
86.9090303
40
0.3943292
50
294.4249512
51
1.4183003
0
ARC
8
DEFAULT_255_2_778
10
7.8025088
20
86.9354925
40
0.6178038
50
358.4508494
51
0.0076084
0
ARC
8
DEFAULT_255_2_778
10
7.7754792
20
86.9355612
40
0.6448336
50
0.0011837
51
0.885449
0
ARC
8
DEFAULT_255_2_778
10
7.6311054
20
87.9069142
40
0.3360461
50
354.0408526
51
359.8982855
0
ARC
8
DEFAULT_255_2_778
10
7.7502748
20
87.9123128
40
0.216959
50
358.4165525
51
75.5581072
0
ARC
8
DEFAULT_255_2_778
10
7.606412
20
87.5414117
40
0.6138071
50
71.1839233
51
85.8371032
0
ARC
8
DEFAULT_255_2_778
10
7.5537011
20
87.0247852
40
1.1329971
50
85.0750545
51
90.1635284
0
ARC
8
DEFAULT_255_2_778
10
7.5520365
20
86.5925573
40
1.5652213
50
90.0574386
51
92.756442
0
ARC
8
DEFAULT_255_2_778
10
7.5671537
20
86.2536835
40
1.9044305
50
92.7204346
51
94.1891732
0
LINE
8
DEFAULT_255_2_778
10
7.4280356
20
88.1530261
11
7.4280356
21
87.6569261
0
ARC
8
DEFAULT_255_2_778
10
7.4396677
20
89.5564325
40
1.899542
50
269.6491384
51
275.9748206
0
ARC
8
DEFAULT_255_2_778
10
7.556061
20
88.5000729
40
0.8368254
50
275.5774911
51
287.1777175
0
ARC
8
DEFAULT_255_2_778
10
7.7241583
20
87.9806439
40
0.2910099
50
285.7614528
51
313.2427824
0
ARC
8
DEFAULT_255_2_778
10
7.8221177
20
87.869807
40
0.143232
50
315.0728263
51
0.807691
0
ARC
8
DEFAULT_255_2_778
10
7.6058683
20
87.0717788
40
0.414655
50
354.3875766
51
359.9047624
0
ARC
8
DEFAULT_255_2_778
10
7.7710639
20
87.0826438
40
0.2497263
50
357.3481043
51
71.5110692
0
ARC
8
DEFAULT_255_2_778
10
7.6314984
20
86.7548543
40
0.6055232
50
68.8216211
51
84.5621452
0
ARC
8
DEFAULT_255_2_778
10
7.5667258
20
86.2243088
40
1.1399077
50
83.8482097
51
90.2373187
0
ARC
8
DEFAULT_255_2_778
10
7.5634203
20
85.7566462
40
1.6075611
50
90.0504701
51
92.6620755
0
ARC
8
DEFAULT_255_2_778
10
7.5788155
20
85.4089616
40
1.9555858
50
92.639523
51
94.4220176
0
LINE
8
DEFAULT_255_2_778
10
7.4280356
20
87.3587261
11
7.4280356
21
86.7806261
0
ARC
8
DEFAULT_255_2_778
10
7.6092265
20
88.9588841
40
2.185781
50
265.2449948
51
267.4117123
0
ARC
8
DEFAULT_255_2_778
10
7.5884138
20
88.4933496
40
1.7197816
50
267.4039976
51
269.9463518
0
ARC
8
DEFAULT_255_2_778
10
7.5971247
20
87.8278593
40
1.0543411
50
269.4391086
51
279.1215463
0
ARC
8
DEFAULT_255_2_778
10
7.696584
20
87.2408128
40
0.4589799
50
278.480221
51
297.2227158
0
ARC
8
DEFAULT_255_2_778
10
7.8188818
20
87.0124562
40
0.2000181
50
295.9938404
51
2.0031105
0
ARC
8
DEFAULT_255_2_778
10
7.7285477
20
87.0193713
40
0.2902299
50
0.0150641
51
2.3409659
0
LINE
8
DEFAULT_255_2_778
10
12.2537356
20
91.4730261
11
12.2540356
21
91.4730261
0
LINE
8
DEFAULT_255_2_778
10
15.3562356
20
91.4563261
11
15.3147356
21
91.1235261
0
LINE
8
DEFAULT_255_2_778
10
17.0895356
20
89.8278261
11
17.0895356
21
89.5201261
0
LINE
8
DEFAULT_255_2_778
10
17.0895356
20
89.5201261
11
15.8960356
21
89.5201261
0
LINE
8
DEFAULT_255_2_778
10
15.8960356
20
89.5201261
11
15.8960356
21
91.4730261
0
LINE
8
DEFAULT_255_2_778
10
15.8960356
20
91.4730261
11
17.0839356
21
91.4730261
0
LINE
8
DEFAULT_255_2_778
10
17.0839356
20
91.4730261
11
17.0839356
21
91.1653261
0
LINE
8
DEFAULT_255_2_778
10
17.0839356
20
91.1653261
11
16.2997356
21
91.1653261
0
LINE
8
DEFAULT_255_2_778
10
16.2997356
20
91.1653261
11
16.2997356
21
90.6840261
0
LINE
8
DEFAULT_255_2_778
10
16.2997356
20
90.6840261
11
17.0173356
21
90.6840261
0
LINE
8
DEFAULT_255_2_778
10
17.0173356
20
90.6840261
11
17.0173356
21
90.3763261
0
LINE
8
DEFAULT_255_2_778
10
17.0173356
20
90.3763261
11
16.2997356
21
90.3763261
0
LINE
8
DEFAULT_255_2_778
10
16.2997356
20
90.3763261
11
16.2997356
21
89.8278261
0
LINE
8
DEFAULT_255_2_778
10
16.2997356
20
89.8278261
11
17.0895356
21
89.8278261
0
LINE
8
DEFAULT_255_2_778
10
18.4910356
20
90.8891261
11
18.4910356
21
90.8891261
0
LINE
8
DEFAULT_255_2_778
10
17.5409356
20
91.4725261
11
17.5409356
21
89.5199261
0
LINE
8
DEFAULT_255_2_778
10
17.5409356
20
89.5199261
11
18.0203356
21
89.5199261
0
LINE
8
DEFAULT_255_2_778
10
18.0203356
20
89.5199261
11
18.0203356
21
90.2943261
0
LINE
8
DEFAULT_255_2_778
10
18.3227356
20
90.1975261
11
18.5513356
21
89.5278261
0
LINE
8
DEFAULT_255_2_778
10
18.5513356
20
89.5278261
11
19.0456356
21
89.5196261
0
LINE
8
DEFAULT_255_2_778
10
19.0456356
20
89.5196261
11
18.7654356
21
90.3586261
0
LINE
8
DEFAULT_255_2_778
10
17.5409356
20
91.4720261
11
17.5409356
21
91.4725261
0
LINE
8
DEFAULT_255_2_778
10
18.5585356
20
87.2587261
11
18.5585356
21
86.4684261
0
LINE
8
DEFAULT_255_2_778
10
18.5585356
20
86.4684261
11
18.1574356
21
86.4684261
0
LINE
8
DEFAULT_255_2_778
10
18.1574356
20
86.4684261
11
18.1574356
21
87.2587261
0
LINE
8
DEFAULT_255_2_778
10
18.1574356
20
87.2587261
11
17.4271356
21
88.4674261
0
LINE
8
DEFAULT_255_2_778
10
17.4271356
20
88.4674261
11
17.8970356
21
88.4674261
0
LINE
8
DEFAULT_255_2_778
10
17.8970356
20
88.4674261
11
18.3693356
21
87.6284261
0
LINE
8
DEFAULT_255_2_778
10
18.3693356
20
87.6284261
11
18.8506356
21
88.4674261
0
LINE
8
DEFAULT_255_2_778
10
18.8506356
20
88.4674261
11
19.2744356
21
88.4674261
0
LINE
8
DEFAULT_255_2_778
10
19.2744356
20
88.4674261
11
18.5585356
21
87.2587261
0
LINE
8
DEFAULT_255_2_778
10
15.4290356
20
86.7833261
11
15.4290356
21
86.4684261
0
LINE
8
DEFAULT_255_2_778
10
15.4290356
20
86.4684261
11
14.2431356
21
86.4684261
0
LINE
8
DEFAULT_255_2_778
10
14.2431356
20
86.4684261
11
14.2431356
21
88.4674261
0
LINE
8
DEFAULT_255_2_778
10
14.2431356
20
88.4674261
11
15.4232356
21
88.4674261
0
LINE
8
DEFAULT_255_2_778
10
15.4232356
20
88.4674261
11
15.4232356
21
88.1525261
0
LINE
8
DEFAULT_255_2_778
10
15.4232356
20
88.1525261
11
14.6442356
21
88.1525261
0
LINE
8
DEFAULT_255_2_778
10
14.6442356
20
88.1525261
11
14.6442356
21
87.6598261
0
LINE
8
DEFAULT_255_2_778
10
14.6442356
20
87.6598261
11
15.3573356
21
87.6598261
0
LINE
8
DEFAULT_255_2_778
10
15.3573356
20
87.6598261
11
15.3573356
21
87.3450261
0
LINE
8
DEFAULT_255_2_778
10
15.3573356
20
87.3450261
11
14.6442356
21
87.3450261
0
LINE
8
DEFAULT_255_2_778
10
14.6442356
20
87.3450261
11
14.6442356
21
86.7835261
0
LINE
8
DEFAULT_255_2_778
10
14.6442356
20
86.7835261
11
15.4290356
21
86.7833261
0
LINE
8
DEFAULT_255_2_778
10
13.9161356
20
88.4674261
11
13.9161356
21
88.1525261
0
LINE
8
DEFAULT_255_2_778
10
13.9161356
20
88.1525261
11
13.3435356
21
88.1525261
0
LINE
8
DEFAULT_255_2_778
10
13.3435356
20
88.1525261
11
13.3435356
21
86.4684261
0
LINE
8
DEFAULT_255_2_778
10
13.3435356
20
86.4684261
11
12.9424356
21
86.4684261
0
LINE
8
DEFAULT_255_2_778
10
12.9424356
20
86.4684261
11
12.9424356
21
88.1525261
0
LINE
8
DEFAULT_255_2_778
10
12.9424356
20
88.1525261
11
12.3696356
21
88.1525261
0
LINE
8
DEFAULT_255_2_778
10
12.3696356
20
88.1525261
11
12.3696356
21
88.4674261
0
LINE
8
DEFAULT_255_2_778
10
12.3696356
20
88.4674261
11
13.9161356
21
88.4674261
0
LINE
8
DEFAULT_255_2_778
10
12.1725356
20
88.4674261
11
12.1725356
21
88.1525261
0
LINE
8
DEFAULT_255_2_778
10
12.1725356
20
88.1525261
11
11.5999356
21
88.1525261
0
LINE
8
DEFAULT_255_2_778
10
11.5999356
20
88.1525261
11
11.5999356
21
86.4684261
0
LINE
8
DEFAULT_255_2_778
10
11.5999356
20
86.4684261
11
11.1988356
21
86.4684261
0
LINE
8
DEFAULT_255_2_778
10
11.1988356
20
86.4684261
11
11.1988356
21
88.1525261
0
LINE
8
DEFAULT_255_2_778
10
11.1988356
20
88.1525261
11
10.6263356
21
88.1525261
0
LINE
8
DEFAULT_255_2_778
10
10.6263356
20
88.1525261
11
10.6263356
21
88.4674261
0
LINE
8
DEFAULT_255_2_778
10
10.6263356
20
88.4674261
11
12.1725356
21
88.4674261
0
LINE
8
DEFAULT_255_2_778
10
7.7174356
20
88.4671261
11
7.0311356
21
88.4671261
0
LINE
8
DEFAULT_255_2_778
10
7.0311356
20
88.4671261
11
7.0311356
21
86.4660261
0
LINE
8
DEFAULT_255_2_778
10
7.0311356
20
86.4660261
11
7.7256356
21
86.4660261
0
LINE
8
DEFAULT_255_2_778
10
8.4202356
20
86.9455261
11
8.4202356
21
86.9460261
0
LINE
8
DEFAULT_255_2_778
10
7.9653356
20
87.8718261
11
7.9653356
21
87.8720261
0
LINE
8
DEFAULT_255_2_778
10
8.0185356
20
87.0312261
11
8.0185356
21
87.0312261
0
ARC
8
DEFAULT_255_2_778
10
16.6173335
20
87.8886704
40
0.1970548
50
358.502518
51
78.7307607
0
ARC
8
DEFAULT_255_2_778
10
16.4846615
20
87.5002522
40
0.606339
50
73.6014023
51
88.1455905
0
ARC
8
DEFAULT_255_2_778
10
16.4537631
20
87.064511
40
1.042987
50
87.2236642
51
90.0519484
0
ARC
8
DEFAULT_255_2_778
10
16.4546315
20
86.7597322
40
1.3477664
50
90.0771148
51
93.2295159
0
ARC
8
DEFAULT_255_2_778
10
16.4720637
20
86.4249525
40
1.6829971
50
93.1799646
51
94.8106995
0
LINE
8
DEFAULT_255_2_778
10
16.330921
20
88.1020208
11
16.330921
21
87.6649208
0
ARC
8
DEFAULT_255_2_778
10
16.4867477
20
89.2029048
40
1.545858
50
264.2146039
51
267.1829107
0
ARC
8
DEFAULT_255_2_778
10
16.4690343
20
88.8516328
40
1.1941398
50
267.2034347
51
269.945513
0
ARC
8
DEFAULT_255_2_778
10
16.4782425
20
88.3613041
40
0.7038866
50
269.157991
51
282.1589297
0
ARC
8
DEFAULT_255_2_778
10
16.5738298
20
87.9465286
40
0.2783493
50
280.9070505
51
310.8017002
0
ARC
8
DEFAULT_255_2_778
10
16.622204
20
87.8742776
40
0.1923392
50
313.9590888
51
2.7544879
0
ARC
8
DEFAULT_255_2_778
10
16.3745268
20
86.2511425
40
1.038172
50
90.0277344
51
91.9378295
0
ARC
8
DEFAULT_255_2_778
10
16.3851986
20
86.6979434
40
0.5914764
50
76.5610476
51
91.0825107
0
ARC
8
DEFAULT_255_2_778
10
16.4850265
20
87.0824419
40
0.1944591
50
38.1583732
51
78.8402435
0
ARC
8
DEFAULT_255_2_778
10
16.5282922
20
87.1259033
40
0.133794
50
29.5168307
51
34.9693928
0
ARC
8
DEFAULT_255_2_778
10
16.8546405
20
87.2301131
40
0.266957
50
27.4130859
51
70.7347126
0
ARC
8
DEFAULT_255_2_778
10
16.8259483
20
87.9651007
40
0.4968958
50
283.5918764
51
312.4263002
0
ARC
8
DEFAULT_255_2_778
10
16.8548905
20
87.9060557
40
0.4341795
50
314.8644863
51
354.718053
0
ARC
8
DEFAULT_255_2_778
10
16.57111
20
87.9562028
40
0.7217642
50
352.8275854
51
0.1669747
0
ARC
8
DEFAULT_255_2_778
10
16.4419312
20
87.9582331
40
0.8509399
50
0.0049202
51
1.0765489
0
ARC
8
DEFAULT_255_2_778
10
16.7971149
20
87.9640649
40
0.4957101
50
1.1739287
51
32.0787735
0
ARC
8
DEFAULT_255_2_778
10
16.8318936
20
87.9628037
40
0.46732
50
34.4750539
51
70.2609963
0
ARC
8
DEFAULT_255_2_778
10
16.6679922
20
87.5531851
40
0.9083647
50
69.2562934
51
83.7976378
0
ARC
8
DEFAULT_255_2_778
10
16.5844306
20
86.9045031
40
1.5623317
50
83.3212972
51
90.2414583
0
ARC
8
DEFAULT_255_2_778
10
16.5781822
20
86.4369818
40
2.0298393
50
90.009474
51
91.272037
0
LINE
8
DEFAULT_255_2_778
10
16.533121
20
88.4663208
11
15.855521
21
88.4663208
0
LINE
8
DEFAULT_255_2_778
10
9.660521
20
88.0663208
11
9.654721
21
88.0663208
0
LINE
8
DEFAULT_255_2_778
10
9.660521
20
88.0663208
11
9.365321
21
87.2416208
0
LINE
8
DEFAULT_255_2_778
10
9.365321
20
87.2416208
11
9.949521
21
87.2416208
0
LINE
8
DEFAULT_255_2_778
10
9.949521
20
87.2416208
11
9.660521
21
88.0663208
0
LINE
8
DEFAULT_255_2_778
10
8.661221
20
86.4685208
11
9.440121
21
88.4674208
0
LINE
8
DEFAULT_255_2_778
10
9.440121
20
88.4674208
11
9.892621
21
88.4674208
0
LINE
8
DEFAULT_255_2_778
10
9.892621
20
88.4674208
11
10.677321
21
86.4685208
0
LINE
8
DEFAULT_255_2_778
10
10.677321
20
86.4685208
11
10.233621
21
86.4685208
0
LINE
8
DEFAULT_255_2_778
10
10.233621
20
86.4685208
11
10.061421
21
86.9267208
0
LINE
8
DEFAULT_255_2_778
10
10.061421
20
86.9267208
11
9.251021
21
86.9267208
0
LINE
8
DEFAULT_255_2_778
10
9.251021
20
86.9267208
11
9.076321
21
86.4685208
0
LINE
8
DEFAULT_255_2_778
10
9.076321
20
86.4685208
11
8.661221
21
86.4685208
0
LINE
8
DEFAULT_255_2_778
10
16.814321
20
87.8835208
11
16.814321
21
87.8835208
0
LINE
8
DEFAULT_255_2_778
10
15.855221
20
88.4669208
11
15.855221
21
86.5142208
0
LINE
8
DEFAULT_255_2_778
10
15.855221
20
86.5142208
11
16.339421
21
86.5142208
0
LINE
8
DEFAULT_255_2_778
10
16.339421
20
86.5142208
11
16.339421
21
87.2887208
0
LINE
8
DEFAULT_255_2_778
10
16.644721
20
87.1918208
11
16.875721
21
86.5222208
0
LINE
8
DEFAULT_255_2_778
10
16.875721
20
86.5222208
11
17.374721
21
86.5140208
0
LINE
8
DEFAULT_255_2_778
10
17.374721
20
86.5140208
11
17.091621
21
87.3530208
0
LINE
8
DEFAULT_255_2_778
10
15.855521
20
88.4663208
11
15.855221
21
88.4669208
0
LINE
8
DEFAULT_255_2_778
10
13.163321
20
83.7909208
11
13.163321
21
83.4774208
0
LINE
8
DEFAULT_255_2_778
10
13.163321
20
83.4774208
11
12.026221
21
83.4774208
0
LINE
8
DEFAULT_255_2_778
10
12.026221
20
83.4774208
11
12.026221
21
85.4676208
0
LINE
8
DEFAULT_255_2_778
10
12.026221
20
85.4676208
11
13.158321
21
85.4676208
0
LINE
8
DEFAULT_255_2_778
10
13.158321
20
85.4676208
11
13.158321
21
85.1540208
0
LINE
8
DEFAULT_255_2_778
10
13.158321
20
85.1540208
11
12.410921
21
85.1540208
0
LINE
8
DEFAULT_255_2_778
10
12.410921
20
85.1540208
11
12.410921
21
84.6635208
0
LINE
8
DEFAULT_255_2_778
10
12.410921
20
84.6635208
11
13.094821
21
84.6635208
0
LINE
8
DEFAULT_255_2_778
10
13.094821
20
84.6635208
11
13.094821
21
84.3500208
0
LINE
8
DEFAULT_255_2_778
10
13.094821
20
84.3500208
11
12.410921
21
84.3500208
0
LINE
8
DEFAULT_255_2_778
10
12.410921
20
84.3500208
11
12.410921
21
83.7909208
0
LINE
8
DEFAULT_255_2_778
10
12.410921
20
83.7909208
11
13.163321
21
83.7909208
0
LINE
8
DEFAULT_255_2_778
10
19.241421
20
85.4676208
11
18.554221
21
84.2642208
0
LINE
8
DEFAULT_255_2_778
10
18.554221
20
84.2642208
11
18.554221
21
83.4774208
0
LINE
8
DEFAULT_255_2_778
10
18.554221
20
83.4774208
11
18.169521
21
83.4774208
0
LINE
8
DEFAULT_255_2_778
10
18.169521
20
83.4774208
11
18.169521
21
84.2642208
0
LINE
8
DEFAULT_255_2_778
10
18.169521
20
84.2642208
11
17.469221
21
85.4676208
0
LINE
8
DEFAULT_255_2_778
10
17.469221
20
85.4676208
11
17.919521
21
85.4676208
0
LINE
8
DEFAULT_255_2_778
10
17.919521
20
85.4676208
11
18.373321
21
84.6323208
0
LINE
8
DEFAULT_255_2_778
10
18.373321
20
84.6323208
11
18.835021
21
85.4676208
0
LINE
8
DEFAULT_255_2_778
10
18.835021
20
85.4676208
11
19.241421
21
85.4676208
0
ARC
8
DEFAULT_255_2_778
10
10.9502415
20
84.8815459
40
0.2003781
50
357.4082599
51
78.2721186
0
ARC
8
DEFAULT_255_2_778
10
10.8308164
20
84.518173
40
0.5820358
50
74.0282772
51
89.3630081
0
ARC
8
DEFAULT_255_2_778
10
10.8095143
20
84.1425442
40
0.9580313
50
88.3387913
51
90.0180033
0
ARC
8
DEFAULT_255_2_778
10
10.8109369
20
83.9210534
40
1.1795235
50
90.083727
51
93.4880545
0
ARC
8
DEFAULT_255_2_778
10
10.8274522
20
83.6271873
40
1.4738507
50
93.4338557
51
95.1944863
0
LINE
8
DEFAULT_255_2_778
10
10.6940146
20
85.0949851
11
10.6940146
21
84.6496851
0
ARC
8
DEFAULT_255_2_778
10
10.8406564
20
85.9838002
40
1.3421502
50
263.7274075
51
267.135147
0
ARC
8
DEFAULT_255_2_778
10
10.8245569
20
85.6765433
40
1.0344728
50
267.1751655
51
269.9483566
0
ARC
8
DEFAULT_255_2_778
10
10.8339651
20
85.2488919
40
0.6069092
50
269.0237371
51
283.7194316
0
ARC
8
DEFAULT_255_2_778
10
10.9284534
20
84.8907678
40
0.2366928
50
282.0593434
51
320.0024
0
ARC
8
DEFAULT_255_2_778
10
10.9380487
20
84.863864
40
0.2125409
50
323.8988455
51
2.3246685
0
ARC
8
DEFAULT_255_2_778
10
10.7343325
20
83.3564701
40
0.9106993
50
90.0285772
51
92.0525646
0
ARC
8
DEFAULT_255_2_778
10
10.7451096
20
83.7557303
40
0.5115622
50
74.8438602
51
91.2580297
0
ARC
8
DEFAULT_255_2_778
10
10.8401348
20
84.0806216
40
0.1732598
50
30.2422111
51
77.0855203
0
ARC
8
DEFAULT_255_2_778
10
11.178819
20
84.2242104
40
0.2569248
50
24.9246115
51
68.9469579
0
ARC
8
DEFAULT_255_2_778
10
11.1622884
20
84.8901992
40
0.4398882
50
284.3234252
51
322.1731375
0
ARC
8
DEFAULT_255_2_778
10
11.1164036
20
84.8990772
40
0.4820389
50
324.6852045
51
355.0100032
0
ARC
8
DEFAULT_255_2_778
10
10.8080447
20
84.9465556
40
0.793623
50
353.5315104
51
0.1478611
0
ARC
8
DEFAULT_255_2_778
10
10.6690479
20
84.9485365
40
0.932617
50
0.0041238
51
1.0290108
0
ARC
8
DEFAULT_255_2_778
10
11.0546909
20
84.9540024
40
0.5469401
50
1.1820199
51
27.5101793
0
ARC
8
DEFAULT_255_2_778
10
11.1460747
20
84.9827725
40
0.4529077
50
29.622522
51
71.4169906
0
ARC
8
DEFAULT_255_2_778
10
10.9904419
20
84.5775334
40
0.8868062
50
70.2295353
51
85.4308545
0
ARC
8
DEFAULT_255_2_778
10
10.9297715
20
84.0206104
40
1.4468821
50
84.7928208
51
90.1386219
0
ARC
8
DEFAULT_255_2_778
10
10.9265927
20
83.6912777
40
1.7762106
50
90.0103774
51
91.3639052
0
LINE
8
DEFAULT_255_2_778
10
10.8843146
20
85.4669851
11
10.2445146
21
85.4669851
0
LINE
8
DEFAULT_255_2_778
10
11.1504146
20
84.8724851
11
11.1504146
21
84.8724851
0
LINE
8
DEFAULT_255_2_778
10
10.2448146
20
85.4669851
11
10.2448146
21
83.4772851
0
LINE
8
DEFAULT_255_2_778
10
10.2448146
20
83.4772851
11
10.7017146
21
83.4772851
0
LINE
8
DEFAULT_255_2_778
10
10.7017146
20
83.4772851
11
10.7017146
21
84.2665851
0
LINE
8
DEFAULT_255_2_778
10
10.9898146
20
84.1678851
11
11.2078146
21
83.4854851
0
LINE
8
DEFAULT_255_2_778
10
11.2078146
20
83.4854851
11
11.6791146
21
83.4772851
0
LINE
8
DEFAULT_255_2_778
10
11.6791146
20
83.4772851
11
11.4118146
21
84.3324851
0
LINE
8
DEFAULT_255_2_778
10
10.2445146
20
85.4669851
11
10.2448146
21
85.4669851
0
LINE
8
DEFAULT_255_2_778
10
13.4570834
20
83.4772979
11
14.2044834
21
85.4674979
0
LINE
8
DEFAULT_255_2_778
10
14.2044834
20
85.4674979
11
14.6386834
21
85.4674979
0
LINE
8
DEFAULT_255_2_778
10
14.6386834
20
85.4674979
11
15.3916834
21
83.4772979
0
LINE
8
DEFAULT_255_2_778
10
15.3916834
20
83.4772979
11
14.9657834
21
83.4772979
0
LINE
8
DEFAULT_255_2_778
10
14.9657834
20
83.4772979
11
14.8006834
21
83.9333979
0
LINE
8
DEFAULT_255_2_778
10
14.8006834
20
83.9333979
11
14.0232834
21
83.9333979
0
LINE
8
DEFAULT_255_2_778
10
14.0232834
20
83.9333979
11
13.8557834
21
83.4772979
0
LINE
8
DEFAULT_255_2_778
10
13.8557834
20
83.4772979
11
13.4570834
21
83.4772979
0
LINE
8
DEFAULT_255_2_778
10
14.4108834
20
85.0681979
11
14.1333834
21
84.2471979
0
LINE
8
DEFAULT_255_2_778
10
14.1333834
20
84.2471979
11
14.6939834
21
84.2471979
0
LINE
8
DEFAULT_255_2_778
10
14.6939834
20
84.2471979
11
14.4158834
21
85.0681979
0
LINE
8
DEFAULT_255_2_778
10
14.4158834
20
85.0681979
11
14.4108834
21
85.0681979
0
LINE
8
DEFAULT_255_2_778
10
15.7171667
20
83.4936958
11
16.3608667
21
83.4936958
0
ARC
8
DEFAULT_255_2_778
10
16.3734773
20
85.0838086
40
1.5901628
50
269.5456171
51
280.7551565
0
ARC
8
DEFAULT_255_2_778
10
16.498563
20
84.4544583
40
0.9485408
50
280.4263299
51
300.0639607
0
ARC
8
DEFAULT_255_2_778
10
16.5957532
20
84.2615732
40
0.7330232
50
301.0421559
51
344.9659433
0
ARC
8
DEFAULT_255_2_778
10
16.1101193
20
84.4169869
40
1.242582
50
343.8535036
51
357.2465681
0
ARC
8
DEFAULT_255_2_778
10
15.4866303
20
84.3699279
40
1.8646792
50
359.611853
51
9.7100861
0
ARC
8
DEFAULT_255_2_778
10
16.2009671
20
84.4972221
40
1.1391173
50
9.4591739
51
26.1059064
0
ARC
8
DEFAULT_255_2_778
10
16.5043824
20
84.6400373
40
0.8038299
50
26.481318
51
77.0409404
0
ARC
8
DEFAULT_255_2_778
10
16.3377167
20
84.0655513
40
1.4014621
50
75.6675694
51
88.916818
0
ARC
8
DEFAULT_255_2_778
10
16.3118028
20
83.5932303
40
1.8742655
50
88.3977224
51
90.0102751
0
LINE
8
DEFAULT_255_2_778
10
16.3114667
20
85.4674958
11
15.7171667
21
85.4674958
0
LINE
8
DEFAULT_255_2_778
10
15.7171667
20
85.4674958
11
15.7171667
21
83.4936958
0
ARC
8
DEFAULT_255_2_778
10
15.9518513
20
84.4550001
40
1.0049104
50
3.228561
51
17.4239349
0
ARC
8
DEFAULT_255_2_778
10
16.3686252
20
84.5928361
40
0.5660262
50
16.7444034
51
48.5516751
0
ARC
8
DEFAULT_255_2_778
10
16.3733212
20
84.5703198
40
0.5800877
50
50.3717807
51
79.641787
0
ARC
8
DEFAULT_255_2_778
10
16.2896396
20
84.1895932
40
0.9697545
50
78.8227223
51
90.4259446
0
ARC
8
DEFAULT_255_2_778
10
16.2836651
20
83.8251654
40
1.3341563
50
90.0530268
51
93.5823914
0
ARC
8
DEFAULT_255_2_778
10
16.2997495
20
83.5661521
40
1.5936685
50
93.5776735
51
96.7126086
0
LINE
8
DEFAULT_255_2_778
10
16.1134667
20
85.1488958
11
16.1134667
21
83.7815958
0
ARC
8
DEFAULT_255_2_778
10
16.1261951
20
85.249278
40
1.4677374
50
269.5031174
51
280.6298738
0
ARC
8
DEFAULT_255_2_778
10
16.2509704
20
84.613962
40
0.8203254
50
280.2498256
51
299.8950396
0
ARC
8
DEFAULT_255_2_778
10
16.3599136
20
84.404539
40
0.5845539
50
300.8685742
51
350.8254179
0
ARC
8
DEFAULT_255_2_778
10
15.9365693
20
84.504624
40
1.0189214
50
349.0647902
51
0.3920397
0
LINE
8
DEFAULT_255_2_778
10
15.7171667
20
83.4936958
11
15.7171667
21
83.4936958
0
LINE
8
DEFAULT_255_2_778
10
16.9554667
20
84.5115958
11
16.9551667
21
84.5115958
0
ARC
8
DEFAULT_255_2_778
10
3.1626799
20
84.4998541
40
0.9821804
50
166.1403752
51
177.4943017
0
ARC
8
DEFAULT_255_2_778
10
2.8272697
20
84.5848745
40
0.636173
50
148.3460466
51
166.3384787
0
ARC
8
DEFAULT_255_2_778
10
2.7411741
20
84.6181261
40
0.5456966
50
92.9807965
51
146.5737549
0
ARC
8
DEFAULT_255_2_778
10
2.8121041
20
84.2208488
40
0.9474546
50
89.8957105
51
96.0164729
0
ARC
8
DEFAULT_255_2_778
10
2.8078607
20
83.910514
40
1.2578019
50
80.9019542
51
89.7281441
0
ARC
8
DEFAULT_255_2_778
10
2.7529735
20
83.5371259
40
1.6351786
50
76.5445774
51
81.0717268
0
ARC
8
DEFAULT_255_2_778
10
2.6815175
20
83.2382174
40
1.9425096
50
72.0324806
51
76.5462874
0
ARC
8
DEFAULT_255_2_778
10
2.6356267
20
82.9469084
40
2.5669718
50
74.7842802
51
78.0772312
0
ARC
8
DEFAULT_255_2_778
10
2.7094164
20
83.295953
40
2.2102128
50
78.0795026
51
81.4732778
0
ARC
8
DEFAULT_255_2_778
10
2.7548273
20
83.6012815
40
1.9015261
50
81.4623626
51
85.5242986
0
ARC
8
DEFAULT_255_2_778
10
2.7757864
20
83.8696073
40
1.6323829
50
85.522756
51
89.9448749
0
ARC
8
DEFAULT_255_2_778
10
2.769608
20
84.2232339
40
1.2787792
50
89.6528041
51
102.3415373
0
ARC
8
DEFAULT_255_2_778
10
2.6976636
20
84.5450961
40
0.948979
50
102.2517316
51
121.4350328
0
ARC
8
DEFAULT_255_2_778
10
2.7247896
20
84.5572933
40
0.9531759
50
123.2089354
51
172.6102749
0
ARC
8
DEFAULT_255_2_778
10
3.1492603
20
84.4492178
40
1.3890171
50
170.4407345
51
177.8307668
0
ARC
8
DEFAULT_255_2_778
10
3.3529477
20
84.5129474
40
1.5975816
50
184.9141506
51
193.9333447
0
ARC
8
DEFAULT_255_2_778
10
2.8804802
20
84.3937878
40
1.1103246
50
193.8359863
51
206.6463497
0
ARC
8
DEFAULT_255_2_778
10
2.6226702
20
84.2634802
40
0.8214559
50
206.5874378
51
226.5850389
0
ARC
8
DEFAULT_255_2_778
10
2.691015
20
84.3995614
40
0.9682713
50
229.1824649
51
270.6289962
0
ARC
8
DEFAULT_255_2_778
10
2.7621386
20
85.0629698
40
1.6327423
50
267.8766711
51
270.0151144
0
ARC
8
DEFAULT_255_2_778
10
2.7620603
20
85.213259
40
1.7830316
50
270.0163583
51
272.1562283
0
ARC
8
DEFAULT_255_2_778
10
2.7315614
20
85.7221124
40
2.2927001
50
272.4394206
51
280.6566316
0
ARC
8
DEFAULT_255_2_778
10
2.6397047
20
86.2775005
40
2.8555231
50
280.4071949
51
281.3267058
0
ARC
8
DEFAULT_255_2_778
10
2.851812
20
84.9759004
40
1.221817
50
270.2357146
51
291.2547092
0
ARC
8
DEFAULT_255_2_778
10
2.8125606
20
84.434012
40
0.6813584
50
270.0127731
51
273.7259814
0
ARC
8
DEFAULT_255_2_778
10
2.8116088
20
84.3673606
40
0.6147081
50
198.716901
51
270.1028753
0
ARC
8
DEFAULT_255_2_778
10
3.016394
20
84.4591733
40
0.8383945
50
179.5961919
51
200.1688139
0
ARC
8
DEFAULT_255_2_778
10
3.1528351
20
84.4646825
40
0.9748148
50
175.4157916
51
179.9765134
0
LINE
8
DEFAULT_255_2_778
10
3.2807386
20
85.0859938
11
3.3093386
21
85.4238938
0
LINE
8
DEFAULT_255_2_778
10
1.7612386
20
84.5017938
11
1.7612386
21
84.3760938
0
LINE
8
DEFAULT_255_2_778
10
3.2005386
20
83.4775938
11
3.3119386
21
83.5019938
0
LINE
8
DEFAULT_255_2_778
10
3.3119386
20
83.5019938
11
3.2947386
21
83.8371938
0
LINE
8
DEFAULT_255_2_778
10
2.1811386
20
84.5425938
11
2.1814386
21
84.5427938
0
LINE
8
DEFAULT_255_2_778
10
4.3874823
20
85.0664635
11
4.3929823
21
85.0664635
0
LINE
8
DEFAULT_255_2_778
10
4.3874823
20
85.0664635
11
4.1122823
21
84.2417635
0
LINE
8
DEFAULT_255_2_778
10
4.1122823
20
84.2417635
11
4.6678823
21
84.2417635
0
LINE
8
DEFAULT_255_2_778
10
4.6678823
20
84.2417635
11
4.3874823
21
85.0664635
0
LINE
8
DEFAULT_255_2_778
10
5.3597823
20
83.4686635
11
4.6136823
21
85.4675635
0
LINE
8
DEFAULT_255_2_778
10
4.6136823
20
85.4675635
11
4.1829823
21
85.4675635
0
LINE
8
DEFAULT_255_2_778
10
4.1829823
20
85.4675635
11
3.4423823
21
83.4686635
0
LINE
8
DEFAULT_255_2_778
10
3.4423823
20
83.4686635
11
3.8371823
21
83.4686635
0
LINE
8
DEFAULT_255_2_778
10
3.8371823
20
83.4686635
11
4.0035823
21
83.9268635
0
LINE
8
DEFAULT_255_2_778
10
4.0035823
20
83.9268635
11
4.7742823
21
83.9268635
0
LINE
8
DEFAULT_255_2_778
10
4.7742823
20
83.9268635
11
4.9375823
21
83.4686635
0
LINE
8
DEFAULT_255_2_778
10
4.9375823
20
83.4686635
11
5.3597823
21
83.4686635
0
ARC
8
DEFAULT_255_2_778
10
6.4005615
20
84.8887944
40
0.1970548
50
358.502518
51
78.7307607
0
ARC
8
DEFAULT_255_2_778
10
6.2678895
20
84.5003762
40
0.606339
50
73.6014023
51
88.1455905
0
ARC
8
DEFAULT_255_2_778
10
6.2369911
20
84.064635
40
1.042987
50
87.2236642
51
90.0519484
0
ARC
8
DEFAULT_255_2_778
10
6.2378595
20
83.7598562
40
1.3477664
50
90.0771148
51
93.2295159
0
ARC
8
DEFAULT_255_2_778
10
6.2552917
20
83.4250765
40
1.6829971
50
93.1799646
51
94.8106995
0
LINE
8
DEFAULT_255_2_778
10
6.114149
20
85.1021448
11
6.114149
21
84.6650448
0
ARC
8
DEFAULT_255_2_778
10
6.2704481
20
86.2013498
40
1.5442353
50
264.1908833
51
267.1704991
0
ARC
8
DEFAULT_255_2_778
10
6.252624
20
85.8493927
40
1.1918276
50
267.1910933
51
269.9452872
0
ARC
8
DEFAULT_255_2_778
10
6.2618888
20
85.3586798
40
0.7011915
50
269.1499235
51
282.2292741
0
ARC
8
DEFAULT_255_2_778
10
6.3577333
20
84.945134
40
0.2767945
50
280.972582
51
311.0658376
0
ARC
8
DEFAULT_255_2_778
10
6.4051139
20
84.8744243
40
0.1926559
50
314.2580617
51
2.7432062
0
ARC
8
DEFAULT_255_2_778
10
6.1577792
20
83.2501617
40
1.0392769
50
90.0274108
51
91.9371144
0
ARC
8
DEFAULT_255_2_778
10
6.1684572
20
83.6976375
40
0.5919068
50
76.5728178
51
91.0818036
0
ARC
8
DEFAULT_255_2_778
10
6.2682285
20
84.0823834
40
0.1946621
50
38.2928195
51
78.8405328
0
ARC
8
DEFAULT_255_2_778
10
6.311672
20
84.1261531
40
0.1336489
50
29.5392794
51
35.1051518
0
ARC
8
DEFAULT_255_2_778
10
6.6378958
20
84.2302004
40
0.2669496
50
27.422768
51
70.7631068
0
ARC
8
DEFAULT_255_2_778
10
6.6083029
20
84.966942
40
0.4987469
50
283.6318735
51
312.1008491
0
ARC
8
DEFAULT_255_2_778
10
6.6389793
20
84.9059028
40
0.4332722
50
314.5033138
51
354.6734162
0
ARC
8
DEFAULT_255_2_778
10
6.3554451
20
84.9563111
40
0.7206569
50
352.7753335
51
0.1691415
0
ARC
8
DEFAULT_255_2_778
10
6.2260501
20
84.9583655
40
0.850049
50
0.0049238
51
1.0771139
0
ARC
8
DEFAULT_255_2_778
10
6.5803164
20
84.964188
40
0.4957367
50
1.1739667
51
32.083556
0
ARC
8
DEFAULT_255_2_778
10
6.6149914
20
84.9628492
40
0.4674776
50
34.480645
51
70.2652748
0
ARC
8
DEFAULT_255_2_778
10
6.4509955
20
84.55293
40
0.9088363
50
69.2598066
51
83.7988651
0
ARC
8
DEFAULT_255_2_778
10
6.3673961
20
83.9038543
40
1.5631986
50
83.322457
51
90.2413643
0
ARC
8
DEFAULT_255_2_778
10
6.3611517
20
83.4368873
40
2.0301518
50
90.0096164
51
91.2645444
0
LINE
8
DEFAULT_255_2_778
10
6.316349
20
85.4665448
11
5.638749
21
85.4665448
0
LINE
8
DEFAULT_255_2_778
10
6.597549
20
84.8836448
11
6.597549
21
84.8836448
0
LINE
8
DEFAULT_255_2_778
10
5.638449
20
85.4670448
11
5.638449
21
83.5144448
0
LINE
8
DEFAULT_255_2_778
10
5.638449
20
83.5144448
11
6.122649
21
83.5144448
0
LINE
8
DEFAULT_255_2_778
10
6.122649
20
83.5144448
11
6.122649
21
84.2888448
0
LINE
8
DEFAULT_255_2_778
10
6.427949
20
84.1920448
11
6.658949
21
83.5223448
0
LINE
8
DEFAULT_255_2_778
10
6.658949
20
83.5223448
11
7.157949
21
83.5141448
0
LINE
8
DEFAULT_255_2_778
10
7.157949
20
83.5141448
11
6.874849
21
84.3531448
0
LINE
8
DEFAULT_255_2_778
10
5.638749
20
85.4665448
11
5.638449
21
85.4670448
0
LINE
8
DEFAULT_255_2_778
10
7.3745667
20
83.4936958
11
8.0182667
21
83.4936958
0
ARC
8
DEFAULT_255_2_778
10
8.0308773
20
85.0838086
40
1.5901628
50
269.5456171
51
280.7551565
0
ARC
8
DEFAULT_255_2_778
10
8.155963
20
84.4544583
40
0.9485408
50
280.4263299
51
300.0639607
0
ARC
8
DEFAULT_255_2_778
10
8.2531532
20
84.2615732
40
0.7330232
50
301.0421559
51
344.9659433
0
ARC
8
DEFAULT_255_2_778
10
7.7675193
20
84.4169869
40
1.242582
50
343.8535036
51
357.2465681
0
ARC
8
DEFAULT_255_2_778
10
7.1440303
20
84.3699279
40
1.8646792
50
359.611853
51
9.7100861
0
ARC
8
DEFAULT_255_2_778
10
7.8583671
20
84.4972221
40
1.1391173
50
9.4591739
51
26.1059064
0
ARC
8
DEFAULT_255_2_778
10
8.1617824
20
84.6400373
40
0.8038299
50
26.481318
51
77.0409404
0
ARC
8
DEFAULT_255_2_778
10
7.9951167
20
84.0655513
40
1.4014621
50
75.6675694
51
88.916818
0
ARC
8
DEFAULT_255_2_778
10
7.9692028
20
83.5932303
40
1.8742655
50
88.3977224
51
90.0102751
0
LINE
8
DEFAULT_255_2_778
10
7.9688667
20
85.4674958
11
7.3745667
21
85.4674958
0
LINE
8
DEFAULT_255_2_778
10
7.3745667
20
85.4674958
11
7.3745667
21
83.4936958
0
ARC
8
DEFAULT_255_2_778
10
7.6092513
20
84.4550001
40
1.0049104
50
3.228561
51
17.4239349
0
ARC
8
DEFAULT_255_2_778
10
8.0260252
20
84.5928361
40
0.5660262
50
16.7444034
51
48.5516751
0
ARC
8
DEFAULT_255_2_778
10
8.0307212
20
84.5703198
40
0.5800877
50
50.3717807
51
79.641787
0
ARC
8
DEFAULT_255_2_778
10
7.9470396
20
84.1895932
40
0.9697545
50
78.8227223
51
90.4259446
0
ARC
8
DEFAULT_255_2_778
10
7.9410651
20
83.8251654
40
1.3341563
50
90.0530268
51
93.5823914
0
ARC
8
DEFAULT_255_2_778
10
7.9571495
20
83.5661521
40
1.5936685
50
93.5776735
51
96.7126086
0
LINE
8
DEFAULT_255_2_778
10
7.7708667
20
85.1488958
11
7.7708667
21
83.7815958
0
ARC
8
DEFAULT_255_2_778
10
7.7835935
20
85.2489336
40
1.467393
50
269.5030639
51
280.6311245
0
ARC
8
DEFAULT_255_2_778
10
7.9083467
20
84.6138018
40
0.8201659
50
280.2511296
51
299.8981221
0
ARC
8
DEFAULT_255_2_778
10
8.0172112
20
84.4045181
40
0.5845552
50
300.8727813
51
350.8275114
0
ARC
8
DEFAULT_255_2_778
10
7.5937409
20
84.5046239
40
1.0190496
50
349.066192
51
0.3919985
0
LINE
8
DEFAULT_255_2_778
10
7.3745667
20
83.4936958
11
7.3745667
21
83.4936958
0
LINE
8
DEFAULT_255_2_778
10
8.6127667
20
84.5115958
11
8.6125667
21
84.5115958
0
ARC
8
DEFAULT_255_2_778
10
3.1573799
20
81.4997541
40
0.9821804
50
166.1403752
51
177.4943017
0
ARC
8
DEFAULT_255_2_778
10
2.8219697
20
81.5847745
40
0.636173
50
148.3460466
51
166.3384787
0
ARC
8
DEFAULT_255_2_778
10
2.7358741
20
81.6180261
40
0.5456966
50
92.9807965
51
146.5737549
0
ARC
8
DEFAULT_255_2_778
10
2.8068041
20
81.2207488
40
0.9474546
50
89.8957105
51
96.0164729
0
ARC
8
DEFAULT_255_2_778
10
2.8025607
20
80.910414
40
1.2578019
50
80.9019542
51
89.7281441
0
ARC
8
DEFAULT_255_2_778
10
2.7476735
20
80.5370259
40
1.6351786
50
76.5445774
51
81.0717268
0
ARC
8
DEFAULT_255_2_778
10
2.6762175
20
80.2381174
40
1.9425096
50
72.0324806
51
76.5462874
0
ARC
8
DEFAULT_255_2_778
10
2.6303267
20
79.9468084
40
2.5669718
50
74.7842802
51
78.0772312
0
ARC
8
DEFAULT_255_2_778
10
2.7041164
20
80.295853
40
2.2102128
50
78.0795026
51
81.4732778
0
ARC
8
DEFAULT_255_2_778
10
2.7495273
20
80.6011815
40
1.9015261
50
81.4623626
51
85.5242986
0
ARC
8
DEFAULT_255_2_778
10
2.7704864
20
80.8695073
40
1.6323829
50
85.522756
51
89.9448749
0
ARC
8
DEFAULT_255_2_778
10
2.764308
20
81.2231339
40
1.2787792
50
89.6528041
51
102.3415373
0
ARC
8
DEFAULT_255_2_778
10
2.6923636
20
81.5449961
40
0.948979
50
102.2517316
51
121.4350328
0
ARC
8
DEFAULT_255_2_778
10
2.7194896
20
81.5571933
40
0.9531759
50
123.2089354
51
172.6102749
0
ARC
8
DEFAULT_255_2_778
10
3.1439603
20
81.4491178
40
1.3890171
50
170.4407345
51
177.8307668
0
ARC
8
DEFAULT_255_2_778
10
3.3476477
20
81.5128474
40
1.5975816
50
184.9141506
51
193.9333447
0
ARC
8
DEFAULT_255_2_778
10
2.8751802
20
81.3936878
40
1.1103246
50
193.8359863
51
206.6463497
0
ARC
8
DEFAULT_255_2_778
10
2.6173702
20
81.2633802
40
0.8214559
50
206.5874378
51
226.5850389
0
ARC
8
DEFAULT_255_2_778
10
2.685715
20
81.3994614
40
0.9682713
50
229.1824649
51
270.6289962
0
ARC
8
DEFAULT_255_2_778
10
2.7568386
20
82.0628698
40
1.6327423
50
267.8766711
51
270.0151144
0
ARC
8
DEFAULT_255_2_778
10
2.7567603
20
82.213159
40
1.7830316
50
270.0163583
51
272.1562283
0
ARC
8
DEFAULT_255_2_778
10
2.7262614
20
82.7220124
40
2.2927001
50
272.4394206
51
280.6566316
0
ARC
8
DEFAULT_255_2_778
10
2.6344047
20
83.2774005
40
2.8555231
50
280.4071949
51
281.3267058
0
ARC
8
DEFAULT_255_2_778
10
2.846512
20
81.9758004
40
1.221817
50
270.2357146
51
291.2547092
0
ARC
8
DEFAULT_255_2_778
10
2.8072606
20
81.433912
40
0.6813584
50
270.0127731
51
273.7259814
0
ARC
8
DEFAULT_255_2_778
10
2.8063088
20
81.3672606
40
0.6147081
50
198.716901
51
270.1028753
0
ARC
8
DEFAULT_255_2_778
10
3.011094
20
81.4590733
40
0.8383945
50
179.5961919
51
200.1688139
0
ARC
8
DEFAULT_255_2_778
10
3.1475351
20
81.4645825
40
0.9748148
50
175.4157916
51
179.9765134
0
LINE
8
DEFAULT_255_2_778
10
3.2754386
20
82.0858938
11
3.3040386
21
82.4237938
0
LINE
8
DEFAULT_255_2_778
10
1.7559386
20
81.5016938
11
1.7559386
21
81.3759938
0
LINE
8
DEFAULT_255_2_778
10
3.1952386
20
80.4774938
11
3.3066386
21
80.5018938
0
LINE
8
DEFAULT_255_2_778
10
3.3066386
20
80.5018938
11
3.2894386
21
80.8370938
0
LINE
8
DEFAULT_255_2_778
10
2.1758386
20
81.5424938
11
2.1761386
21
81.5426938
0
ARC
8
DEFAULT_255_2_778
10
6.3965615
20
81.8886944
40
0.1970548
50
358.502518
51
78.7307607
0
ARC
8
DEFAULT_255_2_778
10
6.2638895
20
81.5002762
40
0.606339
50
73.6014023
51
88.1455905
0
ARC
8
DEFAULT_255_2_778
10
6.2329911
20
81.064535
40
1.042987
50
87.2236642
51
90.0519484
0
ARC
8
DEFAULT_255_2_778
10
6.2338595
20
80.7597562
40
1.3477664
50
90.0771148
51
93.2295159
0
ARC
8
DEFAULT_255_2_778
10
6.2512917
20
80.4249765
40
1.6829971
50
93.1799646
51
94.8106995
0
LINE
8
DEFAULT_255_2_778
10
6.110149
20
82.1020448
11
6.110149
21
81.6649448
0
ARC
8
DEFAULT_255_2_778
10
6.2664481
20
83.2012498
40
1.5442353
50
264.1908833
51
267.1704991
0
ARC
8
DEFAULT_255_2_778
10
6.248624
20
82.8492927
40
1.1918276
50
267.1910933
51
269.9452872
0
ARC
8
DEFAULT_255_2_778
10
6.2578888
20
82.3585798
40
0.7011915
50
269.1499235
51
282.2292741
0
ARC
8
DEFAULT_255_2_778
10
6.3537333
20
81.945034
40
0.2767945
50
280.972582
51
311.0658376
0
ARC
8
DEFAULT_255_2_778
10
6.4011139
20
81.8743243
40
0.1926559
50
314.2580617
51
2.7432062
0
ARC
8
DEFAULT_255_2_778
10
6.1537792
20
80.2500617
40
1.0392769
50
90.0274108
51
91.9371144
0
ARC
8
DEFAULT_255_2_778
10
6.1644572
20
80.6975375
40
0.5919068
50
76.5728178
51
91.0818036
0
ARC
8
DEFAULT_255_2_778
10
6.2642285
20
81.0822834
40
0.1946621
50
38.2928195
51
78.8405328
0
ARC
8
DEFAULT_255_2_778
10
6.307672
20
81.1260531
40
0.1336489
50
29.5392794
51
35.1051518
0
ARC
8
DEFAULT_255_2_778
10
6.6338958
20
81.2301004
40
0.2669496
50
27.422768
51
70.7631068
0
ARC
8
DEFAULT_255_2_778
10
6.6043029
20
81.966842
40
0.4987469
50
283.6318735
51
312.1008491
0
ARC
8
DEFAULT_255_2_778
10
6.6349793
20
81.9058028
40
0.4332722
50
314.5033138
51
354.6734162
0
ARC
8
DEFAULT_255_2_778
10
6.3514451
20
81.9562111
40
0.7206569
50
352.7753335
51
0.1691415
0
ARC
8
DEFAULT_255_2_778
10
6.2220501
20
81.9582655
40
0.850049
50
0.0049238
51
1.0771139
0
ARC
8
DEFAULT_255_2_778
10
6.5763164
20
81.964088
40
0.4957367
50
1.1739667
51
32.083556
0
ARC
8
DEFAULT_255_2_778
10
6.6109914
20
81.9627492
40
0.4674776
50
34.480645
51
70.2652748
0
ARC
8
DEFAULT_255_2_778
10
6.4469955
20
81.55283
40
0.9088363
50
69.2598066
51
83.7988651
0
ARC
8
DEFAULT_255_2_778
10
6.3633961
20
80.9037543
40
1.5631986
50
83.322457
51
90.2413643
0
ARC
8
DEFAULT_255_2_778
10
6.3571517
20
80.4367873
40
2.0301518
50
90.0096164
51
91.2645444
0
LINE
8
DEFAULT_255_2_778
10
6.312349
20
82.4664448
11
5.634749
21
82.4664448
0
LINE
8
DEFAULT_255_2_778
10
6.593549
20
81.8835448
11
6.593549
21
81.8835448
0
LINE
8
DEFAULT_255_2_778
10
5.634449
20
82.4669448
11
5.634449
21
80.5143448
0
LINE
8
DEFAULT_255_2_778
10
5.634449
20
80.5143448
11
6.118649
21
80.5143448
0
LINE
8
DEFAULT_255_2_778
10
6.118649
20
80.5143448
11
6.118649
21
81.2887448
0
LINE
8
DEFAULT_255_2_778
10
6.423949
20
81.1919448
11
6.654949
21
80.5222448
0
LINE
8
DEFAULT_255_2_778
10
6.654949
20
80.5222448
11
7.153949
21
80.5140448
0
LINE
8
DEFAULT_255_2_778
10
7.153949
20
80.5140448
11
6.870849
21
81.3530448
0
LINE
8
DEFAULT_255_2_778
10
5.634749
20
82.4664448
11
5.634449
21
82.4669448
0
LINE
8
DEFAULT_255_2_778
10
7.3706667
20
80.4935958
11
8.0143667
21
80.4935958
0
ARC
8
DEFAULT_255_2_778
10
8.0269773
20
82.0837086
40
1.5901628
50
269.5456171
51
280.7551565
0
ARC
8
DEFAULT_255_2_778
10
8.152063
20
81.4543583
40
0.9485408
50
280.4263299
51
300.0639607
0
ARC
8
DEFAULT_255_2_778
10
8.2492532
20
81.2614732
40
0.7330232
50
301.0421559
51
344.9659433
0
ARC
8
DEFAULT_255_2_778
10
7.7636193
20
81.4168869
40
1.242582
50
343.8535036
51
357.2465681
0
ARC
8
DEFAULT_255_2_778
10
7.1401303
20
81.3698279
40
1.8646792
50
359.611853
51
9.7100861
0
ARC
8
DEFAULT_255_2_778
10
7.8544671
20
81.4971221
40
1.1391173
50
9.4591739
51
26.1059064
0
ARC
8
DEFAULT_255_2_778
10
8.1578824
20
81.6399373
40
0.8038299
50
26.481318
51
77.0409404
0
ARC
8
DEFAULT_255_2_778
10
7.9912167
20
81.0654513
40
1.4014621
50
75.6675694
51
88.916818
0
ARC
8
DEFAULT_255_2_778
10
7.9653028
20
80.5931303
40
1.8742655
50
88.3977224
51
90.0102751
0
LINE
8
DEFAULT_255_2_778
10
7.9649667
20
82.4673958
11
7.3706667
21
82.4673958
0
LINE
8
DEFAULT_255_2_778
10
7.3706667
20
82.4673958
11
7.3706667
21
80.4935958
0
ARC
8
DEFAULT_255_2_778
10
7.6053513
20
81.4549001
40
1.0049104
50
3.228561
51
17.4239349
0
ARC
8
DEFAULT_255_2_778
10
8.0221252
20
81.5927361
40
0.5660262
50
16.7444034
51
48.5516751
0
ARC
8
DEFAULT_255_2_778
10
8.0268212
20
81.5702198
40
0.5800877
50
50.3717807
51
79.641787
0
ARC
8
DEFAULT_255_2_778
10
7.9431396
20
81.1894932
40
0.9697545
50
78.8227223
51
90.4259446
0
ARC
8
DEFAULT_255_2_778
10
7.9371651
20
80.8250654
40
1.3341563
50
90.0530268
51
93.5823914
0
ARC
8
DEFAULT_255_2_778
10
7.9532495
20
80.5660521
40
1.5936685
50
93.5776735
51
96.7126086
0
LINE
8
DEFAULT_255_2_778
10
7.7669667
20
82.1487958
11
7.7669667
21
80.7814958
0
ARC
8
DEFAULT_255_2_778
10
7.7796935
20
82.2488336
40
1.467393
50
269.5030639
51
280.6311245
0
ARC
8
DEFAULT_255_2_778
10
7.9044467
20
81.6137018
40
0.8201659
50
280.2511296
51
299.8981221
0
ARC
8
DEFAULT_255_2_778
10
8.0133112
20
81.4044181
40
0.5845552
50
300.8727813
51
350.8275114
0
ARC
8
DEFAULT_255_2_778
10
7.5898409
20
81.5045239
40
1.0190496
50
349.066192
51
0.3919985
0
LINE
8
DEFAULT_255_2_778
10
7.3706667
20
80.4935958
11
7.3706667
21
80.4935958
0
LINE
8
DEFAULT_255_2_778
10
8.6088667
20
81.5114958
11
8.6086667
21
81.5114958
0
LINE
8
DEFAULT_255_2_778
10
4.3887471
20
82.0662958
11
4.6636471
21
81.2415958
0
LINE
8
DEFAULT_255_2_778
10
4.6636471
20
81.2415958
11
4.1083471
21
81.2415958
0
LINE
8
DEFAULT_255_2_778
10
4.1083471
20
81.2415958
11
4.3832471
21
82.0662958
0
LINE
8
DEFAULT_255_2_778
10
4.3832471
20
82.0662958
11
4.3887471
21
82.0662958
0
LINE
8
DEFAULT_255_2_778
10
3.8331471
20
80.4684958
11
3.9995471
21
80.9266958
0
LINE
8
DEFAULT_255_2_778
10
3.9995471
20
80.9266958
11
4.7702471
21
80.9266958
0
LINE
8
DEFAULT_255_2_778
10
4.7702471
20
80.9266958
11
4.9335471
21
80.4684958
0
LINE
8
DEFAULT_255_2_778
10
4.9335471
20
80.4684958
11
5.3555471
21
80.4684958
0
LINE
8
DEFAULT_255_2_778
10
5.3555471
20
80.4684958
11
4.6094471
21
82.4673958
0
LINE
8
DEFAULT_255_2_778
10
4.6094471
20
82.4673958
11
4.1789471
21
82.4673958
0
LINE
8
DEFAULT_255_2_778
10
4.1789471
20
82.4673958
11
3.4378471
21
80.4684958
0
LINE
8
DEFAULT_255_2_778
10
3.4378471
20
80.4684958
11
3.8331471
21
80.4684958
0
LINE
8
DEFAULT_255_2_778
10
15.5099471
20
80.7832958
11
15.5099471
21
81.3447958
0
LINE
8
DEFAULT_255_2_778
10
15.5099471
20
81.3447958
11
16.1373471
21
81.3447958
0
LINE
8
DEFAULT_255_2_778
10
16.1373471
20
81.3447958
11
16.1373471
21
81.6595958
0
LINE
8
DEFAULT_255_2_778
10
16.1373471
20
81.6595958
11
15.5099471
21
81.6595958
0
LINE
8
DEFAULT_255_2_778
10
15.5099471
20
81.6595958
11
15.5099471
21
82.1522958
0
LINE
8
DEFAULT_255_2_778
10
15.5099471
20
82.1522958
11
16.1952471
21
82.1522958
0
LINE
8
DEFAULT_255_2_778
10
16.1952471
20
82.1522958
11
16.1952471
21
82.4670958
0
LINE
8
DEFAULT_255_2_778
10
16.1952471
20
82.4670958
11
15.1573471
21
82.4670958
0
LINE
8
DEFAULT_255_2_778
10
15.1573471
20
82.4670958
11
15.1573471
21
80.4681958
0
LINE
8
DEFAULT_255_2_778
10
15.1573471
20
80.4681958
11
16.2005471
21
80.4681958
0
LINE
8
DEFAULT_255_2_778
10
16.2005471
20
80.4681958
11
16.2005471
21
80.7830958
0
LINE
8
DEFAULT_255_2_778
10
16.2005471
20
80.7830958
11
15.5099471
21
80.7832958
0
ARC
8
DEFAULT_255_2_778
10
13.2662799
20
81.4997541
40
0.9821804
50
166.1403752
51
177.4943017
0
ARC
8
DEFAULT_255_2_778
10
12.9308697
20
81.5847745
40
0.636173
50
148.3460466
51
166.3384787
0
ARC
8
DEFAULT_255_2_778
10
12.8447741
20
81.6180261
40
0.5456966
50
92.9807965
51
146.5737549
0
ARC
8
DEFAULT_255_2_778
10
12.9157041
20
81.2207488
40
0.9474546
50
89.8957105
51
96.0164729
0
ARC
8
DEFAULT_255_2_778
10
12.9114607
20
80.910414
40
1.2578019
50
80.9019542
51
89.7281441
0
ARC
8
DEFAULT_255_2_778
10
12.8565735
20
80.5370259
40
1.6351786
50
76.5445774
51
81.0717268
0
ARC
8
DEFAULT_255_2_778
10
12.7851175
20
80.2381174
40
1.9425096
50
72.0324806
51
76.5462874
0
ARC
8
DEFAULT_255_2_778
10
12.7392267
20
79.9468084
40
2.5669718
50
74.7842802
51
78.0772312
0
ARC
8
DEFAULT_255_2_778
10
12.8130164
20
80.295853
40
2.2102128
50
78.0795026
51
81.4732778
0
ARC
8
DEFAULT_255_2_778
10
12.8584273
20
80.6011815
40
1.9015261
50
81.4623626
51
85.5242986
0
ARC
8
DEFAULT_255_2_778
10
12.8793864
20
80.8695073
40
1.6323829
50
85.522756
51
89.9448749
0
ARC
8
DEFAULT_255_2_778
10
12.873208
20
81.2231339
40
1.2787792
50
89.6528041
51
102.3415373
0
ARC
8
DEFAULT_255_2_778
10
12.8012636
20
81.5449961
40
0.948979
50
102.2517316
51
121.4350328
0
ARC
8
DEFAULT_255_2_778
10
12.8283896
20
81.5571933
40
0.9531759
50
123.2089354
51
172.6102749
0
ARC
8
DEFAULT_255_2_778
10
13.2528603
20
81.4491178
40
1.3890171
50
170.4407345
51
177.8307668
0
ARC
8
DEFAULT_255_2_778
10
13.4565477
20
81.5128474
40
1.5975816
50
184.9141506
51
193.9333447
0
ARC
8
DEFAULT_255_2_778
10
12.9840802
20
81.3936878
40
1.1103246
50
193.8359863
51
206.6463497
0
ARC
8
DEFAULT_255_2_778
10
12.7262702
20
81.2633802
40
0.8214559
50
206.5874378
51
226.5850389
0
ARC
8
DEFAULT_255_2_778
10
12.794615
20
81.3994614
40
0.9682713
50
229.1824649
51
270.6289962
0
ARC
8
DEFAULT_255_2_778
10
12.8657386
20
82.0628698
40
1.6327423
50
267.8766711
51
270.0151144
0
ARC
8
DEFAULT_255_2_778
10
12.8656603
20
82.213159
40
1.7830316
50
270.0163583
51
272.1562283
0
ARC
8
DEFAULT_255_2_778
10
12.8351614
20
82.7220124
40
2.2927001
50
272.4394206
51
280.6566316
0
ARC
8
DEFAULT_255_2_778
10
12.7433047
20
83.2774005
40
2.8555231
50
280.4071949
51
281.3267058
0
ARC
8
DEFAULT_255_2_778
10
12.955412
20
81.9758004
40
1.221817
50
270.2357146
51
291.2547092
0
ARC
8
DEFAULT_255_2_778
10
12.9161606
20
81.433912
40
0.6813584
50
270.0127731
51
273.7259814
0
ARC
8
DEFAULT_255_2_778
10
12.9152088
20
81.3672606
40
0.6147081
50
198.716901
51
270.1028753
0
ARC
8
DEFAULT_255_2_778
10
13.119994
20
81.4590733
40
0.8383945
50
179.5961919
51
200.1688139
0
ARC
8
DEFAULT_255_2_778
10
13.2564351
20
81.4645825
40
0.9748148
50
175.4157916
51
179.9765134
0
LINE
8
DEFAULT_255_2_778
10
13.3843386
20
82.0858938
11
13.4129386
21
82.4237938
0
LINE
8
DEFAULT_255_2_778
10
11.8648386
20
81.5016938
11
11.8648386
21
81.3759938
0
LINE
8
DEFAULT_255_2_778
10
13.3041386
20
80.4774938
11
13.4155386
21
80.5018938
0
LINE
8
DEFAULT_255_2_778
10
13.4155386
20
80.5018938
11
13.3983386
21
80.8370938
0
LINE
8
DEFAULT_255_2_778
10
12.2847386
20
81.5424938
11
12.2850386
21
81.5426938
0
ARC
8
DEFAULT_255_2_778
10
14.8439799
20
81.4997541
40
0.9821804
50
166.1403752
51
177.4943017
0
ARC
8
DEFAULT_255_2_778
10
14.5085697
20
81.5847745
40
0.636173
50
148.3460466
51
166.3384787
0
ARC
8
DEFAULT_255_2_778
10
14.4224741
20
81.6180261
40
0.5456966
50
92.9807965
51
146.5737549
0
ARC
8
DEFAULT_255_2_778
10
14.4934041
20
81.2207488
40
0.9474546
50
89.8957105
51
96.0164729
0
ARC
8
DEFAULT_255_2_778
10
14.4891607
20
80.910414
40
1.2578019
50
80.9019542
51
89.7281441
0
ARC
8
DEFAULT_255_2_778
10
14.4342735
20
80.5370259
40
1.6351786
50
76.5445774
51
81.0717268
0
ARC
8
DEFAULT_255_2_778
10
14.3628175
20
80.2381174
40
1.9425096
50
72.0324806
51
76.5462874
0
ARC
8
DEFAULT_255_2_778
10
14.3169267
20
79.9468084
40
2.5669718
50
74.7842802
51
78.0772312
0
ARC
8
DEFAULT_255_2_778
10
14.3907164
20
80.295853
40
2.2102128
50
78.0795026
51
81.4732778
0
ARC
8
DEFAULT_255_2_778
10
14.4361273
20
80.6011815
40
1.9015261
50
81.4623626
51
85.5242986
0
ARC
8
DEFAULT_255_2_778
10
14.4570864
20
80.8695073
40
1.6323829
50
85.522756
51
89.9448749
0
ARC
8
DEFAULT_255_2_778
10
14.450908
20
81.2231339
40
1.2787792
50
89.6528041
51
102.3415373
0
ARC
8
DEFAULT_255_2_778
10
14.3789636
20
81.5449961
40
0.948979
50
102.2517316
51
121.4350328
0
ARC
8
DEFAULT_255_2_778
10
14.4060896
20
81.5571933
40
0.9531759
50
123.2089354
51
172.6102749
0
ARC
8
DEFAULT_255_2_778
10
14.8305603
20
81.4491178
40
1.3890171
50
170.4407345
51
177.8307668
0
ARC
8
DEFAULT_255_2_778
10
15.0342477
20
81.5128474
40
1.5975816
50
184.9141506
51
193.9333447
0
ARC
8
DEFAULT_255_2_778
10
14.5617802
20
81.3936878
40
1.1103246
50
193.8359863
51
206.6463497
0
ARC
8
DEFAULT_255_2_778
10
14.3039702
20
81.2633802
40
0.8214559
50
206.5874378
51
226.5850389
0
ARC
8
DEFAULT_255_2_778
10
14.372315
20
81.3994614
40
0.9682713
50
229.1824649
51
270.6289962
0
ARC
8
DEFAULT_255_2_778
10
14.4434386
20
82.0628698
40
1.6327423
50
267.8766711
51
270.0151144
0
ARC
8
DEFAULT_255_2_778
10
14.4433603
20
82.213159
40
1.7830316
50
270.0163583
51
272.1562283
0
ARC
8
DEFAULT_255_2_778
10
14.4128614
20
82.7220124
40
2.2927001
50
272.4394206
51
280.6566316
0
ARC
8
DEFAULT_255_2_778
10
14.3210047
20
83.2774005
40
2.8555231
50
280.4071949
51
281.3267058
0
ARC
8
DEFAULT_255_2_778
10
14.533112
20
81.9758004
40
1.221817
50
270.2357146
51
291.2547092
0
ARC
8
DEFAULT_255_2_778
10
14.4938606
20
81.433912
40
0.6813584
50
270.0127731
51
273.7259814
0
ARC
8
DEFAULT_255_2_778
10
14.4929088
20
81.3672606
40
0.6147081
50
198.716901
51
270.1028753
0
ARC
8
DEFAULT_255_2_778
10
14.697694
20
81.4590733
40
0.8383945
50
179.5961919
51
200.1688139
0
ARC
8
DEFAULT_255_2_778
10
14.8341351
20
81.4645825
40
0.9748148
50
175.4157916
51
179.9765134
0
LINE
8
DEFAULT_255_2_778
10
14.9620386
20
82.0858938
11
14.9906386
21
82.4237938
0
LINE
8
DEFAULT_255_2_778
10
13.4425386
20
81.5016938
11
13.4425386
21
81.3759938
0
LINE
8
DEFAULT_255_2_778
10
14.8818386
20
80.4774938
11
14.9932386
21
80.5018938
0
LINE
8
DEFAULT_255_2_778
10
14.9932386
20
80.5018938
11
14.9760386
21
80.8370938
0
LINE
8
DEFAULT_255_2_778
10
13.8624386
20
81.5424938
11
13.8627386
21
81.5426938
0
ARC
8
DEFAULT_255_2_778
10
17.1202178
20
80.7669649
40
1.4564011
50
67.0748029
51
73.6197568
0
ARC
8
DEFAULT_255_2_778
10
17.2666231
20
81.2713157
40
0.931235
50
73.5108925
51
82.9298878
0
ARC
8
DEFAULT_255_2_778
10
17.3036065
20
81.5470865
40
0.6530149
50
83.1719901
51
89.8620033
0
ARC
8
DEFAULT_255_2_778
10
17.2975499
20
81.7598902
40
0.4402754
50
89.0070826
51
113.0684385
0
ARC
8
DEFAULT_255_2_778
10
17.2744097
20
81.829491
40
0.3672217
50
114.0018014
51
139.5105456
0
ARC
8
DEFAULT_255_2_778
10
17.3061703
20
81.9027042
40
0.3522031
50
152.0225833
51
164.6890977
0
ARC
8
DEFAULT_255_2_778
10
17.1895099
20
81.9351421
40
0.2311183
50
164.8084908
51
179.6096711
0
ARC
8
DEFAULT_255_2_778
10
17.161554
20
81.941058
40
0.2032033
50
181.2242137
51
234.9728327
0
ARC
8
DEFAULT_255_2_778
10
17.3554237
20
82.1803647
40
0.5108896
50
232.571871
51
248.5651435
0
ARC
8
DEFAULT_255_2_778
10
17.554609
20
82.6537622
40
1.0244099
50
247.8711125
51
254.9627141
0
ARC
8
DEFAULT_255_2_778
10
16.8509734
20
80.3053655
40
1.4278571
50
62.8230791
51
72.1424339
0
ARC
8
DEFAULT_255_2_778
10
17.1283309
20
80.8373325
40
0.8279474
50
47.8582258
51
63.0837586
0
ARC
8
DEFAULT_255_2_778
10
17.3667349
20
81.0897526
40
0.4808771
50
359.5318888
51
48.740885
0
ARC
8
DEFAULT_255_2_778
10
17.2088173
20
81.0888635
40
0.638786
50
348.4325169
51
359.727359
0
ARC
8
DEFAULT_255_2_778
10
16.9860488
20
81.1332996
40
0.8659411
50
340.5351731
51
348.5077061
0
ARC
8
DEFAULT_255_2_778
10
16.8137144
20
81.1905356
40
1.0475045
50
339.1046838
51
340.7245316
0
ARC
8
DEFAULT_255_2_778
10
17.0143243
20
81.2512034
40
0.891001
50
315.3596815
51
330.8302746
0
ARC
8
DEFAULT_255_2_778
10
17.1758034
20
81.0965385
40
0.6674362
50
269.1251349
51
315.0665232
0
ARC
8
DEFAULT_255_2_778
10
17.1564145
20
81.3141427
40
0.8850105
50
270.0004751
51
270.5954952
0
ARC
8
DEFAULT_255_2_778
10
17.1614817
20
81.4680692
40
1.0389494
50
259.5809211
51
269.7209563
0
ARC
8
DEFAULT_255_2_778
10
17.2335205
20
81.8700716
40
1.4473523
50
252.3500832
51
259.6541501
0
ARC
8
DEFAULT_255_2_778
10
17.3951664
20
82.3841303
40
1.9862246
50
246.9573839
51
252.4027569
0
ARC
8
DEFAULT_255_2_778
10
17.5492049
20
82.7599
40
2.3923121
50
245.9754698
51
247.0851281
0
ARC
8
DEFAULT_255_2_778
10
-10.9089283
20
84.123269
40
27.7122766
50
352.6433243
51
353.3576061
0
ARC
8
DEFAULT_255_2_778
10
17.2894101
20
82.3602783
40
1.591426
50
245.0192226
51
251.4469325
0
ARC
8
DEFAULT_255_2_778
10
17.1166264
20
81.8398424
40
1.0430623
50
251.3486182
51
260.4995981
0
ARC
8
DEFAULT_255_2_778
10
17.0611719
20
81.5166719
40
0.7151725
50
260.608007
51
269.7595391
0
ARC
8
DEFAULT_255_2_778
10
17.0657565
20
81.2835177
40
0.4820718
50
269.0983332
51
294.0952598
0
ARC
8
DEFAULT_255_2_778
10
17.0801753
20
81.2355844
40
0.4324758
50
294.9440539
51
316.4896303
0
ARC
8
DEFAULT_255_2_778
10
17.1387271
20
81.084321
40
0.2941699
50
330.1337022
51
344.7209807
0
ARC
8
DEFAULT_255_2_778
10
17.2298082
20
81.0584031
40
0.1994807
50
345.0082366
51
359.7013816
0
ARC
8
DEFAULT_255_2_778
10
17.2328912
20
81.051509
40
0.1964821
50
1.7074721
51
51.6247469
0
ARC
8
DEFAULT_255_2_778
10
17.0270374
20
80.8238178
40
0.503178
50
49.3435171
51
65.2046859
0
ARC
8
DEFAULT_255_2_778
10
16.7638736
20
80.2768567
40
1.1101216
50
64.7133415
51
73.3537838
0
ARC
8
DEFAULT_255_2_778
10
16.6312257
20
79.8778994
40
1.5304114
50
72.8744578
51
72.9861579
0
ARC
8
DEFAULT_255_2_778
10
17.3175675
20
82.3865646
40
1.0721074
50
243.4859216
51
257.1443445
0
ARC
8
DEFAULT_255_2_778
10
17.0847342
20
81.9351484
40
0.5642694
50
215.4694109
51
244.1789316
0
ARC
8
DEFAULT_255_2_778
10
17.0283711
20
81.8782067
40
0.4855169
50
183.8116643
51
213.8561111
0
ARC
8
DEFAULT_255_2_778
10
17.6646228
20
81.8739262
40
1.1210441
50
180.007866
51
181.4309662
0
ARC
8
DEFAULT_255_2_778
10
17.3615854
20
81.8836959
40
0.8180668
50
165.0260416
51
180.6950467
0
ARC
8
DEFAULT_255_2_778
10
17.0565479
20
81.9688036
40
0.5014088
50
108.4529185
51
165.4148034
0
ARC
8
DEFAULT_255_2_778
10
17.204338
20
81.594053
40
0.9039281
50
95.6681549
51
109.8204769
0
ARC
8
DEFAULT_255_2_778
10
17.2658951
20
81.0837529
40
1.4178543
50
89.8258668
51
96.1068334
0
ARC
8
DEFAULT_255_2_778
10
17.2672695
20
80.5859565
40
1.9156464
50
85.9435315
51
89.9122248
0
ARC
8
DEFAULT_255_2_778
10
17.2291011
20
80.0387662
40
2.464166
50
82.6694494
51
85.9583019
0
ARC
8
DEFAULT_255_2_778
10
17.1464669
20
79.390893
40
3.1172874
50
79.9712035
51
82.6824177
0
ARC
8
DEFAULT_255_2_778
10
17.0627802
20
78.9013355
40
3.6139394
50
79.1973634
51
80.0163097
0
LINE
8
DEFAULT_255_2_778
10
17.7401283
20
82.4512309
11
17.6981283
21
82.1184309
0
ARC
8
DEFAULT_255_2_778
10
18.5347234
20
80.7669649
40
1.4564011
50
67.0748029
51
73.6197568
0
ARC
8
DEFAULT_255_2_778
10
18.6811287
20
81.2713157
40
0.931235
50
73.5108925
51
82.9298878
0
ARC
8
DEFAULT_255_2_778
10
18.7181121
20
81.5470865
40
0.6530149
50
83.1719901
51
89.8620033
0
ARC
8
DEFAULT_255_2_778
10
18.7120555
20
81.7598902
40
0.4402754
50
89.0070826
51
113.0684385
0
ARC
8
DEFAULT_255_2_778
10
18.6889153
20
81.829491
40
0.3672217
50
114.0018014
51
139.5105456
0
ARC
8
DEFAULT_255_2_778
10
18.720716
20
81.9026799
40
0.3522499
50
152.0221582
51
164.6890712
0
ARC
8
DEFAULT_255_2_778
10
18.604034
20
81.9351226
40
0.231143
50
164.8081784
51
179.6099916
0
ARC
8
DEFAULT_255_2_778
10
18.5760493
20
81.9410311
40
0.2031992
50
181.2224741
51
234.9649502
0
ARC
8
DEFAULT_255_2_778
10
18.769843
20
82.1801995
40
0.5107306
50
232.566056
51
248.5605949
0
ARC
8
DEFAULT_255_2_778
10
18.968942
20
82.6532761
40
1.0239217
50
247.8664462
51
254.9595784
0
ARC
8
DEFAULT_255_2_778
10
18.2653569
20
80.3052953
40
1.4279307
50
62.8226003
51
72.1424567
0
ARC
8
DEFAULT_255_2_778
10
18.5427247
20
80.8372688
40
0.8280104
50
47.8572428
51
63.0833402
0
ARC
8
DEFAULT_255_2_778
10
18.7811198
20
81.0896755
40
0.4809556
50
359.5314166
51
48.7393369
0
ARC
8
DEFAULT_255_2_778
10
18.6231973
20
81.0887773
40
0.6388694
50
348.4377647
51
359.7277944
0
ARC
8
DEFAULT_255_2_778
10
18.4005001
20
81.133178
40
0.8659476
50
340.5432172
51
348.5129273
0
ARC
8
DEFAULT_255_2_778
10
18.2281497
20
81.1903984
40
1.0475212
50
339.1130676
51
340.7322766
0
ARC
8
DEFAULT_255_2_778
10
18.4288298
20
81.2512034
40
0.891001
50
315.3596815
51
330.8302746
0
ARC
8
DEFAULT_255_2_778
10
18.590309
20
81.0965385
40
0.6674362
50
269.1251349
51
315.0665232
0
ARC
8
DEFAULT_255_2_778
10
18.5709201
20
81.3141427
40
0.8850105
50
270.0004751
51
270.5954952
0
ARC
8
DEFAULT_255_2_778
10
18.5759873
20
81.4680692
40
1.0389494
50
259.5809211
51
269.7209563
0
ARC
8
DEFAULT_255_2_778
10
18.6480261
20
81.8700716
40
1.4473523
50
252.3500832
51
259.6541501
0
ARC
8
DEFAULT_255_2_778
10
18.809672
20
82.3841303
40
1.9862246
50
246.9573839
51
252.4027569
0
ARC
8
DEFAULT_255_2_778
10
18.9637105
20
82.7599
40
2.3923121
50
245.9754698
51
247.0851281
0
ARC
8
DEFAULT_255_2_778
10
-9.4944227
20
84.123269
40
27.7122766
50
352.6433243
51
353.3576061
0
ARC
8
DEFAULT_255_2_778
10
18.7039156
20
82.3602783
40
1.591426
50
245.0192226
51
251.4469325
0
ARC
8
DEFAULT_255_2_778
10
18.531132
20
81.8398424
40
1.0430623
50
251.3486182
51
260.4995981
0
ARC
8
DEFAULT_255_2_778
10
18.4756775
20
81.5166719
40
0.7151725
50
260.608007
51
269.7595391
0
ARC
8
DEFAULT_255_2_778
10
18.4802621
20
81.2835177
40
0.4820718
50
269.0983332
51
294.0952598
0
ARC
8
DEFAULT_255_2_778
10
18.4946809
20
81.2355844
40
0.4324758
50
294.9440539
51
316.4896303
0
ARC
8
DEFAULT_255_2_778
10
18.5532327
20
81.084321
40
0.2941699
50
330.1337022
51
344.7209807
0
ARC
8
DEFAULT_255_2_778
10
18.6443138
20
81.0584031
40
0.1994807
50
345.0082366
51
359.7013816
0
ARC
8
DEFAULT_255_2_778
10
18.6473968
20
81.051509
40
0.1964821
50
1.7074721
51
51.6247469
0
ARC
8
DEFAULT_255_2_778
10
18.441543
20
80.8238178
40
0.503178
50
49.3435171
51
65.2046859
0
ARC
8
DEFAULT_255_2_778
10
18.1783792
20
80.2768567
40
1.1101216
50
64.7133415
51
73.3537838
0
ARC
8
DEFAULT_255_2_778
10
18.0457313
20
79.8778994
40
1.5304114
50
72.8744578
51
72.9861579
0
ARC
8
DEFAULT_255_2_778
10
18.7320731
20
82.3865646
40
1.0721074
50
243.4859216
51
257.1443445
0
ARC
8
DEFAULT_255_2_778
10
18.4992397
20
81.9351484
40
0.5642694
50
215.4694109
51
244.1789316
0
ARC
8
DEFAULT_255_2_778
10
18.4428766
20
81.8782067
40
0.4855169
50
183.8116643
51
213.8561111
0
ARC
8
DEFAULT_255_2_778
10
19.0791283
20
81.8739262
40
1.1210441
50
180.007866
51
181.4309662
0
ARC
8
DEFAULT_255_2_778
10
18.7760909
20
81.8836959
40
0.8180668
50
165.0260416
51
180.6950467
0
ARC
8
DEFAULT_255_2_778
10
18.4710535
20
81.9688036
40
0.5014088
50
108.4529185
51
165.4148034
0
ARC
8
DEFAULT_255_2_778
10
18.6188435
20
81.594053
40
0.9039281
50
95.6681549
51
109.8204769
0
ARC
8
DEFAULT_255_2_778
10
18.6804007
20
81.0837529
40
1.4178543
50
89.8258668
51
96.1068334
0
ARC
8
DEFAULT_255_2_778
10
18.6817751
20
80.5859565
40
1.9156464
50
85.9435315
51
89.9122248
0
ARC
8
DEFAULT_255_2_778
10
18.6436067
20
80.0387662
40
2.464166
50
82.6694494
51
85.9583019
0
ARC
8
DEFAULT_255_2_778
10
18.5609725
20
79.390893
40
3.1172874
50
79.9712035
51
82.6824177
0
ARC
8
DEFAULT_255_2_778
10
18.4772858
20
78.9013355
40
3.6139394
50
79.1973634
51
80.0163097
0
LINE
8
DEFAULT_255_2_778
10
19.1546339
20
82.4512309
11
19.1126339
21
82.1184309
0
LINE
8
DEFAULT_255_2_778
10
16.040504
20
94.4678849
11
16.488204
21
94.4678849
0
LINE
8
DEFAULT_255_2_778
10
16.488204
20
94.4678849
11
16.488204
21
93.2579849
0
ARC
8
DEFAULT_255_2_778
10
17.210458
20
93.2456637
40
0.7223591
50
179.0226573
51
193.8056738
0
ARC
8
DEFAULT_255_2_778
10
16.7869812
20
93.1332723
40
0.2844113
50
192.1756181
51
230.2169612
0
ARC
8
DEFAULT_255_2_778
10
16.7572913
20
93.1250863
40
0.2597183
50
234.0977263
51
272.3418798
0
ARC
8
DEFAULT_255_2_778
10
16.7834469
20
93.1086686
40
0.24358
50
266.3414415
51
346.0634512
0
ARC
8
DEFAULT_255_2_778
10
16.4112876
20
93.2341395
40
0.6358167
50
343.1656115
51
359.423612
0
ARC
8
DEFAULT_255_2_778
10
16.0095297
20
93.2576885
40
1.0379743
50
358.3468102
51
0.0163636
0
LINE
8
DEFAULT_255_2_778
10
17.047504
20
93.2579849
11
17.047504
21
94.4678849
0
LINE
8
DEFAULT_255_2_778
10
17.047504
20
94.4678849
11
17.523004
21
94.4678849
0
LINE
8
DEFAULT_255_2_778
10
17.523004
20
94.4678849
11
17.523004
21
93.1600849
0
ARC
8
DEFAULT_255_2_778
10
16.5352919
20
93.1472716
40
0.9877952
50
345.5615899
51
0.7432415
0
ARC
8
DEFAULT_255_2_778
10
16.9789056
20
93.0208601
40
0.5268056
50
285.4823542
51
346.8460235
0
ARC
8
DEFAULT_255_2_778
10
16.848568
20
93.4298533
40
0.9558913
50
270.991176
51
286.4672538
0
ARC
8
DEFAULT_255_2_778
10
16.8240128
20
93.8353613
40
1.3618762
50
269.9870082
51
271.7289944
0
ARC
8
DEFAULT_255_2_778
10
16.8110025
20
93.7176287
40
1.2442086
50
257.854136
51
270.5849132
0
ARC
8
DEFAULT_255_2_778
10
16.6886599
20
93.1782552
40
0.6911948
50
233.7487913
51
258.3613802
0
ARC
8
DEFAULT_255_2_778
10
16.6394465
20
93.0817876
40
0.5845567
50
192.6385092
51
232.0473242
0
ARC
8
DEFAULT_255_2_778
10
17.0355517
20
93.1927812
40
0.9955847
50
181.8820059
51
193.883804
0
LINE
8
DEFAULT_255_2_778
10
16.040504
20
93.1600849
11
16.040504
21
94.4678849
0
ARC
8
DEFAULT_255_2_778
10
15.1984781
20
93.8800425
40
0.2009082
50
357.5587949
51
78.2544742
0
ARC
8
DEFAULT_255_2_778
10
15.0770364
20
93.5148004
40
0.5849229
50
73.8865417
51
89.023842
0
ARC
8
DEFAULT_255_2_778
10
15.0536592
20
93.1296753
40
0.9705361
50
88.0312531
51
90.0248943
0
ARC
8
DEFAULT_255_2_778
10
15.0549839
20
92.8908497
40
1.209363
50
90.0827408
51
93.4557596
0
ARC
8
DEFAULT_255_2_778
10
15.0717571
20
92.589304
40
1.5113721
50
93.4014013
51
95.1457022
0
LINE
8
DEFAULT_255_2_778
10
14.936204
20
94.0945849
11
14.936204
21
93.6481849
0
ARC
8
DEFAULT_255_2_778
10
15.0846959
20
95.0187161
40
1.378552
50
263.8163365
51
267.1767812
0
ARC
8
DEFAULT_255_2_778
10
15.068435
20
94.7035871
40
1.0630048
50
267.21557
51
269.9496662
0
ARC
8
DEFAULT_255_2_778
10
15.0778775
20
94.2660323
40
0.6255358
50
269.0495404
51
283.4295263
0
ARC
8
DEFAULT_255_2_778
10
15.1727179
20
93.8974086
40
0.2450549
50
281.8781167
51
317.8858147
0
ARC
8
DEFAULT_255_2_778
10
15.1904234
20
93.8624879
40
0.2089742
50
321.7356965
51
2.4675261
0
ARC
8
DEFAULT_255_2_778
10
14.9771629
20
92.3277851
40
0.9370831
50
90.0284494
51
92.0217302
0
ARC
8
DEFAULT_255_2_778
10
14.9879329
20
92.7366972
40
0.5282904
50
75.2118862
51
91.2186227
0
ARC
8
DEFAULT_255_2_778
10
15.085036
20
93.0753939
40
0.1761844
50
30.715649
51
77.6307988
0
ARC
8
DEFAULT_255_2_778
10
15.4283773
20
93.2176438
40
0.261665
50
25.4736767
51
69.03416
0
ARC
8
DEFAULT_255_2_778
10
15.4108435
20
93.89955
40
0.451464
50
284.2540701
51
319.7898199
0
ARC
8
DEFAULT_255_2_778
10
15.3835644
20
93.8953379
40
0.4700391
50
322.3294868
51
354.4266562
0
ARC
8
DEFAULT_255_2_778
10
15.0771649
20
93.9460244
40
0.780187
50
352.9070776
51
0.1744618
0
ARC
8
DEFAULT_255_2_778
10
14.931802
20
93.9483476
40
0.9255462
50
0.0032428
51
1.0114116
0
ARC
8
DEFAULT_255_2_778
10
15.3156203
20
93.9533279
40
0.5417027
50
1.2013243
51
28.0347792
0
ARC
8
DEFAULT_255_2_778
10
15.3987832
20
93.9780264
40
0.4570165
50
30.2025185
51
71.2418536
0
ARC
8
DEFAULT_255_2_778
10
15.240751
20
93.570116
40
0.8942702
50
70.0587334
51
85.1149382
0
ARC
8
DEFAULT_255_2_778
10
15.1760814
20
92.9965901
40
1.4713025
50
84.507627
51
90.1555646
0
ARC
8
DEFAULT_255_2_778
10
15.1724203
20
92.6425447
40
1.8253426
50
90.0104731
51
91.3440876
0
LINE
8
DEFAULT_255_2_778
10
15.129604
20
94.4673849
11
14.480604
21
94.4673849
0
ARC
8
DEFAULT_255_2_778
10
8.2109908
20
93.5270342
40
1.4121827
50
180.6674014
51
190.8147093
0
ARC
8
DEFAULT_255_2_778
10
7.6041951
20
93.4066904
40
0.7935957
50
190.500564
51
207.6051909
0
ARC
8
DEFAULT_255_2_778
10
7.3480351
20
93.2753205
40
0.5057279
50
207.8639017
51
266.114932
0
ARC
8
DEFAULT_255_2_778
10
7.4095113
20
93.6147255
40
0.8493838
50
263.527907
51
270.1310869
0
ARC
8
DEFAULT_255_2_778
10
7.4096593
20
93.8391056
40
1.073763
50
270.0957999
51
275.1144683
0
ARC
8
DEFAULT_255_2_778
10
7.3871002
20
94.0975254
40
1.3331652
50
275.0900667
51
279.0117806
0
ARC
8
DEFAULT_255_2_778
10
7.3632245
20
94.2590628
40
1.4964496
50
278.9458538
51
279.4648326
0
LINE
8
DEFAULT_255_2_778
10
7.609304
20
92.7829849
11
7.609304
21
93.3121849
0
LINE
8
DEFAULT_255_2_778
10
7.609304
20
93.3121849
11
7.229104
21
93.3121849
0
LINE
8
DEFAULT_255_2_778
10
7.229104
20
93.3121849
11
7.229104
21
93.6262849
0
LINE
8
DEFAULT_255_2_778
10
7.229104
20
93.6262849
11
7.923704
21
93.6262849
0
LINE
8
DEFAULT_255_2_778
10
7.923704
20
93.6262849
11
7.923704
21
92.5512849
0
ARC
8
DEFAULT_255_2_778
10
7.2024183
20
94.694498
40
2.2613304
50
282.1957806
51
288.6003556
0
ARC
8
DEFAULT_255_2_778
10
7.3316453
20
94.088378
40
1.641591
50
273.5626849
51
282.2563018
0
ARC
8
DEFAULT_255_2_778
10
7.3556324
20
93.7819452
40
1.3342689
50
270.0271462
51
273.352319
0
ARC
8
DEFAULT_255_2_778
10
7.3498686
20
93.5381298
40
1.090472
50
256.381773
51
270.3360599
0
ARC
8
DEFAULT_255_2_778
10
7.3123906
20
93.3683105
40
0.9166096
50
245.4467604
51
256.1592538
0
ARC
8
DEFAULT_255_2_778
10
7.3722347
20
93.323743
40
0.9038883
50
193.4069865
51
240.8174157
0
ARC
8
DEFAULT_255_2_778
10
7.7598605
20
93.4248596
40
1.3044235
50
180.3337606
51
193.7796182
0
ARC
8
DEFAULT_255_2_778
10
8.0815326
20
93.4391412
40
1.6262207
50
179.9981177
51
180.7709141
0
ARC
8
DEFAULT_255_2_778
10
8.2787135
20
93.436623
40
1.8234034
50
175.142855
51
179.9191947
0
ARC
8
DEFAULT_255_2_778
10
8.6820314
20
93.4027433
40
2.2281417
50
171.0830599
51
175.152924
0
ARC
8
DEFAULT_255_2_778
10
8.9519625
20
93.3632612
40
2.5009318
50
170.5313359
51
171.1480105
0
ARC
8
DEFAULT_255_2_778
10
7.7677881
20
93.4528939
40
1.3224326
50
153.857837
51
165.9166783
0
ARC
8
DEFAULT_255_2_778
10
7.3585586
20
93.6584924
40
0.8644896
50
132.2265716
51
154.1401811
0
ARC
8
DEFAULT_255_2_778
10
7.2972495
20
93.7051424
40
0.7888669
50
100.0053748
51
131.2062672
0
ARC
8
DEFAULT_255_2_778
10
7.3732269
20
93.3494328
40
1.1524405
50
89.6961501
51
100.6527388
0
ARC
8
DEFAULT_255_2_778
10
7.3761055
20
92.9558099
40
1.5460506
50
84.0419964
51
89.880189
0
ARC
8
DEFAULT_255_2_778
10
7.3339417
20
92.5432424
40
1.9607662
50
79.4512743
51
84.0679509
0
ARC
8
DEFAULT_255_2_778
10
7.2416612
20
92.0451095
40
2.4673745
50
75.5346161
51
79.4622618
0
ARC
8
DEFAULT_255_2_778
10
7.1582758
20
91.7078993
40
2.8147261
50
75.0922109
51
75.6056861
0
ARC
8
DEFAULT_255_2_778
10
7.2387223
20
92.0723847
40
2.1093997
50
72.9416839
51
76.9305474
0
ARC
8
DEFAULT_255_2_778
10
7.3543132
20
92.5732784
40
1.5953423
50
76.9064346
51
81.8860037
0
ARC
8
DEFAULT_255_2_778
10
7.4111752
20
92.9768628
40
1.1877726
50
81.8536672
51
88.1867678
0
ARC
8
DEFAULT_255_2_778
10
7.4201049
20
93.175105
40
0.9893507
50
88.3403809
51
89.9902457
0
ARC
8
DEFAULT_255_2_778
10
7.4104424
20
93.4402362
40
0.7242862
50
89.2222871
51
107.2311278
0
ARC
8
DEFAULT_255_2_778
10
7.3533935
20
93.6433974
40
0.5133756
50
107.866549
51
157.9672434
0
ARC
8
DEFAULT_255_2_778
10
7.722298
20
93.4700114
40
0.9206533
50
156.5771843
51
170.3793633
0
ARC
8
DEFAULT_255_2_778
10
8.1616117
20
93.3837672
40
1.3682511
50
169.8931233
51
174.7028758
0
LINE
8
DEFAULT_255_2_778
10
10.836504
20
82.0663849
11
10.841204
21
82.0663849
0
LINE
8
DEFAULT_255_2_778
10
10.841204
20
82.0663849
11
11.095704
21
81.2415849
0
LINE
8
DEFAULT_255_2_778
10
11.095704
20
81.2415849
11
10.581904
21
81.2415849
0
LINE
8
DEFAULT_255_2_778
10
10.581904
20
81.2415849
11
10.841204
21
82.0663849
0
LINE
8
DEFAULT_255_2_778
10
10.327104
20
80.4684849
11
10.480904
21
80.9267849
0
LINE
8
DEFAULT_255_2_778
10
10.480904
20
80.9267849
11
11.193904
21
80.9267849
0
LINE
8
DEFAULT_255_2_778
10
11.193904
20
80.9267849
11
11.345204
21
80.4684849
0
LINE
8
DEFAULT_255_2_778
10
11.345204
20
80.4684849
11
11.735504
21
80.4684849
0
LINE
8
DEFAULT_255_2_778
10
11.735504
20
80.4684849
11
11.045204
21
82.4674849
0
LINE
8
DEFAULT_255_2_778
10
11.045204
20
82.4674849
11
10.647504
21
82.4674849
0
LINE
8
DEFAULT_255_2_778
10
10.647504
20
82.4674849
11
9.962004
21
80.4684849
0
LINE
8
DEFAULT_255_2_778
10
9.962004
20
80.4684849
11
10.327104
21
80.4684849
0
LINE
8
DEFAULT_255_2_778
10
16.040504
20
94.4678849
11
16.040504
21
94.4678849
0
LINE
8
DEFAULT_255_2_778
10
15.399204
20
93.8714849
11
15.399204
21
93.8714849
0
LINE
8
DEFAULT_255_2_778
10
14.480604
20
94.4673849
11
14.480604
21
92.4731849
0
LINE
8
DEFAULT_255_2_778
10
14.480604
20
92.4731849
11
14.944104
21
92.4731849
0
LINE
8
DEFAULT_255_2_778
10
14.944104
20
92.4731849
11
14.944104
21
93.2642849
0
LINE
8
DEFAULT_255_2_778
10
15.236504
20
93.1653849
11
15.457704
21
92.4813849
0
LINE
8
DEFAULT_255_2_778
10
15.457704
20
92.4813849
11
15.935504
21
92.4731849
0
LINE
8
DEFAULT_255_2_778
10
15.935504
20
92.4731849
11
15.664604
21
93.3301849
0
LINE
8
DEFAULT_255_2_778
10
14.480604
20
94.4673849
11
14.480604
21
94.4673849
0
LINE
8
DEFAULT_255_2_778
10
18.827904
20
92.9734849
11
18.827904
21
94.4678849
0
LINE
8
DEFAULT_255_2_778
10
18.827904
20
94.4678849
11
19.153904
21
94.4678849
0
LINE
8
DEFAULT_255_2_778
10
19.153904
20
94.4678849
11
19.153904
21
92.4689849
0
LINE
8
DEFAULT_255_2_778
10
19.153904
20
92.4689849
11
18.738004
21
92.4689849
0
LINE
8
DEFAULT_255_2_778
10
18.738004
20
92.4689849
11
18.088204
21
93.9640849
0
LINE
8
DEFAULT_255_2_778
10
18.088204
20
93.9640849
11
18.083404
21
93.9640849
0
LINE
8
DEFAULT_255_2_778
10
18.083404
20
93.9640849
11
18.083404
21
92.4689849
0
LINE
8
DEFAULT_255_2_778
10
18.083404
20
92.4689849
11
17.757404
21
92.4689849
0
LINE
8
DEFAULT_255_2_778
10
17.757404
20
92.4689849
11
17.757404
21
94.4678849
0
LINE
8
DEFAULT_255_2_778
10
17.757404
20
94.4678849
11
18.175704
21
94.4678849
0
LINE
8
DEFAULT_255_2_778
10
18.175704
20
94.4678849
11
18.823204
21
92.9734849
0
LINE
8
DEFAULT_255_2_778
10
18.823204
20
92.9734849
11
18.827904
21
92.9734849
0
LINE
8
DEFAULT_255_2_778
10
7.882404
20
94.4278849
11
7.857504
21
94.0889849
0
LINE
8
DEFAULT_255_2_778
10
6.799204
20
93.5100849
11
6.798904
21
93.5105849
0
LINE
8
DEFAULT_255_2_778
10
12.599104
20
92.9533849
11
13.008204
21
94.4678849
0
LINE
8
DEFAULT_255_2_778
10
13.008204
20
94.4678849
11
13.553204
21
94.4678849
0
LINE
8
DEFAULT_255_2_778
10
13.553204
20
94.4678849
11
13.553204
21
92.4689849
0
LINE
8
DEFAULT_255_2_778
10
13.553204
20
92.4689849
11
13.227204
21
92.4689849
0
LINE
8
DEFAULT_255_2_778
10
13.227204
20
92.4689849
11
13.227204
21
94.1183849
0
LINE
8
DEFAULT_255_2_778
10
13.227204
20
94.1183849
11
13.221904
21
94.1183849
0
LINE
8
DEFAULT_255_2_778
10
13.221904
20
94.1183849
11
12.764704
21
92.4689849
0
LINE
8
DEFAULT_255_2_778
10
12.764704
20
92.4689849
11
12.438504
21
92.4689849
0
LINE
8
DEFAULT_255_2_778
10
12.438504
20
92.4689849
11
11.981304
21
94.1183849
0
LINE
8
DEFAULT_255_2_778
10
11.981304
20
94.1183849
11
11.976004
21
94.1127849
0
LINE
8
DEFAULT_255_2_778
10
11.976004
20
94.1127849
11
11.976004
21
92.4686849
0
LINE
8
DEFAULT_255_2_778
10
11.976004
20
92.4686849
11
11.650004
21
92.4686849
0
LINE
8
DEFAULT_255_2_778
10
11.650004
20
92.4686849
11
11.650004
21
94.4675849
0
LINE
8
DEFAULT_255_2_778
10
11.650004
20
94.4675849
11
12.195104
21
94.4675849
0
LINE
8
DEFAULT_255_2_778
10
12.195104
20
94.4675849
11
12.599104
21
92.9533849
0
ARC
8
DEFAULT_255_2_778
10
3.7476608
20
93.8858606
40
0.1997693
50
355.8873328
51
77.0364819
0
ARC
8
DEFAULT_255_2_778
10
3.6496493
20
93.5724517
40
0.5277797
50
74.2990407
51
90.9617323
0
ARC
8
DEFAULT_255_2_778
10
3.6379719
20
93.2724793
40
0.8276825
50
89.8048687
51
90.0002216
0
ARC
8
DEFAULT_255_2_778
10
3.6395355
20
93.1349412
40
0.9652218
50
90.0930037
51
93.8690604
0
ARC
8
DEFAULT_255_2_778
10
3.654704
20
92.8916539
40
1.2089789
50
93.8082932
51
95.757764
0
LINE
8
DEFAULT_255_2_778
10
3.5334158
20
94.0945335
11
3.5334158
21
93.6481335
0
ARC
8
DEFAULT_255_2_778
10
3.6650628
20
94.7335971
40
1.0934177
50
263.0848331
51
267.053979
0
ARC
8
DEFAULT_255_2_778
10
3.6511991
20
94.4821934
40
0.8416342
50
267.1169175
51
269.951856
0
ARC
8
DEFAULT_255_2_778
10
3.6607191
20
94.1293279
40
0.4888754
50
268.8012855
51
286.1978779
0
ARC
8
DEFAULT_255_2_778
10
3.7467441
20
93.8543551
40
0.2009075
50
284.513634
51
4.905001
0
ARC
8
DEFAULT_255_2_778
10
3.5700525
20
92.5167174
40
0.7480994
50
90.0318712
51
92.2627584
0
ARC
8
DEFAULT_255_2_778
10
3.5808653
20
92.8552971
40
0.4096735
50
71.919398
51
91.5706474
0
ARC
8
DEFAULT_255_2_778
10
3.6615589
20
93.0945795
40
0.157182
50
26.7527193
51
72.8112881
0
ARC
8
DEFAULT_255_2_778
10
3.9564189
20
93.2370485
40
0.2463594
50
22.200083
51
65.899807
0
ARC
8
DEFAULT_255_2_778
10
3.9406039
20
93.8516261
40
0.4067088
50
286.6323321
51
353.0035152
0
ARC
8
DEFAULT_255_2_778
10
3.549844
20
93.942883
40
0.8068204
50
349.949909
51
0.3783919
0
ARC
8
DEFAULT_255_2_778
10
3.3206728
20
93.9481464
40
1.0359741
50
0.0035911
51
0.9118777
0
ARC
8
DEFAULT_255_2_778
10
3.7522294
20
93.9527586
40
0.6044031
50
1.1257791
51
23.7037369
0
ARC
8
DEFAULT_255_2_778
10
3.9109023
20
94.0088092
40
0.4367616
50
25.3392633
51
75.2353257
0
ARC
8
DEFAULT_255_2_778
10
3.7722451
20
93.5823333
40
0.8848565
50
73.5909501
51
88.6385703
0
ARC
8
DEFAULT_255_2_778
10
3.7448558
20
93.1593129
40
1.3085231
50
87.8796882
51
90.0214193
0
ARC
8
DEFAULT_255_2_778
10
3.7446652
20
93.0110557
40
1.4567801
50
90.0117433
51
91.5045413
0
LINE
8
DEFAULT_255_2_778
10
3.7064158
20
94.4673335
11
3.1265158
21
94.4673335
0
LINE
8
DEFAULT_255_2_778
10
12.5991158
20
92.9534335
11
12.6044158
21
92.9534335
0
LINE
8
DEFAULT_255_2_778
10
3.9469158
20
93.8715335
11
3.9469158
21
93.8715335
0
LINE
8
DEFAULT_255_2_778
10
3.1262158
20
94.4673335
11
3.1262158
21
92.4731335
0
LINE
8
DEFAULT_255_2_778
10
3.1262158
20
92.4731335
11
3.5405158
21
92.4731335
0
LINE
8
DEFAULT_255_2_778
10
3.5405158
20
92.4731335
11
3.5405158
21
93.2642335
0
LINE
8
DEFAULT_255_2_778
10
3.8019158
20
93.1653335
11
3.9996158
21
92.4813335
0
LINE
8
DEFAULT_255_2_778
10
3.9996158
20
92.4813335
11
4.4266158
21
92.4731335
0
LINE
8
DEFAULT_255_2_778
10
4.4266158
20
92.4731335
11
4.1845158
21
93.3301335
0
LINE
8
DEFAULT_255_2_778
10
3.1265158
20
94.4673335
11
3.1262158
21
94.4673335
0
ARC
8
DEFAULT_255_2_778
10
8.9089941
20
93.8860875
40
0.199676
50
355.8276993
51
76.8971341
0
ARC
8
DEFAULT_255_2_778
10
8.8119468
20
93.5761828
40
0.5240748
50
74.2433229
51
90.9643547
0
ARC
8
DEFAULT_255_2_778
10
8.800318
20
93.2786123
40
0.8215758
50
89.8041424
51
90.0002334
0
ARC
8
DEFAULT_255_2_778
10
8.8018759
20
93.1419441
40
0.9582453
50
90.0933534
51
93.8831258
0
ARC
8
DEFAULT_255_2_778
10
8.8169928
20
92.9003638
40
1.2002954
50
93.8221237
51
95.7786251
0
LINE
8
DEFAULT_255_2_778
10
8.6961409
20
94.0945598
11
8.6961409
21
93.6482598
0
ARC
8
DEFAULT_255_2_778
10
8.8275605
20
94.7257531
40
1.0854782
50
263.0461001
51
267.0364337
0
ARC
8
DEFAULT_255_2_778
10
8.8136829
20
94.475591
40
0.8349338
50
267.0999407
51
269.9514608
0
ARC
8
DEFAULT_255_2_778
10
8.8233993
20
94.1226676
40
0.4821228
50
268.7611366
51
286.5322503
0
ARC
8
DEFAULT_255_2_778
10
8.9082807
20
93.8541531
40
0.2006167
50
285.1140427
51
4.9775948
0
ARC
8
DEFAULT_255_2_778
10
8.7324654
20
92.5224087
40
0.7424344
50
90.0320032
51
92.2713678
0
ARC
8
DEFAULT_255_2_778
10
8.7433583
20
92.8597013
40
0.4052994
50
71.7008299
51
91.5987143
0
ARC
8
DEFAULT_255_2_778
10
8.8235529
20
93.0952986
40
0.1564519
50
26.6034495
51
72.4943505
0
ARC
8
DEFAULT_255_2_778
10
9.1167493
20
93.2378479
40
0.2456928
50
22.0688781
51
65.8060198
0
ARC
8
DEFAULT_255_2_778
10
9.1003529
20
93.8509776
40
0.4062566
50
286.7509432
51
353.0860298
0
ARC
8
DEFAULT_255_2_778
10
8.7064633
20
93.942852
40
0.8095268
50
349.9851762
51
0.3771028
0
ARC
8
DEFAULT_255_2_778
10
8.475852
20
93.9481019
40
1.0401205
50
0.0043007
51
0.9121418
0
ARC
8
DEFAULT_255_2_778
10
8.9093179
20
93.9529913
40
0.6066352
50
1.102146
51
23.5154318
0
ARC
8
DEFAULT_255_2_778
10
9.0708406
20
94.0099392
40
0.4359761
50
25.1226871
51
75.4099621
0
ARC
8
DEFAULT_255_2_778
10
8.932229
20
93.5793624
40
0.8879558
50
73.7527795
51
88.884368
0
ARC
8
DEFAULT_255_2_778
10
8.9063579
20
93.1594923
40
1.3083698
50
88.1096159
51
90.0172116
0
ARC
8
DEFAULT_255_2_778
10
8.9062625
20
93.020814
40
1.4470481
50
90.011783
51
91.5095952
0
LINE
8
DEFAULT_255_2_778
10
8.8681409
20
94.4673598
11
8.2903409
21
94.4673598
0
ARC
8
DEFAULT_255_2_778
10
4.2938067
20
93.52837
40
1.8753772
50
359.6116793
51
9.0001312
0
ARC
8
DEFAULT_255_2_778
10
5.0679636
20
93.6557818
40
1.0908301
50
8.751344
51
23.9353303
0
ARC
8
DEFAULT_255_2_778
10
5.4711202
20
93.8434622
40
0.6462499
50
23.2280078
51
80.442383
0
ARC
8
DEFAULT_255_2_778
10
5.3777031
20
93.4433556
40
1.0566258
50
79.0493692
51
90.3666858
0
ARC
8
DEFAULT_255_2_778
10
5.3581166
20
93.3605218
40
1.1395102
50
89.3551653
51
103.9913642
0
ARC
8
DEFAULT_255_2_778
10
5.2293027
20
93.8285208
40
0.6543586
50
102.9544629
51
159.9452017
0
ARC
8
DEFAULT_255_2_778
10
5.64928
20
93.6601231
40
1.106708
50
159.2116378
51
174.3590498
0
ARC
8
DEFAULT_255_2_778
10
6.2660247
20
93.5842206
40
1.7279912
50
173.8645854
51
180.1678043
0
ARC
8
DEFAULT_255_2_778
10
6.6796119
20
93.5674037
40
2.1416032
50
179.6854784
51
187.9081136
0
ARC
8
DEFAULT_255_2_778
10
5.8317435
20
93.4446294
40
1.2849157
50
187.6872598
51
200.8641547
0
ARC
8
DEFAULT_255_2_778
10
5.3371731
20
93.2491619
40
0.7531871
50
200.3691307
51
226.8439267
0
ARC
8
DEFAULT_255_2_778
10
5.2875437
20
93.2248064
40
0.7017462
50
228.4399734
51
261.4015732
0
ARC
8
DEFAULT_255_2_778
10
5.3656319
20
93.6105662
40
1.0950194
50
260.3792997
51
270.2777885
0
ARC
8
DEFAULT_255_2_778
10
5.3840726
20
93.4723575
40
0.9568877
50
269.2136866
51
286.8243622
0
ARC
8
DEFAULT_255_2_778
10
5.4670302
20
93.1779869
40
0.6511318
50
287.3343419
51
340.7672792
0
ARC
8
DEFAULT_255_2_778
10
4.9473358
20
93.3963971
40
1.2142723
50
339.1141497
51
352.8356056
0
ARC
8
DEFAULT_255_2_778
10
4.1614048
20
93.505958
40
2.0077596
50
352.5306325
51
0.2768624
0
ARC
8
DEFAULT_255_2_778
10
5.3568881
20
93.9441678
40
0.206516
50
90.8731779
51
156.3802474
0
ARC
8
DEFAULT_255_2_778
10
5.707793
20
93.746472
40
0.608585
50
152.5608857
51
168.2800035
0
ARC
8
DEFAULT_255_2_778
10
6.4890888
20
93.5711037
40
1.4092748
50
167.7511262
51
176.1558371
0
ARC
8
DEFAULT_255_2_778
10
7.7039434
20
93.4758942
40
2.6278143
50
175.8604437
51
180.1708173
0
ARC
8
DEFAULT_255_2_778
10
7.081456
20
93.456734
40
2.005347
50
179.6764034
51
185.9827774
0
ARC
8
DEFAULT_255_2_778
10
6.032644
20
93.3412267
40
0.9502246
50
185.6474608
51
196.7903363
0
ARC
8
DEFAULT_255_2_778
10
5.482259
20
93.1682888
40
0.3734047
50
195.7813574
51
219.7958536
0
ARC
8
DEFAULT_255_2_778
10
5.3367788
20
93.0507641
40
0.186427
50
220.6617972
51
271.0196306
0
ARC
8
DEFAULT_255_2_778
10
5.3400087
20
93.1044721
40
0.2401055
50
270.020892
51
273.2786788
0
ARC
8
DEFAULT_255_2_778
10
5.352723
20
93.0832373
40
0.2184799
50
270.266953
51
338.7443358
0
ARC
8
DEFAULT_255_2_778
10
4.9836051
20
93.2735218
40
0.6329694
50
334.8015185
51
350.3089353
0
ARC
8
DEFAULT_255_2_778
10
4.1901349
20
93.4215755
40
1.4400924
50
349.816714
51
358.267326
0
ARC
8
DEFAULT_255_2_778
10
3.3011077
20
93.4663062
40
2.3301338
50
357.8289136
51
0.0431205
0
ARC
8
DEFAULT_255_2_778
10
2.6669669
20
93.5446533
40
2.9652634
50
358.5198709
51
359.6046774
0
ARC
8
DEFAULT_255_2_778
10
2.9129445
20
93.542468
40
2.7192765
50
359.6149631
51
359.9979442
0
ARC
8
DEFAULT_255_2_778
10
3.7015911
20
93.5537616
40
1.9306634
50
359.6619447
51
6.2632315
0
ARC
8
DEFAULT_255_2_778
10
4.6950759
20
93.6676274
40
0.9306988
50
5.9677004
51
17.1677474
0
ARC
8
DEFAULT_255_2_778
10
5.2182807
20
93.8359992
40
0.3811615
50
16.2003281
51
40.1899609
0
ARC
8
DEFAULT_255_2_778
10
5.3580293
20
93.9495408
40
0.2011647
50
41.171974
51
91.2215088
0
ARC
8
DEFAULT_255_2_778
10
2.2496964
20
93.819447
40
0.2789262
50
357.0021908
51
39.8649295
0
ARC
8
DEFAULT_255_2_778
10
2.2436574
20
93.7857921
40
0.3059232
50
43.981548
51
79.4625638
0
ARC
8
DEFAULT_255_2_778
10
2.150349
20
93.3966335
40
0.7058826
50
77.7929859
51
90.7230818
0
LINE
8
DEFAULT_255_2_778
10
2.1414409
20
94.1024598
11
2.1414409
21
93.5402598
0
ARC
8
DEFAULT_255_2_778
10
2.1537238
20
94.2795561
40
0.7393983
50
269.0481583
51
283.3182869
0
ARC
8
DEFAULT_255_2_778
10
2.2654703
20
93.8407119
40
0.2867169
50
281.7896149
51
317.1244563
0
ARC
8
DEFAULT_255_2_778
10
2.2919728
20
93.7946668
40
0.2364879
50
320.9336417
51
2.470299
0
ARC
8
DEFAULT_255_2_778
10
2.2755109
20
94.8668015
40
1.7286486
50
265.5518038
51
268.1503093
0
ARC
8
DEFAULT_255_2_778
10
2.2682514
20
94.6576761
40
1.519398
50
268.1693784
51
269.984849
0
ARC
8
DEFAULT_255_2_778
10
2.2792434
20
94.2202425
40
1.0820243
50
269.3966588
51
282.5605536
0
ARC
8
DEFAULT_255_2_778
10
2.3884268
20
93.7561318
40
0.6053033
50
282.0267342
51
308.1689252
0
ARC
8
DEFAULT_255_2_778
10
2.417763
20
93.692391
40
0.5373097
50
309.9101918
51
345.9932837
0
ARC
8
DEFAULT_255_2_778
10
2.0158755
20
93.8062574
40
0.9548991
50
345.2006484
51
359.8839047
0
ARC
8
DEFAULT_255_2_778
10
1.6676894
20
93.8223143
40
1.3032073
50
359.2089613
51
0.0032587
0
ARC
8
DEFAULT_255_2_778
10
1.5688795
20
93.8219682
40
1.4020174
50
0.0171734
51
1.970973
0
ARC
8
DEFAULT_255_2_778
10
2.198031
20
93.8439663
40
0.7724816
50
1.9452722
51
2.0025466
0
ARC
8
DEFAULT_255_2_778
10
2.281337
20
93.8834733
40
0.6888176
50
358.9590724
51
19.7471152
0
ARC
8
DEFAULT_255_2_778
10
2.4720265
20
93.9407494
40
0.4901032
50
20.9770835
51
71.4238315
0
ARC
8
DEFAULT_255_2_778
10
2.3001913
20
93.5123041
40
0.951334
50
69.8339437
51
84.40961
0
ARC
8
DEFAULT_255_2_778
10
2.2273928
20
92.9096838
40
1.5582405
50
83.9041151
51
90.1876664
0
ARC
8
DEFAULT_255_2_778
10
2.2228932
20
92.4806969
40
1.9872193
50
90.0174233
51
91.7547476
0
ARC
8
DEFAULT_255_2_778
10
2.2272038
20
92.3211613
40
2.1468123
50
91.7393571
51
92.2895144
0
LINE
8
DEFAULT_255_2_778
10
2.1414409
20
94.4662598
11
1.6995409
21
94.4662598
0
ARC
8
DEFAULT_255_2_778
10
27.7549107
20
47.96919
40
0.2000302
50
270.0086511
51
0.0199897
0
ARC
8
DEFAULT_255_2_778
10
0.3546711
20
47.96919
40
0.2000302
50
179.9800103
51
269.9913489
0
ARC
8
DEFAULT_255_2_778
10
0.3723685
20
46.4695667
40
0.2177282
50
164.7162182
51
180.133378
0
ARC
8
DEFAULT_255_2_778
10
0.3679513
20
46.4711048
40
0.213062
50
151.5946542
51
164.802097
0
ARC
8
DEFAULT_255_2_778
10
0.3537409
20
46.4781999
40
0.1971882
50
129.4521584
51
151.4438247
0
ARC
8
DEFAULT_255_2_778
10
0.3416095
20
46.4902794
40
0.1801601
50
109.5438273
51
128.9141727
0
ARC
8
DEFAULT_255_2_778
10
0.3363749
20
46.5019034
40
0.167458
50
90.2511296
51
109.1864548
0
ARC
8
DEFAULT_255_2_778
10
27.7721273
20
46.5002509
40
0.1691109
50
70.9080567
51
89.7243336
0
ARC
8
DEFAULT_255_2_778
10
27.7706616
20
46.496515
40
0.1731208
50
50.6880234
51
70.8540668
0
ARC
8
DEFAULT_255_2_778
10
27.7550409
20
46.4781999
40
0.1971882
50
28.5561753
51
50.5478416
0
ARC
8
DEFAULT_255_2_778
10
27.7408434
20
46.4711108
40
0.2130479
50
15.1972418
51
28.4055672
0
ARC
8
DEFAULT_255_2_778
10
27.7403781
20
46.4700928
40
0.2137656
50
0.0150249
51
15.427871
0
ARC
8
DEFAULT_255_2_778
10
27.7422865
20
46.4701101
40
0.2118571
50
359.7159465
51
0.0104782
0
ARC
8
DEFAULT_255_2_778
10
25.8542322
20
28.6192511
40
0.0999087
50
359.9476388
51
90.0523612
0
ARC
8
DEFAULT_255_2_778
10
25.8541472
20
30.9191535
40
0.0999937
50
269.9963727
51
0.0609063
0
ARC
8
DEFAULT_255_2_778
10
27.7543239
20
26.0693428
40
0.1998171
50
359.947541
51
90.052459
0
ARC
8
DEFAULT_255_2_778
10
25.8541693
20
26.9954402
40
0.0998064
50
47.6996254
51
79.4513471
0
ARC
8
DEFAULT_255_2_778
10
25.8536891
20
28.1770463
40
0.1004522
50
280.7587615
51
359.8366219
0
ARC
8
DEFAULT_255_2_778
10
25.4541508
20
32.4691698
40
0.4999901
50
359.9988615
51
90.0011327
0
ARC
8
DEFAULT_255_2_778
10
23.8541991
20
3.769018
40
0.7000418
50
359.9952377
51
90.0047623
0
ARC
8
DEFAULT_255_2_778
10
4.2547108
20
3.76889
40
0.7001699
50
90.0057163
51
179.9942837
0
ARC
8
DEFAULT_255_2_778
10
2.2550696
20
28.6188603
40
0.1004292
50
135.0117948
51
179.829142
0
ARC
8
DEFAULT_255_2_778
10
2.2545566
20
28.6196557
40
0.0995041
50
89.951432
51
135.1268527
0
ARC
8
DEFAULT_255_2_778
10
2.254647
20
30.9193835
40
0.1000061
50
180.0708692
51
225.0881738
0
ARC
8
DEFAULT_255_2_778
10
2.254696
20
30.9187601
40
0.0996003
50
224.8150146
51
269.9683075
0
ARC
8
DEFAULT_255_2_778
10
2.2545953
20
28.1766332
40
0.0999544
50
179.9274454
51
259.477156
0
ARC
8
DEFAULT_255_2_778
10
2.2556862
20
26.9924345
40
0.102959
50
100.8298738
51
131.7400946
0
ARC
8
DEFAULT_255_2_778
10
0.354458
20
26.0693428
40
0.1998171
50
89.947541
51
180.052459
0
ARC
8
DEFAULT_255_2_778
10
27.7426367
20
53.8681091
40
0.2120068
50
359.9895257
51
0.2839492
0
ARC
8
DEFAULT_255_2_778
10
27.7369033
20
53.868296
40
0.2177405
50
344.8144684
51
359.9406416
0
ARC
8
DEFAULT_255_2_778
10
27.7512015
20
53.8640274
40
0.2028238
50
331.0850238
51
344.9201694
0
ARC
8
DEFAULT_255_2_778
10
27.7571566
20
53.8591462
40
0.1952559
50
309.3048819
51
331.4938798
0
ARC
8
DEFAULT_255_2_778
10
27.7711394
20
53.8414933
40
0.1727394
50
289.1976201
51
309.4251158
0
ARC
8
DEFAULT_255_2_778
10
27.7734621
20
53.8350594
40
0.1658996
50
269.9926868
51
289.1707341
0
ARC
8
DEFAULT_255_2_778
10
0.3358931
20
53.8354942
40
0.1663344
50
250.8545921
51
269.9820266
0
ARC
8
DEFAULT_255_2_778
10
0.3402517
20
53.8452493
40
0.1769819
50
230.8196252
51
250.5573324
0
ARC
8
DEFAULT_255_2_778
10
0.3533272
20
53.8601404
40
0.1967869
50
208.5934576
51
230.6076637
0
ARC
8
DEFAULT_255_2_778
10
0.3589075
20
53.8639267
40
0.2034997
50
194.9991999
51
208.777564
0
ARC
8
DEFAULT_255_2_778
10
0.372368
20
53.8686529
40
0.2177277
50
179.8665992
51
195.2837963
0
ARC
8
DEFAULT_255_2_778
10
0.354458
20
52.3694428
40
0.1998171
50
89.947541
51
180.052459
0
ARC
8
DEFAULT_255_2_778
10
27.7548239
20
52.3694428
40
0.1998171
50
359.947541
51
90.052459
0
ARC
8
DEFAULT_255_2_778
10
27.2414445
20
98.5397343
40
0.7139986
50
359.8576077
51
359.9932188
0
ARC
8
DEFAULT_255_2_778
10
27.2540509
20
98.5397376
40
0.7013921
50
359.9928257
51
10.0685883
0
ARC
8
DEFAULT_255_2_778
10
2.5914918
20
106.1492683
40
0.3203614
50
41.4224368
51
87.647648
0
ARC
8
DEFAULT_255_2_778
10
2.3400327
20
105.8898463
40
0.681136
50
28.778289
51
43.7919956
0
ARC
8
DEFAULT_255_2_778
10
25.7167616
20
105.9268696
40
0.6170845
50
130.5002162
51
151.8751464
0
ARC
8
DEFAULT_255_2_778
10
25.5120277
20
106.1707878
40
0.2986561
50
91.359692
51
131.0244454
0
ARC
8
DEFAULT_255_2_778
10
0.7125158
20
106.9580142
40
0.8840515
50
315.5531846
51
315.7920988
0
ARC
8
DEFAULT_255_2_778
10
0.6946418
20
106.9755304
40
0.9090773
50
315.7862394
51
316.0097464
0
ARC
8
DEFAULT_255_2_778
10
0.6862269
20
106.9837559
40
0.9208443
50
316.0051775
51
316.2526161
0
ARC
8
DEFAULT_255_2_778
10
0.6827866
20
106.9871597
40
0.9256832
50
316.2476644
51
316.4831323
0
ARC
8
DEFAULT_255_2_778
10
0.6492106
20
107.0191421
40
0.9720536
50
316.4788047
51
316.716212
0
ARC
8
DEFAULT_255_2_778
10
0.6341571
20
107.0333591
40
0.9927594
50
316.714563
51
316.9432016
0
ARC
8
DEFAULT_255_2_778
10
0.5957639
20
107.0691548
40
1.0452508
50
316.9463155
51
317.1530893
0
ARC
8
DEFAULT_255_2_778
10
0.5692189
20
107.0936566
40
1.0813751
50
317.1577317
51
317.3481556
0
ARC
8
DEFAULT_255_2_778
10
0.5198879
20
107.1390161
40
1.1483904
50
317.3512788
51
317.5222179
0
ARC
8
DEFAULT_255_2_778
10
0.5494227
20
107.1119725
40
1.1083447
50
317.5222582
51
317.6911986
0
ARC
8
DEFAULT_255_2_778
10
0.5148146
20
107.1437754
40
1.1553458
50
317.6801138
51
317.8347853
0
ARC
8
DEFAULT_255_2_778
10
0.3888305
20
107.2579668
40
1.3253801
50
317.8317299
51
317.9604734
0
ARC
8
DEFAULT_255_2_778
10
0.3726845
20
107.2726421
40
1.3471987
50
317.9567755
51
318.0777797
0
ARC
8
DEFAULT_255_2_778
10
0.2210756
20
107.408812
40
1.5509816
50
318.0768745
51
318.1773377
0
ARC
8
DEFAULT_255_2_778
10
0.1624727
20
107.461237
40
1.6296115
50
318.1776977
51
318.3144192
0
ARC
8
DEFAULT_255_2_778
10
2.076095
20
105.7836816
40
0.9153527
50
135.4831585
51
139.5559011
0
ARC
8
DEFAULT_255_2_778
10
1.5795201
20
106.2632355
40
0.2251343
50
133.6765373
51
133.9013199
0
ARC
8
DEFAULT_255_2_778
10
1.523359
20
106.326682
40
0.1404988
50
94.3972922
51
134.9802831
0
ARC
8
DEFAULT_255_2_778
10
1.5623879
20
106.0426371
40
0.427044
50
89.4537174
51
96.6969798
0
ARC
8
DEFAULT_255_2_778
10
1.5668538
20
106.0219938
40
0.4476679
50
89.8480683
51
90.0504755
0
ARC
8
DEFAULT_255_2_778
10
26.5435702
20
105.6118005
40
0.8578617
50
90.0003772
51
90.135532
0
ARC
8
DEFAULT_255_2_778
10
26.5509823
20
106.0625303
40
0.4071994
50
81.7460639
51
91.0437868
0
ARC
8
DEFAULT_255_2_778
10
26.5960831
20
106.3563858
40
0.1099403
50
44.0914904
51
83.0217115
0
ARC
8
DEFAULT_255_2_778
10
26.5371018
20
106.2929431
40
0.1964984
50
44.2795392
51
45.4115764
0
ARC
8
DEFAULT_255_2_778
10
26.5113704
20
106.2678245
40
0.2324574
50
43.3514991
51
44.2841779
0
ARC
8
DEFAULT_255_2_778
10
26.4782818
20
106.2365876
40
0.2779612
50
42.5906647
51
43.3514451
0
ARC
8
DEFAULT_255_2_778
10
26.4383025
20
106.1998323
40
0.3322686
50
41.9702724
51
42.5912349
0
ARC
8
DEFAULT_255_2_778
10
26.3761958
20
106.1439447
40
0.4158191
50
41.406859
51
41.9728097
0
ARC
8
DEFAULT_255_2_778
10
26.2857824
20
106.0641717
40
0.536394
50
40.9842001
51
41.4103545
0
ARC
8
DEFAULT_255_2_778
10
26.1434141
20
105.9404222
40
0.7250277
50
40.6594998
51
40.9877491
0
ARC
8
DEFAULT_255_2_778
10
28.102972
20
107.5930642
40
1.8384276
50
219.9399259
51
221.7602853
0
ARC
8
DEFAULT_255_2_778
10
27.3298112
20
106.9114576
40
0.8077634
50
222.221416
51
224.3142234
0
ARC
8
DEFAULT_255_2_778
10
27.4546415
20
105.9694533
40
0.4999994
50
359.9892894
51
44.9924763
0
ARC
8
DEFAULT_255_2_778
10
27.4547344
20
105.9693604
40
0.4999994
50
45.0075237
51
90.0107106
0
ARC
8
DEFAULT_255_2_778
10
0.6547166
20
105.9692842
40
0.5000756
50
89.9972098
51
179.9913379
0
ARC
8
DEFAULT_255_2_778
10
0.6547378
20
0.9694567
40
0.5000969
50
179.9996485
51
270.0003515
0
ARC
8
DEFAULT_255_2_778
10
27.4545654
20
0.9694352
40
0.5000754
50
270.0086483
51
0.0028154
0
ARC
8
DEFAULT_255_2_778
10
2.6546313
20
32.4691694
40
0.4999904
50
89.9988949
51
180.0010993
0
LINE
8
DEFAULT_255_2_778
10
9.1081409
20
93.8715598
11
9.1081409
21
93.8715598
0
LINE
8
DEFAULT_255_2_778
10
8.2903409
20
94.4673598
11
8.2903409
21
92.4731598
0
LINE
8
DEFAULT_255_2_778
10
8.2903409
20
92.4731598
11
8.7030409
21
92.4731598
0
LINE
8
DEFAULT_255_2_778
10
8.7030409
20
92.4731598
11
8.7030409
21
93.2642598
0
LINE
8
DEFAULT_255_2_778
10
8.9634409
20
93.1653598
11
9.1602409
21
92.4813598
0
LINE
8
DEFAULT_255_2_778
10
9.1602409
20
92.4813598
11
9.5857409
21
92.4731598
0
LINE
8
DEFAULT_255_2_778
10
9.5857409
20
92.4731598
11
9.3444409
21
93.3301598
0
LINE
8
DEFAULT_255_2_778
10
8.2903409
20
94.4673598
11
8.2903409
21
94.4673598
0
LINE
8
DEFAULT_255_2_778
10
6.1691409
20
93.5156598
11
6.1691409
21
93.5156598
0
LINE
8
DEFAULT_255_2_778
10
5.3537409
20
94.1506598
11
5.3537409
21
94.1506598
0
LINE
8
DEFAULT_255_2_778
10
2.5282409
20
93.8048598
11
2.5282409
21
93.8048598
0
LINE
8
DEFAULT_255_2_778
10
1.6995409
20
94.4662598
11
1.6995409
21
92.4819598
0
LINE
8
DEFAULT_255_2_778
10
1.6995409
20
92.4819598
11
2.1414409
21
92.4819598
0
LINE
8
DEFAULT_255_2_778
10
2.1414409
20
92.4819598
11
2.1414409
21
93.1433598
0
LINE
8
DEFAULT_255_2_778
10
1.6995409
20
94.4662598
11
1.6995409
21
94.4662598
0
LINE
8
DEFAULT_255_2_778
10
10.8242409
20
93.2423598
11
10.5781409
21
94.0670598
0
LINE
8
DEFAULT_255_2_778
10
10.5781409
20
94.0670598
11
10.5734409
21
94.0670598
0
LINE
8
DEFAULT_255_2_778
10
10.5734409
20
94.0670598
11
10.3278409
21
93.2423598
0
LINE
8
DEFAULT_255_2_778
10
10.3278409
20
93.2423598
11
10.8242409
21
93.2423598
0
LINE
8
DEFAULT_255_2_778
10
11.0650409
20
92.4689598
11
10.9189409
21
92.9272598
0
LINE
8
DEFAULT_255_2_778
10
10.9189409
20
92.9272598
11
10.2302409
21
92.9272598
0
LINE
8
DEFAULT_255_2_778
10
10.2302409
20
92.9272598
11
10.0820409
21
92.4689598
0
LINE
8
DEFAULT_255_2_778
10
10.0820409
20
92.4689598
11
9.7293409
21
92.4689598
0
LINE
8
DEFAULT_255_2_778
10
9.7293409
20
92.4689598
11
10.3911409
21
94.4678598
0
LINE
8
DEFAULT_255_2_778
10
10.3911409
20
94.4678598
11
10.7752409
21
94.4678598
0
LINE
8
DEFAULT_255_2_778
10
10.7752409
20
94.4678598
11
11.4423409
21
92.4689598
0
LINE
8
DEFAULT_255_2_778
10
11.4423409
20
92.4689598
11
11.0650409
21
92.4689598
0
LINE
8
DEFAULT_255_2_778
10
3.3547409
20
47.7691598
11
3.5548409
21
47.9692598
0
LINE
8
DEFAULT_255_2_778
10
24.7548409
20
47.7691598
11
24.7548409
21
46.6693598
0
LINE
8
DEFAULT_255_2_778
10
24.5547409
20
47.9692598
11
24.7548409
21
47.7691598
0
LINE
8
DEFAULT_255_2_778
10
24.7548409
20
47.7691598
11
27.7549409
21
47.7691598
0
LINE
8
DEFAULT_255_2_778
10
0.3546409
20
47.7691598
11
3.3547409
21
47.7691598
0
LINE
8
DEFAULT_255_2_778
10
3.3547409
20
47.7691598
11
3.3547409
21
46.6693598
0
LINE
8
DEFAULT_255_2_778
10
0.3356409
20
46.6693598
11
27.7729409
21
46.6693598
0
LINE
8
DEFAULT_255_2_778
10
25.8541409
20
28.7191598
11
25.8041409
21
28.7191598
0
LINE
8
DEFAULT_255_2_778
10
25.8541409
20
30.8191598
11
25.8041409
21
30.8191598
0
LINE
8
DEFAULT_255_2_778
10
25.8041409
20
26.2691598
11
27.7541409
21
26.2691598
0
LINE
8
DEFAULT_255_2_778
10
25.8038409
20
27.1118598
11
25.8724409
21
27.0935598
0
LINE
8
DEFAULT_255_2_778
10
25.9213409
20
27.0692598
11
26.9540409
21
27.0692598
0
LINE
8
DEFAULT_255_2_778
10
26.9540409
20
27.0692598
11
27.2540409
21
30.8191598
0
LINE
8
DEFAULT_255_2_778
10
27.2540409
20
30.8191598
11
27.9541409
21
32.9691598
0
LINE
8
DEFAULT_255_2_778
10
25.8724409
20
28.0783598
11
25.8038409
21
28.0601598
0
LINE
8
DEFAULT_255_2_778
10
25.8041409
20
25.7788598
11
25.8041409
21
32.8257598
0
LINE
8
DEFAULT_255_2_778
10
25.0040409
20
32.9689598
11
25.8041409
21
31.3689598
0
LINE
8
DEFAULT_255_2_778
10
27.9583409
20
45.6689598
11
27.7596409
21
45.6676598
0
LINE
8
DEFAULT_255_2_778
10
27.7596409
20
45.6676598
11
27.7567409
21
45.6562598
0
LINE
8
DEFAULT_255_2_778
10
27.7567409
20
45.6562598
11
27.7538409
21
45.6337598
0
LINE
8
DEFAULT_255_2_778
10
27.7538409
20
45.6337598
11
27.7512409
21
45.6011598
0
LINE
8
DEFAULT_255_2_778
10
27.7512409
20
45.6011598
11
27.7485409
21
44.1912598
0
LINE
8
DEFAULT_255_2_778
10
27.7485409
20
44.1912598
11
27.7517409
21
44.1155598
0
LINE
8
DEFAULT_255_2_778
10
27.7517409
20
44.1155598
11
27.7536409
21
44.0824598
0
LINE
8
DEFAULT_255_2_778
10
27.7536409
20
44.0824598
11
27.7557409
21
44.0533598
0
LINE
8
DEFAULT_255_2_778
10
27.7557409
20
44.0533598
11
27.7578409
21
44.0282598
0
LINE
8
DEFAULT_255_2_778
10
27.7578409
20
44.0282598
11
27.7625409
21
43.9906598
0
LINE
8
DEFAULT_255_2_778
10
27.7625409
20
43.9906598
11
27.7676409
21
43.9716598
0
LINE
8
DEFAULT_255_2_778
10
27.7676409
20
43.9716598
11
27.9583409
21
43.9692598
0
LINE
8
DEFAULT_255_2_778
10
27.9541409
20
22.2191598
11
28.1541409
21
22.2191598
0
LINE
8
DEFAULT_255_2_778
10
28.1541409
20
22.2191598
11
28.1541409
21
12.7190598
0
LINE
8
DEFAULT_255_2_778
10
28.1541409
20
12.7190598
11
27.9541409
21
12.7190598
0
LINE
8
DEFAULT_255_2_778
10
23.8541409
20
4.4690598
11
4.2546409
21
4.4690598
0
LINE
8
DEFAULT_255_2_778
10
3.5545409
20
3.7689598
11
3.5545409
21
0.5394598
0
LINE
8
DEFAULT_255_2_778
10
3.5545409
20
0.5394598
11
24.5545409
21
0.5394598
0
LINE
8
DEFAULT_255_2_778
10
24.5545409
20
0.5394598
11
24.5542409
21
3.7689598
0
LINE
8
DEFAULT_255_2_778
10
13.5042409
20
0.4691598
11
13.5042409
21
-0.2288402
0
LINE
8
DEFAULT_255_2_778
10
13.5042409
20
-0.2288402
11
8.5046409
21
-0.2288402
0
LINE
8
DEFAULT_255_2_778
10
8.5046409
20
-0.2288402
11
8.5046409
21
0.4691598
0
LINE
8
DEFAULT_255_2_778
10
2.2546409
20
28.7191598
11
2.3046409
21
28.7191598
0
LINE
8
DEFAULT_255_2_778
10
2.2546409
20
30.8191598
11
2.3046409
21
30.8191598
0
LINE
8
DEFAULT_255_2_778
10
2.3049409
20
28.0601598
11
2.2363409
21
28.0783598
0
LINE
8
DEFAULT_255_2_778
10
2.3049409
20
27.1118598
11
2.2363409
21
27.0935598
0
LINE
8
DEFAULT_255_2_778
10
2.3043409
20
32.8260598
11
2.3043409
21
25.7788598
0
LINE
8
DEFAULT_255_2_778
10
2.3043409
20
26.2691598
11
0.3546409
21
26.2691598
0
LINE
8
DEFAULT_255_2_778
10
27.7734409
20
53.6691598
11
0.3358409
21
53.6691598
0
LINE
8
DEFAULT_255_2_778
10
24.7545409
20
52.5692598
11
24.5545409
21
52.3692598
0
LINE
8
DEFAULT_255_2_778
10
3.3545409
20
52.5692598
11
3.3545409
21
53.6691598
0
LINE
8
DEFAULT_255_2_778
10
3.5545409
20
52.3692598
11
3.3545409
21
52.5692598
0
LINE
8
DEFAULT_255_2_778
10
3.3545409
20
52.5692598
11
0.3546409
21
52.5692598
0
LINE
8
DEFAULT_255_2_778
10
27.7546409
20
52.5692598
11
24.7548409
21
52.5692598
0
LINE
8
DEFAULT_255_2_778
10
24.7548409
20
52.5692598
11
24.7548409
21
53.6691598
0
LINE
8
DEFAULT_255_2_778
10
1.3553409
20
106.3415598
11
0.7007409
21
106.2280598
0
LINE
8
DEFAULT_255_2_778
10
0.7007409
20
106.2280598
11
0.6078409
21
106.1899598
0
LINE
8
DEFAULT_255_2_778
10
0.6078409
20
106.1899598
11
0.5340409
21
106.1420598
0
LINE
8
DEFAULT_255_2_778
10
0.5340409
20
106.1420598
11
0.4859409
21
106.0992598
0
LINE
8
DEFAULT_255_2_778
10
0.4859409
20
106.0992598
11
0.4411409
21
106.0471598
0
LINE
8
DEFAULT_255_2_778
10
0.4411409
20
106.0471598
11
0.4020409
21
105.9857598
0
LINE
8
DEFAULT_255_2_778
10
0.4020409
20
105.9857598
11
0.3851409
21
105.9515598
0
LINE
8
DEFAULT_255_2_778
10
0.3851409
20
105.9515598
11
0.3705409
21
105.9153598
0
LINE
8
DEFAULT_255_2_778
10
0.3705409
20
105.9153598
11
0.3586409
21
105.8772598
0
LINE
8
DEFAULT_255_2_778
10
0.3586409
20
105.8772598
11
0.3496409
21
105.8372598
0
LINE
8
DEFAULT_255_2_778
10
0.3496409
20
105.8372598
11
0.3438409
21
105.7957598
0
LINE
8
DEFAULT_255_2_778
10
0.3438409
20
105.7957598
11
0.3414409
21
105.7473598
0
LINE
8
DEFAULT_255_2_778
10
0.3414409
20
105.7473598
11
0.3398409
21
100.8893598
0
LINE
8
DEFAULT_255_2_778
10
0.3398409
20
100.8893598
11
0.3382409
21
100.7271598
0
LINE
8
DEFAULT_255_2_778
10
0.3382409
20
100.7271598
11
0.3361409
21
100.5686598
0
LINE
8
DEFAULT_255_2_778
10
0.3361409
20
100.5686598
11
0.3335409
21
100.4157598
0
LINE
8
DEFAULT_255_2_778
10
0.3335409
20
100.4157598
11
0.3303409
21
100.2707598
0
LINE
8
DEFAULT_255_2_778
10
0.3303409
20
100.2707598
11
0.3266409
21
100.1352598
0
LINE
8
DEFAULT_255_2_778
10
0.3266409
20
100.1352598
11
0.3226409
21
100.0098598
0
LINE
8
DEFAULT_255_2_778
10
0.3226409
20
100.0098598
11
0.3184409
21
99.8939598
0
LINE
8
DEFAULT_255_2_778
10
0.3184409
20
99.8939598
11
0.3141409
21
99.7868598
0
LINE
8
DEFAULT_255_2_778
10
0.3141409
20
99.7868598
11
0.3096409
21
99.6878598
0
LINE
8
DEFAULT_255_2_778
10
0.3096409
20
99.6878598
11
0.3051409
21
99.5965598
0
LINE
8
DEFAULT_255_2_778
10
0.3051409
20
99.5965598
11
0.3006409
21
99.5129598
0
LINE
8
DEFAULT_255_2_778
10
0.3006409
20
99.5129598
11
0.2962409
21
99.4367598
0
LINE
8
DEFAULT_255_2_778
10
0.2962409
20
99.4367598
11
0.2917409
21
99.3682598
0
LINE
8
DEFAULT_255_2_778
10
0.2917409
20
99.3682598
11
0.2872409
21
99.3068598
0
LINE
8
DEFAULT_255_2_778
10
0.2872409
20
99.3068598
11
0.2787409
21
99.2052598
0
LINE
8
DEFAULT_255_2_778
10
0.2787409
20
99.2052598
11
0.2710409
21
99.1295598
0
LINE
8
DEFAULT_255_2_778
10
0.2710409
20
99.1295598
11
0.1620409
21
98.8316598
0
LINE
8
DEFAULT_255_2_778
10
27.9446409
20
98.6623598
11
27.9364409
21
98.6998598
0
LINE
8
DEFAULT_255_2_778
10
27.9364409
20
98.6998598
11
27.8520409
21
99.0404598
0
LINE
8
DEFAULT_255_2_778
10
27.8520409
20
99.0404598
11
27.8462409
21
99.0771598
0
LINE
8
DEFAULT_255_2_778
10
27.8462409
20
99.0771598
11
27.8395409
21
99.1303598
0
LINE
8
DEFAULT_255_2_778
10
27.8395409
20
99.1303598
11
27.8319409
21
99.2063598
0
LINE
8
DEFAULT_255_2_778
10
27.8319409
20
99.2063598
11
27.8234409
21
99.3081598
0
LINE
8
DEFAULT_255_2_778
10
27.8234409
20
99.3081598
11
27.8189409
21
99.3695598
0
LINE
8
DEFAULT_255_2_778
10
27.8189409
20
99.3695598
11
27.8144409
21
99.4383598
0
LINE
8
DEFAULT_255_2_778
10
27.8144409
20
99.4383598
11
27.8099409
21
99.5145598
0
LINE
8
DEFAULT_255_2_778
10
27.8099409
20
99.5145598
11
27.8054409
21
99.5984598
0
LINE
8
DEFAULT_255_2_778
10
27.8054409
20
99.5984598
11
27.8009409
21
99.6899598
0
LINE
8
DEFAULT_255_2_778
10
27.8009409
20
99.6899598
11
27.7964409
21
99.7891598
0
LINE
8
DEFAULT_255_2_778
10
27.7964409
20
99.7891598
11
27.7922409
21
99.8963598
0
LINE
8
DEFAULT_255_2_778
10
27.7922409
20
99.8963598
11
27.7879409
21
100.0122598
0
LINE
8
DEFAULT_255_2_778
10
27.7879409
20
100.0122598
11
27.7840409
21
100.1376598
0
LINE
8
DEFAULT_255_2_778
10
27.7840409
20
100.1376598
11
27.7803409
21
100.2731598
0
LINE
8
DEFAULT_255_2_778
10
27.7803409
20
100.2731598
11
27.7771409
21
100.4183598
0
LINE
8
DEFAULT_255_2_778
10
27.7771409
20
100.4183598
11
27.7742409
21
100.5712598
0
LINE
8
DEFAULT_255_2_778
10
27.7742409
20
100.5712598
11
27.7721409
21
100.7297598
0
LINE
8
DEFAULT_255_2_778
10
27.7721409
20
100.7297598
11
27.7694409
21
101.0546598
0
LINE
8
DEFAULT_255_2_778
10
27.7694409
20
101.0546598
11
27.7689409
21
105.7547598
0
LINE
8
DEFAULT_255_2_778
10
27.7689409
20
105.7547598
11
27.7663409
21
105.7994598
0
LINE
8
DEFAULT_255_2_778
10
27.7663409
20
105.7994598
11
27.7599409
21
105.8428598
0
LINE
8
DEFAULT_255_2_778
10
27.7599409
20
105.8428598
11
27.7501409
21
105.8843598
0
LINE
8
DEFAULT_255_2_778
10
27.7501409
20
105.8843598
11
27.7371409
21
105.9238598
0
LINE
8
DEFAULT_255_2_778
10
27.7371409
20
105.9238598
11
27.7213409
21
105.9611598
0
LINE
8
DEFAULT_255_2_778
10
27.7213409
20
105.9611598
11
27.7030409
21
105.9960598
0
LINE
8
DEFAULT_255_2_778
10
27.7030409
20
105.9960598
11
27.6609409
21
106.0584598
0
LINE
8
DEFAULT_255_2_778
10
27.6609409
20
106.0584598
11
27.6133409
21
106.1106598
0
LINE
8
DEFAULT_255_2_778
10
27.6133409
20
106.1106598
11
27.5369409
21
106.1704598
0
LINE
8
DEFAULT_255_2_778
10
27.5369409
20
106.1704598
11
27.4374409
21
106.2193598
0
LINE
8
DEFAULT_255_2_778
10
27.4374409
20
106.2193598
11
27.3419409
21
106.2442598
0
LINE
8
DEFAULT_255_2_778
10
27.3419409
20
106.2442598
11
26.7550409
21
106.3421598
0
LINE
8
DEFAULT_255_2_778
10
27.9557409
20
97.7198598
11
28.1557409
21
97.7198598
0
LINE
8
DEFAULT_255_2_778
10
28.1557409
20
97.7198598
11
28.1557409
21
88.2197598
0
LINE
8
DEFAULT_255_2_778
10
28.1557409
20
88.2197598
11
27.9557409
21
88.2197598
0
LINE
8
DEFAULT_255_2_778
10
27.9575409
20
56.3697598
11
27.7763409
21
56.3673598
0
LINE
8
DEFAULT_255_2_778
10
27.7763409
20
56.3673598
11
27.7713409
21
56.3483598
0
LINE
8
DEFAULT_255_2_778
10
27.7713409
20
56.3483598
11
27.7665409
21
56.3107598
0
LINE
8
DEFAULT_255_2_778
10
27.7665409
20
56.3107598
11
27.7644409
21
56.2856598
0
LINE
8
DEFAULT_255_2_778
10
27.7644409
20
56.2856598
11
27.7623409
21
56.2564598
0
LINE
8
DEFAULT_255_2_778
10
27.7623409
20
56.2564598
11
27.7604409
21
56.2234598
0
LINE
8
DEFAULT_255_2_778
10
27.7604409
20
56.2234598
11
27.7573409
21
56.1477598
0
LINE
8
DEFAULT_255_2_778
10
27.7573409
20
56.1477598
11
27.7549409
21
56.0612598
0
LINE
8
DEFAULT_255_2_778
10
27.7549409
20
56.0612598
11
27.7559409
21
54.8031598
0
LINE
8
DEFAULT_255_2_778
10
27.7559409
20
54.8031598
11
27.7578409
21
54.7576598
0
LINE
8
DEFAULT_255_2_778
10
27.7578409
20
54.7576598
11
27.7602409
21
54.7203598
0
LINE
8
DEFAULT_255_2_778
10
27.7602409
20
54.7203598
11
27.7628409
21
54.6925598
0
LINE
8
DEFAULT_255_2_778
10
27.7628409
20
54.6925598
11
27.7657409
21
54.6756598
0
LINE
8
DEFAULT_255_2_778
10
27.7657409
20
54.6756598
11
27.7689409
21
54.6697598
0
LINE
8
DEFAULT_255_2_778
10
27.7689409
20
54.6697598
11
27.9575409
21
54.6697598
0
LINE
8
DEFAULT_255_2_778
10
25.8046409
20
106.4691598
11
25.8046409
21
106.2397598
0
LINE
8
DEFAULT_255_2_778
10
2.3046409
20
106.4693598
11
2.3046409
21
106.2399598
0
LINE
8
DEFAULT_255_2_778
10
25.9546409
20
106.4693598
11
25.9536409
21
106.2653598
0
LINE
8
DEFAULT_255_2_778
10
25.9536409
20
106.2653598
11
25.8795409
21
106.2476598
0
LINE
8
DEFAULT_255_2_778
10
25.8795409
20
106.2476598
11
25.5128409
21
106.2238598
0
LINE
8
DEFAULT_255_2_778
10
25.5128409
20
106.2238598
11
24.9548409
21
106.2148598
0
LINE
8
DEFAULT_255_2_778
10
24.9548409
20
106.2148598
11
2.9584409
21
106.2159598
0
LINE
8
DEFAULT_255_2_778
10
2.9584409
20
106.2159598
11
2.2715409
21
106.2429598
0
LINE
8
DEFAULT_255_2_778
10
2.2715409
20
106.2429598
11
2.1546409
21
106.2677598
0
LINE
8
DEFAULT_255_2_778
10
2.1546409
20
106.2677598
11
2.1546409
21
106.4693598
0
LINE
8
DEFAULT_255_2_778
10
27.4546409
20
106.4693598
11
0.6547409
21
106.4693598
0
LINE
8
DEFAULT_255_2_778
10
0.1546409
20
105.9693598
11
0.1546409
21
0.9694598
0
LINE
8
DEFAULT_255_2_778
10
0.6547409
20
0.4693598
11
27.4546409
21
0.4693598
0
LINE
8
DEFAULT_255_2_778
10
27.9546409
20
0.9694598
11
27.9546409
21
105.9693598
0
LINE
8
DEFAULT_255_2_778
10
25.7877409
20
31.4031598
11
2.3215409
21
31.4031598
0
LINE
8
DEFAULT_255_2_778
10
2.1546409
20
32.9691598
11
25.9546409
21
32.9691598
0
LINE
8
DEFAULT_255_2_778
10
2.3046409
20
31.3689598
11
3.1047409
21
32.9689598
0
LINE
8
DEFAULT_255_2_778
10
25.9218409
20
27.0689598
11
25.9462409
21
27.0824598
0
LINE
8
DEFAULT_255_2_778
10
25.9462409
20
27.0824598
11
25.9523409
21
27.0901598
0
LINE
8
DEFAULT_255_2_778
10
25.9523409
20
27.0901598
11
25.9546409
21
33.2366598
0
LINE
8
DEFAULT_255_2_778
10
25.9546409
20
33.2366598
11
2.1546409
21
33.2366598
0
LINE
8
DEFAULT_255_2_778
10
2.1546409
20
33.2366598
11
2.1570409
21
27.0901598
0
LINE
8
DEFAULT_255_2_778
10
2.1570409
20
27.0901598
11
2.1874409
21
27.0689598
0
LINE
8
DEFAULT_255_2_778
10
2.1874409
20
27.0689598
11
1.1547409
21
27.0689598
0
LINE
8
DEFAULT_255_2_778
10
1.1547409
20
27.0689598
11
0.8547409
21
30.8189598
0
LINE
8
DEFAULT_255_2_778
10
0.8547409
20
30.8189598
11
0.1546409
21
32.9691598
0
ARC
8
DEFAULT_255_2_778
10
2.2921813
20
8.6048563
40
0.9987464
50
68.3549754
51
85.3945723
0
ARC
8
DEFAULT_255_2_778
10
2.2879916
20
8.5651434
40
0.7243879
50
61.8383768
51
89.3053367
0
ARC
8
DEFAULT_255_2_778
10
2.2968741
20
8.9858203
40
0.3036578
50
90.0188771
51
96.8765882
0
ARC
8
DEFAULT_255_2_778
10
2.2870687
20
9.0287944
40
0.2598593
50
95.8646249
51
128.4235588
0
ARC
8
DEFAULT_255_2_778
10
2.2721803
20
9.0600439
40
0.2262575
50
130.388126
51
157.3493861
0
ARC
8
DEFAULT_255_2_778
10
2.353786
20
9.0275146
40
0.3140995
50
157.6060225
51
177.06615
0
ARC
8
DEFAULT_255_2_778
10
2.5118844
20
9.0124801
40
0.4728107
50
176.2272001
51
180.0608351
0
ARC
8
DEFAULT_255_2_778
10
2.2164582
20
9.0114454
40
0.177385
50
179.8279388
51
179.9999978
0
ARC
8
DEFAULT_255_2_778
10
2.2480375
20
9.0117377
40
0.2089644
50
180.0801659
51
211.5566301
0
ARC
8
DEFAULT_255_2_778
10
2.2968742
20
9.0558356
40
0.2739214
50
214.0713583
51
237.865726
0
ARC
8
DEFAULT_255_2_778
10
1.9714585
20
7.827158
40
0.9694836
50
54.8524956
51
63.91305
0
ARC
8
DEFAULT_255_2_778
10
2.2018142
20
8.1568797
40
0.5672689
50
38.6764169
51
54.7050585
0
ARC
8
DEFAULT_255_2_778
10
2.2703258
20
8.2174989
40
0.4759218
50
27.9655691
51
38.1334146
0
ARC
8
DEFAULT_255_2_778
10
2.2405778
20
8.2005855
40
0.5101284
50
17.8411362
51
28.0765747
0
ARC
8
DEFAULT_255_2_778
10
2.1805074
20
8.179894
40
0.573651
50
7.7829334
51
17.9701956
0
ARC
8
DEFAULT_255_2_778
10
2.1097683
20
8.1028273
40
0.6446315
50
343.7904871
51
349.8817343
0
ARC
8
DEFAULT_255_2_778
10
2.2339349
20
8.0554758
40
0.5116946
50
324.3960835
51
337.7929082
0
ARC
8
DEFAULT_255_2_778
10
2.2606013
20
8.0403327
40
0.4812081
50
310.6023422
51
324.0136019
0
ARC
8
DEFAULT_255_2_778
10
2.2449786
20
8.0613581
40
0.507342
50
297.8737923
51
310.3965764
0
ARC
8
DEFAULT_255_2_778
10
2.2075102
20
8.1320161
40
0.5873198
50
286.8723278
51
297.8822655
0
ARC
8
DEFAULT_255_2_778
10
2.1506015
20
8.3406612
40
0.8035239
50
269.9842528
51
286.4374984
0
ARC
8
DEFAULT_255_2_778
10
2.1503812
20
8.3426475
40
0.8055102
50
269.4233241
51
269.9999549
0
ARC
8
DEFAULT_255_2_778
10
2.1348131
20
8.6158184
40
1.0786662
50
270.0046859
51
270.3963076
0
ARC
8
DEFAULT_255_2_778
10
2.1345615
20
8.6113965
40
1.0742442
50
258.8091121
51
270.0181216
0
ARC
8
DEFAULT_255_2_778
10
2.2934404
20
9.2300033
40
1.712298
50
252.00112
51
257.6111154
0
LINE
8
DEFAULT_255_2_778
10
1.7643431
20
7.6015009
11
1.7637903
21
7.6016706
0
ARC
8
DEFAULT_255_2_778
10
-0.1964804
20
1.241237
40
6.6556575
50
72.8708241
51
73.2462353
0
ARC
8
DEFAULT_255_2_778
10
2.1390392
20
8.5020812
40
0.6505268
50
242.610624
51
267.6541734
0
ARC
8
DEFAULT_255_2_778
10
2.123484
20
8.3568979
40
0.5049198
50
268.7435564
51
269.9988612
0
ARC
8
DEFAULT_255_2_778
10
2.1213953
20
8.1947151
40
0.3427433
50
270.3474885
51
286.959846
0
ARC
8
DEFAULT_255_2_778
10
2.1317283
20
8.168245
40
0.3144175
50
286.5658233
51
305.7830947
0
ARC
8
DEFAULT_255_2_778
10
2.1845577
20
8.1023871
40
0.2295103
50
318.0212593
51
331.6146482
0
ARC
8
DEFAULT_255_2_778
10
2.1652388
20
8.1091804
40
0.2497566
50
332.3505334
51
345.5312136
0
ARC
8
DEFAULT_255_2_778
10
2.1088146
20
8.1178391
40
0.3066079
50
346.5989754
51
352.3226572
0
ARC
8
DEFAULT_255_2_778
10
2.2065158
20
8.1195267
40
0.2072585
50
6.6639145
51
15.4609726
0
ARC
8
DEFAULT_255_2_778
10
2.1974752
20
8.1203881
40
0.2157665
50
14.6004895
51
30.4014681
0
ARC
8
DEFAULT_255_2_778
10
2.1647225
20
8.0985358
40
0.2550844
50
30.9120132
51
44.0455281
0
ARC
8
DEFAULT_255_2_778
10
1.8490336
20
7.6693619
40
0.7889571
50
54.9544854
51
64.6378541
0
ARC
8
DEFAULT_255_2_778
10
2.5046852
20
9.3651158
40
1.0226299
50
235.3579791
51
243.9239404
0
ARC
8
DEFAULT_255_2_778
10
2.2490791
20
8.9915707
40
0.5700121
50
219.3465058
51
235.1520692
0
ARC
8
DEFAULT_255_2_778
10
2.1797509
20
8.9276627
40
0.475912
50
208.6918381
51
218.6883036
0
ARC
8
DEFAULT_255_2_778
10
2.1968685
20
8.9348751
40
0.494394
50
198.075672
51
208.4726524
0
ARC
8
DEFAULT_255_2_778
10
2.2816118
20
8.9625316
40
0.5835361
50
188.2222629
51
198.075482
0
ARC
8
DEFAULT_255_2_778
10
2.3391694
20
9.0421433
40
0.6394345
50
158.366923
51
164.206573
0
ARC
8
DEFAULT_255_2_778
10
2.2409946
20
9.0816758
40
0.5336012
50
145.5693985
51
158.4264921
0
ARC
8
DEFAULT_255_2_778
10
2.1959688
20
9.1108137
40
0.4799908
50
132.1315532
51
145.3993356
0
ARC
8
DEFAULT_255_2_778
10
2.2025415
20
9.101094
40
0.4916111
50
119.4982145
51
131.9397318
0
ARC
8
DEFAULT_255_2_778
10
2.2261826
20
9.0564865
40
0.5420787
50
108.1553292
51
119.351498
0
ARC
8
DEFAULT_255_2_778
10
2.2609995
20
8.9445828
40
0.6592626
50
92.2008316
51
108.0001949
0
ARC
8
DEFAULT_255_2_778
10
2.2685845
20
8.8511119
40
0.7529662
50
89.9931878
51
92.5044387
0
LINE
8
DEFAULT_255_2_778
10
2.268674
20
9.6048781
11
2.372374
21
9.6003781
0
LINE
8
DEFAULT_255_2_778
10
2.660574
20
9.5331781
11
2.629874
21
9.2037781
0
LINE
8
DEFAULT_255_2_778
10
2.151174
20
8.8238781
11
2.205474
21
8.7912781
0
LINE
8
DEFAULT_255_2_778
10
2.205474
20
8.7912781
11
2.266074
21
8.7608781
0
LINE
8
DEFAULT_255_2_778
10
2.266074
20
8.7608781
11
2.397774
21
8.6978781
0
LINE
8
DEFAULT_255_2_778
10
2.748874
20
8.2575781
11
2.754974
21
8.2017781
0
LINE
8
DEFAULT_255_2_778
10
2.754974
20
8.2017781
11
2.757074
21
8.1411781
0
LINE
8
DEFAULT_255_2_778
10
2.757074
20
8.1411781
11
2.756274
21
8.1009781
0
LINE
8
DEFAULT_255_2_778
10
2.756274
20
8.1009781
11
2.753974
21
8.0623781
0
LINE
8
DEFAULT_255_2_778
10
2.753974
20
8.0623781
11
2.744374
21
7.9895781
0
LINE
8
DEFAULT_255_2_778
10
2.728774
20
7.9228781
11
2.707674
21
7.8620781
0
LINE
8
DEFAULT_255_2_778
10
1.722074
20
7.6143781
11
1.752474
21
7.9750781
0
LINE
8
DEFAULT_255_2_778
10
1.752474
20
7.9750781
11
1.839774
21
7.9244781
0
LINE
8
DEFAULT_255_2_778
10
2.315574
20
7.9131781
11
2.355174
21
7.9488781
0
LINE
8
DEFAULT_255_2_778
10
2.412674
20
8.0768781
11
2.414474
21
8.1094781
0
LINE
8
DEFAULT_255_2_778
10
2.414474
20
8.1094781
11
2.412374
21
8.1435781
0
LINE
8
DEFAULT_255_2_778
10
2.348074
20
8.2758781
11
2.302074
21
8.3152781
0
LINE
8
DEFAULT_255_2_778
10
2.186974
20
8.3822781
11
2.055174
21
8.4465781
0
LINE
8
DEFAULT_255_2_778
10
1.704074
20
8.8790781
11
1.697974
21
8.9341781
0
LINE
8
DEFAULT_255_2_778
10
1.697974
20
8.9341781
11
1.695874
21
8.9939781
0
LINE
8
DEFAULT_255_2_778
10
1.695874
20
8.9939781
11
1.696674
21
9.0349781
0
LINE
8
DEFAULT_255_2_778
10
1.696674
20
9.0349781
11
1.699074
21
9.0743781
0
LINE
8
DEFAULT_255_2_778
10
1.699074
20
9.0743781
11
1.708574
21
9.1484781
0
LINE
8
DEFAULT_255_2_778
10
1.708574
20
9.1484781
11
1.723874
21
9.2161781
0
LINE
8
DEFAULT_255_2_778
10
5.228374
20
9.6048781
11
4.655474
21
7.5373781
0
LINE
8
DEFAULT_255_2_778
10
4.655474
20
7.5373781
11
4.411574
21
7.5373781
0
LINE
8
DEFAULT_255_2_778
10
4.411574
20
7.5373781
11
4.984074
21
9.6048781
0
LINE
8
DEFAULT_255_2_778
10
4.984074
20
9.6048781
11
5.228374
21
9.6048781
0
LINE
8
DEFAULT_255_2_778
10
6.8425174
20
7.5789593
11
7.3595174
21
7.5789593
0
ARC
8
DEFAULT_255_2_778
10
7.3724748
20
8.5636758
40
0.9848017
50
269.2461164
51
286.1479112
0
ARC
8
DEFAULT_255_2_778
10
7.4628433
20
8.239952
40
0.6487248
50
286.4332063
51
342.2054616
0
ARC
8
DEFAULT_255_2_778
10
6.926445
20
8.4526275
40
1.2250631
50
340.4010212
51
353.8974634
0
ARC
8
DEFAULT_255_2_778
10
6.3507664
20
8.5305544
40
1.805837
50
353.3807335
51
357.4515505
0
ARC
8
DEFAULT_255_2_778
10
5.5591494
20
8.6303298
40
2.6019066
50
356.0315526
51
357.9226594
0
ARC
8
DEFAULT_255_2_778
10
5.8665931
20
8.6192332
40
2.2942627
50
357.9212847
51
359.9780794
0
ARC
8
DEFAULT_255_2_778
10
6.4789752
20
8.6297552
40
1.6819189
50
359.6116553
51
9.4191489
0
ARC
8
DEFAULT_255_2_778
10
7.1464905
20
8.7452395
40
1.0045146
50
9.151944
51
25.4093009
0
ARC
8
DEFAULT_255_2_778
10
7.4502913
20
8.887432
40
0.6690924
50
25.5735274
51
80.4261989
0
ARC
8
DEFAULT_255_2_778
10
7.3280192
20
8.3874151
40
1.1830727
50
78.6142703
51
90.3972125
0
LINE
8
DEFAULT_255_2_778
10
7.3198174
20
9.5704593
11
6.8428174
21
9.5704593
0
LINE
8
DEFAULT_255_2_778
10
6.8428174
20
9.5704593
11
6.8428174
21
7.5791593
0
ARC
8
DEFAULT_255_2_778
10
6.7172291
20
8.613658
40
1.1193161
50
359.5956804
51
11.7633457
0
ARC
8
DEFAULT_255_2_778
10
7.2299404
20
8.7258466
40
0.5945247
50
11.2519818
51
34.1888836
0
ARC
8
DEFAULT_255_2_778
10
7.3533463
20
8.7939391
40
0.4543685
50
35.8308198
51
82.0268042
0
ARC
8
DEFAULT_255_2_778
10
7.2827316
20
8.4715532
40
0.7838384
50
80.1834393
51
90.3150836
0
ARC
8
DEFAULT_255_2_778
10
7.2795883
20
8.2089484
40
1.0464319
50
90.0639052
51
94.0295588
0
ARC
8
DEFAULT_255_2_778
10
7.2908529
20
8.0365878
40
1.2191584
50
93.9884268
51
96.1369973
0
LINE
8
DEFAULT_255_2_778
10
7.1605174
20
9.2487593
11
7.1605174
21
7.8691593
0
ARC
8
DEFAULT_255_2_778
10
7.2337336
20
9.103027
40
1.2360381
50
266.6041197
51
269.0938625
0
ARC
8
DEFAULT_255_2_778
10
7.2316464
20
9.0011757
40
1.1341665
50
269.1179219
51
269.9968609
0
ARC
8
DEFAULT_255_2_778
10
7.2431115
20
8.6792695
40
0.8123421
50
269.1869358
51
285.8006371
0
ARC
8
DEFAULT_255_2_778
10
7.3346087
20
8.3618148
40
0.4819714
50
285.6104352
51
346.6669606
0
ARC
8
DEFAULT_255_2_778
10
6.8791238
20
8.5044723
40
0.9586726
50
344.648103
51
358.6286956
0
ARC
8
DEFAULT_255_2_778
10
6.4678689
20
8.5297647
40
1.3705019
50
357.983057
51
0.0191299
0
ARC
8
DEFAULT_255_2_778
10
6.2960591
20
8.5296418
40
1.542312
50
0.0215637
51
2.106965
0
ARC
8
DEFAULT_255_2_778
10
6.1596386
20
8.5251569
40
1.6788052
50
2.0887537
51
2.7450982
0
LINE
8
DEFAULT_255_2_778
10
6.8428174
20
7.5791593
11
6.8425174
21
7.5789593
0
LINE
8
DEFAULT_255_2_778
10
7.8365174
20
8.6055593
11
7.8365174
21
8.6057593
0
ARC
8
DEFAULT_255_2_778
10
5.9644297
20
8.9856479
40
0.2117189
50
356.516065
51
43.698987
0
ARC
8
DEFAULT_255_2_778
10
5.9492858
20
8.9441291
40
0.2521111
50
48.1475372
51
82.3973309
0
ARC
8
DEFAULT_255_2_778
10
5.8889824
20
8.6440897
40
0.5578527
50
80.3347912
51
90.4574189
0
ARC
8
DEFAULT_255_2_778
10
5.8863375
20
8.3333998
40
0.8685266
50
90.1193098
51
94.4928529
0
ARC
8
DEFAULT_255_2_778
10
5.9018081
20
8.114282
40
1.0881844
50
94.401163
51
96.1114323
0
LINE
8
DEFAULT_255_2_778
10
5.7859573
20
9.196282
11
5.7859573
21
8.749182
0
ARC
8
DEFAULT_255_2_778
10
5.910618
20
9.7121323
40
0.9709859
50
262.6236815
51
266.8537381
0
ARC
8
DEFAULT_255_2_778
10
5.8973584
20
9.4869948
40
0.7454605
50
266.9216049
51
269.9482816
0
ARC
8
DEFAULT_255_2_778
10
5.9071424
20
9.1660271
40
0.4246212
50
268.5888591
51
288.3521759
0
ARC
8
DEFAULT_255_2_778
10
5.976457
20
8.9526854
40
0.200311
50
288.7477453
51
5.757989
0
ARC
8
DEFAULT_255_2_778
10
5.8204683
20
7.7014992
40
0.6632661
50
90.033853
51
92.4031368
0
ARC
8
DEFAULT_255_2_778
10
5.8313326
20
8.0075647
40
0.3573778
50
69.774342
51
91.8049209
0
ARC
8
DEFAULT_255_2_778
10
5.9030391
20
8.2024129
40
0.1497541
50
24.8229533
51
69.7446473
0
ARC
8
DEFAULT_255_2_778
10
6.1747257
20
8.3468192
40
0.239928
50
20.4332758
51
64.1184198
0
ARC
8
DEFAULT_255_2_778
10
6.1546521
20
8.938027
40
0.3955505
50
288.3923762
51
351.9497655
0
ARC
8
DEFAULT_255_2_778
10
5.7335355
20
9.0426861
40
0.8283784
50
348.8597176
51
0.4881675
0
ARC
8
DEFAULT_255_2_778
10
5.4580529
20
9.0496775
40
1.1038308
50
0.0034445
51
0.867099
0
ARC
8
DEFAULT_255_2_778
10
5.9185142
20
9.0545103
40
0.6433526
50
1.0573286
51
21.7484056
0
ARC
8
DEFAULT_255_2_778
10
6.1219367
20
9.1259258
40
0.4280436
50
22.9588519
51
78.1809389
0
ARC
8
DEFAULT_255_2_778
10
5.9966009
20
8.6807179
40
0.8900416
50
76.1533508
51
90.7499572
0
ARC
8
DEFAULT_255_2_778
10
5.985232
20
8.2799471
40
1.2907361
50
90.0124589
51
91.5971226
0
LINE
8
DEFAULT_255_2_778
10
5.9492573
20
9.570182
11
5.4028573
21
9.570182
0
LINE
8
DEFAULT_255_2_778
10
6.1757573
20
8.972782
11
6.1757573
21
8.972782
0
LINE
8
DEFAULT_255_2_778
10
5.4023573
20
9.569882
11
5.4023573
21
7.571482
0
LINE
8
DEFAULT_255_2_778
10
5.4023573
20
7.571482
11
5.7926573
21
7.571482
0
LINE
8
DEFAULT_255_2_778
10
5.7926573
20
7.571482
11
5.7926573
21
8.364182
0
LINE
8
DEFAULT_255_2_778
10
6.0389573
20
8.265282
11
6.2252573
21
7.579982
0
LINE
8
DEFAULT_255_2_778
10
6.2252573
20
7.579982
11
6.6276573
21
7.571782
0
LINE
8
DEFAULT_255_2_778
10
6.6276573
20
7.571782
11
6.3995573
21
8.430582
0
LINE
8
DEFAULT_255_2_778
10
5.4028573
20
9.570182
11
5.4023573
21
9.569882
0
LINE
8
DEFAULT_255_2_778
10
3.0090174
20
7.5789593
11
3.5260174
21
7.5789593
0
ARC
8
DEFAULT_255_2_778
10
3.5389748
20
8.5636758
40
0.9848017
50
269.2461164
51
286.1479112
0
ARC
8
DEFAULT_255_2_778
10
3.6293433
20
8.239952
40
0.6487248
50
286.4332063
51
342.2054616
0
ARC
8
DEFAULT_255_2_778
10
3.092945
20
8.4526275
40
1.2250631
50
340.4010212
51
353.8974634
0
ARC
8
DEFAULT_255_2_778
10
2.5172664
20
8.5305544
40
1.805837
50
353.3807335
51
357.4515505
0
ARC
8
DEFAULT_255_2_778
10
1.7256494
20
8.6303298
40
2.6019066
50
356.0315526
51
357.9226594
0
ARC
8
DEFAULT_255_2_778
10
2.0330931
20
8.6192332
40
2.2942627
50
357.9212847
51
359.9780794
0
ARC
8
DEFAULT_255_2_778
10
2.6454752
20
8.6297552
40
1.6819189
50
359.6116553
51
9.4191489
0
ARC
8
DEFAULT_255_2_778
10
3.3129905
20
8.7452395
40
1.0045146
50
9.151944
51
25.4093009
0
ARC
8
DEFAULT_255_2_778
10
3.6167913
20
8.887432
40
0.6690924
50
25.5735274
51
80.4261989
0
ARC
8
DEFAULT_255_2_778
10
3.4945192
20
8.3874151
40
1.1830727
50
78.6142703
51
90.3972125
0
LINE
8
DEFAULT_255_2_778
10
3.4863174
20
9.5704593
11
3.0093174
21
9.5704593
0
LINE
8
DEFAULT_255_2_778
10
3.0093174
20
9.5704593
11
3.0093174
21
7.5791593
0
ARC
8
DEFAULT_255_2_778
10
2.8837291
20
8.613658
40
1.1193161
50
359.5956804
51
11.7633457
0
ARC
8
DEFAULT_255_2_778
10
3.3964404
20
8.7258466
40
0.5945247
50
11.2519818
51
34.1888836
0
ARC
8
DEFAULT_255_2_778
10
3.5198463
20
8.7939391
40
0.4543685
50
35.8308198
51
82.0268042
0
ARC
8
DEFAULT_255_2_778
10
3.4492316
20
8.4715532
40
0.7838384
50
80.1834393
51
90.3150836
0
ARC
8
DEFAULT_255_2_778
10
3.4460883
20
8.2089484
40
1.0464319
50
90.0639052
51
94.0295588
0
ARC
8
DEFAULT_255_2_778
10
3.4573529
20
8.0365878
40
1.2191584
50
93.9884268
51
96.1369973
0
LINE
8
DEFAULT_255_2_778
10
3.3270174
20
9.2487593
11
3.3270174
21
7.8691593
0
ARC
8
DEFAULT_255_2_778
10
3.4002336
20
9.103027
40
1.2360381
50
266.6041197
51
269.0938625
0
ARC
8
DEFAULT_255_2_778
10
3.3981464
20
9.0011757
40
1.1341665
50
269.1179219
51
269.9968609
0
ARC
8
DEFAULT_255_2_778
10
3.4096115
20
8.6792695
40
0.8123421
50
269.1869358
51
285.8006371
0
ARC
8
DEFAULT_255_2_778
10
3.5011087
20
8.3618148
40
0.4819714
50
285.6104352
51
346.6669606
0
ARC
8
DEFAULT_255_2_778
10
3.0456238
20
8.5044723
40
0.9586726
50
344.648103
51
358.6286956
0
ARC
8
DEFAULT_255_2_778
10
2.6343689
20
8.5297647
40
1.3705019
50
357.983057
51
0.0191299
0
ARC
8
DEFAULT_255_2_778
10
2.4625591
20
8.5296418
40
1.542312
50
0.0215637
51
2.106965
0
ARC
8
DEFAULT_255_2_778
10
2.3261386
20
8.5251569
40
1.6788052
50
2.0887537
51
2.7450982
0
LINE
8
DEFAULT_255_2_778
10
3.0093174
20
7.5791593
11
3.0090174
21
7.5789593
0
LINE
8
DEFAULT_255_2_778
10
4.0030174
20
8.6055593
11
4.0030174
21
8.6057593
0
LINE
8
DEFAULT_255_2_778
10
14.3850367
20
79.1939635
11
14.3850367
21
77.1950635
0
LINE
8
DEFAULT_255_2_778
10
14.3850367
20
77.1950635
11
14.7861367
21
77.1950635
0
LINE
8
DEFAULT_255_2_778
10
14.7861367
20
77.1950635
11
14.7861367
21
79.1939635
0
LINE
8
DEFAULT_255_2_778
10
14.7861367
20
79.1939635
11
14.3850367
21
79.1939635
0
LINE
8
DEFAULT_255_2_778
10
12.5480367
20
79.1939635
11
12.5480367
21
78.8790635
0
LINE
8
DEFAULT_255_2_778
10
12.5480367
20
78.8790635
11
13.1208367
21
78.8790635
0
LINE
8
DEFAULT_255_2_778
10
13.1208367
20
78.8790635
11
13.1208367
21
77.1950635
0
LINE
8
DEFAULT_255_2_778
10
13.1208367
20
77.1950635
11
13.5219367
21
77.1950635
0
LINE
8
DEFAULT_255_2_778
10
13.5219367
20
77.1950635
11
13.5219367
21
78.8790635
0
LINE
8
DEFAULT_255_2_778
10
13.5219367
20
78.8790635
11
14.0945367
21
78.8790635
0
LINE
8
DEFAULT_255_2_778
10
14.0945367
20
78.8790635
11
14.0945367
21
79.1939635
0
LINE
8
DEFAULT_255_2_778
10
14.0945367
20
79.1939635
11
12.5480367
21
79.1939635
0
LINE
8
DEFAULT_255_2_778
10
9.9987367
20
79.1939635
11
9.9987367
21
77.6990635
0
LINE
8
DEFAULT_255_2_778
10
9.9987367
20
77.6990635
11
9.9929367
21
77.6990635
0
LINE
8
DEFAULT_255_2_778
10
9.9929367
20
77.6990635
11
9.2312367
21
79.1939635
0
LINE
8
DEFAULT_255_2_778
10
9.2312367
20
79.1939635
11
8.7385367
21
79.1939635
0
LINE
8
DEFAULT_255_2_778
10
8.7385367
20
79.1939635
11
8.7385367
21
77.1950635
0
LINE
8
DEFAULT_255_2_778
10
8.7385367
20
77.1950635
11
9.1221367
21
77.1950635
0
LINE
8
DEFAULT_255_2_778
10
9.1221367
20
77.1950635
11
9.1221367
21
78.6899635
0
LINE
8
DEFAULT_255_2_778
10
9.1221367
20
78.6899635
11
9.1277367
21
78.6899635
0
LINE
8
DEFAULT_255_2_778
10
9.1277367
20
78.6899635
11
9.8926367
21
77.1950635
0
LINE
8
DEFAULT_255_2_778
10
9.8926367
20
77.1950635
11
10.3826367
21
77.1950635
0
LINE
8
DEFAULT_255_2_778
10
10.3826367
20
77.1950635
11
10.3826367
21
79.1939635
0
LINE
8
DEFAULT_255_2_778
10
10.3826367
20
79.1939635
11
9.9987367
21
79.1939635
0
LINE
8
DEFAULT_255_2_778
10
5.1407367
20
79.1939635
11
5.1407367
21
77.1950635
0
LINE
8
DEFAULT_255_2_778
10
5.1407367
20
77.1950635
11
5.5413367
21
77.1950635
0
LINE
8
DEFAULT_255_2_778
10
5.5413367
20
77.1950635
11
5.5413367
21
78.0713635
0
LINE
8
DEFAULT_255_2_778
10
5.5413367
20
78.0713635
11
6.2173367
21
78.0713635
0
LINE
8
DEFAULT_255_2_778
10
6.2173367
20
78.0713635
11
6.2173367
21
78.3861635
0
LINE
8
DEFAULT_255_2_778
10
6.2173367
20
78.3861635
11
5.5413367
21
78.3861635
0
LINE
8
DEFAULT_255_2_778
10
5.5413367
20
78.3861635
11
5.5413367
21
78.8788635
0
LINE
8
DEFAULT_255_2_778
10
5.5413367
20
78.8788635
11
6.2517367
21
78.8788635
0
LINE
8
DEFAULT_255_2_778
10
6.2517367
20
78.8788635
11
6.2517367
21
79.1936635
0
LINE
8
DEFAULT_255_2_778
10
6.2517367
20
79.1936635
11
5.1407367
21
79.1939635
0
LINE
8
DEFAULT_255_2_778
10
17.8941367
20
78.6899635
11
17.8997367
21
78.6899635
0
LINE
8
DEFAULT_255_2_778
10
18.7644367
20
77.6990635
11
18.0029367
21
79.1939635
0
LINE
8
DEFAULT_255_2_778
10
18.0029367
20
79.1939635
11
17.5102367
21
79.1939635
0
LINE
8
DEFAULT_255_2_778
10
17.5102367
20
79.1939635
11
17.5102367
21
77.1950635
0
LINE
8
DEFAULT_255_2_778
10
17.5102367
20
77.1950635
11
17.8941367
21
77.1950635
0
LINE
8
DEFAULT_255_2_778
10
17.8941367
20
77.1950635
11
17.8941367
21
78.6899635
0
LINE
8
DEFAULT_255_2_778
10
18.7702367
20
77.6990635
11
18.7702367
21
79.1939635
0
LINE
8
DEFAULT_255_2_778
10
18.7702367
20
79.1939635
11
19.1538367
21
79.1939635
0
LINE
8
DEFAULT_255_2_778
10
19.1538367
20
79.1939635
11
19.1538367
21
77.1950635
0
LINE
8
DEFAULT_255_2_778
10
19.1538367
20
77.1950635
11
18.6643367
21
77.1950635
0
LINE
8
DEFAULT_255_2_778
10
18.6643367
20
77.1950635
11
17.8994367
21
78.6899635
0
ARC
8
DEFAULT_255_2_778
10
12.1531561
20
78.2212653
40
0.9821804
50
166.1403752
51
177.4943017
0
ARC
8
DEFAULT_255_2_778
10
11.8177459
20
78.3062857
40
0.636173
50
148.3460466
51
166.3384787
0
ARC
8
DEFAULT_255_2_778
10
11.7316503
20
78.3395374
40
0.5456966
50
92.9807965
51
146.5737549
0
ARC
8
DEFAULT_255_2_778
10
11.8025803
20
77.94226
40
0.9474546
50
89.8957105
51
96.0164729
0
ARC
8
DEFAULT_255_2_778
10
11.7983369
20
77.6319253
40
1.2578019
50
80.9019542
51
89.7281441
0
ARC
8
DEFAULT_255_2_778
10
11.7434497
20
77.2585371
40
1.6351786
50
76.5445774
51
81.0717268
0
ARC
8
DEFAULT_255_2_778
10
11.6719937
20
76.9596286
40
1.9425096
50
72.0324806
51
76.5462874
0
ARC
8
DEFAULT_255_2_778
10
11.6261029
20
76.6683197
40
2.5669718
50
74.7842802
51
78.0772312
0
ARC
8
DEFAULT_255_2_778
10
11.6998926
20
77.0173642
40
2.2102128
50
78.0795026
51
81.4732778
0
ARC
8
DEFAULT_255_2_778
10
11.7453035
20
77.3226927
40
1.9015261
50
81.4623626
51
85.5242986
0
ARC
8
DEFAULT_255_2_778
10
11.7662626
20
77.5910185
40
1.6323829
50
85.522756
51
89.9448749
0
ARC
8
DEFAULT_255_2_778
10
11.7600842
20
77.9446452
40
1.2787792
50
89.6528041
51
102.3415373
0
ARC
8
DEFAULT_255_2_778
10
11.6881398
20
78.2665073
40
0.948979
50
102.2517316
51
121.4350328
0
ARC
8
DEFAULT_255_2_778
10
11.7152658
20
78.2787046
40
0.9531759
50
123.2089354
51
172.6102749
0
ARC
8
DEFAULT_255_2_778
10
12.1397365
20
78.170629
40
1.3890171
50
170.4407345
51
177.8307668
0
ARC
8
DEFAULT_255_2_778
10
12.3427009
20
78.2343248
40
1.5968583
50
184.9151622
51
193.9378188
0
ARC
8
DEFAULT_255_2_778
10
11.8706677
20
78.1152362
40
1.1100398
50
193.8405602
51
206.6540128
0
ARC
8
DEFAULT_255_2_778
10
11.6131871
20
77.9850567
40
0.8215229
50
206.5954756
51
226.593063
0
ARC
8
DEFAULT_255_2_778
10
11.6817213
20
78.1213731
40
0.9686453
50
229.1896964
51
270.6271213
0
ARC
8
DEFAULT_255_2_778
10
11.7528343
20
78.7847473
40
1.633083
50
267.8765168
51
270.0147296
0
ARC
8
DEFAULT_255_2_778
10
11.7527589
20
78.9336338
40
1.7819694
50
270.0159232
51
272.1416078
0
ARC
8
DEFAULT_255_2_778
10
11.7224462
20
79.4412138
40
2.2903556
50
272.424881
51
280.6565047
0
ARC
8
DEFAULT_255_2_778
10
11.630781
20
79.9954969
40
2.852057
50
280.4071144
51
281.3283588
0
ARC
8
DEFAULT_255_2_778
10
11.8423798
20
78.69683
40
1.2213349
50
270.2315093
51
291.2588935
0
ARC
8
DEFAULT_255_2_778
10
11.8030368
20
78.1554232
40
0.6813584
50
270.0127731
51
273.7259814
0
ARC
8
DEFAULT_255_2_778
10
11.802085
20
78.0887719
40
0.6147081
50
198.716901
51
270.1028753
0
ARC
8
DEFAULT_255_2_778
10
12.0068702
20
78.1805845
40
0.8383945
50
179.5961919
51
200.1688139
0
ARC
8
DEFAULT_255_2_778
10
12.1433112
20
78.1860937
40
0.9748148
50
175.4157916
51
179.9765134
0
LINE
8
DEFAULT_255_2_778
10
6.6676148
20
79.194005
11
7.1891148
21
79.194005
0
LINE
8
DEFAULT_255_2_778
10
7.1891148
20
79.194005
11
7.1891148
21
77.954905
0
ARC
8
DEFAULT_255_2_778
10
7.8429754
20
77.9424552
40
0.6539791
50
178.9091958
51
195.7164093
0
ARC
8
DEFAULT_255_2_778
10
7.4828087
20
77.8314098
40
0.2773552
50
193.7879781
51
269.9665157
0
ARC
8
DEFAULT_255_2_778
10
7.5147095
20
78.0431774
40
0.4901726
50
266.2495153
51
270.0473647
0
ARC
8
DEFAULT_255_2_778
10
7.5285613
20
77.8857731
40
0.3330397
50
267.6860341
51
301.7847405
0
ARC
8
DEFAULT_255_2_778
10
7.5316968
20
77.8437341
40
0.2962946
50
305.5539805
51
348.2139288
0
ARC
8
DEFAULT_255_2_778
10
7.1563776
20
77.9448198
40
0.6847116
50
346.3481965
51
0.8439503
0
LINE
8
DEFAULT_255_2_778
10
7.8410148
20
77.954905
11
7.8410148
21
79.194005
0
LINE
8
DEFAULT_255_2_778
10
7.8410148
20
79.194005
11
8.3951148
21
79.194005
0
LINE
8
DEFAULT_255_2_778
10
8.3951148
20
79.194005
11
8.3951148
21
77.854705
0
ARC
8
DEFAULT_255_2_778
10
7.498694
20
77.8419564
40
0.8965114
50
343.6305963
51
0.8147858
0
ARC
8
DEFAULT_255_2_778
10
7.8135592
20
77.7522877
40
0.5691446
50
284.7815249
51
343.3583677
0
ARC
8
DEFAULT_255_2_778
10
7.6301686
20
78.2859227
40
1.1326572
50
273.1466656
51
286.8647258
0
ARC
8
DEFAULT_255_2_778
10
7.582388
20
78.8467774
40
1.6953734
50
269.9333143
51
273.7185657
0
ARC
8
DEFAULT_255_2_778
10
7.5677298
20
78.835673
40
1.6843158
50
260.3661055
51
270.4315128
0
ARC
8
DEFAULT_255_2_778
10
7.4419099
20
78.1239323
40
0.961569
50
243.8720606
51
260.6601145
0
ARC
8
DEFAULT_255_2_778
10
7.2923632
20
77.8142053
40
0.6176388
50
186.048045
51
243.6743095
0
ARC
8
DEFAULT_255_2_778
10
7.6789673
20
77.8995567
40
1.0120471
50
182.540057
51
188.5479297
0
LINE
8
DEFAULT_255_2_778
10
6.6679148
20
77.854705
11
6.6679148
21
79.194005
0
LINE
8
DEFAULT_255_2_778
10
18.7702148
20
77.699105
11
18.7643148
21
77.699105
0
LINE
8
DEFAULT_255_2_778
10
12.2712148
20
78.807405
11
12.2998148
21
79.145305
0
LINE
8
DEFAULT_255_2_778
10
10.7517148
20
78.223205
11
10.7517148
21
78.097505
0
LINE
8
DEFAULT_255_2_778
10
12.1910148
20
77.199005
11
12.3024148
21
77.223405
0
LINE
8
DEFAULT_255_2_778
10
12.3024148
20
77.223405
11
12.2852148
21
77.558605
0
LINE
8
DEFAULT_255_2_778
10
11.1716148
20
78.264005
11
11.1719148
21
78.264205
0
LINE
8
DEFAULT_255_2_778
10
6.6679148
20
79.194005
11
6.6676148
21
79.194005
0
ARC
8
DEFAULT_255_2_778
10
16.0849325
20
78.0432099
40
0.8668019
50
209.3628867
51
247.0971359
0
ARC
8
DEFAULT_255_2_778
10
16.2228791
20
78.1376798
40
1.0334537
50
194.2265642
51
210.177501
0
ARC
8
DEFAULT_255_2_778
10
16.149149
20
78.1208287
40
0.9578451
50
183.102436
51
194.3333614
0
ARC
8
DEFAULT_255_2_778
10
16.0415814
20
78.1128352
40
0.8500053
50
180.0146455
51
182.9568296
0
ARC
8
DEFAULT_255_2_778
10
15.9919573
20
78.1128138
40
0.8003812
50
177.2480702
51
180.0140232
0
ARC
8
DEFAULT_255_2_778
10
16.1957347
20
78.2827095
40
1.0033911
50
131.5052658
51
181.0089294
0
ARC
8
DEFAULT_255_2_778
10
16.0725302
20
78.3689503
40
0.8578785
50
124.8999434
51
129.1592661
0
ARC
8
DEFAULT_255_2_778
10
16.2600617
20
78.3868211
40
0.8441975
50
20.5526512
51
54.0058147
0
ARC
8
DEFAULT_255_2_778
10
15.9176811
20
78.2267662
40
1.2213362
50
16.228301
51
21.9446094
0
ARC
8
DEFAULT_255_2_778
10
15.7146891
20
78.1694407
40
1.4322615
50
7.4328321
51
16.1607791
0
ARC
8
DEFAULT_255_2_778
10
15.6525924
20
78.1585031
40
1.4952539
50
1.9063774
51
7.5406084
0
ARC
8
DEFAULT_255_2_778
10
15.7830225
20
78.1635756
40
1.3647273
50
0.0125559
51
1.8756969
0
ARC
8
DEFAULT_255_2_778
10
15.922732
20
78.1633138
40
1.2250179
50
357.7174895
51
0.0262353
0
ARC
8
DEFAULT_255_2_778
10
16.0572228
20
78.1584101
40
1.0904385
50
356.7421831
51
357.6935032
0
ARC
8
DEFAULT_255_2_778
10
16.1671075
20
78.1168654
40
0.9790048
50
306.5137735
51
358.8046166
0
ARC
8
DEFAULT_255_2_778
10
16.266049
20
78.0476258
40
0.8653332
50
292.0421809
51
303.9755508
0
ARC
8
DEFAULT_255_2_778
10
16.2060962
20
78.3653172
40
0.5743771
50
120.416517
51
169.5758328
0
ARC
8
DEFAULT_255_2_778
10
16.5878365
20
78.2279805
40
0.9768977
50
165.7019193
51
176.7326773
0
ARC
8
DEFAULT_255_2_778
10
16.6651569
20
78.2215753
40
1.0544594
50
176.6246616
51
180.0071365
0
ARC
8
DEFAULT_255_2_778
10
16.6603956
20
78.2185382
40
1.0497019
50
179.841393
51
201.2865572
0
ARC
8
DEFAULT_255_2_778
10
16.3251319
20
78.0829216
40
0.6880936
50
200.8991381
51
221.0988299
0
ARC
8
DEFAULT_255_2_778
10
16.1006721
20
77.8907151
40
0.3926064
50
221.4940989
51
241.0277715
0
ARC
8
DEFAULT_255_2_778
10
16.1459297
20
78.032841
40
0.5633443
50
300.4587747
51
350.9100887
0
ARC
8
DEFAULT_255_2_778
10
15.6173878
20
78.2102151
40
1.1170366
50
346.2040665
51
353.2338001
0
ARC
8
DEFAULT_255_2_778
10
15.6875524
20
78.2015407
40
1.0463386
50
353.2528216
51
359.9773719
0
ARC
8
DEFAULT_255_2_778
10
15.7150567
20
78.2012538
40
1.0188342
50
359.9928907
51
8.527426
0
ARC
8
DEFAULT_255_2_778
10
15.6751234
20
78.1946028
40
1.0593124
50
8.5629138
51
15.1566437
0
ARC
8
DEFAULT_255_2_778
10
15.5709915
20
78.1673501
40
1.166948
50
15.1113984
51
16.8288939
0
ARC
8
DEFAULT_255_2_778
10
15.3813278
20
78.1091851
40
1.365329
50
16.8609375
51
18.8998122
0
ARC
8
DEFAULT_255_2_778
10
14.2232599
20
77.7106434
40
2.5900554
50
18.9427308
51
19.8387551
0
ARC
8
DEFAULT_255_2_778
10
16.1529288
20
78.3895804
40
0.5447379
50
21.5468128
51
59.8539714
0
LINE
8
DEFAULT_255_2_778
10
15.5646992
20
105.7015415
11
16.0938992
21
105.7015415
0
LINE
8
DEFAULT_255_2_778
10
16.0938992
20
105.7015415
11
16.0938992
21
104.4021415
0
ARC
8
DEFAULT_255_2_778
10
16.8102731
20
104.3897054
40
0.7164818
50
179.0054596
51
194.6694821
0
ARC
8
DEFAULT_255_2_778
10
16.3943669
20
104.2653432
40
0.2830361
50
191.6349863
51
267.2125758
0
ARC
8
DEFAULT_255_2_778
10
16.4238697
20
104.4493751
40
0.4687342
50
264.7037161
51
270.0891746
0
ARC
8
DEFAULT_255_2_778
10
16.4384081
20
104.3077844
40
0.3274342
50
267.5829438
51
303.6065872
0
ARC
8
DEFAULT_255_2_778
10
16.4316228
20
104.2808433
40
0.3094355
50
307.4168338
51
347.6059953
0
ARC
8
DEFAULT_255_2_778
10
16.0282589
20
104.3905338
40
0.7272328
50
345.9860234
51
0.9145609
0
LINE
8
DEFAULT_255_2_778
10
16.7553992
20
104.4021415
11
16.7553992
21
105.7015415
0
LINE
8
DEFAULT_255_2_778
10
16.7553992
20
105.7015415
11
17.3175992
21
105.7015415
0
LINE
8
DEFAULT_255_2_778
10
17.3175992
20
105.7015415
11
17.3175992
21
104.2968415
0
ARC
8
DEFAULT_255_2_778
10
16.3382056
20
104.2842445
40
0.9794746
50
344.815813
51
0.7369014
0
ARC
8
DEFAULT_255_2_778
10
16.7162048
20
104.1775078
40
0.5867287
50
286.0049962
51
345.2067971
0
ARC
8
DEFAULT_255_2_778
10
16.5433424
20
104.6656096
40
1.1040241
50
273.5628943
51
287.644231
0
ARC
8
DEFAULT_255_2_778
10
16.493077
20
105.2126436
40
1.6532036
50
269.9210554
51
274.1234252
0
ARC
8
DEFAULT_255_2_778
10
16.4784802
20
105.2244874
40
1.6650915
50
260.2899277
51
270.4239013
0
ARC
8
DEFAULT_255_2_778
10
16.3547798
20
104.5325637
40
0.9622309
50
243.3872966
51
260.6011402
0
ARC
8
DEFAULT_255_2_778
10
16.213581
20
104.241863
40
0.6390898
50
188.2108906
51
243.0303
0
ARC
8
DEFAULT_255_2_778
10
16.6204285
20
104.3407776
40
1.0566432
50
182.3830924
51
190.3693035
0
LINE
8
DEFAULT_255_2_778
10
15.5646992
20
104.2968415
11
15.5646992
21
105.7015415
0
ARC
8
DEFAULT_255_2_778
10
12.6193487
20
106.9496954
40
2.9869227
50
282.3963641
51
285.3075984
0
ARC
8
DEFAULT_255_2_778
10
12.765182
20
106.2807054
40
2.3022234
50
278.5294028
51
282.425755
0
ARC
8
DEFAULT_255_2_778
10
12.8510684
20
105.7028005
40
1.7179719
50
273.6523641
51
278.5553042
0
ARC
8
DEFAULT_255_2_778
10
12.8766377
20
105.3291807
40
1.3434833
50
270.056037
51
273.5791491
0
ARC
8
DEFAULT_255_2_778
10
12.8686697
20
104.918253
40
0.932601
50
257.302264
51
270.5702581
0
ARC
8
DEFAULT_255_2_778
10
12.7793042
20
104.5428167
40
0.5467233
50
231.2104519
51
257.7902311
0
ARC
8
DEFAULT_255_2_778
10
12.7671317
20
104.5054284
40
0.5101458
50
197.2457435
51
229.6452401
0
ARC
8
DEFAULT_255_2_778
10
13.0790409
20
104.6135838
40
0.8401666
50
185.0216952
51
197.9837081
0
ARC
8
DEFAULT_255_2_778
10
13.4635453
20
104.5383524
40
1.2214473
50
169.8580336
51
179.9207653
0
ARC
8
DEFAULT_255_2_778
10
12.9645969
20
104.6312315
40
0.7139492
50
153.3277435
51
170.1444637
0
ARC
8
DEFAULT_255_2_778
10
12.7496058
20
104.7366688
40
0.4745116
50
98.1521334
51
153.0513574
0
ARC
8
DEFAULT_255_2_778
10
12.8269173
20
104.396871
40
0.8223274
50
89.6667027
51
100.1275587
0
ARC
8
DEFAULT_255_2_778
10
12.8277912
20
104.0343604
40
1.1848304
50
83.1851656
51
89.8109342
0
ARC
8
DEFAULT_255_2_778
10
12.7757526
20
103.5876607
40
1.6345498
50
78.2261844
51
83.2319615
0
ARC
8
DEFAULT_255_2_778
10
12.6665096
20
103.05583
40
2.1774825
50
74.5828463
51
78.2676199
0
ARC
8
DEFAULT_255_2_778
10
12.4957482
20
102.4343539
40
2.8219914
50
71.4952911
51
74.5950173
0
ARC
8
DEFAULT_255_2_778
10
13.2492535
20
105.3910864
40
0.2431465
50
37.8682909
51
68.1358419
0
ARC
8
DEFAULT_255_2_778
10
13.0418698
20
104.9367759
40
0.7423743
50
66.338979
51
78.0876827
0
ARC
8
DEFAULT_255_2_778
10
12.8471403
20
104.0877329
40
1.6134004
50
77.5450064
51
82.9808649
0
ARC
8
DEFAULT_255_2_778
10
12.7746026
20
102.8671978
40
2.8347025
50
84.5405622
51
86.4485056
0
ARC
8
DEFAULT_255_2_778
10
12.795059
20
103.2021341
40
2.4991422
50
86.4409229
51
88.8186078
0
ARC
8
DEFAULT_255_2_778
10
12.800748
20
103.4379067
40
2.2633026
50
88.8395357
51
89.9942855
0
ARC
8
DEFAULT_255_2_778
10
12.7902279
20
103.9413278
40
1.7599142
50
89.6501563
51
99.5156943
0
ARC
8
DEFAULT_255_2_778
10
12.6801644
20
104.5713628
40
1.1203616
50
99.291028
51
115.4404338
0
ARC
8
DEFAULT_255_2_778
10
12.5549906
20
104.8460262
40
0.8185754
50
115.7870397
51
163.5052167
0
ARC
8
DEFAULT_255_2_778
10
13.0592005
20
104.6681475
40
1.3528171
50
162.3447131
51
175.1746314
0
ARC
8
DEFAULT_255_2_778
10
13.6364007
20
104.6073647
40
1.9331219
50
174.8185501
51
180.1094922
0
ARC
8
DEFAULT_255_2_778
10
13.9940271
20
104.6041307
40
2.2907448
50
180.0115105
51
181.5945459
0
ARC
8
DEFAULT_255_2_778
10
14.1297801
20
104.607497
40
2.4265391
50
181.5848057
51
182.1812376
0
ARC
8
DEFAULT_255_2_778
10
13.1022593
20
104.6009586
40
1.399893
50
183.514584
51
195.0889425
0
ARC
8
DEFAULT_255_2_778
10
12.6311562
20
104.4698418
40
0.9109087
50
194.8398867
51
214.8842579
0
ARC
8
DEFAULT_255_2_778
10
12.5240672
20
104.4105585
40
0.7892581
50
215.8001324
51
250.3965869
0
ARC
8
DEFAULT_255_2_778
10
12.6774229
20
104.8054311
40
1.2127542
50
249.8303992
51
263.269011
0
ARC
8
DEFAULT_255_2_778
10
12.7536479
20
105.3787618
40
1.7910875
50
262.9970757
51
270.1955785
0
ARC
8
DEFAULT_255_2_778
10
12.7569862
20
105.9421522
40
2.354469
50
270.067544
51
273.8334365
0
ARC
8
DEFAULT_255_2_778
10
12.7198543
20
106.4991348
40
2.9126881
50
273.8297201
51
277.1997084
0
ARC
8
DEFAULT_255_2_778
10
12.6367946
20
107.1623613
40
3.581095
50
277.1882494
51
279.9910542
0
ARC
8
DEFAULT_255_2_778
10
12.5028541
20
107.9249786
40
4.355385
50
279.9857847
51
282.4456656
0
ARC
8
DEFAULT_255_2_778
10
-20.0825609
20
101.3335817
40
33.6055134
50
3.990015
51
4.2603537
0
ARC
8
DEFAULT_255_2_778
10
0.1172288
20
102.8450373
40
13.3492578
50
4.2317554
51
4.7955208
0
ARC
8
DEFAULT_255_2_778
10
9.7436335
20
103.6559911
40
3.6887571
50
4.7435161
51
5.8530107
0
ARC
8
DEFAULT_255_2_778
10
12.9274131
20
103.9875435
40
0.4877918
50
5.2477934
51
9.5820875
0
ARC
8
DEFAULT_255_2_778
10
2.0078979
20
105.0671445
40
0.2136828
50
358.4169986
51
76.8336336
0
ARC
8
DEFAULT_255_2_778
10
1.8670587
20
104.6872867
40
0.6177125
50
72.1337534
51
86.4950676
0
ARC
8
DEFAULT_255_2_778
10
1.8220116
20
104.199888
40
1.1070573
50
85.7101239
51
90.1234436
0
ARC
8
DEFAULT_255_2_778
10
1.8214434
20
103.7995532
40
1.5073905
50
90.0690621
51
93.036865
0
ARC
8
DEFAULT_255_2_778
10
1.8400258
20
103.425293
40
1.8821102
50
92.9981606
51
94.7491579
0
LINE
8
DEFAULT_255_2_778
10
1.6841992
20
105.3009415
11
1.6841992
21
104.8215415
0
ARC
8
DEFAULT_255_2_778
10
1.8599837
20
106.5805239
40
1.7677441
50
264.2930747
51
266.8749771
0
ARC
8
DEFAULT_255_2_778
10
1.8383434
20
106.1796001
40
1.3662369
50
266.864569
51
269.9304041
0
ARC
8
DEFAULT_255_2_778
10
1.8471149
20
105.6225354
40
0.8092386
50
269.2614353
51
281.2536827
0
ARC
8
DEFAULT_255_2_778
10
1.9448269
20
105.1604745
40
0.3370405
50
280.2913739
51
305.8347528
0
ARC
8
DEFAULT_255_2_778
10
2.0145331
20
105.0505252
40
0.2072433
50
308.007833
51
2.9640086
0
ARC
8
DEFAULT_255_2_778
10
1.7317819
20
103.2329611
40
1.1764068
50
90.0265806
51
91.8697258
0
ARC
8
DEFAULT_255_2_778
10
1.7424323
20
103.7194224
40
0.690036
50
77.7422963
51
90.9296919
0
ARC
8
DEFAULT_255_2_778
10
1.8442352
20
104.1548243
40
0.2430485
50
46.554607
51
79.4026676
0
ARC
8
DEFAULT_255_2_778
10
1.9040705
20
104.228225
40
0.1487773
50
30.0124107
51
43.8452004
0
ARC
8
DEFAULT_255_2_778
10
2.2692423
20
104.3425924
40
0.2945414
50
27.7953683
51
71.2130973
0
ARC
8
DEFAULT_255_2_778
10
2.2298452
20
105.1758351
40
0.5704177
50
283.612893
51
309.1208354
0
ARC
8
DEFAULT_255_2_778
10
2.2838602
20
105.0833494
40
0.4648758
50
311.1485719
51
354.0035278
0
ARC
8
DEFAULT_255_2_778
10
1.9820507
20
105.1405837
40
0.7714309
50
352.1172759
51
0.1968437
0
ARC
8
DEFAULT_255_2_778
10
1.8351558
20
105.1431714
40
0.9183212
50
0.0039056
51
1.1275001
0
ARC
8
DEFAULT_255_2_778
10
2.2070633
20
105.1479997
40
0.5463964
50
1.3886921
51
30.5129589
0
ARC
8
DEFAULT_255_2_778
10
2.2535456
20
105.1532415
40
0.5040511
50
32.6828449
51
68.744731
0
ARC
8
DEFAULT_255_2_778
10
2.076006
20
104.7401526
40
0.9535312
50
67.8008319
51
82.4316636
0
ARC
8
DEFAULT_255_2_778
10
1.9683217
20
104.0081935
40
1.6933282
50
82.0817664
51
90.33848
0
ARC
8
DEFAULT_255_2_778
10
1.9586936
20
103.4133966
40
2.2880957
50
90.0093995
51
91.2570112
0
LINE
8
DEFAULT_255_2_778
10
1.9084992
20
105.7009415
11
1.1549992
21
105.7009415
0
ARC
8
DEFAULT_255_2_778
10
14.475645
20
105.0032505
40
0.2765715
50
356.4948809
51
72.8885596
0
ARC
8
DEFAULT_255_2_778
10
14.3359054
20
104.6396966
40
0.6656794
50
70.5997483
51
86.9663371
0
ARC
8
DEFAULT_255_2_778
10
14.2906133
20
104.148028
40
1.1592151
50
86.0169015
51
90.0946094
0
LINE
8
DEFAULT_255_2_778
10
14.2886992
20
105.3072415
11
14.2886992
21
104.7008415
0
ARC
8
DEFAULT_255_2_778
10
14.3009335
20
105.7229727
40
1.0222044
50
269.3142333
51
280.5756126
0
ARC
8
DEFAULT_255_2_778
10
14.4167036
20
105.1388327
40
0.4267901
50
279.6902599
51
303.1656732
0
ARC
8
DEFAULT_255_2_778
10
14.5173064
20
104.9749926
40
0.2346675
50
304.4883695
51
2.7719968
0
ARC
8
DEFAULT_255_2_778
10
14.451222
20
106.5947142
40
2.3276535
50
265.996203
51
267.9028583
0
ARC
8
DEFAULT_255_2_778
10
14.4410546
20
106.3155091
40
2.0482635
50
267.9012748
51
269.9776053
0
ARC
8
DEFAULT_255_2_778
10
14.4512689
20
105.7489352
40
1.4817305
50
269.5740699
51
279.8475887
0
ARC
8
DEFAULT_255_2_778
10
14.5617934
20
105.1396043
40
0.8624871
50
279.5364604
51
297.0330769
0
ARC
8
DEFAULT_255_2_778
10
14.6819986
20
104.8929894
40
0.5882039
50
297.5216344
51
350.774159
0
ARC
8
DEFAULT_255_2_778
10
14.2458234
20
104.997559
40
1.0360369
50
348.9330078
51
0.4054779
0
ARC
8
DEFAULT_255_2_778
10
13.92336
20
105.0044864
40
1.3584745
50
0.0170607
51
2.0971209
0
ARC
8
DEFAULT_255_2_778
10
13.8324533
20
105.0016377
40
1.4494246
50
2.078154
51
2.2104287
0
ARC
8
DEFAULT_255_2_778
10
14.6025147
20
105.0703061
40
0.6784046
50
358.9218812
51
21.6080587
0
ARC
8
DEFAULT_255_2_778
10
14.7419228
20
105.1102488
40
0.5342733
50
23.1312804
51
66.8722173
0
ARC
8
DEFAULT_255_2_778
10
14.5446203
20
104.6995826
40
0.9896369
50
65.7059527
51
80.5116543
0
ARC
8
DEFAULT_255_2_778
10
14.4095981
20
103.9418654
40
1.7592653
50
80.2423974
51
89.3011168
0
ARC
8
DEFAULT_255_2_778
10
14.3857776
20
103.305088
40
2.3963398
50
88.9173226
51
90.0067585
0
ARC
8
DEFAULT_255_2_778
10
14.3861424
20
103.0670634
40
2.6343645
50
90.0140823
51
91.5164854
0
ARC
8
DEFAULT_255_2_778
10
14.3912525
20
102.8520187
40
2.8494689
50
91.504767
51
92.0625385
0
LINE
8
DEFAULT_255_2_778
10
14.2886992
20
105.6996415
11
13.7594992
21
105.6996415
0
ARC
8
DEFAULT_255_2_778
10
2.2604499
20
104.6507618
40
2.3373792
50
359.7102509
51
7.2333213
0
ARC
8
DEFAULT_255_2_778
10
3.2002809
20
104.7750233
40
1.3893907
50
7.0296732
51
18.9347114
0
ARC
8
DEFAULT_255_2_778
10
3.7638078
20
104.9744081
40
0.791679
50
18.5195299
51
40.3338511
0
ARC
8
DEFAULT_255_2_778
10
3.8989224
20
105.0699571
40
0.6270102
50
41.6695607
51
84.4164308
0
ARC
8
DEFAULT_255_2_778
10
3.8395508
20
104.7383761
40
0.9631686
50
82.8203203
51
90.1458386
0
ARC
8
DEFAULT_255_2_778
10
3.8239345
20
104.7507135
40
0.9509191
50
89.2067645
51
106.9033426
0
ARC
8
DEFAULT_255_2_778
10
3.7414333
20
105.0427472
40
0.6475421
50
107.4319571
51
160.7923899
0
ARC
8
DEFAULT_255_2_778
10
4.2601981
20
104.8251728
40
1.2095094
50
159.143978
51
172.9168606
0
ARC
8
DEFAULT_255_2_778
10
5.0419705
20
104.7169253
40
1.9986938
50
172.6009098
51
180.2718683
0
ARC
8
DEFAULT_255_2_778
10
5.6618346
20
104.69479
40
2.618566
50
179.7231755
51
186.9369817
0
ARC
8
DEFAULT_255_2_778
10
4.626909
20
104.5647573
40
1.5755167
50
186.7884275
51
197.548792
0
ARC
8
DEFAULT_255_2_778
10
3.9951434
20
104.3592609
40
0.9112086
50
197.2064708
51
215.9453261
0
ARC
8
DEFAULT_255_2_778
10
3.7796341
20
104.2141986
40
0.651647
50
216.7426112
51
266.4247366
0
ARC
8
DEFAULT_255_2_778
10
3.8356019
20
104.5586293
40
0.999489
50
264.4534986
51
270.0858337
0
ARC
8
DEFAULT_255_2_778
10
3.8505947
20
104.3583502
40
0.7993226
50
269.0325911
51
290.5502915
0
ARC
8
DEFAULT_255_2_778
10
3.8983746
20
104.1909448
40
0.625955
50
291.8341348
51
335.0921014
0
ARC
8
DEFAULT_255_2_778
10
3.4664815
20
104.414416
40
1.1119876
50
334.0208851
51
348.4962111
0
ARC
8
DEFAULT_255_2_778
10
2.6919877
20
104.5804168
40
1.9040467
50
348.2492605
51
357.1808159
0
ARC
8
DEFAULT_255_2_778
10
1.8539503
20
104.6361685
40
2.7438501
50
356.8787402
51
0.0579039
0
ARC
8
DEFAULT_255_2_778
10
3.8255018
20
105.1391143
40
0.1853894
50
91.4844593
51
154.9650402
0
ARC
8
DEFAULT_255_2_778
10
4.1633224
20
104.9392042
40
0.5773313
50
151.1739328
51
167.3332954
0
ARC
8
DEFAULT_255_2_778
10
4.9486904
20
104.746755
40
1.3858725
50
166.6903838
51
174.8093562
0
ARC
8
DEFAULT_255_2_778
10
6.3395584
20
104.6112628
40
2.7833098
50
174.6219278
51
179.6764445
0
ARC
8
DEFAULT_255_2_778
10
7.4906984
20
104.587928
40
3.9345993
50
179.4313085
51
180.0041711
0
ARC
8
DEFAULT_255_2_778
10
6.0138304
20
104.5755967
40
2.4577607
50
179.7192086
51
185.2236498
0
ARC
8
DEFAULT_255_2_778
10
4.7450551
20
104.454636
40
1.1832523
50
184.9842268
51
194.1656584
0
ARC
8
DEFAULT_255_2_778
10
4.0589215
20
104.2749752
40
0.4740565
50
193.4062774
51
212.0716471
0
ARC
8
DEFAULT_255_2_778
10
3.808574
20
104.1109181
40
0.174911
50
210.0762985
51
269.6774724
0
ARC
8
DEFAULT_255_2_778
10
3.807503
20
104.13805
40
0.20204
50
270.0245149
51
273.7449345
0
ARC
8
DEFAULT_255_2_778
10
3.8173504
20
104.1340886
40
0.1976754
50
270.9706744
51
336.9442055
0
ARC
8
DEFAULT_255_2_778
10
3.4645022
20
104.328779
40
0.5999851
50
333.0302143
51
348.9385572
0
ARC
8
DEFAULT_255_2_778
10
2.6673266
20
104.4990768
40
1.4150955
50
348.3641454
51
356.6644569
0
ARC
8
DEFAULT_255_2_778
10
1.5112681
20
104.5815515
40
2.5740384
50
356.3289736
51
0.1355583
0
ARC
8
DEFAULT_255_2_778
10
0.4607698
20
104.6699289
40
3.6254633
50
358.6994415
51
359.6528057
0
ARC
8
DEFAULT_255_2_778
10
0.7726893
20
104.6675314
40
3.3135352
50
359.6615786
51
359.9993478
0
ARC
8
DEFAULT_255_2_778
10
1.6964034
20
104.6789583
40
2.3898486
50
359.7251404
51
5.2841909
0
ARC
8
DEFAULT_255_2_778
10
2.8995406
20
104.7949459
40
1.1811519
50
5.0566464
51
14.2234915
0
ARC
8
DEFAULT_255_2_778
10
3.5641774
20
104.9694401
40
0.4940503
50
13.5461368
51
31.6416139
0
ARC
8
DEFAULT_255_2_778
10
3.8203136
20
105.1353782
40
0.1890639
50
29.549945
51
89.8831425
0
ARC
8
DEFAULT_255_2_778
10
10.633845
20
105.0032505
40
0.2765715
50
356.4948809
51
72.8885596
0
ARC
8
DEFAULT_255_2_778
10
10.4941054
20
104.6396966
40
0.6656794
50
70.5997483
51
86.9663371
0
ARC
8
DEFAULT_255_2_778
10
10.4488133
20
104.148028
40
1.1592151
50
86.0169015
51
90.0946094
0
LINE
8
DEFAULT_255_2_778
10
10.4468992
20
105.3072415
11
10.4468992
21
104.7008415
0
ARC
8
DEFAULT_255_2_778
10
10.4591335
20
105.7229727
40
1.0222044
50
269.3142333
51
280.5756126
0
ARC
8
DEFAULT_255_2_778
10
10.5749036
20
105.1388327
40
0.4267901
50
279.6902599
51
303.1656732
0
ARC
8
DEFAULT_255_2_778
10
10.6755064
20
104.9749926
40
0.2346675
50
304.4883695
51
2.7719968
0
ARC
8
DEFAULT_255_2_778
10
10.609437
20
106.5951535
40
2.3280927
50
265.9965888
51
267.9030698
0
ARC
8
DEFAULT_255_2_778
10
10.5992694
20
106.3159036
40
2.0486579
50
267.9014756
51
269.9776092
0
ARC
8
DEFAULT_255_2_778
10
10.6094828
20
105.7492302
40
1.4820255
50
269.5741878
51
279.8466908
0
ARC
8
DEFAULT_255_2_778
10
10.7200245
20
105.139753
40
0.8626353
50
279.5355089
51
297.0307173
0
ARC
8
DEFAULT_255_2_778
10
10.840292
20
104.8930126
40
0.5882115
50
297.5183255
51
350.7723509
0
ARC
8
DEFAULT_255_2_778
10
10.404213
20
104.997565
40
1.0359475
50
348.9319034
51
0.4054553
0
ARC
8
DEFAULT_255_2_778
10
10.0819235
20
105.0044915
40
1.3582109
50
0.0170567
51
2.0973247
0
ARC
8
DEFAULT_255_2_778
10
9.991059
20
105.0016428
40
1.4491189
50
2.0784026
51
2.2106926
0
ARC
8
DEFAULT_255_2_778
10
10.7608751
20
105.0703055
40
0.6783441
50
358.9218337
51
21.6101342
0
ARC
8
DEFAULT_255_2_778
10
10.9002043
20
105.1102139
40
0.5342996
50
23.1341405
51
66.8751364
0
ARC
8
DEFAULT_255_2_778
10
10.7028513
20
104.6994107
40
0.9898083
50
65.708159
51
80.5126566
0
ARC
8
DEFAULT_255_2_778
10
10.5678106
20
103.941517
40
1.7596138
50
80.2433648
51
89.3011935
0
ARC
8
DEFAULT_255_2_778
10
10.5439873
20
103.3045907
40
2.396837
50
88.9174375
51
90.0067572
0
ARC
8
DEFAULT_255_2_778
10
10.5443523
20
103.0665206
40
2.6349072
50
90.014083
51
91.516328
0
ARC
8
DEFAULT_255_2_778
10
10.5494624
20
102.8514576
40
2.8500301
50
91.5046139
51
92.0623317
0
LINE
8
DEFAULT_255_2_778
10
10.4468992
20
105.6996415
11
9.9176992
21
105.6996415
0
ARC
8
DEFAULT_255_2_778
10
4.6138919
20
107.1563623
40
4.057002
50
307.8561815
51
312.3479145
0
ARC
8
DEFAULT_255_2_778
10
5.49693
20
106.1917842
40
2.749273
50
312.2883994
51
318.4258293
0
ARC
8
DEFAULT_255_2_778
10
6.2207588
20
105.5536345
40
1.7843118
50
318.3318487
51
327.0155324
0
ARC
8
DEFAULT_255_2_778
10
6.7801198
20
105.1946858
40
1.1196992
50
326.8400193
51
340.2213822
0
ARC
8
DEFAULT_255_2_778
10
7.1352505
20
105.0673352
40
0.7424249
50
340.1956306
51
359.5433768
0
ARC
8
DEFAULT_255_2_778
10
7.2222538
20
105.0602745
40
0.655399
50
0.1000022
51
25.2510717
0
ARC
8
DEFAULT_255_2_778
10
7.1379697
20
105.0260653
40
0.7462394
50
24.8661034
51
26.3975898
0
ARC
8
DEFAULT_255_2_778
10
7.2283634
20
104.9727449
40
0.6945681
50
33.6721847
51
80.7339424
0
ARC
8
DEFAULT_255_2_778
10
7.1481933
20
104.6121706
40
1.0635548
50
79.5990775
51
90.3014399
0
ARC
8
DEFAULT_255_2_778
10
7.1474062
20
104.1966337
40
1.4790849
50
90.1862623
51
97.2427053
0
ARC
8
DEFAULT_255_2_778
10
7.2134834
20
103.6668145
40
2.0130075
50
97.2072475
51
102.7368386
0
ARC
8
DEFAULT_255_2_778
10
7.3644996
20
102.9925584
40
2.7039674
50
102.7081182
51
107.0875282
0
ARC
8
DEFAULT_255_2_778
10
7.524217
20
102.4553039
40
3.2644402
50
106.9963356
51
108.2835138
0
ARC
8
DEFAULT_255_2_778
10
7.7324685
20
101.9370345
40
3.3943356
50
108.2408741
51
110.8382332
0
ARC
8
DEFAULT_255_2_778
10
7.3945795
20
102.9671705
40
2.3102018
50
104.7192295
51
108.2789624
0
ARC
8
DEFAULT_255_2_778
10
7.1847726
20
103.7712278
40
1.4792241
50
99.8951799
51
104.7725016
0
ARC
8
DEFAULT_255_2_778
10
7.0857568
20
104.3458965
40
0.8960896
50
93.1892996
51
99.9726654
0
ARC
8
DEFAULT_255_2_778
10
7.0677209
20
104.6163782
40
0.6250305
50
90.0455491
51
92.9179819
0
ARC
8
DEFAULT_255_2_778
10
7.0731554
20
104.8453542
40
0.3960986
50
75.8224516
51
90.8580069
0
ARC
8
DEFAULT_255_2_778
10
7.128578
20
105.0487866
40
0.185329
50
39.46865
51
77.0308556
0
ARC
8
DEFAULT_255_2_778
10
7.1148571
20
105.0506691
40
0.1949902
50
2.9860638
51
36.4774546
0
ARC
8
DEFAULT_255_2_778
10
6.9891127
20
105.0335948
40
0.3216247
50
359.9170076
51
4.8570459
0
ARC
8
DEFAULT_255_2_778
10
6.8769002
20
105.0350989
40
0.4338415
50
352.0814905
51
359.7398377
0
ARC
8
DEFAULT_255_2_778
10
6.6810834
20
105.0614634
40
0.6314239
50
346.7142196
51
352.1598458
0
ARC
8
DEFAULT_255_2_778
10
6.4842215
20
105.1063422
40
0.8333318
50
344.1070251
51
346.8216696
0
ARC
8
DEFAULT_255_2_778
10
5.5331771
20
105.7387681
40
1.9524374
50
320.6700352
51
333.8453199
0
ARC
8
DEFAULT_255_2_778
10
4.8636763
20
106.2794449
40
2.8129818
50
312.028104
51
320.794315
0
ARC
8
DEFAULT_255_2_778
10
4.1300099
20
107.0810092
40
3.899592
50
306.6687656
51
312.1505863
0
LINE
8
DEFAULT_255_2_778
10
6.4587992
20
103.9531415
11
6.4587992
21
103.5591415
0
LINE
8
DEFAULT_255_2_778
10
6.4587992
20
103.5591415
11
7.9057992
21
103.5591415
0
ARC
8
DEFAULT_255_2_778
10
7.9610315
20
103.5797617
40
0.0589559
50
176.1049396
51
200.4723521
0
ARC
8
DEFAULT_255_2_778
10
9.4134366
20
103.6692467
40
1.5136405
50
181.3132755
51
183.2373993
0
ARC
8
DEFAULT_255_2_778
10
14.4880478
20
103.7964093
40
6.5898421
50
180.4621336
51
181.4073889
0
ARC
8
DEFAULT_255_2_778
10
27.3467713
20
103.91804
40
19.4491366
50
180.0729567
51
180.5149027
0
ARC
8
DEFAULT_255_2_778
10
41.4993324
20
103.9519455
40
33.6017331
50
179.9979606
51
180.100042
0
LINE
8
DEFAULT_255_2_778
10
7.8975992
20
103.9531415
11
7.1038992
21
103.9531415
0
ARC
8
DEFAULT_255_2_778
10
7.3183137
20
104.6376111
40
2.2822153
50
359.7070288
51
7.3203246
0
ARC
8
DEFAULT_255_2_778
10
8.2385058
20
104.7610449
40
1.3538059
50
7.1010915
51
19.3368529
0
ARC
8
DEFAULT_255_2_778
10
8.7859364
20
104.9591295
40
0.7716873
50
18.917781
51
41.4653115
0
ARC
8
DEFAULT_255_2_778
10
8.9036601
20
105.0423622
40
0.6285494
50
42.8858128
51
83.9005318
0
ARC
8
DEFAULT_255_2_778
10
8.8425744
20
104.7088733
40
0.9669722
50
82.400963
51
90.1644405
0
ARC
8
DEFAULT_255_2_778
10
8.8266945
20
104.7133117
40
0.962619
50
89.2199753
51
106.6212993
0
ARC
8
DEFAULT_255_2_778
10
8.7406309
20
105.018151
40
0.6459164
50
107.0408878
51
161.1150262
0
ARC
8
DEFAULT_255_2_778
10
9.252251
20
104.8060017
40
1.1991771
50
159.436128
51
172.9815789
0
ARC
8
DEFAULT_255_2_778
10
10.0060545
20
104.7027494
40
1.9599758
50
172.6783584
51
180.263328
0
ARC
8
DEFAULT_255_2_778
10
10.5993689
20
104.6811016
40
2.553301
50
179.7163601
51
187.0690344
0
ARC
8
DEFAULT_255_2_778
10
9.5830012
20
104.5506733
40
1.5286142
50
186.9057098
51
198.0473712
0
ARC
8
DEFAULT_255_2_778
10
8.9701002
20
104.3453612
40
0.8822769
50
197.7010936
51
217.1641773
0
ARC
8
DEFAULT_255_2_778
10
8.7790335
20
104.2139572
40
0.6507213
50
218.1069396
51
265.4087817
0
ARC
8
DEFAULT_255_2_778
10
8.8378188
20
104.5560939
40
0.9969543
50
263.6148297
51
270.1138138
0
ARC
8
DEFAULT_255_2_778
10
8.8531596
20
104.3689085
40
0.8098772
50
269.0547544
51
290.1051578
0
ARC
8
DEFAULT_255_2_778
10
8.903645
20
104.1916442
40
0.6262066
50
291.3427162
51
335.8118641
0
ARC
8
DEFAULT_255_2_778
10
8.4577534
20
104.4166091
40
1.1253523
50
334.6653556
51
349.1337943
0
ARC
8
DEFAULT_255_2_778
10
7.656774
20
104.5787015
40
1.9425444
50
348.8922742
51
357.8904818
0
ARC
8
DEFAULT_255_2_778
10
6.8566033
20
104.6242517
40
2.7438966
50
357.5550169
51
0.0352845
0
ARC
8
DEFAULT_255_2_778
10
8.8278745
20
105.1173904
40
0.186005
50
91.3786689
51
154.7864878
0
ARC
8
DEFAULT_255_2_778
10
9.1606049
20
104.919875
40
0.5723696
50
151.0844463
51
167.3146103
0
ARC
8
DEFAULT_255_2_778
10
9.9475653
20
104.7274918
40
1.3824477
50
166.698197
51
175.0183094
0
ARC
8
DEFAULT_255_2_778
10
11.3177086
20
104.5969434
40
2.758774
50
174.7882841
51
179.6734798
0
ARC
8
DEFAULT_255_2_778
10
12.4104328
20
104.5754071
40
3.8516335
50
179.4457507
51
180.0039502
0
ARC
8
DEFAULT_255_2_778
10
10.9524517
20
104.5630809
40
2.3936829
50
179.7113118
51
185.3317969
0
ARC
8
DEFAULT_255_2_778
10
9.708144
20
104.4418297
40
1.1435033
50
185.0761842
51
194.5564929
0
ARC
8
DEFAULT_255_2_778
10
9.0422352
20
104.2624255
40
0.4539228
50
193.7638383
51
213.1560853
0
ARC
8
DEFAULT_255_2_778
10
8.810547
20
104.1055175
40
0.1742028
50
211.6279734
51
269.9138505
0
ARC
8
DEFAULT_255_2_778
10
8.8101987
20
104.1357543
40
0.2044395
50
270.0241867
51
273.7021089
0
ARC
8
DEFAULT_255_2_778
10
8.8203153
20
104.1303026
40
0.198585
50
270.8897867
51
336.9980611
0
ARC
8
DEFAULT_255_2_778
10
8.4665446
20
104.3244537
40
0.6014584
50
333.1395099
51
349.1647303
0
ARC
8
DEFAULT_255_2_778
10
7.664805
20
104.4927816
40
1.4206229
50
348.5754325
51
356.8722837
0
ARC
8
DEFAULT_255_2_778
10
6.5424366
20
104.5697723
40
2.5455683
50
356.5203124
51
0.1208515
0
ARC
8
DEFAULT_255_2_778
10
5.5505382
20
104.6568923
40
3.5384055
50
358.6761284
51
359.6466052
0
ARC
8
DEFAULT_255_2_778
10
5.8415153
20
104.6545436
40
3.2474197
50
359.6563802
51
359.9987318
0
ARC
8
DEFAULT_255_2_778
10
6.7573237
20
104.6657878
40
2.3316388
50
359.7219262
51
5.3498877
0
ARC
8
DEFAULT_255_2_778
10
7.9299158
20
104.780228
40
1.1534937
50
5.1207977
51
14.3955243
0
ARC
8
DEFAULT_255_2_778
10
8.5802712
20
104.9534788
40
0.4805243
50
13.6653574
51
32.3684446
0
ARC
8
DEFAULT_255_2_778
10
8.8236335
20
105.1144694
40
0.1888723
50
30.6422201
51
90.0710854
0
LINE
8
DEFAULT_255_2_778
10
16.1414992
20
77.1688415
11
16.0544992
21
77.1736415
0
LINE
8
DEFAULT_255_2_778
10
16.0544992
20
77.1736415
11
15.9448992
21
77.1881415
0
LINE
8
DEFAULT_255_2_778
10
15.9448992
20
77.1881415
11
15.8424992
21
77.2119415
0
LINE
8
DEFAULT_255_2_778
10
15.8424992
20
77.2119415
11
15.7475992
21
77.2447415
0
LINE
8
DEFAULT_255_2_778
10
15.1924992
20
78.1512415
11
15.1913992
21
78.2081415
0
LINE
8
DEFAULT_255_2_778
10
15.1913992
20
78.2081415
11
15.1924992
21
78.2650415
0
LINE
8
DEFAULT_255_2_778
10
15.5816992
20
79.0725415
11
15.6620992
21
79.1212415
0
LINE
8
DEFAULT_255_2_778
10
15.6620992
20
79.1212415
11
15.7496992
21
79.1616415
0
LINE
8
DEFAULT_255_2_778
10
15.7496992
20
79.1616415
11
15.8443992
21
79.1937415
0
LINE
8
DEFAULT_255_2_778
10
15.8443992
20
79.1937415
11
15.9462992
21
79.2169415
0
LINE
8
DEFAULT_255_2_778
10
15.9462992
20
79.2169415
11
16.1121992
21
79.2347415
0
LINE
8
DEFAULT_255_2_778
10
16.1121992
20
79.2347415
11
16.2851992
21
79.2310415
0
LINE
8
DEFAULT_255_2_778
10
16.2851992
20
79.2310415
11
16.3928992
21
79.2164415
0
LINE
8
DEFAULT_255_2_778
10
16.3928992
20
79.2164415
11
16.4939992
21
79.1926415
0
LINE
8
DEFAULT_255_2_778
10
16.4939992
20
79.1926415
11
16.5883992
21
79.1601415
0
LINE
8
DEFAULT_255_2_778
10
16.5883992
20
79.1601415
11
16.6756992
21
79.1191415
0
LINE
8
DEFAULT_255_2_778
10
16.6756992
20
79.1191415
11
16.7561992
21
79.0698415
0
LINE
8
DEFAULT_255_2_778
10
16.5907992
20
77.2455415
11
16.4960992
21
77.2122415
0
LINE
8
DEFAULT_255_2_778
10
16.4960992
20
77.2122415
11
16.3944992
21
77.1879415
0
LINE
8
DEFAULT_255_2_778
10
16.3944992
20
77.1879415
11
16.2293992
21
77.1693415
0
LINE
8
DEFAULT_255_2_778
10
16.2293992
20
77.1693415
11
16.1414992
21
77.1688415
0
LINE
8
DEFAULT_255_2_778
10
16.1711992
20
78.9227415
11
16.0991992
21
78.9185415
0
LINE
8
DEFAULT_255_2_778
10
16.0991992
20
78.9185415
11
16.0324992
21
78.9063415
0
LINE
8
DEFAULT_255_2_778
10
16.0324992
20
78.9063415
11
15.9713992
21
78.8867415
0
LINE
8
DEFAULT_255_2_778
10
15.9713992
20
78.8867415
11
15.9152992
21
78.8606415
0
LINE
8
DEFAULT_255_2_778
10
15.9104992
20
77.5472415
11
15.9671992
21
77.5207415
0
LINE
8
DEFAULT_255_2_778
10
15.9671992
20
77.5207415
11
16.0292992
21
77.5011415
0
LINE
8
DEFAULT_255_2_778
10
16.0292992
20
77.5011415
11
16.1332992
21
77.4858415
0
LINE
8
DEFAULT_255_2_778
10
16.1332992
20
77.4858415
11
16.2446992
21
77.4890415
0
LINE
8
DEFAULT_255_2_778
10
16.2446992
20
77.4890415
11
16.3126992
21
77.5011415
0
LINE
8
DEFAULT_255_2_778
10
16.3126992
20
77.5011415
11
16.3748992
21
77.5207415
0
LINE
8
DEFAULT_255_2_778
10
16.3748992
20
77.5207415
11
16.4314992
21
77.5472415
0
LINE
8
DEFAULT_255_2_778
10
16.4264992
20
78.8606415
11
16.3703992
21
78.8867415
0
LINE
8
DEFAULT_255_2_778
10
16.3703992
20
78.8867415
11
16.3092992
21
78.9063415
0
LINE
8
DEFAULT_255_2_778
10
16.3092992
20
78.9063415
11
16.2073992
21
78.9214415
0
LINE
8
DEFAULT_255_2_778
10
16.2073992
20
78.9214415
11
16.1711992
21
78.9227415
0
LINE
8
DEFAULT_255_2_778
10
15.5646992
20
105.7015415
11
15.5646992
21
105.7015415
0
LINE
8
DEFAULT_255_2_778
10
13.3913992
20
105.1104415
11
13.4411992
21
105.5403415
0
LINE
8
DEFAULT_255_2_778
10
13.4083992
20
104.0687415
11
13.4078992
21
104.0687415
0
LINE
8
DEFAULT_255_2_778
10
2.2214992
20
105.0612415
11
2.2214992
21
105.0612415
0
LINE
8
DEFAULT_255_2_778
10
1.1549992
20
105.7009415
11
1.1549992
21
103.5591415
0
LINE
8
DEFAULT_255_2_778
10
1.1549992
20
103.5591415
11
1.6933992
21
103.5591415
0
LINE
8
DEFAULT_255_2_778
10
1.6933992
20
103.5591415
11
1.6933992
21
104.4087415
0
LINE
8
DEFAULT_255_2_778
10
2.0328992
20
104.3026415
11
2.2894992
21
103.5681415
0
LINE
8
DEFAULT_255_2_778
10
2.2894992
20
103.5681415
11
2.8443992
21
103.5594415
0
LINE
8
DEFAULT_255_2_778
10
2.8443992
20
103.5594415
11
2.5297992
21
104.4799415
0
LINE
8
DEFAULT_255_2_778
10
1.1549992
20
105.7009415
11
1.1549992
21
105.7009415
0
LINE
8
DEFAULT_255_2_778
10
14.7516992
20
104.9863415
11
14.7516992
21
104.9863415
0
LINE
8
DEFAULT_255_2_778
10
13.7594992
20
105.6996415
11
13.7594992
21
103.5591415
0
LINE
8
DEFAULT_255_2_778
10
13.7594992
20
103.5591415
11
14.2886992
21
103.5591415
0
LINE
8
DEFAULT_255_2_778
10
14.2886992
20
103.5591415
11
14.2886992
21
104.2727415
0
LINE
8
DEFAULT_255_2_778
10
13.7594992
20
105.6996415
11
13.7594992
21
105.6996415
0
LINE
8
DEFAULT_255_2_778
10
4.5977992
20
104.6389415
11
4.5977992
21
104.6389415
0
LINE
8
DEFAULT_255_2_778
10
3.8206992
20
105.3244415
11
3.8206992
21
105.3244415
0
LINE
8
DEFAULT_255_2_778
10
10.9098992
20
104.9863415
11
10.9098992
21
104.9863415
0
LINE
8
DEFAULT_255_2_778
10
9.9176992
20
105.6996415
11
9.9176992
21
103.5591415
0
LINE
8
DEFAULT_255_2_778
10
9.9176992
20
103.5591415
11
10.4468992
21
103.5591415
0
LINE
8
DEFAULT_255_2_778
10
10.4468992
20
103.5591415
11
10.4468992
21
104.2727415
0
LINE
8
DEFAULT_255_2_778
10
9.9176992
20
105.6996415
11
9.9176992
21
105.6996415
0
LINE
8
DEFAULT_255_2_778
10
5.0898992
20
104.8268415
11
4.8522992
21
105.2088415
0
LINE
8
DEFAULT_255_2_778
10
4.8522992
20
105.2088415
11
5.5308992
21
105.6758415
0
LINE
8
DEFAULT_255_2_778
10
5.5308992
20
105.6758415
11
6.0007992
21
105.6758415
0
LINE
8
DEFAULT_255_2_778
10
6.0007992
20
105.6758415
11
6.0007992
21
103.5591415
0
LINE
8
DEFAULT_255_2_778
10
6.0007992
20
103.5591415
11
5.4681992
21
103.5591415
0
LINE
8
DEFAULT_255_2_778
10
5.4681992
20
103.5591415
11
5.4681992
21
105.1117415
0
LINE
8
DEFAULT_255_2_778
10
5.4681992
20
105.1117415
11
5.0898992
21
104.8268415
0
LINE
8
DEFAULT_255_2_778
10
6.5000992
20
105.5549415
11
6.5249992
21
105.1093415
0
LINE
8
DEFAULT_255_2_778
10
7.1038992
20
103.9531415
11
7.1035992
21
103.9531415
0
LINE
8
DEFAULT_255_2_778
10
9.6004992
20
104.6259415
11
9.6004992
21
104.6259415
0
LINE
8
DEFAULT_255_2_778
10
8.8233992
20
105.3033415
11
8.8233992
21
105.3033415
0
ENDSEC
0
EOF