0
SECTION
2
HEADER
9
$MEASUREMENT
70
1
0
ENDSEC
0
SECTION
2
TABLES
0
TABLE
2
LTYPE
0
LTYPE
72
65
70
64
2
CONTINUOUS
3
______
73
0
40
0
0
ENDTAB
0
TABLE
2
LAYER
0
LAYER
2
DEFAULT_255_2_778
70
0
62
255
6
CONTINUOUS
0
ENDTAB
0
ENDSEC
0
SECTION
2
ENTITIES
0
ARC
8
DEFAULT_255_2_778
10
24.0873159
20
3.7689369
40
0.7000418
50
359.9952377
51
90.0047623
0
ARC
8
DEFAULT_255_2_778
10
4.4875916
20
3.7687447
40
0.700234
50
90.0109585
51
179.9890333
0
ARC
8
DEFAULT_255_2_778
10
2.3914804
20
7.2703051
40
1.0041238
50
180.0870963
51
202.8503162
0
ARC
8
DEFAULT_255_2_778
10
2.3916503
20
7.2729714
40
1.0053187
50
202.9865873
51
247.0134127
0
ARC
8
DEFAULT_255_2_778
10
2.3889839
20
7.2728005
40
1.0041229
50
247.1496712
51
269.9129114
0
ARC
8
DEFAULT_255_2_778
10
2.3888719
20
9.8660811
40
1.0023986
50
90.0808358
51
112.8849194
0
ARC
8
DEFAULT_255_2_778
10
2.3916503
20
9.864086
40
1.0053187
50
112.9865873
51
157.0134127
0
ARC
8
DEFAULT_255_2_778
10
2.3911079
20
9.8668278
40
1.0037512
50
157.1453998
51
179.9171823
0
ARC
8
DEFAULT_255_2_778
10
2.3911079
20
18.3703296
40
1.0037512
50
180.0828177
51
202.8546002
0
ARC
8
DEFAULT_255_2_778
10
2.3916503
20
18.3730714
40
1.0053187
50
202.9865873
51
247.0134127
0
ARC
8
DEFAULT_255_2_778
10
2.3891689
20
18.372544
40
1.0038663
50
247.1320437
51
269.919457
0
ARC
8
DEFAULT_255_2_778
10
2.3885411
20
20.9665362
40
1.0019428
50
90.0447978
51
112.875385
0
ARC
8
DEFAULT_255_2_778
10
2.3916503
20
20.964186
40
1.0053187
50
112.9865873
51
157.0134127
0
ARC
8
DEFAULT_255_2_778
10
2.3914792
20
20.9668525
40
1.0041227
50
157.1496696
51
179.9129161
0
ARC
8
DEFAULT_255_2_778
10
0.5874666
20
26.0687697
40
0.200009
50
90.0025627
51
179.9974171
0
ARC
8
DEFAULT_255_2_778
10
27.9876553
20
26.0688764
40
0.1999024
50
359.9719992
51
90.0566416
0
LINE
8
DEFAULT_255_2_778
10
13.7375577
20
0.4689787
11
13.7375577
21
-0.2290213
0
LINE
8
DEFAULT_255_2_778
10
13.7375577
20
-0.2290213
11
8.7374577
21
-0.2290213
0
LINE
8
DEFAULT_255_2_778
10
8.7374577
20
-0.2290213
11
8.7374577
21
0.4689787
0
LINE
8
DEFAULT_255_2_778
10
24.0872577
20
4.4689787
11
4.4874577
21
4.4689787
0
LINE
8
DEFAULT_255_2_778
10
3.7873577
20
3.7688787
11
3.7873577
21
0.5393787
0
LINE
8
DEFAULT_255_2_778
10
3.7873577
20
0.5393787
11
24.7873577
21
0.5393787
0
LINE
8
DEFAULT_255_2_778
10
24.7873577
20
0.5393787
11
24.7873577
21
3.7688787
0
LINE
8
DEFAULT_255_2_778
10
2.3874577
20
6.2686787
11
8.9874577
21
6.2686787
0
LINE
8
DEFAULT_255_2_778
10
8.9874577
20
6.2686787
11
8.9874577
21
10.8684787
0
LINE
8
DEFAULT_255_2_778
10
8.9874577
20
10.8684787
11
2.3874577
21
10.8684787
0
LINE
8
DEFAULT_255_2_778
10
1.3873577
20
9.8682787
11
1.3873577
21
7.2684787
0
LINE
8
DEFAULT_255_2_778
10
28.1875577
20
22.2187787
11
28.3875577
21
22.2187787
0
LINE
8
DEFAULT_255_2_778
10
28.3875577
20
22.2187787
11
28.3875577
21
12.7186787
0
LINE
8
DEFAULT_255_2_778
10
28.3875577
20
12.7186787
11
28.1875577
21
12.7186787
0
LINE
8
DEFAULT_255_2_778
10
0.3874577
20
22.2187787
11
0.1874577
21
22.2187787
0
LINE
8
DEFAULT_255_2_778
10
0.1874577
20
22.2187787
11
0.1874577
21
12.7189787
0
LINE
8
DEFAULT_255_2_778
10
0.1874577
20
12.7189787
11
0.3874577
21
12.7189787
0
LINE
8
DEFAULT_255_2_778
10
2.3877577
20
17.3686787
11
8.9874577
21
17.3686787
0
LINE
8
DEFAULT_255_2_778
10
8.9874577
20
17.3686787
11
8.9874577
21
21.9684787
0
LINE
8
DEFAULT_255_2_778
10
8.9874577
20
21.9684787
11
2.3877577
21
21.9684787
0
LINE
8
DEFAULT_255_2_778
10
1.3873577
20
20.9683787
11
1.3873577
21
18.3685787
0
LINE
8
DEFAULT_255_2_778
10
2.5374577
20
26.2687787
11
0.5874577
21
26.2687787
0
LINE
8
DEFAULT_255_2_778
10
26.0375577
20
26.2687787
11
27.9874577
21
26.2687787
0
LINE
8
DEFAULT_255_2_778
10
26.1547577
20
27.0688787
11
26.1790577
21
27.0823787
0
LINE
8
DEFAULT_255_2_778
10
26.1790577
20
27.0823787
11
26.1851577
21
27.0900787
0
LINE
8
DEFAULT_255_2_778
10
26.1851577
20
27.0900787
11
26.1875577
21
33.2365787
0
LINE
8
DEFAULT_255_2_778
10
26.1875577
20
33.2365787
11
2.3874577
21
33.2365787
0
LINE
8
DEFAULT_255_2_778
10
2.3874577
20
33.2365787
11
2.3898577
21
27.0900787
0
LINE
8
DEFAULT_255_2_778
10
2.3898577
20
27.0900787
11
2.4202577
21
27.0688787
0
LINE
8
DEFAULT_255_2_778
10
2.4202577
20
27.0688787
11
1.3875577
21
27.0688787
0
LINE
8
DEFAULT_255_2_778
10
1.3875577
20
27.0688787
11
1.0875577
21
30.8187787
0
LINE
8
DEFAULT_255_2_778
10
1.0875577
20
30.8187787
11
0.3874577
21
32.9687787
0
ARC
8
DEFAULT_255_2_778
10
26.0876119
20
26.9945721
40
0.1003519
50
47.8481894
51
79.5824071
0
ARC
8
DEFAULT_255_2_778
10
0.6130741
20
46.4684275
40
0.2256171
50
164.9873117
51
179.8622945
0
ARC
8
DEFAULT_255_2_778
10
0.5898142
20
46.475223
40
0.2013916
50
151.1267225
51
165.14051
0
ARC
8
DEFAULT_255_2_778
10
0.5842173
20
46.4795418
40
0.1944079
50
129.1194558
51
151.444827
0
ARC
8
DEFAULT_255_2_778
10
0.5719474
20
46.4951558
40
0.1745529
50
109.2295922
51
129.2284756
0
ARC
8
DEFAULT_255_2_778
10
0.5692391
20
46.5032797
40
0.1659903
50
90.097136
51
109.2704651
0
ARC
8
DEFAULT_255_2_778
10
28.0060507
20
46.503716
40
0.1655539
50
70.7040158
51
89.9283638
0
ARC
8
DEFAULT_255_2_778
10
28.003978
20
46.4964246
40
0.1731212
50
50.6879912
51
70.8539853
0
ARC
8
DEFAULT_255_2_778
10
27.9899689
20
46.4792798
40
0.1952616
50
28.5063954
51
50.6947442
0
ARC
8
DEFAULT_255_2_778
10
27.9798689
20
46.4730831
40
0.2070954
50
15.0533872
51
28.6793526
0
ARC
8
DEFAULT_255_2_778
10
27.9662372
20
46.4689988
40
0.2213205
50
359.9924669
51
15.1579015
0
ARC
8
DEFAULT_255_2_778
10
0.5875305
20
47.9689425
40
0.2000729
50
180.0208363
51
269.979135
0
ARC
8
DEFAULT_255_2_778
10
27.9879406
20
47.9686868
40
0.1998171
50
269.947541
51
0.052459
0
ARC
8
DEFAULT_255_2_778
10
27.9874421
20
52.3688542
40
0.2001156
50
0.0044599
51
89.9955401
0
ARC
8
DEFAULT_255_2_778
10
0.587552
20
52.3688753
40
0.2000944
50
90.0270209
51
180.0015996
0
LINE
8
DEFAULT_255_2_778
10
26.0372577
20
27.1115697
11
26.1057577
21
27.0932697
0
LINE
8
DEFAULT_255_2_778
10
26.1549577
20
27.0689697
11
27.1876577
21
27.0689697
0
LINE
8
DEFAULT_255_2_778
10
27.1876577
20
27.0689697
11
27.4876577
21
30.8188697
0
LINE
8
DEFAULT_255_2_778
10
27.4876577
20
30.8188697
11
28.1877577
21
32.9688697
0
LINE
8
DEFAULT_255_2_778
10
0.3874577
20
43.9689697
11
0.5782577
21
43.9712697
0
LINE
8
DEFAULT_255_2_778
10
0.5782577
20
43.9712697
11
0.5832577
21
43.9903697
0
LINE
8
DEFAULT_255_2_778
10
0.5832577
20
43.9903697
11
0.5880577
21
44.0279697
0
LINE
8
DEFAULT_255_2_778
10
0.5880577
20
44.0279697
11
0.5901577
21
44.0530697
0
LINE
8
DEFAULT_255_2_778
10
0.5901577
20
44.0530697
11
0.5922577
21
44.0821697
0
LINE
8
DEFAULT_255_2_778
10
0.5922577
20
44.0821697
11
0.5941577
21
44.1149697
0
LINE
8
DEFAULT_255_2_778
10
0.5941577
20
44.1149697
11
0.5972577
21
44.1906697
0
LINE
8
DEFAULT_255_2_778
10
0.5972577
20
44.1906697
11
0.5996577
21
44.2771697
0
LINE
8
DEFAULT_255_2_778
10
0.5996577
20
44.2771697
11
0.5978577
21
45.5352697
0
LINE
8
DEFAULT_255_2_778
10
0.5978577
20
45.5352697
11
0.5957577
21
45.5807697
0
LINE
8
DEFAULT_255_2_778
10
0.5957577
20
45.5807697
11
0.5933577
21
45.6180697
0
LINE
8
DEFAULT_255_2_778
10
0.5933577
20
45.6180697
11
0.5906577
21
45.6458697
0
LINE
8
DEFAULT_255_2_778
10
0.5906577
20
45.6458697
11
0.5877577
21
45.6627697
0
LINE
8
DEFAULT_255_2_778
10
0.5877577
20
45.6627697
11
0.5845577
21
45.6685697
0
LINE
8
DEFAULT_255_2_778
10
0.5845577
20
45.6685697
11
0.3874577
21
45.6685697
0
LINE
8
DEFAULT_255_2_778
10
28.1917577
20
45.6688697
11
27.9930577
21
45.6672697
0
LINE
8
DEFAULT_255_2_778
10
27.9930577
20
45.6672697
11
27.9901577
21
45.6558697
0
LINE
8
DEFAULT_255_2_778
10
27.9901577
20
45.6558697
11
27.9872577
21
45.6333697
0
LINE
8
DEFAULT_255_2_778
10
27.9872577
20
45.6333697
11
27.9845577
21
45.6008697
0
LINE
8
DEFAULT_255_2_778
10
27.9845577
20
45.6008697
11
27.9819577
21
44.1908697
0
LINE
8
DEFAULT_255_2_778
10
27.9819577
20
44.1908697
11
27.9851577
21
44.1152697
0
LINE
8
DEFAULT_255_2_778
10
27.9851577
20
44.1152697
11
27.9869577
21
44.0824697
0
LINE
8
DEFAULT_255_2_778
10
27.9869577
20
44.0824697
11
27.9890577
21
44.0533697
0
LINE
8
DEFAULT_255_2_778
10
27.9890577
20
44.0533697
11
27.9911577
21
44.0281697
0
LINE
8
DEFAULT_255_2_778
10
27.9911577
20
44.0281697
11
27.9959577
21
43.9906697
0
LINE
8
DEFAULT_255_2_778
10
27.9959577
20
43.9906697
11
28.0009577
21
43.9715697
0
LINE
8
DEFAULT_255_2_778
10
28.0009577
20
43.9715697
11
28.1917577
21
43.9691697
0
LINE
8
DEFAULT_255_2_778
10
0.5689577
20
46.6692697
11
28.0062577
21
46.6692697
0
LINE
8
DEFAULT_255_2_778
10
0.5874577
20
47.7688697
11
3.5876577
21
47.7688697
0
LINE
8
DEFAULT_255_2_778
10
3.5876577
20
47.7688697
11
3.5876577
21
46.6689697
0
LINE
8
DEFAULT_255_2_778
10
24.7876577
20
47.9688697
11
24.9876577
21
47.7688697
0
LINE
8
DEFAULT_255_2_778
10
24.9876577
20
47.7688697
11
27.9877577
21
47.7688697
0
LINE
8
DEFAULT_255_2_778
10
27.9874577
20
52.5689697
11
24.9873577
21
52.5689697
0
LINE
8
DEFAULT_255_2_778
10
24.9873577
20
52.5689697
11
24.9873577
21
53.6687697
0
LINE
8
DEFAULT_255_2_778
10
3.7873577
20
52.3688697
11
3.5873577
21
52.5689697
0
LINE
8
DEFAULT_255_2_778
10
3.5873577
20
52.5689697
11
0.5874577
21
52.5689697
0
LINE
8
DEFAULT_255_2_778
10
0.3874577
20
54.6689697
11
0.5777577
21
54.6702697
0
LINE
8
DEFAULT_255_2_778
10
0.5777577
20
54.6702697
11
0.5806577
21
54.6816697
0
LINE
8
DEFAULT_255_2_778
10
0.5806577
20
54.6816697
11
0.5835577
21
54.7041697
0
LINE
8
DEFAULT_255_2_778
10
0.5835577
20
54.7041697
11
0.5861577
21
54.7366697
0
LINE
8
DEFAULT_255_2_778
10
0.5861577
20
54.7366697
11
0.5877577
21
56.1466697
0
LINE
8
DEFAULT_255_2_778
10
0.5877577
20
56.1466697
11
0.5845577
21
56.2222697
0
LINE
8
DEFAULT_255_2_778
10
0.5845577
20
56.2222697
11
0.5827577
21
56.2550697
0
LINE
8
DEFAULT_255_2_778
10
0.5827577
20
56.2550697
11
0.5806577
21
56.2844697
0
LINE
8
DEFAULT_255_2_778
10
0.5806577
20
56.2844697
11
0.5785577
21
56.3096697
0
LINE
8
DEFAULT_255_2_778
10
0.5785577
20
56.3096697
11
0.5737577
21
56.3471697
0
LINE
8
DEFAULT_255_2_778
10
0.5737577
20
56.3471697
11
0.5687577
21
56.3662697
0
LINE
8
DEFAULT_255_2_778
10
0.5687577
20
56.3662697
11
0.3874577
21
56.3686697
0
LINE
8
DEFAULT_255_2_778
10
28.1893577
20
56.3688697
11
28.0081577
21
56.3664697
0
LINE
8
DEFAULT_255_2_778
10
28.0081577
20
56.3664697
11
28.0030577
21
56.3474697
0
LINE
8
DEFAULT_255_2_778
10
28.0030577
20
56.3474697
11
27.9983577
21
56.3098697
0
LINE
8
DEFAULT_255_2_778
10
27.9983577
20
56.3098697
11
27.9962577
21
56.2847697
0
LINE
8
DEFAULT_255_2_778
10
27.9962577
20
56.2847697
11
27.9940577
21
56.2556697
0
LINE
8
DEFAULT_255_2_778
10
27.9940577
20
56.2556697
11
27.9922577
21
56.2228697
0
LINE
8
DEFAULT_255_2_778
10
27.9922577
20
56.2228697
11
27.9890577
21
56.1471697
0
LINE
8
DEFAULT_255_2_778
10
27.9890577
20
56.1471697
11
27.9866577
21
56.0606697
0
LINE
8
DEFAULT_255_2_778
10
27.9866577
20
56.0606697
11
27.9877577
21
54.8025697
0
LINE
8
DEFAULT_255_2_778
10
27.9877577
20
54.8025697
11
27.9896577
21
54.7570697
0
LINE
8
DEFAULT_255_2_778
10
27.9896577
20
54.7570697
11
27.9919577
21
54.7197697
0
LINE
8
DEFAULT_255_2_778
10
27.9919577
20
54.7197697
11
27.9946577
21
54.6919697
0
LINE
8
DEFAULT_255_2_778
10
27.9946577
20
54.6919697
11
27.9975577
21
54.6750697
0
LINE
8
DEFAULT_255_2_778
10
27.9975577
20
54.6750697
11
28.0007577
21
54.6691697
0
LINE
8
DEFAULT_255_2_778
10
28.0007577
20
54.6691697
11
28.1893577
21
54.6691697
0
LINE
8
DEFAULT_255_2_778
10
22.6884577
20
80.0683697
11
22.6884577
21
79.8681697
0
LINE
8
DEFAULT_255_2_778
10
22.6884577
20
79.8681697
11
1.8881577
21
79.8681697
0
LINE
8
DEFAULT_255_2_778
10
1.8881577
20
79.8681697
11
1.8881577
21
80.0681697
0
LINE
8
DEFAULT_255_2_778
10
1.8881577
20
80.0681697
11
22.6884577
21
80.0681697
0
LINE
8
DEFAULT_255_2_778
10
1.5881577
20
106.3412697
11
0.9335577
21
106.2277697
0
LINE
8
DEFAULT_255_2_778
10
0.9335577
20
106.2277697
11
0.8407577
21
106.1896697
0
LINE
8
DEFAULT_255_2_778
10
0.8407577
20
106.1896697
11
0.7668577
21
106.1417697
0
LINE
8
DEFAULT_255_2_778
10
0.7668577
20
106.1417697
11
0.7187577
21
106.0988697
0
LINE
8
DEFAULT_255_2_778
10
0.7187577
20
106.0988697
11
0.6737577
21
106.0467697
0
LINE
8
DEFAULT_255_2_778
10
0.6737577
20
106.0467697
11
0.6345577
21
105.9853697
0
LINE
8
DEFAULT_255_2_778
10
0.6345577
20
105.9853697
11
0.6176577
21
105.9512697
0
LINE
8
DEFAULT_255_2_778
10
0.6176577
20
105.9512697
11
0.6031577
21
105.9150697
0
LINE
8
DEFAULT_255_2_778
10
0.6031577
20
105.9150697
11
0.5912577
21
105.8769697
0
LINE
8
DEFAULT_255_2_778
10
0.5912577
20
105.8769697
11
0.5822577
21
105.8369697
0
LINE
8
DEFAULT_255_2_778
10
0.5822577
20
105.8369697
11
0.5763577
21
105.7954697
0
LINE
8
DEFAULT_255_2_778
10
0.5763577
20
105.7954697
11
0.5740577
21
105.7469697
0
LINE
8
DEFAULT_255_2_778
10
0.5740577
20
105.7469697
11
0.5724577
21
100.8889697
0
LINE
8
DEFAULT_255_2_778
10
0.5724577
20
100.8889697
11
0.5708577
21
100.7267697
0
LINE
8
DEFAULT_255_2_778
10
0.5708577
20
100.7267697
11
0.5687577
21
100.5683697
0
LINE
8
DEFAULT_255_2_778
10
0.5687577
20
100.5683697
11
0.5660577
21
100.4153697
0
LINE
8
DEFAULT_255_2_778
10
0.5660577
20
100.4153697
11
0.5628577
21
100.2703697
0
LINE
8
DEFAULT_255_2_778
10
0.5628577
20
100.2703697
11
0.5591577
21
100.1349697
0
LINE
8
DEFAULT_255_2_778
10
0.5591577
20
100.1349697
11
0.5552577
21
100.0095697
0
LINE
8
DEFAULT_255_2_778
10
0.5552577
20
100.0095697
11
0.5509577
21
99.8936697
0
LINE
8
DEFAULT_255_2_778
10
0.5509577
20
99.8936697
11
0.5467577
21
99.7864697
0
LINE
8
DEFAULT_255_2_778
10
0.5467577
20
99.7864697
11
0.5422577
21
99.6875697
0
LINE
8
DEFAULT_255_2_778
10
0.5422577
20
99.6875697
11
0.5377577
21
99.5962697
0
LINE
8
DEFAULT_255_2_778
10
0.5377577
20
99.5962697
11
0.5332577
21
99.5126697
0
LINE
8
DEFAULT_255_2_778
10
0.5332577
20
99.5126697
11
0.5287577
21
99.4364697
0
LINE
8
DEFAULT_255_2_778
10
0.5287577
20
99.4364697
11
0.5242577
21
99.3678697
0
LINE
8
DEFAULT_255_2_778
10
0.5242577
20
99.3678697
11
0.5197577
21
99.3065697
0
LINE
8
DEFAULT_255_2_778
10
0.5197577
20
99.3065697
11
0.5112577
21
99.2049697
0
LINE
8
DEFAULT_255_2_778
10
0.5112577
20
99.2049697
11
0.5036577
21
99.1292697
0
LINE
8
DEFAULT_255_2_778
10
0.5036577
20
99.1292697
11
0.4922577
21
99.0448697
0
LINE
8
DEFAULT_255_2_778
10
22.6884577
20
86.0683697
11
22.6884577
21
85.8680697
0
LINE
8
DEFAULT_255_2_778
10
22.6884577
20
85.8680697
11
1.8881577
21
85.8680697
0
LINE
8
DEFAULT_255_2_778
10
1.8881577
20
85.8680697
11
1.8881577
21
86.0680697
0
LINE
8
DEFAULT_255_2_778
10
1.8881577
20
86.0680697
11
22.6884577
21
86.0680697
0
LINE
8
DEFAULT_255_2_778
10
28.1875577
20
97.7190697
11
28.3875577
21
97.7190697
0
LINE
8
DEFAULT_255_2_778
10
28.3875577
20
97.7190697
11
28.3875577
21
88.2188697
0
LINE
8
DEFAULT_255_2_778
10
28.3875577
20
88.2188697
11
28.1875577
21
88.2188697
0
LINE
8
DEFAULT_255_2_778
10
0.3874577
20
97.7190697
11
0.1874577
21
97.7190697
0
LINE
8
DEFAULT_255_2_778
10
0.1874577
20
97.7190697
11
0.1874577
21
88.2191697
0
LINE
8
DEFAULT_255_2_778
10
0.1874577
20
88.2191697
11
0.3874577
21
88.2191697
0
ARC
8
DEFAULT_255_2_778
10
1.0149563
20
98.5486181
40
0.6271017
50
166.0759762
51
175.6275716
0
ARC
8
DEFAULT_255_2_778
10
1.1088206
20
98.5390572
40
0.7214257
50
175.4387911
51
176.7130931
0
ARC
8
DEFAULT_255_2_778
10
27.4734851
20
98.5390952
40
0.7139986
50
359.8576077
51
359.9932188
0
ARC
8
DEFAULT_255_2_778
10
27.4860915
20
98.5390985
40
0.7013921
50
359.9928257
51
10.0685883
0
LINE
8
DEFAULT_255_2_778
10
22.6883816
20
95.0681208
11
22.6883816
21
94.8678208
0
LINE
8
DEFAULT_255_2_778
10
22.6883816
20
94.8678208
11
1.8881816
21
94.8678208
0
LINE
8
DEFAULT_255_2_778
10
1.8881816
20
94.8678208
11
1.8881816
21
95.0678208
0
LINE
8
DEFAULT_255_2_778
10
1.8881816
20
95.0678208
11
22.6883816
21
95.0678208
0
LINE
8
DEFAULT_255_2_778
10
25.2373816
20
32.9688208
11
26.0374816
21
31.3689208
0
LINE
8
DEFAULT_255_2_778
10
2.5374816
20
106.4690208
11
2.5374816
21
106.2396208
0
LINE
8
DEFAULT_255_2_778
10
2.5374816
20
32.8257208
11
2.5374816
21
25.7788208
0
LINE
8
DEFAULT_255_2_778
10
3.5873816
20
52.5689208
11
3.5873816
21
53.6688208
0
LINE
8
DEFAULT_255_2_778
10
0.4916816
20
99.0437208
11
0.4062816
21
98.6995208
0
LINE
8
DEFAULT_255_2_778
10
0.3885816
20
98.5804208
11
0.3874816
21
98.5376208
0
LINE
8
DEFAULT_255_2_778
10
28.1766816
20
98.6617208
11
28.1686816
21
98.6992208
0
LINE
8
DEFAULT_255_2_778
10
28.1686816
20
98.6992208
11
28.0840816
21
99.0398208
0
LINE
8
DEFAULT_255_2_778
10
24.9873816
20
47.7688208
11
24.9873816
21
46.6689208
0
ARC
8
DEFAULT_255_2_778
10
2.488013
20
26.9930304
40
0.1019645
50
100.602892
51
131.8745873
0
ARC
8
DEFAULT_255_2_778
10
2.887463
20
32.4688424
40
0.5000116
50
89.9898688
51
179.9986732
0
ARC
8
DEFAULT_255_2_778
10
25.6875398
20
32.4688424
40
0.5000116
50
0.0013268
51
90.0101312
0
ARC
8
DEFAULT_255_2_778
10
26.7764575
20
105.5452965
40
0.9240598
50
90.0003979
51
90.1305871
0
ARC
8
DEFAULT_255_2_778
10
26.7835633
20
106.0486925
40
0.420724
50
82.3697063
51
90.9686081
0
ARC
8
DEFAULT_255_2_778
10
26.8293124
20
106.363711
40
0.1024805
50
43.1440591
51
84.3356894
0
ARC
8
DEFAULT_255_2_778
10
26.7699308
20
106.3023779
40
0.1877948
50
43.2578829
51
44.4084113
0
ARC
8
DEFAULT_255_2_778
10
26.7436923
20
106.2776862
40
0.2238245
50
42.3160341
51
43.2582822
0
ARC
8
DEFAULT_255_2_778
10
26.7097028
20
106.2467007
40
0.2698178
50
41.5587841
51
42.3223101
0
ARC
8
DEFAULT_255_2_778
10
26.6557431
20
106.1988841
40
0.3419154
50
40.8677271
51
41.5560707
0
ARC
8
DEFAULT_255_2_778
10
26.5780646
20
106.1316558
40
0.4446461
50
40.3542807
51
40.8694436
0
ARC
8
DEFAULT_255_2_778
10
28.8306583
20
107.9918026
40
2.4767624
50
219.4046846
51
220.6928566
0
ARC
8
DEFAULT_255_2_778
10
27.4960068
20
106.8542313
40
0.7231485
50
221.3008595
51
224.4129592
0
ARC
8
DEFAULT_255_2_778
10
1.0032333
20
106.9096399
40
0.8159265
50
315.7166404
51
320.2515189
0
ARC
8
DEFAULT_255_2_778
10
2.2433657
20
105.8942565
40
0.7869109
50
137.2989109
51
141.1454787
0
ARC
8
DEFAULT_255_2_778
10
1.7534992
20
106.3463806
40
0.1202887
50
94.4821451
51
137.3237954
0
ARC
8
DEFAULT_255_2_778
10
1.7943204
20
106.0585518
40
0.4108308
50
89.3454913
51
97.0216274
0
ARC
8
DEFAULT_255_2_778
10
1.7994218
20
105.9890636
40
0.4802924
50
89.853313
51
90.0487185
0
ARC
8
DEFAULT_255_2_778
10
2.8243505
20
106.1490657
40
0.3202604
50
41.4137486
51
87.6376394
0
ARC
8
DEFAULT_255_2_778
10
2.5727179
20
105.8894642
40
0.6812826
50
28.7788349
51
43.7890598
0
ARC
8
DEFAULT_255_2_778
10
25.9496474
20
105.9264466
40
0.6173825
50
130.5158608
51
151.8776019
0
ARC
8
DEFAULT_255_2_778
10
25.7445192
20
106.1706743
40
0.2984634
50
91.3569216
51
131.0381745
0
LINE
8
DEFAULT_255_2_778
10
26.0374514
20
106.469054
11
26.0374514
21
106.239654
0
LINE
8
DEFAULT_255_2_778
10
26.0374514
20
25.778854
11
26.0374514
21
32.825754
0
LINE
8
DEFAULT_255_2_778
10
28.0840514
20
99.039554
11
28.0782514
21
99.076854
0
LINE
8
DEFAULT_255_2_778
10
28.0782514
20
99.076854
11
28.0716514
21
99.129854
0
LINE
8
DEFAULT_255_2_778
10
28.0716514
20
99.129854
11
28.0639514
21
99.205754
0
LINE
8
DEFAULT_255_2_778
10
28.0639514
20
99.205754
11
28.0554514
21
99.307654
0
LINE
8
DEFAULT_255_2_778
10
28.0554514
20
99.307654
11
28.0509514
21
99.368954
0
LINE
8
DEFAULT_255_2_778
10
28.0509514
20
99.368954
11
28.0464514
21
99.437754
0
LINE
8
DEFAULT_255_2_778
10
28.0464514
20
99.437754
11
28.0419514
21
99.513954
0
LINE
8
DEFAULT_255_2_778
10
28.0419514
20
99.513954
11
28.0374514
21
99.597854
0
LINE
8
DEFAULT_255_2_778
10
28.0374514
20
99.597854
11
28.0329514
21
99.689454
0
LINE
8
DEFAULT_255_2_778
10
28.0329514
20
99.689454
11
28.0284514
21
99.788654
0
LINE
8
DEFAULT_255_2_778
10
28.0284514
20
99.788654
11
28.0242514
21
99.895754
0
LINE
8
DEFAULT_255_2_778
10
28.0242514
20
99.895754
11
28.0202514
21
100.011654
0
LINE
8
DEFAULT_255_2_778
10
28.0202514
20
100.011654
11
28.0163514
21
100.137054
0
LINE
8
DEFAULT_255_2_778
10
28.0163514
20
100.137054
11
28.0126514
21
100.272554
0
LINE
8
DEFAULT_255_2_778
10
28.0126514
20
100.272554
11
28.0094514
21
100.417554
0
LINE
8
DEFAULT_255_2_778
10
28.0094514
20
100.417554
11
28.0065514
21
100.570454
0
LINE
8
DEFAULT_255_2_778
10
28.0065514
20
100.570454
11
28.0044514
21
100.728954
0
LINE
8
DEFAULT_255_2_778
10
28.0044514
20
100.728954
11
28.0017514
21
101.053854
0
LINE
8
DEFAULT_255_2_778
10
28.0017514
20
101.053854
11
28.0012514
21
105.754154
0
LINE
8
DEFAULT_255_2_778
10
28.0012514
20
105.754154
11
27.9985514
21
105.798854
0
LINE
8
DEFAULT_255_2_778
10
27.9985514
20
105.798854
11
27.9922514
21
105.842254
0
LINE
8
DEFAULT_255_2_778
10
27.9922514
20
105.842254
11
27.9824514
21
105.883854
0
LINE
8
DEFAULT_255_2_778
10
27.9824514
20
105.883854
11
27.9694514
21
105.923254
0
LINE
8
DEFAULT_255_2_778
10
27.9694514
20
105.923254
11
27.9536514
21
105.960554
0
LINE
8
DEFAULT_255_2_778
10
27.9536514
20
105.960554
11
27.9353514
21
105.995454
0
LINE
8
DEFAULT_255_2_778
10
27.9353514
20
105.995454
11
27.8932514
21
106.057954
0
LINE
8
DEFAULT_255_2_778
10
27.8932514
20
106.057954
11
27.8456514
21
106.110054
0
LINE
8
DEFAULT_255_2_778
10
27.8456514
20
106.110054
11
27.7691514
21
106.169854
0
LINE
8
DEFAULT_255_2_778
10
27.7691514
20
106.169854
11
27.6697514
21
106.218754
0
LINE
8
DEFAULT_255_2_778
10
27.6697514
20
106.218754
11
27.5741514
21
106.243654
0
LINE
8
DEFAULT_255_2_778
10
27.5741514
20
106.243654
11
26.9873514
21
106.341554
0
LINE
8
DEFAULT_255_2_778
10
2.5374514
20
31.368954
11
3.3375514
21
32.968854
0
LINE
8
DEFAULT_255_2_778
10
3.5873514
20
47.768854
11
3.7873514
21
47.968954
0
LINE
8
DEFAULT_255_2_778
10
24.9873514
20
52.568954
11
24.7873514
21
52.368954
0
LINE
8
DEFAULT_255_2_778
10
2.5377514
20
27.111554
11
2.4692514
21
27.093254
0
LINE
8
DEFAULT_255_2_778
10
2.8375514
20
106.469054
11
2.8375514
21
106.469054
0
LINE
8
DEFAULT_255_2_778
10
2.3874514
20
32.968854
11
26.1875514
21
32.968854
0
LINE
8
DEFAULT_255_2_778
10
26.0205514
20
31.402854
11
2.5544514
21
31.402854
0
LINE
8
DEFAULT_255_2_778
10
26.1875399
20
106.4690322
11
26.1865399
21
106.2650322
0
LINE
8
DEFAULT_255_2_778
10
26.1865399
20
106.2650322
11
26.1124399
21
106.2475322
0
LINE
8
DEFAULT_255_2_778
10
26.1124399
20
106.2475322
11
25.7457399
21
106.2237322
0
LINE
8
DEFAULT_255_2_778
10
25.7457399
20
106.2237322
11
25.1877399
21
106.2147322
0
LINE
8
DEFAULT_255_2_778
10
25.1877399
20
106.2147322
11
3.1913399
21
106.2155322
0
LINE
8
DEFAULT_255_2_778
10
3.1913399
20
106.2155322
11
2.5044399
21
106.2428322
0
LINE
8
DEFAULT_255_2_778
10
2.5044399
20
106.2428322
11
2.3875399
21
106.2677322
0
LINE
8
DEFAULT_255_2_778
10
2.3875399
20
106.2677322
11
2.3875399
21
106.4690322
0
LINE
8
DEFAULT_255_2_778
10
27.1871399
20
102.6511322
11
27.1871399
21
102.1507322
0
LINE
8
DEFAULT_255_2_778
10
27.1871399
20
102.1507322
11
1.3876399
21
102.1507322
0
LINE
8
DEFAULT_255_2_778
10
1.3876399
20
102.1507322
11
1.3876399
21
102.6511322
0
LINE
8
DEFAULT_255_2_778
10
1.3876399
20
102.6511322
11
27.1871399
21
102.6511322
0
ARC
8
DEFAULT_255_2_778
10
27.6878313
20
105.9691465
40
0.4996515
50
359.9727611
51
45.0090046
0
ARC
8
DEFAULT_255_2_778
10
27.6874363
20
105.9689133
40
0.5000956
50
44.9958871
51
89.9946851
0
ARC
8
DEFAULT_255_2_778
10
0.8875796
20
105.968912
40
0.5000969
50
89.9996485
51
180.0003515
0
ARC
8
DEFAULT_255_2_778
10
0.8875584
20
0.9690847
40
0.5000758
50
180.008676
51
270.0027763
0
ARC
8
DEFAULT_255_2_778
10
27.6874284
20
0.9690632
40
0.5000542
50
270.0062229
51
359.9937886
0
LINE
8
DEFAULT_255_2_778
10
27.6874827
20
106.4690089
11
0.8875827
21
106.4690089
0
LINE
8
DEFAULT_255_2_778
10
0.3874827
20
105.9689089
11
0.3874827
21
0.9690089
0
LINE
8
DEFAULT_255_2_778
10
0.8875827
20
0.4690089
11
27.6874827
21
0.4690089
0
LINE
8
DEFAULT_255_2_778
10
28.1874827
20
0.9690089
11
28.1874827
21
105.9689089
0
ARC
8
DEFAULT_255_2_778
10
27.9619562
20
53.8692766
40
0.2255266
50
345.0832476
51
359.9608758
0
ARC
8
DEFAULT_255_2_778
10
27.9803953
20
53.8654638
40
0.2067301
50
331.2163577
51
344.7888355
0
ARC
8
DEFAULT_255_2_778
10
27.9899984
20
53.859109
40
0.1952559
50
309.3048819
51
331.4938798
0
ARC
8
DEFAULT_255_2_778
10
28.0018689
20
53.8452171
40
0.1769878
50
289.4430152
51
309.1800706
0
ARC
8
DEFAULT_255_2_778
10
28.0058572
20
53.8376698
40
0.1685478
50
270.144645
51
289.0185895
0
ARC
8
DEFAULT_255_2_778
10
0.5691853
20
53.8381267
40
0.1690049
50
251.0071819
51
269.8296167
0
ARC
8
DEFAULT_255_2_778
10
0.5723581
20
53.8439025
40
0.1755024
50
230.7356423
51
250.641426
0
ARC
8
DEFAULT_255_2_778
10
0.5871795
20
53.8609391
40
0.1980744
50
208.6658779
51
230.5352215
0
ARC
8
DEFAULT_255_2_778
10
0.6041348
20
53.8688663
40
0.2167574
50
195.4226246
51
208.3545443
0
ARC
8
DEFAULT_255_2_778
10
0.6088032
20
53.8690928
40
0.2213204
50
179.9922851
51
195.1577249
0
ARC
8
DEFAULT_255_2_778
10
2.4873576
20
28.1765298
40
0.0998749
50
179.8894417
51
259.5150819
0
LINE
8
DEFAULT_255_2_778
10
28.0062827
20
53.6691226
11
0.5686827
21
53.6691226
0
LINE
8
DEFAULT_255_2_778
10
2.5377827
20
28.0601226
11
2.4691827
21
28.0783226
0
ARC
8
DEFAULT_255_2_778
10
2.4870684
20
30.9188665
40
0.0996003
50
180.0316925
51
225.1849854
0
ARC
8
DEFAULT_255_2_778
10
2.4878735
20
30.9192531
40
0.1004425
50
225.0146155
51
269.7687066
0
ARC
8
DEFAULT_255_2_778
10
2.4874166
20
28.6186113
40
0.0999487
50
134.8980302
51
179.8852919
0
ARC
8
DEFAULT_255_2_778
10
2.4876681
20
28.6188629
40
0.0999487
50
90.1147081
51
135.1019698
0
ARC
8
DEFAULT_255_2_778
10
26.0869042
20
28.1770929
40
0.1006646
50
280.8006779
51
359.7828912
0
LINE
8
DEFAULT_255_2_778
10
2.487468
20
30.8188114
11
2.537468
21
30.8188114
0
LINE
8
DEFAULT_255_2_778
10
2.487468
20
28.7188114
11
2.537468
21
28.7188114
0
LINE
8
DEFAULT_255_2_778
10
26.105768
20
28.0782114
11
26.037268
21
28.0600114
0
ARC
8
DEFAULT_255_2_778
10
26.0876417
20
30.9187739
40
0.0999086
50
269.9475695
51
0.0523899
0
ARC
8
DEFAULT_255_2_778
10
26.0876417
20
28.6189566
40
0.0999086
50
359.9476101
51
90.0524305
0
ARC
8
DEFAULT_255_2_778
10
19.8004666
20
21.3613317
40
0.0092837
50
0.2070084
51
55.3105143
0
ARC
8
DEFAULT_255_2_778
10
17.7697921
20
21.366193
40
0.0028698
50
104.9817781
51
162.828829
0
ARC
8
DEFAULT_255_2_778
10
17.7918588
20
21.3551073
40
0.0275293
50
154.3123262
51
166.860587
0
ARC
8
DEFAULT_255_2_778
10
18.612887
20
22.1279803
40
0.7915427
50
9.5104796
51
17.9151474
0
ARC
8
DEFAULT_255_2_778
10
19.6824879
20
21.2708237
40
0.1465522
50
180.8047852
51
201.9405617
0
ARC
8
DEFAULT_255_2_778
10
19.6880422
20
21.2708759
40
0.1517372
50
201.1751843
51
222.0399361
0
ARC
8
DEFAULT_255_2_778
10
19.6896987
20
21.2715539
40
0.1534227
50
221.8137134
51
242.5817564
0
ARC
8
DEFAULT_255_2_778
10
19.6888673
20
21.2719109
40
0.1533595
50
242.9189106
51
263.7419951
0
ARC
8
DEFAULT_255_2_778
10
12.7145513
20
21.1252864
40
7.1230021
50
359.9467414
51
1.8677409
0
ARC
8
DEFAULT_255_2_778
10
16.2882788
20
21.2472646
40
3.5472018
50
1.7799229
51
4.2257706
0
ARC
8
DEFAULT_255_2_778
10
18.9678428
20
21.4524815
40
0.8598307
50
3.7452744
51
9.4061403
0
ARC
8
DEFAULT_255_2_778
10
19.7817207
20
21.5944161
40
0.0344211
50
357.6506617
51
45.023064
0
ARC
8
DEFAULT_255_2_778
10
15.5332416
20
21.3551073
40
0.0275293
50
13.139413
51
25.6876738
0
ARC
8
DEFAULT_255_2_778
10
15.5553084
20
21.366193
40
0.0028698
50
17.171171
51
75.0182219
0
ARC
8
DEFAULT_255_2_778
10
13.5249532
20
21.3612381
40
0.0096038
50
126.4287233
51
179.2413066
0
ARC
8
DEFAULT_255_2_778
10
14.7118785
20
22.1279888
40
0.7915067
50
162.0846586
51
170.4897091
0
ARC
8
DEFAULT_255_2_778
10
13.654017
20
6.9685258
40
0.1509079
50
96.1498947
51
117.9225298
0
ARC
8
DEFAULT_255_2_778
10
13.6526976
20
6.9707948
40
0.1482853
50
117.8826191
51
139.9724919
0
ARC
8
DEFAULT_255_2_778
10
13.6499083
20
6.9736096
40
0.1443396
50
140.1159705
51
161.9781606
0
ARC
8
DEFAULT_255_2_778
10
13.6458217
20
6.9762666
40
0.1396371
50
162.4961194
51
180.0533257
0
ARC
8
DEFAULT_255_2_778
10
13.6489512
20
6.9761397
40
0.1427665
50
180.0012407
51
182.7599446
0
ARC
8
DEFAULT_255_2_778
10
15.5501853
20
6.8770452
40
0.0095654
50
305.5761907
51
359.5213559
0
ARC
8
DEFAULT_255_2_778
10
13.6324206
20
6.9664744
40
0.156578
50
1.4238989
51
22.5281538
0
ARC
8
DEFAULT_255_2_778
10
13.634394
20
6.9662318
40
0.1548511
50
22.8908261
51
44.7062373
0
ARC
8
DEFAULT_255_2_778
10
13.6376623
20
6.9688962
40
0.1506545
50
44.8604627
51
90.0227606
0
ARC
8
DEFAULT_255_2_778
10
13.6376012
20
6.9687516
40
0.1507991
50
89.9995251
51
93.3416555
0
ARC
8
DEFAULT_255_2_778
10
13.6376205
20
6.9687389
40
0.1508128
50
93.348679
51
112.6055794
0
ARC
8
DEFAULT_255_2_778
10
13.6371602
20
6.9700111
40
0.1494615
50
112.6301346
51
135.4488225
0
ARC
8
DEFAULT_255_2_778
10
13.6338561
20
6.972733
40
0.145198
50
135.2995681
51
158.6199563
0
ARC
8
DEFAULT_255_2_778
10
13.6334403
20
6.9726024
40
0.1448586
50
158.5119042
51
179.6560669
0
ARC
8
DEFAULT_255_2_778
10
13.6220515
20
6.9734621
40
0.1334673
50
179.995748
51
181.8019248
0
ARC
8
DEFAULT_255_2_778
10
14.6221299
20
6.0865976
40
0.698951
50
190.2465456
51
198.3057837
0
ARC
8
DEFAULT_255_2_778
10
15.6677966
20
6.3057719
40
1.7671774
50
190.6307432
51
191.2085967
0
ARC
8
DEFAULT_255_2_778
10
17.9037354
20
6.9688469
40
0.1507576
50
96.0484066
51
117.8317071
0
ARC
8
DEFAULT_255_2_778
10
17.9030573
20
6.970917
40
0.1486109
50
117.9731344
51
140.0387035
0
ARC
8
DEFAULT_255_2_778
10
17.8994519
20
6.9739691
40
0.1438871
50
140.0481718
51
161.9444771
0
ARC
8
DEFAULT_255_2_778
10
17.8963552
20
6.9764848
40
0.1401705
50
162.5298361
51
180.0235388
0
ARC
8
DEFAULT_255_2_778
10
17.8986529
20
6.9764325
40
0.1424682
50
180.0021364
51
182.7628415
0
ARC
8
DEFAULT_255_2_778
10
17.7745254
20
6.8773281
40
0.0096753
50
180.3717549
51
233.3525536
0
ARC
8
DEFAULT_255_2_778
10
19.7996201
20
6.877535
40
0.0099339
50
306.652306
51
358.4440564
0
ARC
8
DEFAULT_255_2_778
10
18.8573975
20
6.0832547
40
0.6839156
50
190.1896518
51
198.4275586
0
ARC
8
DEFAULT_255_2_778
10
19.6678085
20
6.2526599
40
1.5116939
50
190.4001888
51
191.0752944
0
ARC
8
DEFAULT_255_2_778
10
17.8822968
20
6.9665443
40
0.1564077
50
1.5097766
51
4.5016362
0
ARC
8
DEFAULT_255_2_778
10
17.8845651
20
6.9670269
40
0.1541088
50
4.3889544
51
22.6866296
0
ARC
8
DEFAULT_255_2_778
10
17.8879749
20
6.9681481
40
0.1512178
50
90.1609219
51
112.6872128
0
ARC
8
DEFAULT_255_2_778
10
17.8874258
20
6.9689985
40
0.1502215
50
112.619078
51
135.2990416
0
ARC
8
DEFAULT_255_2_778
10
17.8834435
20
6.9729078
40
0.1446411
50
135.2901194
51
158.7355007
0
ARC
8
DEFAULT_255_2_778
10
17.8833461
20
6.9723192
40
0.1447649
50
158.5044227
51
179.6309961
0
ARC
8
DEFAULT_255_2_778
10
17.8707153
20
6.973241
40
0.1321311
50
179.9954556
51
181.8110229
0
ARC
8
DEFAULT_255_2_778
10
17.8882745
20
21.2678997
40
0.1494325
50
179.3997274
51
180.0073118
0
ARC
8
DEFAULT_255_2_778
10
17.8909323
20
21.2678953
40
0.1520904
50
180.0055022
51
183.4447837
0
ARC
8
DEFAULT_255_2_778
10
17.8923634
20
21.2679543
40
0.1535224
50
183.4346697
51
200.908656
0
ARC
8
DEFAULT_255_2_778
10
17.8812729
20
21.2646312
40
0.1419789
50
201.2531783
51
225.0408857
0
ARC
8
DEFAULT_255_2_778
10
17.8909301
20
21.2744054
40
0.1557192
50
225.0677225
51
246.9058332
0
ARC
8
DEFAULT_255_2_778
10
17.8878998
20
21.2693216
40
0.1498563
50
247.2091717
51
269.9810612
0
ARC
8
DEFAULT_255_2_778
10
15.4382554
20
21.270151
40
0.1506858
50
270.036069
51
292.4300291
0
ARC
8
DEFAULT_255_2_778
10
15.4378526
20
21.2684094
40
0.1492331
50
292.8280981
51
315.4217542
0
ARC
8
DEFAULT_255_2_778
10
15.4404506
20
21.2657601
40
0.1455231
50
315.4467784
51
0.0339595
0
ARC
8
DEFAULT_255_2_778
10
15.4405277
20
21.2658564
40
0.145446
50
359.996051
51
1.0277728
0
ARC
8
DEFAULT_255_2_778
10
15.4310504
20
21.2621321
40
0.1370604
50
359.9960242
51
2.7739596
0
ARC
8
DEFAULT_255_2_778
10
15.4268289
20
21.2623013
40
0.1412821
50
342.605584
51
359.927543
0
ARC
8
DEFAULT_255_2_778
10
15.4242
20
21.2645166
40
0.1444593
50
320.3641837
51
342.078803
0
ARC
8
DEFAULT_255_2_778
10
15.4234844
20
21.2655627
40
0.1456781
50
275.5407716
51
320.2268774
0
ARC
8
DEFAULT_255_2_778
10
15.4327535
20
21.2581327
40
0.137651
50
269.99645
51
271.9969848
0
ARC
8
DEFAULT_255_2_778
10
15.432778
20
21.2585363
40
0.1380547
50
247.0967016
51
269.9862959
0
ARC
8
DEFAULT_255_2_778
10
15.4394289
20
21.274228
40
0.1550978
50
225.0480815
51
247.0894269
0
ARC
8
DEFAULT_255_2_778
10
15.4393253
20
21.2726442
40
0.1539073
50
202.6133237
51
224.6588061
0
ARC
8
DEFAULT_255_2_778
10
15.4383593
20
21.2726985
40
0.153037
50
181.098247
51
202.7711699
0
ARC
8
DEFAULT_255_2_778
10
14.3592052
20
22.1283038
40
0.7948091
50
9.5277867
51
17.8978526
0
ARC
8
DEFAULT_255_2_778
10
13.652715
20
21.2714938
40
0.151191
50
242.4348193
51
264.2434448
0
ARC
8
DEFAULT_255_2_778
10
13.6522057
20
21.268352
40
0.1481735
50
219.9710688
51
242.0471903
0
ARC
8
DEFAULT_255_2_778
10
13.6476758
20
21.2644913
40
0.1422217
50
197.6517407
51
219.9514427
0
ARC
8
DEFAULT_255_2_778
10
13.645217
20
21.2633477
40
0.1395324
50
179.9662584
51
197.5104447
0
ARC
8
DEFAULT_255_2_778
10
13.6444794
20
21.2634299
40
0.1387947
50
179.4497482
51
179.999994
0
ARC
8
DEFAULT_255_2_778
10
13.6470308
20
21.263427
40
0.1413461
50
177.2269729
51
179.4585183
0
ARC
8
DEFAULT_255_2_778
10
11.0861479
20
8.7703635
40
0.1506032
50
0.1908892
51
22.7342738
0
ARC
8
DEFAULT_255_2_778
10
11.0867945
20
8.7704114
40
0.1499883
50
22.8128584
51
45.4316944
0
ARC
8
DEFAULT_255_2_778
10
11.089214
20
8.7720284
40
0.1471397
50
45.6610146
51
68.5379007
0
ARC
8
DEFAULT_255_2_778
10
11.0901324
20
8.7758365
40
0.1432605
50
68.3225118
51
90.0598049
0
ARC
8
DEFAULT_255_2_778
10
11.089974
20
8.7734917
40
0.1456052
50
89.9964994
51
91.1899469
0
ARC
8
DEFAULT_255_2_778
10
10.2419073
20
20.0717747
40
0.9256803
50
98.8777392
51
105.6621302
0
ARC
8
DEFAULT_255_2_778
10
10.0154213
20
20.849168
40
0.1162983
50
101.6147913
51
130.0552573
0
ARC
8
DEFAULT_255_2_778
10
9.9507266
20
20.9287029
40
0.0138878
50
136.9365256
51
177.679009
0
ARC
8
DEFAULT_255_2_778
10
9.9749595
20
19.8259935
40
0.0407138
50
200.6051913
51
260.8121271
0
ARC
8
DEFAULT_255_2_778
10
10.1487506
20
20.27785
40
0.5240386
50
249.876591
51
259.8197352
0
ARC
8
DEFAULT_255_2_778
10
10.3374894
20
21.1668746
40
1.4327118
50
258.6744661
51
260.3429019
0
ARC
8
DEFAULT_255_2_778
10
11.084451
20
19.4792406
40
0.1427432
50
84.7715278
51
89.0770723
0
ARC
8
DEFAULT_255_2_778
10
11.0825092
20
19.463767
40
0.1583301
50
67.5192815
51
84.5820218
0
ARC
8
DEFAULT_255_2_778
10
11.0840183
20
19.4686697
40
0.1532237
50
23.0106953
51
67.3397011
0
ARC
8
DEFAULT_255_2_778
10
11.0865215
20
19.4704404
40
0.1502289
50
0.0476339
51
22.7622951
0
ARC
8
DEFAULT_255_2_778
10
13.6370609
20
21.2725606
40
0.151321
50
337.0947867
51
358.8279123
0
ARC
8
DEFAULT_255_2_778
10
13.6310405
20
21.2755099
40
0.158015
50
315.6064245
51
336.9593398
0
ARC
8
DEFAULT_255_2_778
10
13.637033
20
21.2718468
40
0.1511786
50
270.0006345
51
315.0095559
0
ARC
8
DEFAULT_255_2_778
10
13.6370291
20
21.2712002
40
0.1505319
50
266.7871866
51
270.0021455
0
ARC
8
DEFAULT_255_2_778
10
13.6370159
20
21.2710404
40
0.1503716
50
247.4500954
51
266.7887593
0
ARC
8
DEFAULT_255_2_778
10
13.6373921
20
21.2705839
40
0.1500952
50
224.5618454
51
247.250671
0
ARC
8
DEFAULT_255_2_778
10
13.632459
20
21.2668915
40
0.143992
50
201.351673
51
224.892355
0
ARC
8
DEFAULT_255_2_778
10
13.6353185
20
21.2678381
40
0.1469999
50
180.0088264
51
201.2895158
0
ARC
8
DEFAULT_255_2_778
10
13.6337729
20
21.2678335
40
0.1454543
50
178.8056513
51
180.0070834
0
ARC
8
DEFAULT_255_2_778
10
17.8942322
20
21.2639054
40
0.1383424
50
177.2406784
51
180.0012697
0
ARC
8
DEFAULT_255_2_778
10
17.8957377
20
21.2639967
40
0.1398479
50
180.0386491
51
197.6195715
0
ARC
8
DEFAULT_255_2_778
10
17.897141
20
21.2646747
40
0.141391
50
197.7093286
51
220.0132635
0
ARC
8
DEFAULT_255_2_778
10
17.9027534
20
21.2692086
40
0.1486047
50
219.9607812
51
242.0272803
0
ARC
8
DEFAULT_255_2_778
10
17.9120352
20
21.2917301
40
0.1728648
50
242.8116254
51
261.9575604
0
ARC
8
DEFAULT_255_2_778
10
17.8874356
20
21.2710066
40
0.1504419
50
270.1578973
51
315.1813044
0
ARC
8
DEFAULT_255_2_778
10
17.8826446
20
21.2748689
40
0.1565641
50
315.4145415
51
336.988397
0
ARC
8
DEFAULT_255_2_778
10
17.8832498
20
21.2734373
40
0.1554512
50
337.3868711
51
358.535828
0
ARC
8
DEFAULT_255_2_778
10
19.0140262
20
22.1207948
40
0.844391
50
163.3643975
51
170.6096655
0
ARC
8
DEFAULT_255_2_778
10
18.509924
20
22.2649736
40
0.3201716
50
160.2689663
51
162.2598128
0
ARC
8
DEFAULT_255_2_778
10
15.4377482
20
6.969074
40
0.1515914
50
90.0748341
51
112.6582327
0
ARC
8
DEFAULT_255_2_778
10
15.4366515
20
6.970358
40
0.1499847
50
112.4605481
51
135.2414725
0
ARC
8
DEFAULT_255_2_778
10
15.4382317
20
6.9687135
40
0.1522648
50
135.2207733
51
157.507095
0
ARC
8
DEFAULT_255_2_778
10
15.4386593
20
6.967732
40
0.153037
50
157.2288301
51
178.901753
0
ARC
8
DEFAULT_255_2_778
10
14.2982563
20
6.1228077
40
0.8566678
50
343.4240817
51
350.5710965
0
ARC
8
DEFAULT_255_2_778
10
14.8191729
20
5.9742154
40
0.3150689
50
340.2725913
51
342.2978373
0
ARC
8
DEFAULT_255_2_778
10
22.9871533
20
21.8687683
40
0.5000969
50
359.9996485
51
90.0003515
0
ARC
8
DEFAULT_255_2_778
10
9.987426
20
21.8687895
40
0.5000758
50
90.008676
51
180.0027763
0
ARC
8
DEFAULT_255_2_778
10
9.9874047
20
6.3687197
40
0.5000545
50
180.0062408
51
269.9937535
0
ARC
8
DEFAULT_255_2_778
10
22.9873958
20
6.3687197
40
0.5000544
50
270.0062367
51
359.9937633
0
ARC
8
DEFAULT_255_2_778
10
21.9368526
20
21.0685676
40
0.1999024
50
179.9719992
51
270.0566416
0
ARC
8
DEFAULT_255_2_778
10
21.8866287
20
19.2188824
40
0.1498829
50
89.9535465
51
149.98171
0
ARC
8
DEFAULT_255_2_778
10
21.8874287
20
19.2188274
40
0.1506036
50
150.1158531
51
179.8611342
0
ARC
8
DEFAULT_255_2_778
10
21.9030881
20
19.2187366
40
0.166263
50
179.8429395
51
179.9685878
0
ARC
8
DEFAULT_255_2_778
10
21.8870149
20
19.2187926
40
0.1501896
50
179.9865744
51
209.9262317
0
ARC
8
DEFAULT_255_2_778
10
21.8869634
20
19.2188277
40
0.1501626
50
209.9476457
51
269.9186706
0
ARC
8
DEFAULT_255_2_778
10
21.8868264
20
9.0184892
40
0.1500761
50
90.0290836
51
180.0091469
0
ARC
8
DEFAULT_255_2_778
10
21.8868049
20
9.01852
40
0.1500547
50
180.0208901
51
269.9791099
0
ARC
8
DEFAULT_255_2_778
10
21.9370447
20
7.1684709
40
0.2000944
50
89.9984046
51
179.972969
0
ARC
8
DEFAULT_255_2_778
10
10.2435668
20
8.169192
40
0.9286095
50
254.3001847
51
261.059339
0
ARC
8
DEFAULT_255_2_778
10
10.0157988
20
7.389219
40
0.116392
50
229.9333495
51
258.3459844
0
ARC
8
DEFAULT_255_2_778
10
9.9510308
20
7.3096286
40
0.0138919
50
182.3238071
51
223.0544017
0
ARC
8
DEFAULT_255_2_778
10
9.9752415
20
8.4123459
40
0.0406939
50
99.1668238
51
159.3975828
0
ARC
8
DEFAULT_255_2_778
10
10.1483946
20
7.9616983
40
0.5226617
50
100.1343116
51
110.1021329
0
ARC
8
DEFAULT_255_2_778
10
10.3353429
20
7.0778298
40
1.4259198
50
99.6038245
51
101.2799412
0
ARC
8
DEFAULT_255_2_778
10
11.0838695
20
8.7697168
40
0.1533825
50
271.1508854
51
336.9917841
0
ARC
8
DEFAULT_255_2_778
10
11.0873828
20
8.7677165
40
0.1493675
50
337.1713065
51
359.9803591
0
ARC
8
DEFAULT_255_2_778
10
11.0675117
20
8.7446459
40
0.1707969
50
7.7456771
51
27.1051635
0
ARC
8
DEFAULT_255_2_778
10
11.089842
20
8.7547248
40
0.1463318
50
27.5759327
51
50.0266375
0
ARC
8
DEFAULT_255_2_778
10
11.0920074
20
8.7539044
40
0.1464165
50
72.6580843
51
87.7705051
0
ARC
8
DEFAULT_255_2_778
10
11.0914722
20
8.7474157
40
0.1529215
50
87.6647246
51
90.0046783
0
ARC
8
DEFAULT_255_2_778
10
11.0914645
20
8.745538
40
0.1547991
50
90.0017732
51
91.7451753
0
ARC
8
DEFAULT_255_2_778
10
19.7856924
20
6.6399299
40
0.0292414
50
312.7732877
51
1.8620886
0
ARC
8
DEFAULT_255_2_778
10
19.1401941
20
6.7621937
40
0.6855436
50
349.8072702
51
355.6760891
0
ARC
8
DEFAULT_255_2_778
10
16.9848994
20
6.949258
40
2.8489089
50
355.1927295
51
357.6989454
0
ARC
8
DEFAULT_255_2_778
10
13.5975383
20
7.0941952
40
6.2393641
50
357.6179778
51
359.5119983
0
ARC
8
DEFAULT_255_2_778
10
11.8764824
20
7.1182395
40
7.9605678
50
359.4444506
51
0.0023445
0
ARC
8
DEFAULT_255_2_778
10
19.6881417
20
6.9656348
40
0.1530217
50
96.1869168
51
117.0929536
0
ARC
8
DEFAULT_255_2_778
10
19.6889105
20
6.9653285
40
0.1536638
50
138.0924674
51
158.6927414
0
ARC
8
DEFAULT_255_2_778
10
19.6930797
20
6.9641072
40
0.1579924
50
158.8295206
51
178.3830831
0
ARC
8
DEFAULT_255_2_778
10
18.5268861
20
6.1253064
40
0.8779281
50
343.5297625
51
350.4906545
0
ARC
8
DEFAULT_255_2_778
10
19.0392979
20
5.9801912
40
0.3454535
50
340.6563163
51
342.5151845
0
ARC
8
DEFAULT_255_2_778
10
13.5270125
20
6.8788714
40
0.0134445
50
189.4446307
51
232.0813054
0
ARC
8
DEFAULT_255_2_778
10
19.2010891
20
21.262926
40
0.6166294
50
2.7242385
51
8.4338277
0
ARC
8
DEFAULT_255_2_778
10
17.1626007
20
21.1419824
40
2.6586698
50
0.557004
51
3.2397268
0
ARC
8
DEFAULT_255_2_778
10
15.8824722
20
21.1187781
40
3.938978
50
359.9954493
51
0.7134957
0
ARC
8
DEFAULT_255_2_778
10
13.6874726
20
8.1185878
40
0.2002225
50
180.0636877
51
269.9649733
0
ARC
8
DEFAULT_255_2_778
10
16.4874049
20
7.76842
40
0.1500547
50
180.0208901
51
269.9791099
0
ARC
8
DEFAULT_255_2_778
10
16.4873741
20
7.7684415
40
0.1500762
50
269.9908991
51
359.9708973
0
ARC
8
DEFAULT_255_2_778
10
18.7874903
20
7.7685054
40
0.1501402
50
180.0534822
51
269.9847023
0
ARC
8
DEFAULT_255_2_778
10
18.7873955
20
7.76842
40
0.1500547
50
270.0208901
51
359.9791099
0
ARC
8
DEFAULT_255_2_778
10
21.0373955
20
8.06842
40
0.1500547
50
270.0208901
51
359.9791099
0
ARC
8
DEFAULT_255_2_778
10
21.0363798
20
8.0679283
40
0.151071
50
0.1657467
51
25.8363193
0
ARC
8
DEFAULT_255_2_778
10
21.0341438
20
8.0660209
40
0.1539166
50
26.1126111
51
51.3137548
0
ARC
8
DEFAULT_255_2_778
10
21.0374466
20
8.0689289
40
0.1495842
50
51.6050335
51
71.1199711
0
ARC
8
DEFAULT_255_2_778
10
21.0376528
20
8.0674465
40
0.1509217
50
71.3761513
51
89.9289461
0
ARC
8
DEFAULT_255_2_778
10
21.0378083
20
8.0769314
40
0.1414365
50
89.987183
51
90.3476229
0
ARC
8
DEFAULT_255_2_778
10
21.0359607
20
20.1691927
40
0.1514878
50
308.6384294
51
334.2019939
0
ARC
8
DEFAULT_255_2_778
10
21.0368113
20
20.1690031
40
0.1506395
50
334.1261071
51
359.8334567
0
ARC
8
DEFAULT_255_2_778
10
21.0373955
20
20.1685106
40
0.1500547
50
0.0208901
51
89.9791099
0
ARC
8
DEFAULT_255_2_778
10
18.7873955
20
20.4686106
40
0.1500547
50
0.0208901
51
89.9791099
0
ARC
8
DEFAULT_255_2_778
10
18.7874903
20
20.4685251
40
0.1501402
50
90.0152977
51
179.9465178
0
ARC
8
DEFAULT_255_2_778
10
16.4873743
20
20.4685894
40
0.1500759
50
0.0289723
51
90.0091931
0
ARC
8
DEFAULT_255_2_778
10
16.4874049
20
20.4686106
40
0.1500547
50
90.0208901
51
179.9791099
0
ARC
8
DEFAULT_255_2_778
10
13.6872804
20
20.1185351
40
0.2000302
50
89.9800103
51
179.9913489
0
ARC
8
DEFAULT_255_2_778
10
13.2871133
20
18.5688022
40
0.200137
50
270.0392078
51
359.9607922
0
ARC
8
DEFAULT_255_2_778
10
11.4873734
20
20.8688099
40
0.4999108
50
121.6507324
51
148.6272488
0
ARC
8
DEFAULT_255_2_778
10
11.48769
20
7.3682786
40
0.5002114
50
211.3595372
51
238.3278878
0
ARC
8
DEFAULT_255_2_778
10
10.6855561
20
13.959651
40
8.5088971
50
74.9935202
51
81.3277146
0
ARC
8
DEFAULT_255_2_778
10
10.6847759
20
13.9651354
40
9.8039871
50
51.3336642
51
57.5166573
0
ARC
8
DEFAULT_255_2_778
10
15.7880301
20
21.9799796
40
0.3023595
50
57.5982428
51
70.8834098
0
ARC
8
DEFAULT_255_2_778
10
13.1876726
20
18.1681427
40
0.2002226
50
90.0350267
51
179.9363123
0
ARC
8
DEFAULT_255_2_778
10
12.7874415
20
17.7182741
40
0.2000087
50
270.0024936
51
359.9974862
0
ARC
8
DEFAULT_255_2_778
10
11.687559
20
17.3182566
40
0.2000087
50
90.0025138
51
179.9975064
0
ARC
8
DEFAULT_255_2_778
10
11.28752
20
16.5680955
40
0.2000302
50
270.0086511
51
0.0199897
0
ARC
8
DEFAULT_255_2_778
10
10.9858302
20
21.3700914
40
0.2524698
50
314.9669392
51
335.2182215
0
ARC
8
DEFAULT_255_2_778
10
10.9950603
20
21.3656137
40
0.2422129
50
335.264681
51
355.2758249
0
ARC
8
DEFAULT_255_2_778
10
10.9945048
20
6.8709954
40
0.2427682
50
4.7184371
51
24.7065063
0
ARC
8
DEFAULT_255_2_778
10
10.990648
20
6.8692863
40
0.2469864
50
24.6927235
51
45.4390816
0
ARC
8
DEFAULT_255_2_778
10
10.9777314
20
6.860629
40
0.2622366
50
44.7555097
51
67.0819097
0
ARC
8
DEFAULT_255_2_778
10
10.9780065
20
6.8589482
40
0.2636792
50
67.279184
51
87.9909788
0
ARC
8
DEFAULT_255_2_778
10
11.0934617
20
19.4638455
40
0.1278312
50
267.214841
51
270.0090042
0
ARC
8
DEFAULT_255_2_778
10
11.0934607
20
19.4684665
40
0.1324523
50
270.0091024
51
273.2605009
0
ARC
8
DEFAULT_255_2_778
10
11.0929718
20
19.4751604
40
0.1391632
50
273.3047479
51
288.0756432
0
ARC
8
DEFAULT_255_2_778
10
11.0928584
20
19.4778743
40
0.1417802
50
287.7789018
51
310.188758
0
ARC
8
DEFAULT_255_2_778
10
11.0889009
20
19.482864
40
0.1481458
50
310.1126852
51
332.2849894
0
ARC
8
DEFAULT_255_2_778
10
11.0860217
20
19.48393
40
0.151191
50
332.4348193
51
354.2434448
0
ARC
8
DEFAULT_255_2_778
10
11.097772
20
19.4645846
40
0.1387412
50
0.0035722
51
1.7267363
0
ARC
8
DEFAULT_255_2_778
10
11.0972646
20
19.4646844
40
0.1392485
50
337.2186843
51
359.9625238
0
ARC
8
DEFAULT_255_2_778
10
11.0872339
20
19.4694646
40
0.1503486
50
314.465618
51
337.0192473
0
ARC
8
DEFAULT_255_2_778
10
11.0898599
20
19.4665782
40
0.1464492
50
291.5490031
51
314.5234391
0
ARC
8
DEFAULT_255_2_778
10
11.0911362
20
19.4625657
40
0.1422487
50
270.0374185
51
291.6644959
0
ARC
8
DEFAULT_255_2_778
10
11.091222
20
19.4601997
40
0.1398826
50
268.4958586
51
270.0028711
0
ARC
8
DEFAULT_255_2_778
10
10.9152512
20
21.1692481
40
0.1778012
50
179.9696212
51
180.0911392
0
ARC
8
DEFAULT_255_2_778
10
11.1867333
20
21.169366
40
0.4492832
50
134.9624724
51
180.0030179
0
ARC
8
DEFAULT_255_2_778
10
11.1874969
20
21.1689432
40
0.4501221
50
89.9932111
51
134.9932132
0
ARC
8
DEFAULT_255_2_778
10
10.9777016
20
21.3773886
40
0.2628137
50
292.9429668
51
315.2197173
0
ARC
8
DEFAULT_255_2_778
10
10.9780408
20
21.3784109
40
0.2636238
50
275.0014279
51
292.7884634
0
ARC
8
DEFAULT_255_2_778
10
10.9784674
20
21.3735456
40
0.2587398
50
272.0117232
51
275.0012464
0
ARC
8
DEFAULT_255_2_778
10
11.2875414
20
11.6685563
40
0.200009
50
0.0025728
51
89.9974618
0
ARC
8
DEFAULT_255_2_778
10
11.6877513
20
10.9186663
40
0.2002012
50
180.0575346
51
269.9424595
0
ARC
8
DEFAULT_255_2_778
10
12.7874413
20
10.5184563
40
0.2000089
50
0.0025585
51
89.9974474
0
ARC
8
DEFAULT_255_2_778
10
13.1875444
20
10.0684596
40
0.2000942
50
180.0269965
51
270.0016788
0
ARC
8
DEFAULT_255_2_778
10
13.2875413
20
9.6688563
40
0.2000089
50
0.0025627
51
89.9974373
0
ARC
8
DEFAULT_255_2_778
10
15.4316512
20
6.9764959
40
0.1369597
50
357.2250419
51
0.003064
0
ARC
8
DEFAULT_255_2_778
10
15.426777
20
6.9762445
40
0.1418342
50
0.1045247
51
17.3604383
0
ARC
8
DEFAULT_255_2_778
10
15.4251656
20
6.9741767
40
0.143997
50
17.9544376
51
39.7041089
0
ARC
8
DEFAULT_255_2_778
10
15.4210341
20
6.968577
40
0.150762
50
40.3383426
51
61.897644
0
ARC
8
DEFAULT_255_2_778
10
15.4228669
20
6.9705938
40
0.1481211
50
62.1555335
51
84.2331302
0
ARC
8
DEFAULT_255_2_778
10
15.4424116
20
6.9851951
40
0.132852
50
89.9983811
51
92.010762
0
ARC
8
DEFAULT_255_2_778
10
15.4421023
20
6.9803695
40
0.137678
50
67.0665158
51
89.8696936
0
ARC
8
DEFAULT_255_2_778
10
15.4378526
20
6.9696212
40
0.1492331
50
44.5782458
51
67.1719019
0
ARC
8
DEFAULT_255_2_778
10
15.4404506
20
6.9722704
40
0.1455231
50
359.9660405
51
44.5532216
0
ARC
8
DEFAULT_255_2_778
10
15.4405277
20
6.9721741
40
0.145446
50
358.9722272
51
0.003949
0
ARC
8
DEFAULT_255_2_778
10
10.9150512
20
7.0682825
40
0.1778012
50
179.9088608
51
180.0303788
0
ARC
8
DEFAULT_255_2_778
10
11.1872624
20
7.0682667
40
0.4500123
50
180.0099964
51
224.981027
0
ARC
8
DEFAULT_255_2_778
10
11.1870571
20
7.0684912
40
0.450026
50
225.0197237
51
270.0245874
0
LINE
8
DEFAULT_255_2_778
10
26.0875502
20
30.8188653
11
26.0375502
21
30.8188653
0
LINE
8
DEFAULT_255_2_778
10
26.0875502
20
28.7188653
11
26.0375502
21
28.7188653
0
LINE
8
DEFAULT_255_2_778
10
19.8057502
20
21.3689653
11
19.5330502
21
21.3689653
0
LINE
8
DEFAULT_255_2_778
10
18.0418502
20
21.3689653
11
17.7690502
21
21.3689653
0
LINE
8
DEFAULT_255_2_778
10
19.3935502
20
22.2587653
11
19.5160502
21
21.5920653
0
LINE
8
DEFAULT_255_2_778
10
19.5160502
20
21.5920653
11
19.5195502
21
21.5697653
0
LINE
8
DEFAULT_255_2_778
10
19.5195502
20
21.5697653
11
19.5226502
21
21.5414653
0
LINE
8
DEFAULT_255_2_778
10
19.5226502
20
21.5414653
11
19.5285502
21
21.4679653
0
LINE
8
DEFAULT_255_2_778
10
19.5285502
20
21.4679653
11
19.5330502
21
21.3753653
0
LINE
8
DEFAULT_255_2_778
10
19.5330502
20
21.3753653
11
19.5359502
21
21.2687653
0
LINE
8
DEFAULT_255_2_778
10
19.6721502
20
21.1194653
11
19.6877502
21
21.1186653
0
LINE
8
DEFAULT_255_2_778
10
19.6877502
20
21.1186653
11
19.8375502
21
21.1186653
0
LINE
8
DEFAULT_255_2_778
10
17.7642502
20
21.3570653
11
17.7640502
21
21.3504653
0
LINE
8
DEFAULT_255_2_778
10
15.5560502
20
21.3689653
11
15.2832502
21
21.3689653
0
LINE
8
DEFAULT_255_2_778
10
13.7920502
20
21.3689653
11
13.5192502
21
21.3689653
0
LINE
8
DEFAULT_255_2_778
10
13.5153502
20
21.3613653
11
13.7915502
21
21.3605653
0
LINE
8
DEFAULT_255_2_778
10
13.5142502
20
21.3573653
11
13.5140502
21
21.3507653
0
LINE
8
DEFAULT_255_2_778
10
13.5063502
20
6.9692653
11
13.5095502
21
6.9184653
0
LINE
8
DEFAULT_255_2_778
10
13.5095502
20
6.9184653
11
13.5113502
21
6.8991653
0
LINE
8
DEFAULT_255_2_778
10
13.5113502
20
6.8991653
11
13.5134502
21
6.8843653
0
LINE
8
DEFAULT_255_2_778
10
13.5134502
20
6.8843653
11
13.7910502
21
6.8843653
0
LINE
8
DEFAULT_255_2_778
10
15.2830502
20
6.8692653
11
15.5557502
21
6.8692653
0
LINE
8
DEFAULT_255_2_778
10
13.9312502
20
5.9813653
11
13.8087502
21
6.6462653
0
LINE
8
DEFAULT_255_2_778
10
13.8087502
20
6.6462653
11
13.8053502
21
6.6684653
0
LINE
8
DEFAULT_255_2_778
10
13.8053502
20
6.6684653
11
13.8021502
21
6.6967653
0
LINE
8
DEFAULT_255_2_778
10
13.8021502
20
6.6967653
11
13.7963502
21
6.7705653
0
LINE
8
DEFAULT_255_2_778
10
13.7963502
20
6.7705653
11
13.7918502
21
6.8634653
0
LINE
8
DEFAULT_255_2_778
10
13.7918502
20
6.8634653
11
13.7889502
21
6.9703653
0
LINE
8
DEFAULT_255_2_778
10
13.4886502
20
6.9692653
11
13.4904502
21
6.8960653
0
LINE
8
DEFAULT_255_2_778
10
13.4904502
20
6.8960653
11
13.4931502
21
6.8282653
0
LINE
8
DEFAULT_255_2_778
10
13.4931502
20
6.8282653
11
13.4962502
21
6.7679653
0
LINE
8
DEFAULT_255_2_778
10
13.4962502
20
6.7679653
11
13.4999502
21
6.7163653
0
LINE
8
DEFAULT_255_2_778
10
13.4999502
20
6.7163653
11
13.5042502
21
6.6748653
0
LINE
8
DEFAULT_255_2_778
10
13.5042502
20
6.6748653
11
13.5065502
21
6.6581653
0
LINE
8
DEFAULT_255_2_778
10
13.5065502
20
6.6581653
11
13.5113502
21
6.6335653
0
LINE
8
DEFAULT_255_2_778
10
13.5113502
20
6.6335653
11
13.5163502
21
6.6211653
0
LINE
8
DEFAULT_255_2_778
10
13.5163502
20
6.6211653
11
13.5187502
21
6.6195653
0
LINE
8
DEFAULT_255_2_778
10
13.5137502
20
6.8880653
11
13.5140502
21
6.8814653
0
LINE
8
DEFAULT_255_2_778
10
15.2610502
20
6.6195653
11
18.0637502
21
6.6195653
0
LINE
8
DEFAULT_255_2_778
10
19.5110502
20
6.6195653
11
22.2873502
21
6.6195653
0
LINE
8
DEFAULT_255_2_778
10
17.7563502
20
6.9695653
11
17.7595502
21
6.9187653
0
LINE
8
DEFAULT_255_2_778
10
17.7595502
20
6.9187653
11
17.7613502
21
6.8994653
0
LINE
8
DEFAULT_255_2_778
10
17.7613502
20
6.8994653
11
17.7634502
21
6.8846653
0
LINE
8
DEFAULT_255_2_778
10
17.7634502
20
6.8846653
11
18.0410502
21
6.8846653
0
LINE
8
DEFAULT_255_2_778
10
17.7687502
20
6.8695653
11
18.0415502
21
6.8695653
0
LINE
8
DEFAULT_255_2_778
10
19.5327502
20
6.8695653
11
19.8055502
21
6.8695653
0
LINE
8
DEFAULT_255_2_778
10
18.1809502
20
5.9797653
11
18.0584502
21
6.6465653
0
LINE
8
DEFAULT_255_2_778
10
18.0584502
20
6.6465653
11
18.0550502
21
6.6687653
0
LINE
8
DEFAULT_255_2_778
10
18.0550502
20
6.6687653
11
18.0518502
21
6.6970653
0
LINE
8
DEFAULT_255_2_778
10
18.0518502
20
6.6970653
11
18.0460502
21
6.7708653
0
LINE
8
DEFAULT_255_2_778
10
18.0460502
20
6.7708653
11
18.0415502
21
6.8637653
0
LINE
8
DEFAULT_255_2_778
10
18.0415502
20
6.8637653
11
18.0386502
21
6.9706653
0
LINE
8
DEFAULT_255_2_778
10
18.0267502
20
7.0264653
11
18.0129502
21
7.0521653
0
LINE
8
DEFAULT_255_2_778
10
18.0129502
20
7.0521653
11
17.9944502
21
7.0748653
0
LINE
8
DEFAULT_255_2_778
10
17.9944502
20
7.0748653
11
17.9717502
21
7.0936653
0
LINE
8
DEFAULT_255_2_778
10
17.9717502
20
7.0936653
11
17.9457502
21
7.1076653
0
LINE
8
DEFAULT_255_2_778
10
17.9457502
20
7.1076653
11
17.9174502
21
7.1164653
0
LINE
8
DEFAULT_255_2_778
10
17.9174502
20
7.1164653
11
17.8875502
21
7.1193653
0
LINE
8
DEFAULT_255_2_778
10
17.7386502
20
6.9690653
11
17.7404502
21
6.8957653
0
LINE
8
DEFAULT_255_2_778
10
17.7404502
20
6.8957653
11
17.7431502
21
6.8280653
0
LINE
8
DEFAULT_255_2_778
10
17.7431502
20
6.8280653
11
17.7462502
21
6.7676653
0
LINE
8
DEFAULT_255_2_778
10
17.7462502
20
6.7676653
11
17.7499502
21
6.7160653
0
LINE
8
DEFAULT_255_2_778
10
17.7499502
20
6.7160653
11
17.7542502
21
6.6745653
0
LINE
8
DEFAULT_255_2_778
10
17.7542502
20
6.6745653
11
17.7566502
21
6.6578653
0
LINE
8
DEFAULT_255_2_778
10
17.7566502
20
6.6578653
11
17.7613502
21
6.6332653
0
LINE
8
DEFAULT_255_2_778
10
17.7613502
20
6.6332653
11
17.7663502
21
6.6208653
0
LINE
8
DEFAULT_255_2_778
10
17.7663502
20
6.6208653
11
17.7687502
21
6.6192653
0
LINE
8
DEFAULT_255_2_778
10
17.7637502
20
6.8878653
11
17.7640502
21
6.8811653
0
LINE
8
DEFAULT_255_2_778
10
22.2873502
20
21.3692653
11
21.7372502
21
21.3692653
0
LINE
8
DEFAULT_255_2_778
10
17.7687502
20
21.6192653
11
17.7637502
21
21.6129653
0
LINE
8
DEFAULT_255_2_778
10
17.7637502
20
21.6129653
11
17.7589502
21
21.5944653
0
LINE
8
DEFAULT_255_2_778
10
17.7589502
20
21.5944653
11
17.7544502
21
21.5639653
0
LINE
8
DEFAULT_255_2_778
10
17.7544502
20
21.5639653
11
17.7502502
21
21.5224653
0
LINE
8
DEFAULT_255_2_778
10
17.7502502
20
21.5224653
11
17.7465502
21
21.4708653
0
LINE
8
DEFAULT_255_2_778
10
17.7465502
20
21.4708653
11
17.7433502
21
21.4105653
0
LINE
8
DEFAULT_255_2_778
10
17.7433502
20
21.4105653
11
17.7407502
21
21.3427653
0
LINE
8
DEFAULT_255_2_778
10
17.7407502
20
21.3427653
11
17.7388502
21
21.2694653
0
LINE
8
DEFAULT_255_2_778
10
15.5859502
20
21.2684653
11
15.5841502
21
21.3419653
0
LINE
8
DEFAULT_255_2_778
10
15.5841502
20
21.3419653
11
15.5814502
21
21.4099653
0
LINE
8
DEFAULT_255_2_778
10
15.5814502
20
21.4099653
11
15.5782502
21
21.4705653
0
LINE
8
DEFAULT_255_2_778
10
15.5782502
20
21.4705653
11
15.5745502
21
21.5224653
0
LINE
8
DEFAULT_255_2_778
10
15.5745502
20
21.5224653
11
15.5703502
21
21.5642653
0
LINE
8
DEFAULT_255_2_778
10
15.5703502
20
21.5642653
11
15.5679502
21
21.5809653
0
LINE
8
DEFAULT_255_2_778
10
15.5679502
20
21.5809653
11
15.5632502
21
21.6055653
0
LINE
8
DEFAULT_255_2_778
10
15.5632502
20
21.6055653
11
15.5581502
21
21.6179653
0
LINE
8
DEFAULT_255_2_778
10
15.5581502
20
21.6179653
11
15.5555502
21
21.6195653
0
LINE
8
DEFAULT_255_2_778
10
15.2832502
20
21.3544653
11
15.5608502
21
21.3544653
0
LINE
8
DEFAULT_255_2_778
10
15.5608502
20
21.3544653
11
15.5629502
21
21.3396653
0
LINE
8
DEFAULT_255_2_778
10
15.5629502
20
21.3396653
11
15.5647502
21
21.3200653
0
LINE
8
DEFAULT_255_2_778
10
15.5647502
20
21.3200653
11
15.5679502
21
21.2687653
0
LINE
8
DEFAULT_255_2_778
10
15.2853502
20
21.2697653
11
15.2824502
21
21.3763653
0
LINE
8
DEFAULT_255_2_778
10
15.2824502
20
21.3763653
11
15.2779502
21
21.4689653
0
LINE
8
DEFAULT_255_2_778
10
15.2779502
20
21.4689653
11
15.2721502
21
21.5425653
0
LINE
8
DEFAULT_255_2_778
10
15.2721502
20
21.5425653
11
15.2689502
21
21.5708653
0
LINE
8
DEFAULT_255_2_778
10
15.2689502
20
21.5708653
11
15.2655502
21
21.5930653
0
LINE
8
DEFAULT_255_2_778
10
15.2655502
20
21.5930653
11
15.1430502
21
22.2598653
0
LINE
8
DEFAULT_255_2_778
10
13.5058502
20
21.2702653
11
13.5089502
21
21.3210653
0
LINE
8
DEFAULT_255_2_778
10
13.5089502
20
21.3210653
11
13.5108502
21
21.3404653
0
LINE
8
DEFAULT_255_2_778
10
13.5108502
20
21.3404653
11
13.5129502
21
21.3552653
0
LINE
8
DEFAULT_255_2_778
10
13.5129502
20
21.3552653
11
13.7904502
21
21.3552653
0
LINE
8
DEFAULT_255_2_778
10
10.9867502
20
16.3704653
11
10.9867502
21
11.8704653
0
LINE
8
DEFAULT_255_2_778
10
11.0869502
20
8.9190653
11
11.0136502
21
8.9171653
0
LINE
8
DEFAULT_255_2_778
10
11.0136502
20
8.9171653
11
10.7369502
21
8.8909653
0
LINE
8
DEFAULT_255_2_778
10
11.2370502
20
21.3703653
11
10.9869502
21
21.3703653
0
LINE
8
DEFAULT_255_2_778
10
10.9869502
20
21.3703653
11
10.9869502
21
21.1163653
0
LINE
8
DEFAULT_255_2_778
10
10.9869502
20
21.1163653
11
10.7639502
21
21.1004653
0
LINE
8
DEFAULT_255_2_778
10
10.7639502
20
21.1004653
11
10.0990502
21
20.9863653
0
LINE
8
DEFAULT_255_2_778
10
9.9368502
20
20.9292653
11
9.9368502
21
20.9292653
0
LINE
8
DEFAULT_255_2_778
10
9.9368502
20
20.9292653
11
9.9368502
21
19.8116653
0
LINE
8
DEFAULT_255_2_778
10
10.0971502
20
19.7544653
11
10.8141502
21
19.6343653
0
LINE
8
DEFAULT_255_2_778
10
10.8141502
20
19.6343653
11
11.0867502
21
19.6219653
0
LINE
8
DEFAULT_255_2_778
10
22.2367502
20
7.2206653
11
22.2867502
21
7.2206653
0
LINE
8
DEFAULT_255_2_778
10
22.2367502
20
9.6206653
11
22.2867502
21
9.6206653
0
LINE
8
DEFAULT_255_2_778
10
22.2867502
20
9.9006653
11
22.2367502
21
9.9006653
0
LINE
8
DEFAULT_255_2_778
10
22.2367502
20
10.2705653
11
22.2867502
21
10.2726653
0
LINE
8
DEFAULT_255_2_778
10
22.2367502
20
10.7205653
11
22.2867502
21
10.7205653
0
LINE
8
DEFAULT_255_2_778
10
22.2367502
20
11.1706653
11
22.2867502
21
11.1706653
0
LINE
8
DEFAULT_255_2_778
10
22.2367502
20
11.9905653
11
22.2867502
21
11.9905653
0
LINE
8
DEFAULT_255_2_778
10
22.2367502
20
12.4406653
11
22.2867502
21
12.4406653
0
LINE
8
DEFAULT_255_2_778
10
22.2367502
20
13.2605653
11
22.2867502
21
13.2605653
0
LINE
8
DEFAULT_255_2_778
10
22.2367502
20
13.7106653
11
22.2867502
21
13.7106653
0
LINE
8
DEFAULT_255_2_778
10
22.2367502
20
14.5305653
11
22.2867502
21
14.5305653
0
LINE
8
DEFAULT_255_2_778
10
22.2867502
20
14.9806653
11
22.2367502
21
14.9806653
0
LINE
8
DEFAULT_255_2_778
10
22.2867502
20
15.8005653
11
22.2367502
21
15.8005653
0
LINE
8
DEFAULT_255_2_778
10
22.2867502
20
16.2506653
11
22.2367502
21
16.2506653
0
LINE
8
DEFAULT_255_2_778
10
22.2365502
20
16.7744653
11
22.2867502
21
16.7707653
0
LINE
8
DEFAULT_255_2_778
10
22.2367502
20
17.0708653
11
22.2867502
21
17.0708653
0
LINE
8
DEFAULT_255_2_778
10
22.2867502
20
17.5208653
11
22.2367502
21
17.5208653
0
LINE
8
DEFAULT_255_2_778
10
22.2867502
20
18.3408653
11
22.2367502
21
18.3408653
0
LINE
8
DEFAULT_255_2_778
10
22.2367502
20
18.6207653
11
22.2867502
21
18.6207653
0
LINE
8
DEFAULT_255_2_778
10
22.2367502
20
21.0207653
11
22.2867502
21
21.0207653
0
LINE
8
DEFAULT_255_2_778
10
22.2867502
20
17.7706653
11
22.2365502
21
17.7669653
0
LINE
8
DEFAULT_255_2_778
10
13.9307502
20
22.2585653
11
13.8082502
21
21.5936653
0
LINE
8
DEFAULT_255_2_778
10
13.8082502
20
21.5936653
11
13.8047502
21
21.5713653
0
LINE
8
DEFAULT_255_2_778
10
13.8047502
20
21.5713653
11
13.8016502
21
21.5430653
0
LINE
8
DEFAULT_255_2_778
10
13.8016502
20
21.5430653
11
13.7957502
21
21.4692653
0
LINE
8
DEFAULT_255_2_778
10
13.7957502
20
21.4692653
11
13.7912502
21
21.3763653
0
LINE
8
DEFAULT_255_2_778
10
13.7912502
20
21.3763653
11
13.7883502
21
21.2694653
0
LINE
8
DEFAULT_255_2_778
10
13.4883502
20
21.2708653
11
13.4901502
21
21.3441653
0
LINE
8
DEFAULT_255_2_778
10
13.4901502
20
21.3441653
11
13.4928502
21
21.4118653
0
LINE
8
DEFAULT_255_2_778
10
13.4928502
20
21.4118653
11
13.4960502
21
21.4721653
0
LINE
8
DEFAULT_255_2_778
10
13.4960502
20
21.4721653
11
13.4997502
21
21.5237653
0
LINE
8
DEFAULT_255_2_778
10
13.4997502
20
21.5237653
11
13.5039502
21
21.5653653
0
LINE
8
DEFAULT_255_2_778
10
13.5039502
20
21.5653653
11
13.5063502
21
21.5819653
0
LINE
8
DEFAULT_255_2_778
10
13.5063502
20
21.5819653
11
13.5110502
21
21.6065653
0
LINE
8
DEFAULT_255_2_778
10
13.5110502
20
21.6065653
11
13.5161502
21
21.6190653
0
LINE
8
DEFAULT_255_2_778
10
13.5161502
20
21.6190653
11
13.5185502
21
21.6205653
0
LINE
8
DEFAULT_255_2_778
10
18.0407502
20
21.3554653
11
17.7632502
21
21.3554653
0
LINE
8
DEFAULT_255_2_778
10
17.7632502
20
21.3554653
11
17.7610502
21
21.3406653
0
LINE
8
DEFAULT_255_2_778
10
17.7610502
20
21.3406653
11
17.7592502
21
21.3213653
0
LINE
8
DEFAULT_255_2_778
10
17.7592502
20
21.3213653
11
17.7560502
21
21.2705653
0
LINE
8
DEFAULT_255_2_778
10
18.0386502
20
21.2694653
11
18.0415502
21
21.3763653
0
LINE
8
DEFAULT_255_2_778
10
18.0415502
20
21.3763653
11
18.0460502
21
21.4692653
0
LINE
8
DEFAULT_255_2_778
10
18.0460502
20
21.4692653
11
18.0518502
21
21.5430653
0
LINE
8
DEFAULT_255_2_778
10
18.0518502
20
21.5430653
11
18.0550502
21
21.5713653
0
LINE
8
DEFAULT_255_2_778
10
18.0550502
20
21.5713653
11
18.0584502
21
21.5936653
0
LINE
8
DEFAULT_255_2_778
10
18.0584502
20
21.5936653
11
18.1809502
21
22.2585653
0
LINE
8
DEFAULT_255_2_778
10
15.2856502
20
6.9706653
11
15.2827502
21
6.8639653
0
LINE
8
DEFAULT_255_2_778
10
15.2827502
20
6.8639653
11
15.2782502
21
6.7713653
0
LINE
8
DEFAULT_255_2_778
10
15.2782502
20
6.7713653
11
15.2724502
21
6.6978653
0
LINE
8
DEFAULT_255_2_778
10
15.2724502
20
6.6978653
11
15.2692502
21
6.6695653
0
LINE
8
DEFAULT_255_2_778
10
15.2692502
20
6.6695653
11
15.2658502
21
6.6472653
0
LINE
8
DEFAULT_255_2_778
10
15.2658502
20
6.6472653
11
15.1433502
21
5.9824653
0
LINE
8
DEFAULT_255_2_778
10
20.4871502
20
20.0701653
11
20.4871502
21
8.1702653
0
LINE
8
DEFAULT_255_2_778
10
22.2370502
20
8.8703653
11
22.2370502
21
19.3703653
0
LINE
8
DEFAULT_255_2_778
10
22.2870502
20
8.8703653
11
22.2870502
21
19.3703653
0
LINE
8
DEFAULT_255_2_778
10
10.7372502
20
8.5959653
11
10.7372502
21
19.6449653
0
LINE
8
DEFAULT_255_2_778
10
11.2372502
20
16.3704653
11
10.9872502
21
16.1204653
0
LINE
8
DEFAULT_255_2_778
10
10.9872502
20
16.1204653
11
11.9873502
21
16.1204653
0
LINE
8
DEFAULT_255_2_778
10
11.9873502
20
16.1204653
11
11.4872502
21
16.6205653
0
LINE
8
DEFAULT_255_2_778
10
11.4872502
20
16.1204653
11
11.4872502
21
12.1188653
0
LINE
8
DEFAULT_255_2_778
10
22.9871502
20
22.3688653
11
9.9873502
21
22.3688653
0
LINE
8
DEFAULT_255_2_778
10
9.4873502
20
21.8687653
11
9.4873502
21
6.3686653
0
LINE
8
DEFAULT_255_2_778
10
9.9873502
20
5.8686653
11
22.9874502
21
5.8686653
0
LINE
8
DEFAULT_255_2_778
10
23.4874502
20
6.3686653
11
23.4872502
21
21.8687653
0
LINE
8
DEFAULT_255_2_778
10
15.2607502
20
21.6187653
11
18.0635502
21
21.6187653
0
LINE
8
DEFAULT_255_2_778
10
19.5107502
20
21.6187653
11
22.2870502
21
21.6187653
0
LINE
8
DEFAULT_255_2_778
10
21.7369502
20
21.6187653
11
21.7369502
21
21.0686653
0
LINE
8
DEFAULT_255_2_778
10
21.9370502
20
20.8686653
11
22.8368502
21
20.8686653
0
LINE
8
DEFAULT_255_2_778
10
22.8368502
20
20.8686653
11
22.8368502
21
19.3687653
0
LINE
8
DEFAULT_255_2_778
10
22.8368502
20
19.3687653
11
21.8867502
21
19.3687653
0
LINE
8
DEFAULT_255_2_778
10
21.8867502
20
19.0686653
11
22.2367502
21
19.0686653
0
LINE
8
DEFAULT_255_2_778
10
22.2867502
20
20.8686653
11
22.2867502
21
22.3685653
0
LINE
8
DEFAULT_255_2_778
10
22.2367502
20
9.1685653
11
21.8867502
21
9.1685653
0
LINE
8
DEFAULT_255_2_778
10
21.8867502
20
8.8684653
11
22.8368502
21
8.8684653
0
LINE
8
DEFAULT_255_2_778
10
22.8368502
20
8.8684653
11
22.8368502
21
7.3685653
0
LINE
8
DEFAULT_255_2_778
10
22.8368502
20
7.3685653
11
21.9370502
21
7.3685653
0
LINE
8
DEFAULT_255_2_778
10
21.7369502
20
7.1685653
11
21.7369502
21
6.6184653
0
LINE
8
DEFAULT_255_2_778
10
22.2870502
20
5.8683653
11
22.2870502
21
7.3682653
0
LINE
8
DEFAULT_255_2_778
10
20.7371502
20
6.6181653
11
20.7371502
21
5.8681653
0
LINE
8
DEFAULT_255_2_778
10
21.4372502
20
6.6181653
11
21.4372502
21
5.8681653
0
LINE
8
DEFAULT_255_2_778
10
22.1373502
20
6.6181653
11
22.1373502
21
5.8681653
0
LINE
8
DEFAULT_255_2_778
10
16.9871502
20
6.6181653
11
16.9871502
21
6.2681653
0
LINE
8
DEFAULT_255_2_778
10
20.4871502
20
6.6181653
11
20.4871502
21
6.2681653
0
LINE
8
DEFAULT_255_2_778
10
13.7870502
20
6.6181653
11
13.7870502
21
6.8682653
0
LINE
8
DEFAULT_255_2_778
10
15.2869502
20
6.8682653
11
15.2869502
21
6.6181653
0
LINE
8
DEFAULT_255_2_778
10
18.0370502
20
6.8682653
11
18.0370502
21
6.6181653
0
LINE
8
DEFAULT_255_2_778
10
19.5369502
20
6.8682653
11
19.5369502
21
6.6181653
0
LINE
8
DEFAULT_255_2_778
10
13.7870502
20
21.6182653
11
13.7870502
21
21.3681653
0
LINE
8
DEFAULT_255_2_778
10
15.2869502
20
21.6182653
11
15.2869502
21
21.3681653
0
LINE
8
DEFAULT_255_2_778
10
18.0370502
20
21.6182653
11
18.0370502
21
21.3681653
0
LINE
8
DEFAULT_255_2_778
10
19.5369502
20
21.6182653
11
19.5369502
21
21.3681653
0
LINE
8
DEFAULT_255_2_778
10
16.1370502
20
7.9180653
11
16.1370502
21
8.1681653
0
LINE
8
DEFAULT_255_2_778
10
19.1369502
20
8.1681653
11
19.1369502
21
7.9180653
0
LINE
8
DEFAULT_255_2_778
10
16.1370502
20
20.3180653
11
16.1370502
21
20.0680653
0
LINE
8
DEFAULT_255_2_778
10
19.1369502
20
20.3180653
11
19.1369502
21
20.0680653
0
LINE
8
DEFAULT_255_2_778
10
11.1869502
20
22.3680653
11
11.1869502
21
21.6179653
0
LINE
8
DEFAULT_255_2_778
10
11.1869502
20
21.6179653
11
13.8135502
21
21.6179653
0
LINE
8
DEFAULT_255_2_778
10
12.8872502
20
21.6179653
11
12.8872502
21
22.3680653
0
LINE
8
DEFAULT_255_2_778
10
15.8873502
20
21.6179653
11
15.8873502
21
22.3680653
0
LINE
8
DEFAULT_255_2_778
10
11.2372502
20
6.8679653
11
10.9872502
21
6.8679653
0
LINE
8
DEFAULT_255_2_778
10
10.9872502
20
6.8679653
11
10.9872502
21
7.1219653
0
LINE
8
DEFAULT_255_2_778
10
10.9872502
20
7.1219653
11
10.7641502
21
7.1378653
0
LINE
8
DEFAULT_255_2_778
10
10.7641502
20
7.1378653
11
10.0992502
21
7.2518653
0
LINE
8
DEFAULT_255_2_778
10
9.9371502
20
7.3090653
11
9.9371502
21
8.4266653
0
LINE
8
DEFAULT_255_2_778
10
9.9371502
20
8.4266653
11
9.9371502
21
8.4266653
0
LINE
8
DEFAULT_255_2_778
10
10.0974502
20
8.4837653
11
10.8144502
21
8.6038653
0
LINE
8
DEFAULT_255_2_778
10
10.8144502
20
8.6038653
11
11.0869502
21
8.6163653
0
LINE
8
DEFAULT_255_2_778
10
11.1838502
20
8.8668653
11
11.1605502
21
8.8827653
0
LINE
8
DEFAULT_255_2_778
10
11.1605502
20
8.8827653
11
11.1356502
21
8.8936653
0
LINE
8
DEFAULT_255_2_778
10
11.0867502
20
8.9002653
11
10.9867502
21
8.8885653
0
LINE
8
DEFAULT_255_2_778
10
10.9867502
20
8.8885653
11
10.9867502
21
8.6139653
0
LINE
8
DEFAULT_255_2_778
10
18.0407502
20
21.3594653
11
17.7637502
21
21.3594653
0
LINE
8
DEFAULT_255_2_778
10
19.5335502
20
21.3528653
11
19.8110502
21
21.3544653
0
LINE
8
DEFAULT_255_2_778
10
19.8110502
20
21.3544653
11
19.8108502
21
21.3594653
0
LINE
8
DEFAULT_255_2_778
10
19.8108502
20
21.3594653
11
19.5332502
21
21.3594653
0
LINE
8
DEFAULT_255_2_778
10
15.5610502
20
21.3528653
11
15.5608502
21
21.3594653
0
LINE
8
DEFAULT_255_2_778
10
15.5608502
20
21.3594653
11
15.2832502
21
21.3594653
0
LINE
8
DEFAULT_255_2_778
10
9.4873502
20
18.4688653
11
10.7372502
21
18.4688653
0
LINE
8
DEFAULT_255_2_778
10
9.4873502
20
18.9689653
11
10.7372502
21
18.9689653
0
LINE
8
DEFAULT_255_2_778
10
20.4871502
20
10.3128653
11
17.1872502
21
10.3128653
0
LINE
8
DEFAULT_255_2_778
10
17.1872502
20
10.3128653
11
16.1373502
21
10.2128653
0
LINE
8
DEFAULT_255_2_778
10
16.1373502
20
10.2128653
11
16.1373502
21
9.6188653
0
LINE
8
DEFAULT_255_2_778
10
16.1373502
20
9.6188653
11
20.4873502
21
9.6188653
0
LINE
8
DEFAULT_255_2_778
10
20.4873502
20
11.3288653
11
17.1872502
21
11.3288653
0
LINE
8
DEFAULT_255_2_778
10
17.1872502
20
11.3288653
11
16.1373502
21
11.2288653
0
LINE
8
DEFAULT_255_2_778
10
16.1373502
20
11.2288653
11
16.1373502
21
10.9129653
0
LINE
8
DEFAULT_255_2_778
10
16.1373502
20
10.9129653
11
17.1872502
21
10.8128653
0
LINE
8
DEFAULT_255_2_778
10
17.1872502
20
10.8128653
11
20.4873502
21
10.8128653
0
LINE
8
DEFAULT_255_2_778
10
20.4873502
20
12.3448653
11
17.1872502
21
12.3448653
0
LINE
8
DEFAULT_255_2_778
10
17.1872502
20
12.3448653
11
16.1373502
21
12.2448653
0
LINE
8
DEFAULT_255_2_778
10
16.1373502
20
12.2448653
11
16.1373502
21
11.9289653
0
LINE
8
DEFAULT_255_2_778
10
16.1373502
20
11.9289653
11
17.1872502
21
11.8288653
0
LINE
8
DEFAULT_255_2_778
10
17.1872502
20
11.8288653
11
20.4873502
21
11.8288653
0
LINE
8
DEFAULT_255_2_778
10
20.4873502
20
13.3608653
11
17.1872502
21
13.3608653
0
LINE
8
DEFAULT_255_2_778
10
17.1872502
20
13.3608653
11
16.1373502
21
13.2608653
0
LINE
8
DEFAULT_255_2_778
10
16.1373502
20
13.2608653
11
16.1373502
21
12.9449653
0
LINE
8
DEFAULT_255_2_778
10
16.1373502
20
12.9449653
11
17.1872502
21
12.8448653
0
LINE
8
DEFAULT_255_2_778
10
17.1872502
20
12.8448653
11
20.4873502
21
12.8448653
0
LINE
8
DEFAULT_255_2_778
10
20.4873502
20
14.3768653
11
17.1872502
21
14.3768653
0
LINE
8
DEFAULT_255_2_778
10
17.1872502
20
14.3768653
11
16.1373502
21
14.2768653
0
LINE
8
DEFAULT_255_2_778
10
16.1373502
20
14.2768653
11
16.1373502
21
13.9609653
0
LINE
8
DEFAULT_255_2_778
10
16.1373502
20
13.9609653
11
17.1872502
21
13.8608653
0
LINE
8
DEFAULT_255_2_778
10
17.1872502
20
13.8608653
11
20.4873502
21
13.8608653
0
LINE
8
DEFAULT_255_2_778
10
20.4873502
20
15.3928653
11
17.1872502
21
15.3928653
0
LINE
8
DEFAULT_255_2_778
10
17.1872502
20
15.3928653
11
16.1373502
21
15.2928653
0
LINE
8
DEFAULT_255_2_778
10
16.1373502
20
15.2928653
11
16.1373502
21
14.9769653
0
LINE
8
DEFAULT_255_2_778
10
16.1373502
20
14.9769653
11
17.1872502
21
14.8768653
0
LINE
8
DEFAULT_255_2_778
10
17.1872502
20
14.8768653
11
20.4873502
21
14.8768653
0
LINE
8
DEFAULT_255_2_778
10
20.4873502
20
16.4088653
11
17.1872502
21
16.4088653
0
LINE
8
DEFAULT_255_2_778
10
17.1872502
20
16.4088653
11
16.1373502
21
16.3088653
0
LINE
8
DEFAULT_255_2_778
10
16.1373502
20
16.3088653
11
16.1373502
21
15.9929653
0
LINE
8
DEFAULT_255_2_778
10
16.1373502
20
15.9929653
11
17.1872502
21
15.8928653
0
LINE
8
DEFAULT_255_2_778
10
17.1872502
20
15.8928653
11
20.4873502
21
15.8928653
0
LINE
8
DEFAULT_255_2_778
10
20.4873502
20
17.4248653
11
17.1872502
21
17.4248653
0
LINE
8
DEFAULT_255_2_778
10
17.1872502
20
17.4248653
11
16.1373502
21
17.3248653
0
LINE
8
DEFAULT_255_2_778
10
16.1373502
20
17.3248653
11
16.1373502
21
17.0089653
0
LINE
8
DEFAULT_255_2_778
10
16.1373502
20
17.0089653
11
17.1872502
21
16.9088653
0
LINE
8
DEFAULT_255_2_778
10
17.1872502
20
16.9088653
11
20.4873502
21
16.9088653
0
LINE
8
DEFAULT_255_2_778
10
20.4873502
20
17.9248653
11
17.1872502
21
17.9248653
0
LINE
8
DEFAULT_255_2_778
10
17.1872502
20
17.9248653
11
16.1373502
21
18.0249653
0
LINE
8
DEFAULT_255_2_778
10
16.1373502
20
18.0249653
11
16.1373502
21
18.6189653
0
LINE
8
DEFAULT_255_2_778
10
16.1373502
20
18.6189653
11
20.4873502
21
18.6189653
0
LINE
8
DEFAULT_255_2_778
10
20.4873502
20
10.3379653
11
17.7872502
21
10.3379653
0
LINE
8
DEFAULT_255_2_778
10
17.7872502
20
10.3379653
11
17.7872502
21
10.7880653
0
LINE
8
DEFAULT_255_2_778
10
17.7872502
20
10.7880653
11
20.4873502
21
10.7880653
0
LINE
8
DEFAULT_255_2_778
10
20.4873502
20
11.3539653
11
17.7872502
21
11.3539653
0
LINE
8
DEFAULT_255_2_778
10
17.7872502
20
11.3539653
11
17.7872502
21
11.8040653
0
LINE
8
DEFAULT_255_2_778
10
17.7872502
20
11.8040653
11
20.4873502
21
11.8040653
0
LINE
8
DEFAULT_255_2_778
10
20.4873502
20
12.3699653
11
17.7872502
21
12.3699653
0
LINE
8
DEFAULT_255_2_778
10
17.7872502
20
12.3699653
11
17.7872502
21
12.8200653
0
LINE
8
DEFAULT_255_2_778
10
17.7872502
20
12.8200653
11
20.4873502
21
12.8200653
0
LINE
8
DEFAULT_255_2_778
10
20.4873502
20
13.3859653
11
17.7872502
21
13.3859653
0
LINE
8
DEFAULT_255_2_778
10
17.7872502
20
13.3859653
11
17.7872502
21
13.8360653
0
LINE
8
DEFAULT_255_2_778
10
17.7872502
20
13.8360653
11
20.4873502
21
13.8360653
0
LINE
8
DEFAULT_255_2_778
10
20.4873502
20
14.4019653
11
17.7872502
21
14.4019653
0
LINE
8
DEFAULT_255_2_778
10
17.7872502
20
14.4019653
11
17.7872502
21
14.8520653
0
LINE
8
DEFAULT_255_2_778
10
17.7872502
20
14.8520653
11
20.4873502
21
14.8520653
0
LINE
8
DEFAULT_255_2_778
10
20.4873502
20
15.4179653
11
17.7872502
21
15.4179653
0
LINE
8
DEFAULT_255_2_778
10
17.7872502
20
15.4179653
11
17.7872502
21
15.8680653
0
LINE
8
DEFAULT_255_2_778
10
17.7872502
20
15.8680653
11
20.4873502
21
15.8680653
0
LINE
8
DEFAULT_255_2_778
10
20.4873502
20
16.4339653
11
17.7872502
21
16.4339653
0
LINE
8
DEFAULT_255_2_778
10
17.7872502
20
16.4339653
11
17.7872502
21
16.8840653
0
LINE
8
DEFAULT_255_2_778
10
17.7872502
20
16.8840653
11
20.4873502
21
16.8840653
0
LINE
8
DEFAULT_255_2_778
10
20.4873502
20
17.4499653
11
17.7872502
21
17.4499653
0
LINE
8
DEFAULT_255_2_778
10
17.7872502
20
17.4499653
11
17.7872502
21
17.9000653
0
LINE
8
DEFAULT_255_2_778
10
17.7872502
20
17.9000653
11
20.4873502
21
17.9000653
0
LINE
8
DEFAULT_255_2_778
10
9.4873502
20
9.0047653
11
10.7372502
21
9.0047653
0
LINE
8
DEFAULT_255_2_778
10
10.7372502
20
9.5460653
11
9.4873502
21
9.5460653
0
LINE
8
DEFAULT_255_2_778
10
9.4873502
20
10.4308653
11
10.7372502
21
10.4308653
0
LINE
8
DEFAULT_255_2_778
10
9.4873502
20
13.7688653
11
10.7372502
21
13.7688653
0
LINE
8
DEFAULT_255_2_778
10
9.4873502
20
14.9687653
11
10.7372502
21
14.9687653
0
LINE
8
DEFAULT_255_2_778
10
9.9371502
20
7.8686653
11
9.4870502
21
7.8686653
0
LINE
8
DEFAULT_255_2_778
10
9.4870502
20
8.1326653
11
9.9371502
21
8.1326653
0
LINE
8
DEFAULT_255_2_778
10
21.7369502
20
6.8684653
11
22.2870502
21
6.8684653
0
LINE
8
DEFAULT_255_2_778
10
19.8370502
20
7.1185653
11
19.8370502
21
7.1185653
0
LINE
8
DEFAULT_255_2_778
10
19.8370502
20
7.1185653
11
19.6872502
21
7.1185653
0
LINE
8
DEFAULT_255_2_778
10
19.6872502
20
7.1185653
11
19.6716502
21
7.1177653
0
LINE
8
DEFAULT_255_2_778
10
19.6184502
20
7.1018653
11
19.5949502
21
7.0870653
0
LINE
8
DEFAULT_255_2_778
10
19.5949502
20
7.0870653
11
19.5745502
21
7.0679653
0
LINE
8
DEFAULT_255_2_778
10
19.5351502
20
6.9685653
11
19.5322502
21
6.8618653
0
LINE
8
DEFAULT_255_2_778
10
19.5322502
20
6.8618653
11
19.5277502
21
6.7692653
0
LINE
8
DEFAULT_255_2_778
10
19.5277502
20
6.7692653
11
19.5219502
21
6.6957653
0
LINE
8
DEFAULT_255_2_778
10
19.5219502
20
6.6957653
11
19.5187502
21
6.6674653
0
LINE
8
DEFAULT_255_2_778
10
19.5187502
20
6.6674653
11
19.5152502
21
6.6451653
0
LINE
8
DEFAULT_255_2_778
10
19.5152502
20
6.6451653
11
19.3927502
21
5.9802653
0
LINE
8
DEFAULT_255_2_778
10
15.5605502
20
6.8833653
11
15.5602502
21
6.8766653
0
LINE
8
DEFAULT_255_2_778
10
15.5602502
20
6.8766653
11
15.2827502
21
6.8766653
0
LINE
8
DEFAULT_255_2_778
10
19.5330502
20
6.8833653
11
19.8105502
21
6.8817653
0
LINE
8
DEFAULT_255_2_778
10
19.8105502
20
6.8817653
11
19.8102502
21
6.8766653
0
LINE
8
DEFAULT_255_2_778
10
19.8102502
20
6.8766653
11
19.5327502
21
6.8766653
0
LINE
8
DEFAULT_255_2_778
10
18.0407502
20
6.8766653
11
17.7637502
21
6.8766653
0
LINE
8
DEFAULT_255_2_778
10
13.7912502
20
6.8766653
11
13.5137502
21
6.8766653
0
LINE
8
DEFAULT_255_2_778
10
13.5187502
20
6.8682653
11
13.7915502
21
6.8682653
0
LINE
8
DEFAULT_255_2_778
10
20.7371502
20
6.2681653
11
19.4464502
21
6.2681653
0
LINE
8
DEFAULT_255_2_778
10
18.1280502
20
6.2681653
11
15.1964502
21
6.2681653
0
LINE
8
DEFAULT_255_2_778
10
19.8214502
20
7.1182653
11
19.8214502
21
7.1182653
0
LINE
8
DEFAULT_255_2_778
10
19.8214502
20
7.1182653
11
19.8110502
21
6.8833653
0
LINE
8
DEFAULT_255_2_778
10
16.6371502
20
8.1683653
11
13.7373502
21
8.1683653
0
LINE
8
DEFAULT_255_2_778
10
13.7373502
20
8.1683653
11
13.7373502
21
9.9183653
0
LINE
8
DEFAULT_255_2_778
10
13.7373502
20
9.9183653
11
13.4872502
21
9.6683653
0
LINE
8
DEFAULT_255_2_778
10
13.4872502
20
9.6683653
11
13.4872502
21
8.1183653
0
LINE
8
DEFAULT_255_2_778
10
13.6873502
20
7.9183653
11
16.3373502
21
7.9183653
0
LINE
8
DEFAULT_255_2_778
10
16.3373502
20
7.9183653
11
16.3373502
21
7.7683653
0
LINE
8
DEFAULT_255_2_778
10
16.6374502
20
7.7683653
11
16.6374502
21
8.7681653
0
LINE
8
DEFAULT_255_2_778
10
16.6374502
20
8.7681653
11
18.6373502
21
8.7681653
0
LINE
8
DEFAULT_255_2_778
10
18.6373502
20
8.7681653
11
18.6373502
21
7.7683653
0
LINE
8
DEFAULT_255_2_778
10
18.9374502
20
7.7683653
11
18.9374502
21
7.9183653
0
LINE
8
DEFAULT_255_2_778
10
18.9374502
20
7.9183653
11
21.0374502
21
7.9183653
0
LINE
8
DEFAULT_255_2_778
10
21.0369502
20
8.2183653
11
20.6873502
21
8.2183653
0
LINE
8
DEFAULT_255_2_778
10
20.6873502
20
8.2183653
11
20.6873502
21
20.0182653
0
LINE
8
DEFAULT_255_2_778
10
20.6873502
20
20.0182653
11
21.0374502
21
20.0182653
0
LINE
8
DEFAULT_255_2_778
10
21.0374502
20
20.0182653
11
21.0715502
21
20.0222653
0
LINE
8
DEFAULT_255_2_778
10
21.0715502
20
20.0222653
11
21.1035502
21
20.0336653
0
LINE
8
DEFAULT_255_2_778
10
21.1035502
20
20.0336653
11
21.1305502
21
20.0508653
0
LINE
8
DEFAULT_255_2_778
10
21.0374502
20
20.3185653
11
18.9374502
21
20.3185653
0
LINE
8
DEFAULT_255_2_778
10
18.9374502
20
20.3185653
11
18.9374502
21
20.4686653
0
LINE
8
DEFAULT_255_2_778
10
18.6373502
20
20.4686653
11
18.6373502
21
19.4684653
0
LINE
8
DEFAULT_255_2_778
10
18.6373502
20
19.4684653
11
16.6374502
21
19.4684653
0
LINE
8
DEFAULT_255_2_778
10
16.6374502
20
19.4684653
11
16.6374502
21
20.4686653
0
LINE
8
DEFAULT_255_2_778
10
16.3373502
20
20.4686653
11
16.3373502
21
20.3185653
0
LINE
8
DEFAULT_255_2_778
10
16.3373502
20
20.3185653
11
13.6873502
21
20.3185653
0
LINE
8
DEFAULT_255_2_778
10
13.4872502
20
20.1185653
11
13.4872502
21
18.5686653
0
LINE
8
DEFAULT_255_2_778
10
13.2872502
20
18.3686653
11
13.1872502
21
18.3686653
0
LINE
8
DEFAULT_255_2_778
10
13.1872502
20
18.3686653
11
13.2372502
21
18.3185653
0
LINE
8
DEFAULT_255_2_778
10
13.2372502
20
18.3185653
11
14.9372502
21
18.3185653
0
LINE
8
DEFAULT_255_2_778
10
14.9372502
20
18.3185653
11
14.9372502
21
20.0685653
0
LINE
8
DEFAULT_255_2_778
10
13.7370502
20
8.1683653
11
13.5457502
21
7.9770653
0
LINE
8
DEFAULT_255_2_778
10
11.9870502
20
10.9684653
11
11.7370502
21
10.7184653
0
LINE
8
DEFAULT_255_2_778
10
20.9871502
20
20.0682653
11
21.1652502
21
20.2463653
0
LINE
8
DEFAULT_255_2_778
10
13.2372502
20
10.9682653
11
12.9287502
21
10.6597653
0
LINE
8
DEFAULT_255_2_778
10
11.4872502
20
11.6182653
11
11.9873502
21
12.1183653
0
LINE
8
DEFAULT_255_2_778
10
11.2372502
20
7.1182653
11
11.1642502
21
7.0452653
0
LINE
8
DEFAULT_255_2_778
10
22.2373502
20
20.8683653
11
22.2373502
21
21.3684653
0
LINE
8
DEFAULT_255_2_778
10
22.2373502
20
21.3684653
11
21.7959502
21
20.9271653
0
LINE
8
DEFAULT_255_2_778
10
20.9874502
20
8.2186653
11
20.9874502
21
8.1686653
0
LINE
8
DEFAULT_255_2_778
10
17.5875502
20
5.8686653
11
17.5875502
21
6.2686653
0
LINE
8
DEFAULT_255_2_778
10
17.5875502
20
6.2686653
11
17.1874502
21
5.8686653
0
LINE
8
DEFAULT_255_2_778
10
13.2375502
20
18.3185653
11
13.2375502
21
17.2684653
0
LINE
8
DEFAULT_255_2_778
10
12.9874502
20
18.1683653
11
12.9874502
21
17.7182653
0
LINE
8
DEFAULT_255_2_778
10
12.7874502
20
17.5182653
11
11.6875502
21
17.5182653
0
LINE
8
DEFAULT_255_2_778
10
11.4875502
20
17.3182653
11
11.4875502
21
16.5681653
0
LINE
8
DEFAULT_255_2_778
10
11.2875502
20
16.3680653
11
10.7374502
21
16.3680653
0
LINE
8
DEFAULT_255_2_778
10
11.9873502
20
17.2682653
11
11.9873502
21
16.1183653
0
LINE
8
DEFAULT_255_2_778
10
11.2364502
20
21.3456653
11
11.2372502
21
21.3650653
0
LINE
8
DEFAULT_255_2_778
10
11.2372502
20
21.3650653
11
11.2372502
21
21.6184653
0
LINE
8
DEFAULT_255_2_778
10
11.2372502
20
6.6184653
11
11.2364502
21
6.8909653
0
LINE
8
DEFAULT_255_2_778
10
10.9872502
20
19.6224653
11
10.9888502
21
19.3462653
0
LINE
8
DEFAULT_255_2_778
10
10.9888502
20
19.3462653
11
11.0872502
21
19.3361653
0
LINE
8
DEFAULT_255_2_778
10
11.0875502
20
19.3203653
11
11.0142502
21
19.3221653
0
LINE
8
DEFAULT_255_2_778
10
11.0142502
20
19.3221653
11
10.7374502
21
19.3483653
0
LINE
8
DEFAULT_255_2_778
10
10.7374502
20
21.0943653
11
10.7374502
21
21.1689653
0
LINE
8
DEFAULT_255_2_778
10
10.1874502
20
21.0001653
11
10.1874502
21
22.3691653
0
LINE
8
DEFAULT_255_2_778
10
11.2372502
20
21.1192653
11
11.1642502
21
21.1922653
0
LINE
8
DEFAULT_255_2_778
10
13.7375502
20
20.0688653
11
13.7375502
21
18.3188653
0
LINE
8
DEFAULT_255_2_778
10
13.7375502
20
18.3188653
11
13.4875502
21
18.5688653
0
LINE
8
DEFAULT_255_2_778
10
22.2375502
20
7.3688653
11
22.2375502
21
6.8687653
0
LINE
8
DEFAULT_255_2_778
10
22.2375502
20
6.8687653
11
21.7962502
21
7.3100653
0
LINE
8
DEFAULT_255_2_778
10
9.4875502
20
20.4686653
11
9.9376502
21
20.4686653
0
LINE
8
DEFAULT_255_2_778
10
12.9964502
20
19.1118653
11
12.9964502
21
20.2254653
0
LINE
8
DEFAULT_255_2_778
10
12.9964502
20
20.2254653
11
11.8466502
21
20.2254653
0
LINE
8
DEFAULT_255_2_778
10
11.8466502
20
20.2254653
11
11.8466502
21
19.1118653
0
LINE
8
DEFAULT_255_2_778
10
11.8466502
20
19.1118653
11
12.9964502
21
19.1118653
0
LINE
8
DEFAULT_255_2_778
10
18.6376502
20
20.0685653
11
20.9876502
21
20.0685653
0
LINE
8
DEFAULT_255_2_778
10
20.9876502
20
20.0685653
11
20.9876502
21
20.0185653
0
LINE
8
DEFAULT_255_2_778
10
13.5462502
20
20.2598653
11
13.7375502
21
20.0682653
0
LINE
8
DEFAULT_255_2_778
10
13.7375502
20
20.0682653
11
16.6376502
21
20.0682653
0
LINE
8
DEFAULT_255_2_778
10
12.9290502
20
17.5769653
11
13.2375502
21
17.2684653
0
LINE
8
DEFAULT_255_2_778
10
13.2375502
20
17.2684653
11
11.9876502
21
17.2684653
0
LINE
8
DEFAULT_255_2_778
10
11.9876502
20
17.2684653
11
11.7375502
21
17.5184653
0
LINE
8
DEFAULT_255_2_778
10
10.7374502
20
11.8685653
11
11.2875502
21
11.8685653
0
LINE
8
DEFAULT_255_2_778
10
11.4875502
20
11.6685653
11
11.4875502
21
10.9184653
0
LINE
8
DEFAULT_255_2_778
10
11.6875502
20
10.7184653
11
12.7874502
21
10.7184653
0
LINE
8
DEFAULT_255_2_778
10
12.9874502
20
10.5184653
11
12.9874502
21
10.0683653
0
LINE
8
DEFAULT_255_2_778
10
14.9374502
20
8.1683653
11
14.9374502
21
9.9183653
0
LINE
8
DEFAULT_255_2_778
10
14.9374502
20
9.9183653
11
13.2375502
21
9.9183653
0
LINE
8
DEFAULT_255_2_778
10
13.2375502
20
9.9183653
11
13.2375502
21
10.9684653
0
LINE
8
DEFAULT_255_2_778
10
13.2375502
20
10.9684653
11
11.9876502
21
10.9684653
0
LINE
8
DEFAULT_255_2_778
10
11.9876502
20
10.9684653
11
11.9876502
21
12.1188653
0
LINE
8
DEFAULT_255_2_778
10
11.9876502
20
12.1188653
11
10.9875502
21
12.1188653
0
LINE
8
DEFAULT_255_2_778
10
10.9875502
20
12.1188653
11
11.2375502
21
11.8688653
0
LINE
8
DEFAULT_255_2_778
10
13.2375502
20
9.9188653
11
13.1875502
21
9.8688653
0
LINE
8
DEFAULT_255_2_778
10
13.1875502
20
9.8688653
11
13.2875502
21
9.8688653
0
LINE
8
DEFAULT_255_2_778
10
12.9964502
20
8.0120653
11
12.9964502
21
9.1256653
0
LINE
8
DEFAULT_255_2_778
10
12.9964502
20
9.1256653
11
11.8466502
21
9.1256653
0
LINE
8
DEFAULT_255_2_778
10
11.8466502
20
9.1256653
11
11.8466502
21
8.0120653
0
LINE
8
DEFAULT_255_2_778
10
11.8466502
20
8.0120653
11
12.9964502
21
8.0120653
0
LINE
8
DEFAULT_255_2_778
10
21.1657502
20
7.9908653
11
20.9876502
21
8.1689653
0
LINE
8
DEFAULT_255_2_778
10
20.9876502
20
8.1689653
11
18.6376502
21
8.1689653
0
LINE
8
DEFAULT_255_2_778
10
15.2838502
20
6.8841653
11
15.5613502
21
6.8841653
0
LINE
8
DEFAULT_255_2_778
10
15.5613502
20
6.8841653
11
15.5634502
21
6.8989653
0
LINE
8
DEFAULT_255_2_778
10
15.5634502
20
6.8989653
11
15.5653502
21
6.9184653
0
LINE
8
DEFAULT_255_2_778
10
15.5653502
20
6.9184653
11
15.5684502
21
6.9698653
0
LINE
8
DEFAULT_255_2_778
10
15.5859502
20
6.9695653
11
15.5841502
21
6.8960653
0
LINE
8
DEFAULT_255_2_778
10
15.5841502
20
6.8960653
11
15.5814502
21
6.8280653
0
LINE
8
DEFAULT_255_2_778
10
15.5814502
20
6.8280653
11
15.5782502
21
6.7674653
0
LINE
8
DEFAULT_255_2_778
10
15.5782502
20
6.7674653
11
15.5745502
21
6.7155653
0
LINE
8
DEFAULT_255_2_778
10
15.5745502
20
6.7155653
11
15.5703502
21
6.6740653
0
LINE
8
DEFAULT_255_2_778
10
15.5703502
20
6.6740653
11
15.5679502
21
6.6573653
0
LINE
8
DEFAULT_255_2_778
10
15.5679502
20
6.6573653
11
15.5632502
21
6.6327653
0
LINE
8
DEFAULT_255_2_778
10
15.5632502
20
6.6327653
11
15.5581502
21
6.6203653
0
LINE
8
DEFAULT_255_2_778
10
15.5581502
20
6.6203653
11
15.5555502
21
6.6187653
0
LINE
8
DEFAULT_255_2_778
10
10.7372502
20
7.1431653
11
10.7372502
21
7.0685653
0
LINE
8
DEFAULT_255_2_778
10
11.1872502
20
6.6184653
11
13.8135502
21
6.6184653
0
LINE
8
DEFAULT_255_2_778
10
13.8780502
20
6.2684653
11
9.4976502
21
6.2684653
0
LINE
8
DEFAULT_255_2_778
10
22.1373502
20
6.1684653
11
22.2873502
21
6.1684653
0
ARC
8
DEFAULT_255_2_778
10
2.3966141
20
19.3257962
40
1.101123
50
63.4628487
51
71.2079034
0
ARC
8
DEFAULT_255_2_778
10
2.5363021
20
19.7420987
40
0.6620163
50
71.0465854
51
82.7140873
0
ARC
8
DEFAULT_255_2_778
10
2.5652436
20
19.9427686
40
0.4593077
50
83.1206007
51
89.8801894
0
ARC
8
DEFAULT_255_2_778
10
2.5568923
20
20.0949759
40
0.3072408
50
88.2632318
51
145.1118862
0
ARC
8
DEFAULT_255_2_778
10
2.6510284
20
20.1145013
40
0.3797706
50
155.7119364
51
168.3148048
0
ARC
8
DEFAULT_255_2_778
10
2.5369954
20
20.1393268
40
0.2630759
50
168.5795236
51
179.7667655
0
ARC
8
DEFAULT_255_2_778
10
2.4985162
20
20.1434526
40
0.2246153
50
180.7792739
51
236.5550334
0
ARC
8
DEFAULT_255_2_778
10
2.6922939
20
20.3955378
40
0.5422348
50
234.1495821
51
249.9092521
0
ARC
8
DEFAULT_255_2_778
10
2.8277726
20
20.7240572
40
0.8974172
50
248.9907504
51
252.1352969
0
ARC
8
DEFAULT_255_2_778
10
2.1736837
20
18.8676413
40
1.0714585
50
56.9342454
51
69.296896
0
ARC
8
DEFAULT_255_2_778
10
2.4179914
20
19.2349946
40
0.6303202
50
34.5178774
51
57.326248
0
ARC
8
DEFAULT_255_2_778
10
2.5002162
20
19.3040749
40
0.5235276
50
358.9955051
51
33.3878267
0
ARC
8
DEFAULT_255_2_778
10
2.2759655
20
19.2979682
40
0.7477041
50
349.8815513
51
359.7646598
0
ARC
8
DEFAULT_255_2_778
10
2.0278563
20
19.3411072
40
0.9995339
50
342.8217196
51
349.9457935
0
ARC
8
DEFAULT_255_2_778
10
1.8549131
20
19.391044
40
1.1795158
50
342.0743866
51
342.985367
0
ARC
8
DEFAULT_255_2_778
10
2.1542008
20
19.4173565
40
0.9104238
50
321.6700853
51
334.6812379
0
ARC
8
DEFAULT_255_2_778
10
2.4213029
20
19.201165
40
0.566829
50
296.430993
51
322.0681844
0
ARC
8
DEFAULT_255_2_778
10
2.4473243
20
19.1710057
40
0.5283318
50
269.320435
51
295.3598042
0
ARC
8
DEFAULT_255_2_778
10
2.4460215
20
19.3964975
40
0.7538026
50
257.2052676
51
269.62274
0
ARC
8
DEFAULT_255_2_778
10
2.5198454
20
19.7312031
40
1.0965484
50
248.8349544
51
257.3167015
0
ARC
8
DEFAULT_255_2_778
10
2.6874566
20
20.1701459
40
1.5664004
50
242.8793642
51
248.9146176
0
ARC
8
DEFAULT_255_2_778
10
2.833293
20
20.4667126
40
1.8968487
50
242.283408
51
243.0422658
0
ARC
8
DEFAULT_255_2_778
10
-24.7440906
20
21.741272
40
26.8580788
50
353.68603
51
354.416778
0
ARC
8
DEFAULT_255_2_778
10
2.5740039
20
20.1962541
40
1.2189316
50
241.1888723
51
248.7558949
0
ARC
8
DEFAULT_255_2_778
10
2.4047911
20
19.7553629
40
0.746691
50
248.5993998
51
260.0016979
0
ARC
8
DEFAULT_255_2_778
10
2.3601572
20
19.5159813
40
0.5032013
50
260.2743798
51
269.7772016
0
ARC
8
DEFAULT_255_2_778
10
2.3651685
20
19.3614114
40
0.3486973
50
268.854976
51
322.3283823
0
ARC
8
DEFAULT_255_2_778
10
2.3568811
20
19.2867697
40
0.3162153
50
334.0322996
51
348.589557
0
ARC
8
DEFAULT_255_2_778
10
2.4430802
20
19.2677809
40
0.2279686
50
348.9816763
51
359.8338053
0
ARC
8
DEFAULT_255_2_778
10
2.4518952
20
19.2621894
40
0.219208
50
1.2887723
51
51.7141915
0
ARC
8
DEFAULT_255_2_778
10
2.2447331
20
19.0307356
40
0.5295855
50
49.6362198
51
65.6290655
0
ARC
8
DEFAULT_255_2_778
10
2.0480144
20
18.6302796
40
0.9756321
50
64.8101124
51
70.3700798
0
ARC
8
DEFAULT_255_2_778
10
2.5773347
20
20.307339
40
0.784466
50
236.5179464
51
255.1112497
0
ARC
8
DEFAULT_255_2_778
10
2.4219207
20
20.066059
40
0.4974984
50
181.8140498
51
236.1167038
0
ARC
8
DEFAULT_255_2_778
10
3.2352362
20
20.0783633
40
1.3108647
50
180.0063719
51
181.22625
0
ARC
8
DEFAULT_255_2_778
10
2.8790275
20
20.0880264
40
0.9547064
50
167.5378156
51
180.5886758
0
ARC
8
DEFAULT_255_2_778
10
2.4751696
20
20.182139
40
0.5400758
50
142.4625637
51
168.0411749
0
ARC
8
DEFAULT_255_2_778
10
2.4172049
20
20.208857
40
0.4780426
50
104.3254368
51
140.768691
0
ARC
8
DEFAULT_255_2_778
10
2.5203268
20
19.8539076
40
0.8475567
50
90.5502108
51
105.1428072
0
ARC
8
DEFAULT_255_2_778
10
2.5368644
20
19.5332568
40
1.1684291
50
89.9942783
51
91.2101423
0
ARC
8
DEFAULT_255_2_778
10
2.5344188
20
19.3271132
40
1.3745751
50
85.1691344
51
89.8931979
0
ARC
8
DEFAULT_255_2_778
10
2.4993559
20
18.9090668
40
1.7940894
50
81.0987842
51
85.1776708
0
ARC
8
DEFAULT_255_2_778
10
2.4243665
20
18.4216755
40
2.2872145
50
78.1834384
51
81.1320616
0
ARC
8
DEFAULT_255_2_778
10
2.3532184
20
18.0710334
40
2.6449965
50
77.3386165
51
78.2303107
0
ARC
8
DEFAULT_255_2_778
10
3.6986805
20
20.0179654
40
0.3009011
50
357.3989775
51
33.8699124
0
ARC
8
DEFAULT_255_2_778
10
3.7296742
20
20.0141468
40
0.2780474
50
38.0864442
51
80.2445506
0
ARC
8
DEFAULT_255_2_778
10
3.6455727
20
19.6702333
40
0.631718
50
78.0117506
51
90.6531354
0
LINE
8
DEFAULT_255_2_778
10
3.6383716
20
20.3019102
11
3.6383716
21
19.7397102
0
ARC
8
DEFAULT_255_2_778
10
3.6506317
20
20.373678
40
0.6340863
50
268.892115
51
285.0098981
0
ARC
8
DEFAULT_255_2_778
10
3.7680462
20
19.9878653
40
0.2314219
50
281.668547
51
2.6171225
0
ARC
8
DEFAULT_255_2_778
10
3.6191951
20
20.004281
40
0.3800766
50
359.1182981
51
0.0044075
0
ARC
8
DEFAULT_255_2_778
10
3.7630618
20
20.8421346
40
1.5045252
50
265.2345969
51
268.0923519
0
ARC
8
DEFAULT_255_2_778
10
3.7564391
20
20.6596146
40
1.321886
50
268.115892
51
269.985036
0
ARC
8
DEFAULT_255_2_778
10
3.7674839
20
20.2719551
40
0.9342959
50
269.3014918
51
284.1384123
0
ARC
8
DEFAULT_255_2_778
10
3.8828965
20
19.8605716
40
0.5073114
50
282.8474022
51
342.6584304
0
ARC
8
DEFAULT_255_2_778
10
3.521952
20
19.9861714
40
0.8893713
50
341.8656944
51
357.3788989
0
ARC
8
DEFAULT_255_2_778
10
3.1041069
20
20.0208924
40
1.3084597
50
356.6968194
51
0.047395
0
ARC
8
DEFAULT_255_2_778
10
2.9113871
20
20.0215701
40
1.5011791
50
0.0154458
51
1.8350329
0
ARC
8
DEFAULT_255_2_778
10
3.6707286
20
20.0463379
40
0.741434
50
1.8010693
51
1.8605676
0
ARC
8
DEFAULT_255_2_778
10
3.6731561
20
20.0826494
40
0.738717
50
359.0506727
51
17.9460585
0
ARC
8
DEFAULT_255_2_778
10
3.9169298
20
20.1548836
40
0.4845887
50
18.7018594
51
74.8988647
0
ARC
8
DEFAULT_255_2_778
10
3.7564161
20
19.690033
40
0.9757923
50
72.9099388
51
87.1018143
0
ARC
8
DEFAULT_255_2_778
10
3.7151187
20
19.1939289
40
1.4734385
50
86.4733707
51
90.0604958
0
ARC
8
DEFAULT_255_2_778
10
3.714128
20
18.9346483
40
1.7327183
50
90.0186849
51
91.8792139
0
ARC
8
DEFAULT_255_2_778
10
3.7181493
20
18.7955783
40
1.8718456
50
91.8626426
51
92.4518637
0
LINE
8
DEFAULT_255_2_778
10
3.6380716
20
20.6657102
11
3.2255716
21
20.6657102
0
LINE
8
DEFAULT_255_2_778
10
7.0803716
20
18.6758102
11
7.5644716
21
18.6758102
0
ARC
8
DEFAULT_255_2_778
10
7.5775581
20
19.5321869
40
0.8564767
50
269.1245235
51
288.2956301
0
ARC
8
DEFAULT_255_2_778
10
7.6456327
20
19.2965253
40
0.6114293
50
289.1714139
51
338.9075441
0
ARC
8
DEFAULT_255_2_778
10
7.1723244
20
19.5087851
40
1.1297529
50
337.502217
51
351.8439624
0
ARC
8
DEFAULT_255_2_778
10
6.5090016
20
19.6184547
40
1.801983
50
351.3843438
51
357.7309396
0
ARC
8
DEFAULT_255_2_778
10
5.5389912
20
19.7266427
40
2.7763912
50
356.2924409
51
358.060268
0
ARC
8
DEFAULT_255_2_778
10
5.8645215
20
19.715691
40
2.4506767
50
358.0585574
51
359.9797527
0
ARC
8
DEFAULT_255_2_778
10
6.5205538
20
19.7263029
40
1.7946809
50
359.6335608
51
8.8236322
0
ARC
8
DEFAULT_255_2_778
10
7.2436198
20
19.8431793
40
1.0622542
50
8.576613
51
23.5103244
0
ARC
8
DEFAULT_255_2_778
10
7.6330735
20
20.0216256
40
0.6339989
50
22.7625265
51
78.8776115
0
ARC
8
DEFAULT_255_2_778
10
7.5351594
20
19.6290676
40
1.0382711
50
77.7546327
51
90.4242456
0
LINE
8
DEFAULT_255_2_778
10
7.5274716
20
20.6673102
11
7.0805716
21
20.6673102
0
LINE
8
DEFAULT_255_2_778
10
7.0805716
20
20.6673102
11
7.0805716
21
18.6758102
0
ARC
8
DEFAULT_255_2_778
10
6.8141291
20
19.7103763
40
1.1975677
50
359.6284403
51
10.8430078
0
ARC
8
DEFAULT_255_2_778
10
7.3701634
20
19.8221829
40
0.6304495
50
10.3695132
51
30.9360456
0
ARC
8
DEFAULT_255_2_778
10
7.5459924
20
19.9172214
40
0.4308675
50
32.1158949
51
85.3773012
0
ARC
8
DEFAULT_255_2_778
10
7.4909391
20
19.6228177
40
0.7294157
50
82.929938
51
90.1586332
0
ARC
8
DEFAULT_255_2_778
10
7.4900177
20
19.4336802
40
0.918551
50
90.068497
51
94.3010489
0
ARC
8
DEFAULT_255_2_778
10
7.5006715
20
19.2810224
40
1.0715784
50
94.2569329
51
96.5480968
0
LINE
8
DEFAULT_255_2_778
10
7.3784716
20
20.3456102
11
7.3784716
21
18.9660102
0
ARC
8
DEFAULT_255_2_778
10
7.4470865
20
20.0494851
40
1.0856453
50
266.3763808
51
269.0328614
0
ARC
8
DEFAULT_255_2_778
10
7.4451227
20
19.9597251
40
0.995865
50
269.0586627
51
269.9966439
0
ARC
8
DEFAULT_255_2_778
10
7.4567279
20
19.6691041
40
0.7053405
50
269.052518
51
287.8925451
0
ARC
8
DEFAULT_255_2_778
10
7.5262416
20
19.4346719
40
0.4609274
50
288.6226875
51
344.9743627
0
ARC
8
DEFAULT_255_2_778
10
7.0857816
20
19.5863253
40
0.9262069
50
342.9771869
51
357.1046744
0
ARC
8
DEFAULT_255_2_778
10
6.6184112
20
19.6251159
40
1.3950222
50
356.4831048
51
0.0601067
0
ARC
8
DEFAULT_255_2_778
10
6.368859
20
19.6259922
40
1.6445738
50
0.0204565
51
1.9888633
0
ARC
8
DEFAULT_255_2_778
10
6.2256886
20
19.6215708
40
1.7878114
50
1.9712349
51
2.5916249
0
LINE
8
DEFAULT_255_2_778
10
2.9329716
20
20.6517102
11
2.8975716
21
20.3210102
0
LINE
8
DEFAULT_255_2_778
10
5.5007716
20
18.9832102
11
5.5007716
21
18.6684102
0
LINE
8
DEFAULT_255_2_778
10
5.5007716
20
18.6684102
11
4.5291716
21
18.6684102
0
LINE
8
DEFAULT_255_2_778
10
4.5291716
20
18.6684102
11
4.5291716
21
20.6673102
0
LINE
8
DEFAULT_255_2_778
10
4.5291716
20
20.6673102
11
5.4959716
21
20.6673102
0
LINE
8
DEFAULT_255_2_778
10
5.4959716
20
20.6673102
11
5.4959716
21
20.3522102
0
LINE
8
DEFAULT_255_2_778
10
5.4959716
20
20.3522102
11
4.8575716
21
20.3522102
0
LINE
8
DEFAULT_255_2_778
10
4.8575716
20
20.3522102
11
4.8575716
21
19.8598102
0
LINE
8
DEFAULT_255_2_778
10
4.8575716
20
19.8598102
11
5.4422716
21
19.8598102
0
LINE
8
DEFAULT_255_2_778
10
5.4422716
20
19.8598102
11
5.4422716
21
19.5447102
0
LINE
8
DEFAULT_255_2_778
10
5.4422716
20
19.5447102
11
4.8575716
21
19.5447102
0
LINE
8
DEFAULT_255_2_778
10
4.8575716
20
19.5447102
11
4.8575716
21
18.9835102
0
LINE
8
DEFAULT_255_2_778
10
4.8575716
20
18.9835102
11
5.5007716
21
18.9835102
0
LINE
8
DEFAULT_255_2_778
10
6.7763716
20
18.9832102
11
6.7763716
21
18.6684102
0
LINE
8
DEFAULT_255_2_778
10
6.7763716
20
18.6684102
11
5.8047716
21
18.6684102
0
LINE
8
DEFAULT_255_2_778
10
5.8047716
20
18.6684102
11
5.8047716
21
20.6673102
0
LINE
8
DEFAULT_255_2_778
10
5.8047716
20
20.6673102
11
6.7718716
21
20.6673102
0
LINE
8
DEFAULT_255_2_778
10
6.7718716
20
20.6673102
11
6.7718716
21
20.3522102
0
LINE
8
DEFAULT_255_2_778
10
6.7718716
20
20.3522102
11
6.1333716
21
20.3522102
0
LINE
8
DEFAULT_255_2_778
10
6.1333716
20
20.3522102
11
6.1333716
21
19.8598102
0
LINE
8
DEFAULT_255_2_778
10
6.1333716
20
19.8598102
11
6.7175716
21
19.8598102
0
LINE
8
DEFAULT_255_2_778
10
6.7175716
20
19.8598102
11
6.7175716
21
19.5447102
0
LINE
8
DEFAULT_255_2_778
10
6.7175716
20
19.5447102
11
6.1333716
21
19.5447102
0
LINE
8
DEFAULT_255_2_778
10
6.1333716
20
19.5447102
11
6.1333716
21
18.9835102
0
LINE
8
DEFAULT_255_2_778
10
6.1333716
20
18.9835102
11
6.7763716
21
18.9835102
0
LINE
8
DEFAULT_255_2_778
10
3.9992716
20
20.0043102
11
3.9992716
21
20.0043102
0
LINE
8
DEFAULT_255_2_778
10
3.2255716
20
20.6657102
11
3.2255716
21
18.6814102
0
LINE
8
DEFAULT_255_2_778
10
3.2255716
20
18.6814102
11
3.6380716
21
18.6814102
0
LINE
8
DEFAULT_255_2_778
10
3.6380716
20
18.6814102
11
3.6380716
21
19.3428102
0
LINE
8
DEFAULT_255_2_778
10
3.2255716
20
20.6657102
11
3.2255716
21
20.6657102
0
LINE
8
DEFAULT_255_2_778
10
7.0805716
20
18.6758102
11
7.0803716
21
18.6758102
0
LINE
8
DEFAULT_255_2_778
10
8.0116716
20
19.7024102
11
8.0116716
21
19.7026102
0
ARC
8
DEFAULT_255_2_778
10
2.5249813
20
8.6024563
40
0.9987464
50
68.3549754
51
85.3945723
0
ARC
8
DEFAULT_255_2_778
10
2.5207916
20
8.5627434
40
0.7243879
50
61.8383768
51
89.3053367
0
ARC
8
DEFAULT_255_2_778
10
2.5296741
20
8.9834203
40
0.3036578
50
90.0188771
51
96.8765882
0
ARC
8
DEFAULT_255_2_778
10
2.5198687
20
9.0263944
40
0.2598593
50
95.8646249
51
128.4235588
0
ARC
8
DEFAULT_255_2_778
10
2.5049803
20
9.0576439
40
0.2262575
50
130.388126
51
157.3493861
0
ARC
8
DEFAULT_255_2_778
10
2.5886579
20
9.0238567
40
0.3164946
50
157.538385
51
176.8603452
0
ARC
8
DEFAULT_255_2_778
10
2.7286282
20
9.0100137
40
0.4570543
50
176.0885939
51
180.0546065
0
ARC
8
DEFAULT_255_2_778
10
2.4806198
20
9.0095218
40
0.2090458
50
179.9845816
51
211.6021617
0
ARC
8
DEFAULT_255_2_778
10
2.5286347
20
9.0525677
40
0.2727399
50
214.0191053
51
237.918061
0
ARC
8
DEFAULT_255_2_778
10
2.2042806
20
7.8258495
40
0.9684056
50
54.8309003
51
63.8964537
0
ARC
8
DEFAULT_255_2_778
10
2.4307803
20
8.1507312
40
0.5723706
50
38.7482822
51
54.6331272
0
ARC
8
DEFAULT_255_2_778
10
2.4957856
20
8.2099136
40
0.4846614
50
28.1111444
51
38.1016473
0
ARC
8
DEFAULT_255_2_778
10
2.4733301
20
8.1988293
40
0.5096913
50
17.7809401
51
28.0207833
0
ARC
8
DEFAULT_255_2_778
10
2.3614307
20
8.1650791
40
0.6265553
50
8.2678206
51
17.5949602
0
ARC
8
DEFAULT_255_2_778
10
2.2876351
20
8.1132285
40
0.7007688
50
344.0346694
51
349.6375519
0
ARC
8
DEFAULT_255_2_778
10
2.3857453
20
8.0870947
40
0.5992574
50
337.6974473
51
343.85683
0
ARC
8
DEFAULT_255_2_778
10
2.4641043
20
8.0543627
40
0.5143389
50
324.4306723
51
337.7583098
0
ARC
8
DEFAULT_255_2_778
10
2.4939
20
8.036062
40
0.4794638
50
310.7025772
51
324.1383996
0
ARC
8
DEFAULT_255_2_778
10
2.4777786
20
8.0589581
40
0.507342
50
297.8737923
51
310.3965764
0
ARC
8
DEFAULT_255_2_778
10
2.4403102
20
8.1296161
40
0.5873198
50
286.8723278
51
297.8822655
0
ARC
8
DEFAULT_255_2_778
10
2.3834015
20
8.3382612
40
0.8035239
50
269.9842528
51
286.4374984
0
ARC
8
DEFAULT_255_2_778
10
2.3831812
20
8.3402475
40
0.8055102
50
269.4233241
51
269.9999549
0
ARC
8
DEFAULT_255_2_778
10
2.366148
20
8.6114198
40
1.0766788
50
269.9987459
51
270.4750072
0
ARC
8
DEFAULT_255_2_778
10
2.3658633
20
8.6086339
40
1.0738929
50
258.8868815
51
270.0139333
0
ARC
8
DEFAULT_255_2_778
10
2.5228904
20
9.213145
40
1.6977506
50
251.9604825
51
257.6190262
0
LINE
8
DEFAULT_255_2_778
10
1.9971431
20
7.5988505
11
1.9950706
21
7.5994887
0
ARC
8
DEFAULT_255_2_778
10
-0.0554706
20
0.9643894
40
6.944729
50
72.8265212
51
73.1733067
0
ARC
8
DEFAULT_255_2_778
10
2.371438
20
8.4979648
40
0.6489959
50
242.5804826
51
267.6840829
0
ARC
8
DEFAULT_255_2_778
10
2.3562932
20
8.3559693
40
0.5065914
50
268.7466635
51
269.9978258
0
ARC
8
DEFAULT_255_2_778
10
2.3550685
20
8.1885504
40
0.3391745
50
270.2036501
51
286.9894928
0
ARC
8
DEFAULT_255_2_778
10
2.3645283
20
8.165545
40
0.3144175
50
286.5658233
51
305.7830947
0
ARC
8
DEFAULT_255_2_778
10
2.4173421
20
8.0993424
40
0.2292915
50
318.0879055
51
346.0531288
0
ARC
8
DEFAULT_255_2_778
10
2.3396407
20
8.1153697
40
0.3085815
50
346.6422756
51
352.3475967
0
ARC
8
DEFAULT_255_2_778
10
2.4258066
20
8.1146811
40
0.2209261
50
6.8100489
51
13.0031707
0
ARC
8
DEFAULT_255_2_778
10
2.4561438
20
8.1211936
40
0.1899022
50
13.1481297
51
15.5736736
0
ARC
8
DEFAULT_255_2_778
10
2.4260644
20
8.1158412
40
0.2203337
50
14.8144048
51
30.2615878
0
ARC
8
DEFAULT_255_2_778
10
2.4044741
20
8.1011659
40
0.2463841
50
30.6790529
51
44.2784879
0
ARC
8
DEFAULT_255_2_778
10
2.0870773
20
7.6747171
40
0.7794332
50
54.9342702
51
64.7325376
0
ARC
8
DEFAULT_255_2_778
10
2.7374852
20
9.3624158
40
1.0226299
50
235.3579791
51
243.9239404
0
ARC
8
DEFAULT_255_2_778
10
2.4818791
20
8.9888707
40
0.5700121
50
219.3465058
51
235.1520692
0
ARC
8
DEFAULT_255_2_778
10
2.4090154
20
8.9222785
40
0.4714744
50
208.6013065
51
218.7022555
0
ARC
8
DEFAULT_255_2_778
10
2.4263744
20
8.9308582
40
0.490823
50
198.0377505
51
208.5105845
0
ARC
8
DEFAULT_255_2_778
10
2.5144118
20
8.9599316
40
0.5835361
50
188.2222629
51
198.075482
0
ARC
8
DEFAULT_255_2_778
10
2.5367899
20
9.0526145
40
0.6019529
50
158.3314028
51
164.5198885
0
ARC
8
DEFAULT_255_2_778
10
2.4697742
20
9.080992
40
0.5291972
50
145.5334397
51
158.5076116
0
ARC
8
DEFAULT_255_2_778
10
2.4372307
20
9.1007175
40
0.4912081
50
132.3263996
51
145.282146
0
ARC
8
DEFAULT_255_2_778
10
2.4335815
20
9.0995389
40
0.4896349
50
119.4327618
51
131.9178231
0
ARC
8
DEFAULT_255_2_778
10
2.46501
20
9.042405
40
0.5548392
50
108.4001701
51
119.3601082
0
ARC
8
DEFAULT_255_2_778
10
2.4928103
20
8.9457836
40
0.6553089
50
92.6885771
51
108.0399677
0
ARC
8
DEFAULT_255_2_778
10
2.5008624
20
8.8535983
40
0.7477798
50
89.9914476
51
92.973537
0
LINE
8
DEFAULT_255_2_778
10
2.501474
20
9.6024781
11
2.605174
21
9.5979781
0
LINE
8
DEFAULT_255_2_778
10
2.893374
20
9.5307781
11
2.862674
21
9.2013781
0
LINE
8
DEFAULT_255_2_778
10
2.383774
20
8.8214781
11
2.437974
21
8.7888781
0
LINE
8
DEFAULT_255_2_778
10
2.437974
20
8.7888781
11
2.498574
21
8.7584781
0
LINE
8
DEFAULT_255_2_778
10
2.498574
20
8.7584781
11
2.630374
21
8.6954781
0
LINE
8
DEFAULT_255_2_778
10
2.981474
20
8.2551781
11
2.987574
21
8.1993781
0
LINE
8
DEFAULT_255_2_778
10
2.987574
20
8.1993781
11
2.989674
21
8.1387781
0
LINE
8
DEFAULT_255_2_778
10
2.989674
20
8.1387781
11
2.988874
21
8.0985781
0
LINE
8
DEFAULT_255_2_778
10
2.988874
20
8.0985781
11
2.986474
21
8.0599781
0
LINE
8
DEFAULT_255_2_778
10
2.986474
20
8.0599781
11
2.976974
21
7.9871781
0
LINE
8
DEFAULT_255_2_778
10
1.954874
20
7.6117781
11
1.985274
21
7.9723781
0
LINE
8
DEFAULT_255_2_778
10
1.985274
20
7.9723781
11
2.072574
21
7.9218781
0
LINE
8
DEFAULT_255_2_778
10
2.548374
20
7.9104781
11
2.587974
21
7.9461781
0
LINE
8
DEFAULT_255_2_778
10
2.645474
20
8.0742781
11
2.647274
21
8.1067781
0
LINE
8
DEFAULT_255_2_778
10
2.647274
20
8.1067781
11
2.645174
21
8.1408781
0
LINE
8
DEFAULT_255_2_778
10
2.580874
20
8.2731781
11
2.534874
21
8.3126781
0
LINE
8
DEFAULT_255_2_778
10
2.419774
20
8.3795781
11
2.287974
21
8.4438781
0
LINE
8
DEFAULT_255_2_778
10
1.936874
20
8.8764781
11
1.930774
21
8.9314781
0
LINE
8
DEFAULT_255_2_778
10
1.930774
20
8.9314781
11
1.928674
21
8.9909781
0
LINE
8
DEFAULT_255_2_778
10
1.928674
20
8.9909781
11
1.929474
21
9.0320781
0
LINE
8
DEFAULT_255_2_778
10
1.929474
20
9.0320781
11
1.931874
21
9.0714781
0
LINE
8
DEFAULT_255_2_778
10
1.931874
20
9.0714781
11
1.941374
21
9.1455781
0
LINE
8
DEFAULT_255_2_778
10
1.941374
20
9.1455781
11
1.956674
21
9.2132781
0
LINE
8
DEFAULT_255_2_778
10
5.461174
20
9.6024781
11
4.888274
21
7.5349781
0
LINE
8
DEFAULT_255_2_778
10
4.888274
20
7.5349781
11
4.644374
21
7.5349781
0
LINE
8
DEFAULT_255_2_778
10
4.644374
20
7.5349781
11
5.216874
21
9.6024781
0
LINE
8
DEFAULT_255_2_778
10
5.216874
20
9.6024781
11
5.461174
21
9.6024781
0
LINE
8
DEFAULT_255_2_778
10
7.0753174
20
7.5765593
11
7.5923174
21
7.5765593
0
ARC
8
DEFAULT_255_2_778
10
7.6052748
20
8.5612758
40
0.9848017
50
269.2461164
51
286.1479112
0
ARC
8
DEFAULT_255_2_778
10
7.6956433
20
8.237552
40
0.6487248
50
286.4332063
51
342.2054616
0
ARC
8
DEFAULT_255_2_778
10
7.159245
20
8.4502275
40
1.2250631
50
340.4010212
51
353.8974634
0
ARC
8
DEFAULT_255_2_778
10
6.5835664
20
8.5281544
40
1.805837
50
353.3807335
51
357.4515505
0
ARC
8
DEFAULT_255_2_778
10
5.7919494
20
8.6279298
40
2.6019066
50
356.0315526
51
357.9226594
0
ARC
8
DEFAULT_255_2_778
10
6.0993931
20
8.6168332
40
2.2942627
50
357.9212847
51
359.9780794
0
ARC
8
DEFAULT_255_2_778
10
6.7117752
20
8.6273552
40
1.6819189
50
359.6116553
51
9.4191489
0
ARC
8
DEFAULT_255_2_778
10
7.3792905
20
8.7428395
40
1.0045146
50
9.151944
51
25.4093009
0
ARC
8
DEFAULT_255_2_778
10
7.6830913
20
8.885032
40
0.6690924
50
25.5735274
51
80.4261989
0
ARC
8
DEFAULT_255_2_778
10
7.5608192
20
8.3850151
40
1.1830727
50
78.6142703
51
90.3972125
0
LINE
8
DEFAULT_255_2_778
10
7.5526174
20
9.5680593
11
7.0756174
21
9.5680593
0
LINE
8
DEFAULT_255_2_778
10
7.0756174
20
9.5680593
11
7.0756174
21
7.5765593
0
ARC
8
DEFAULT_255_2_778
10
6.9500291
20
8.611258
40
1.1193161
50
359.5956804
51
11.7633457
0
ARC
8
DEFAULT_255_2_778
10
7.4627404
20
8.7234466
40
0.5945247
50
11.2519818
51
34.1888836
0
ARC
8
DEFAULT_255_2_778
10
7.5861463
20
8.7915391
40
0.4543685
50
35.8308198
51
82.0268042
0
ARC
8
DEFAULT_255_2_778
10
7.5155316
20
8.4691532
40
0.7838384
50
80.1834393
51
90.3150836
0
ARC
8
DEFAULT_255_2_778
10
7.5123883
20
8.2065484
40
1.0464319
50
90.0639052
51
94.0295588
0
ARC
8
DEFAULT_255_2_778
10
7.5236529
20
8.0341878
40
1.2191584
50
93.9884268
51
96.1369973
0
LINE
8
DEFAULT_255_2_778
10
7.3933174
20
9.2463593
11
7.3933174
21
7.8667593
0
ARC
8
DEFAULT_255_2_778
10
7.4665336
20
9.100627
40
1.2360381
50
266.6041197
51
269.0938625
0
ARC
8
DEFAULT_255_2_778
10
7.4644464
20
8.9987757
40
1.1341665
50
269.1179219
51
269.9968609
0
ARC
8
DEFAULT_255_2_778
10
7.4759115
20
8.6768695
40
0.8123421
50
269.1869358
51
285.8006371
0
ARC
8
DEFAULT_255_2_778
10
7.5674087
20
8.3594148
40
0.4819714
50
285.6104352
51
346.6669606
0
ARC
8
DEFAULT_255_2_778
10
7.1119238
20
8.5020723
40
0.9586726
50
344.648103
51
358.6286956
0
ARC
8
DEFAULT_255_2_778
10
6.7006689
20
8.5273647
40
1.3705019
50
357.983057
51
0.0191299
0
ARC
8
DEFAULT_255_2_778
10
6.5288591
20
8.5272418
40
1.542312
50
0.0215637
51
2.106965
0
ARC
8
DEFAULT_255_2_778
10
6.3924386
20
8.5227569
40
1.6788052
50
2.0887537
51
2.7450982
0
LINE
8
DEFAULT_255_2_778
10
7.0756174
20
7.5765593
11
7.0753174
21
7.5765593
0
LINE
8
DEFAULT_255_2_778
10
8.0693174
20
8.6031593
11
8.0693174
21
8.6033593
0
ARC
8
DEFAULT_255_2_778
10
6.1974396
20
8.9834498
40
0.2116113
50
356.5049944
51
43.8261605
0
ARC
8
DEFAULT_255_2_778
10
6.1818988
20
8.9414115
40
0.2526921
50
48.2672133
51
82.4137108
0
ARC
8
DEFAULT_255_2_778
10
6.1216818
20
8.6411159
40
0.5586687
50
80.3574818
51
90.4556605
0
ARC
8
DEFAULT_255_2_778
10
6.1190397
20
8.3307016
40
0.8690672
50
90.1187243
51
94.481325
0
ARC
8
DEFAULT_255_2_778
10
6.1345003
20
8.1113558
40
1.0889517
50
94.3905594
51
96.0961131
0
LINE
8
DEFAULT_255_2_778
10
6.0188573
20
9.1941497
11
6.0188573
21
8.7470497
0
ARC
8
DEFAULT_255_2_778
10
6.1437376
20
9.7097225
40
0.9707389
50
262.6087235
51
266.8467697
0
ARC
8
DEFAULT_255_2_778
10
6.1304334
20
9.4842921
40
0.7449185
50
266.9147603
51
269.9480618
0
ARC
8
DEFAULT_255_2_778
10
6.140209
20
9.1634796
40
0.4242344
50
268.588396
51
288.3576872
0
ARC
8
DEFAULT_255_2_778
10
6.2094191
20
8.9504463
40
0.2002499
50
288.7601336
51
5.7617184
0
ARC
8
DEFAULT_255_2_778
10
6.0533683
20
7.6990669
40
0.6632661
50
90.033853
51
92.4031368
0
ARC
8
DEFAULT_255_2_778
10
6.0642326
20
8.0051324
40
0.3573778
50
69.774342
51
91.8049209
0
ARC
8
DEFAULT_255_2_778
10
6.1359391
20
8.1999806
40
0.1497541
50
24.8229533
51
69.7446473
0
ARC
8
DEFAULT_255_2_778
10
6.4076257
20
8.3443869
40
0.239928
50
20.4332758
51
64.1184198
0
ARC
8
DEFAULT_255_2_778
10
6.3874821
20
8.9353792
40
0.3953681
50
288.4118573
51
351.7279264
0
ARC
8
DEFAULT_255_2_778
10
5.9667278
20
9.0408261
40
0.8280759
50
348.6949349
51
0.5027246
0
ARC
8
DEFAULT_255_2_778
10
5.6872537
20
9.0480314
40
1.1075181
50
0.0031165
51
0.8235346
0
ARC
8
DEFAULT_255_2_778
10
6.1514142
20
9.052078
40
0.6433526
50
1.0573286
51
21.7484056
0
ARC
8
DEFAULT_255_2_778
10
6.3548367
20
9.1234935
40
0.4280436
50
22.9588519
51
78.1809389
0
ARC
8
DEFAULT_255_2_778
10
6.2295009
20
8.6782856
40
0.8900416
50
76.1533508
51
90.7499572
0
ARC
8
DEFAULT_255_2_778
10
6.218132
20
8.2775148
40
1.2907361
50
90.0124589
51
91.5971226
0
LINE
8
DEFAULT_255_2_778
10
6.1821573
20
9.5677497
11
5.6357573
21
9.5677497
0
LINE
8
DEFAULT_255_2_778
10
6.4086573
20
8.9705497
11
6.4086573
21
8.9705497
0
LINE
8
DEFAULT_255_2_778
10
5.6352573
20
9.5677497
11
5.6352573
21
7.5693497
0
LINE
8
DEFAULT_255_2_778
10
5.6352573
20
7.5693497
11
6.0255573
21
7.5693497
0
LINE
8
DEFAULT_255_2_778
10
6.0255573
20
7.5693497
11
6.0255573
21
8.3617497
0
LINE
8
DEFAULT_255_2_778
10
6.2718573
20
8.2628497
11
6.4581573
21
7.5775497
0
LINE
8
DEFAULT_255_2_778
10
6.4581573
20
7.5775497
11
6.8605573
21
7.5693497
0
LINE
8
DEFAULT_255_2_778
10
6.8605573
20
7.5693497
11
6.6324573
21
8.4281497
0
LINE
8
DEFAULT_255_2_778
10
5.6357573
20
9.5677497
11
5.6352573
21
9.5677497
0
LINE
8
DEFAULT_255_2_778
10
3.2418174
20
7.5765593
11
3.7588174
21
7.5765593
0
ARC
8
DEFAULT_255_2_778
10
3.7717748
20
8.5612758
40
0.9848017
50
269.2461164
51
286.1479112
0
ARC
8
DEFAULT_255_2_778
10
3.8621433
20
8.237552
40
0.6487248
50
286.4332063
51
342.2054616
0
ARC
8
DEFAULT_255_2_778
10
3.325745
20
8.4502275
40
1.2250631
50
340.4010212
51
353.8974634
0
ARC
8
DEFAULT_255_2_778
10
2.7500664
20
8.5281544
40
1.805837
50
353.3807335
51
357.4515505
0
ARC
8
DEFAULT_255_2_778
10
1.9584494
20
8.6279298
40
2.6019066
50
356.0315526
51
357.9226594
0
ARC
8
DEFAULT_255_2_778
10
2.2658931
20
8.6168332
40
2.2942627
50
357.9212847
51
359.9780794
0
ARC
8
DEFAULT_255_2_778
10
2.8782752
20
8.6273552
40
1.6819189
50
359.6116553
51
9.4191489
0
ARC
8
DEFAULT_255_2_778
10
3.5457905
20
8.7428395
40
1.0045146
50
9.151944
51
25.4093009
0
ARC
8
DEFAULT_255_2_778
10
3.8495913
20
8.885032
40
0.6690924
50
25.5735274
51
80.4261989
0
ARC
8
DEFAULT_255_2_778
10
3.7273192
20
8.3850151
40
1.1830727
50
78.6142703
51
90.3972125
0
LINE
8
DEFAULT_255_2_778
10
3.7191174
20
9.5680593
11
3.2421174
21
9.5680593
0
LINE
8
DEFAULT_255_2_778
10
3.2421174
20
9.5680593
11
3.2421174
21
7.5765593
0
ARC
8
DEFAULT_255_2_778
10
3.1165291
20
8.611258
40
1.1193161
50
359.5956804
51
11.7633457
0
ARC
8
DEFAULT_255_2_778
10
3.6292404
20
8.7234466
40
0.5945247
50
11.2519818
51
34.1888836
0
ARC
8
DEFAULT_255_2_778
10
3.7526463
20
8.7915391
40
0.4543685
50
35.8308198
51
82.0268042
0
ARC
8
DEFAULT_255_2_778
10
3.6820316
20
8.4691532
40
0.7838384
50
80.1834393
51
90.3150836
0
ARC
8
DEFAULT_255_2_778
10
3.6788883
20
8.2065484
40
1.0464319
50
90.0639052
51
94.0295588
0
ARC
8
DEFAULT_255_2_778
10
3.6901529
20
8.0341878
40
1.2191584
50
93.9884268
51
96.1369973
0
LINE
8
DEFAULT_255_2_778
10
3.5598174
20
9.2463593
11
3.5598174
21
7.8667593
0
ARC
8
DEFAULT_255_2_778
10
3.6330336
20
9.100627
40
1.2360381
50
266.6041197
51
269.0938625
0
ARC
8
DEFAULT_255_2_778
10
3.6309464
20
8.9987757
40
1.1341665
50
269.1179219
51
269.9968609
0
ARC
8
DEFAULT_255_2_778
10
3.6424115
20
8.6768695
40
0.8123421
50
269.1869358
51
285.8006371
0
ARC
8
DEFAULT_255_2_778
10
3.7339087
20
8.3594148
40
0.4819714
50
285.6104352
51
346.6669606
0
ARC
8
DEFAULT_255_2_778
10
3.2784238
20
8.5020723
40
0.9586726
50
344.648103
51
358.6286956
0
ARC
8
DEFAULT_255_2_778
10
2.8671689
20
8.5273647
40
1.3705019
50
357.983057
51
0.0191299
0
ARC
8
DEFAULT_255_2_778
10
2.6953591
20
8.5272418
40
1.542312
50
0.0215637
51
2.106965
0
ARC
8
DEFAULT_255_2_778
10
2.5589386
20
8.5227569
40
1.6788052
50
2.0887537
51
2.7450982
0
LINE
8
DEFAULT_255_2_778
10
3.2421174
20
7.5765593
11
3.2418174
21
7.5765593
0
LINE
8
DEFAULT_255_2_778
10
4.2358174
20
8.6031593
11
4.2358174
21
8.6033593
0
ARC
8
DEFAULT_255_2_778
10
7.7816265
20
23.8428269
40
0.9791767
50
61.2009189
51
69.4659123
0
ARC
8
DEFAULT_255_2_778
10
7.9227556
20
24.2249648
40
0.5718186
50
69.2777222
51
81.973934
0
ARC
8
DEFAULT_255_2_778
10
7.9511525
20
24.4035412
40
0.3910395
50
82.4406464
51
89.8659721
0
ARC
8
DEFAULT_255_2_778
10
7.9472188
20
24.5146265
40
0.279995
50
89.0078251
51
148.7946926
0
ARC
8
DEFAULT_255_2_778
10
8.0919509
20
24.5021839
40
0.4152486
50
157.7087921
51
169.8037185
0
ARC
8
DEFAULT_255_2_778
10
7.9736402
20
24.5249005
40
0.2947883
50
170.078608
51
179.8144683
0
ARC
8
DEFAULT_255_2_778
10
7.9237028
20
24.5278896
40
0.2448579
50
180.4760854
51
237.5522646
0
ARC
8
DEFAULT_255_2_778
10
8.1194109
20
24.7904772
40
0.571969
50
235.1205217
51
250.4795279
0
ARC
8
DEFAULT_255_2_778
10
8.226556
20
25.052449
40
0.854791
50
249.5779197
51
250.358704
0
ARC
8
DEFAULT_255_2_778
10
7.5723018
20
23.3641321
40
0.9564469
50
53.4313452
51
67.4405603
0
ARC
8
DEFAULT_255_2_778
10
7.8125453
20
23.6709418
40
0.5669921
50
359.9319259
51
54.4578079
0
ARC
8
DEFAULT_255_2_778
10
7.6525022
20
23.6564976
40
0.7271651
50
359.9975511
51
1.0850908
0
ARC
8
DEFAULT_255_2_778
10
7.5371302
20
23.6595524
40
0.8425428
50
350.7785049
51
359.7901512
0
ARC
8
DEFAULT_255_2_778
10
7.269998
20
23.7017648
40
1.1129879
50
344.2893787
51
350.8372685
0
ARC
8
DEFAULT_255_2_778
10
7.0858688
20
23.7501819
40
1.3033526
50
343.5909323
51
344.4322488
0
ARC
8
DEFAULT_255_2_778
10
7.4447026
20
23.7653069
40
0.9703506
50
325.1618905
51
336.7324329
0
ARC
8
DEFAULT_255_2_778
10
7.7614547
20
23.540858
40
0.5821608
50
305.2060718
51
325.4840247
0
ARC
8
DEFAULT_255_2_778
10
7.84104
20
23.4381535
40
0.4523974
50
269.237645
51
304.4693601
0
ARC
8
DEFAULT_255_2_778
10
7.8398287
20
23.6295811
40
0.6438028
50
255.9589849
51
269.5721126
0
ARC
8
DEFAULT_255_2_778
10
7.9138378
20
23.9341635
40
0.9572432
50
246.9217063
51
256.0846078
0
ARC
8
DEFAULT_255_2_778
10
8.0860821
20
24.3442748
40
1.4020531
50
240.6040458
51
247.0156713
0
ARC
8
DEFAULT_255_2_778
10
8.2389407
20
24.626911
40
1.723338
50
239.9908964
51
240.7886317
0
ARC
8
DEFAULT_255_2_778
10
-21.3714639
20
26.0195493
40
28.8928909
50
354.2694659
51
354.967205
0
ARC
8
DEFAULT_255_2_778
10
7.9772887
20
24.4214116
40
1.0949169
50
238.7964863
51
246.8211983
0
ARC
8
DEFAULT_255_2_778
10
7.803855
20
24.0110097
40
0.6493819
50
246.635849
51
258.9926909
0
ARC
8
DEFAULT_255_2_778
10
7.7593974
20
23.7948864
40
0.4287528
50
259.3099984
51
269.7488829
0
ARC
8
DEFAULT_255_2_778
10
7.7601097
20
23.681941
40
0.3158139
50
269.5298446
51
326.0335787
0
ARC
8
DEFAULT_255_2_778
10
7.7068896
20
23.6451932
40
0.3447208
50
336.0929311
51
350.3085275
0
ARC
8
DEFAULT_255_2_778
10
7.7948834
20
23.6283554
40
0.2551544
50
350.7092338
51
359.8779493
0
ARC
8
DEFAULT_255_2_778
10
7.8095191
20
23.6234333
40
0.240558
50
1.04293
51
51.9391013
0
ARC
8
DEFAULT_255_2_778
10
7.5994349
20
23.3871383
40
0.556473
50
49.9066689
51
65.6059303
0
ARC
8
DEFAULT_255_2_778
10
7.4337743
20
23.0557905
40
0.9267656
50
64.7390385
51
68.4534992
0
ARC
8
DEFAULT_255_2_778
10
7.9635771
20
24.5717044
40
0.6807993
50
231.1928889
51
253.8433386
0
ARC
8
DEFAULT_255_2_778
10
7.8733732
20
24.4370687
40
0.5195434
50
183.874249
51
229.6395051
0
ARC
8
DEFAULT_255_2_778
10
8.1148851
20
24.4809822
40
0.7639654
50
183.6089253
51
185.9367511
0
ARC
8
DEFAULT_255_2_778
10
8.8349927
20
24.4619958
40
1.4828436
50
180.0062676
51
181.1245571
0
ARC
8
DEFAULT_255_2_778
10
8.4347085
20
24.4715757
40
1.0826034
50
168.9777338
51
180.5155979
0
ARC
8
DEFAULT_255_2_778
10
7.9684008
20
24.5667807
40
0.6067105
50
148.5959511
51
169.3833566
0
ARC
8
DEFAULT_255_2_778
10
7.8334968
20
24.6378591
40
0.4546331
50
100.6305251
51
147.3824809
0
ARC
8
DEFAULT_255_2_778
10
7.9180571
20
24.300707
40
0.8018707
50
89.5100827
51
102.124971
0
ARC
8
DEFAULT_255_2_778
10
7.9219804
20
23.9168647
40
1.1856873
50
84.199067
51
89.858263
0
ARC
8
DEFAULT_255_2_778
10
7.8831696
20
23.5268057
40
1.5776717
50
79.7636968
51
84.2285626
0
ARC
8
DEFAULT_255_2_778
10
7.7977835
20
23.0498719
40
2.0621882
50
76.1660036
51
79.7839256
0
ARC
8
DEFAULT_255_2_778
10
7.7039693
20
22.6557792
40
2.4672832
50
76.136964
51
76.238887
0
ARC
8
DEFAULT_255_2_778
10
20.7519143
20
23.8050298
40
0.9871227
50
61.6052169
51
69.7804875
0
ARC
8
DEFAULT_255_2_778
10
20.8919921
20
24.1914512
40
0.5761049
50
69.5707845
51
82.4204447
0
ARC
8
DEFAULT_255_2_778
10
20.919237
20
24.3702048
40
0.3953344
50
82.9173756
51
89.8813739
0
ARC
8
DEFAULT_255_2_778
10
20.9144812
20
24.4844736
40
0.2811199
50
88.863809
51
148.132286
0
ARC
8
DEFAULT_255_2_778
10
21.0486175
20
24.4775572
40
0.4039442
50
157.3842512
51
169.638704
0
ARC
8
DEFAULT_255_2_778
10
20.9325291
20
24.5002142
40
0.2856773
50
169.9211996
51
179.810317
0
ARC
8
DEFAULT_255_2_778
10
20.8856989
20
24.5034429
40
0.2388564
50
180.54761
51
237.5846526
0
ARC
8
DEFAULT_255_2_778
10
21.0819191
20
24.767421
40
0.5674007
50
235.1462986
51
250.7294646
0
ARC
8
DEFAULT_255_2_778
10
21.1906293
20
25.0358114
40
0.8567459
50
249.7903042
51
250.6838595
0
ARC
8
DEFAULT_255_2_778
10
20.5438534
20
23.3380564
40
0.960619
50
53.8784072
51
67.7729226
0
ARC
8
DEFAULT_255_2_778
10
20.7757947
20
23.6454914
40
0.5755859
50
22.6615023
51
54.4877712
0
ARC
8
DEFAULT_255_2_778
10
20.7605627
20
23.6523072
40
0.5871417
50
359.3567854
51
21.4749639
0
ARC
8
DEFAULT_255_2_778
10
20.531322
20
23.6487639
40
0.8163511
50
350.6313964
51
359.786077
0
ARC
8
DEFAULT_255_2_778
10
20.2705938
20
23.6906395
40
1.0804189
50
344.0476461
51
350.6910938
0
ARC
8
DEFAULT_255_2_778
10
20.0909687
20
23.7386163
40
1.2663165
50
343.3409319
51
344.1941751
0
ARC
8
DEFAULT_255_2_778
10
20.4367743
20
23.7545949
40
0.9465495
50
324.5106378
51
336.396625
0
ARC
8
DEFAULT_255_2_778
10
20.7413692
20
23.5333488
40
0.570106
50
303.7114969
51
324.8433542
0
ARC
8
DEFAULT_255_2_778
10
20.8091621
20
23.4439956
40
0.4582026
50
269.2298972
51
302.8610378
0
ARC
8
DEFAULT_255_2_778
10
20.8077791
20
23.6397287
40
0.6539119
50
256.1837807
51
269.5815787
0
ARC
8
DEFAULT_255_2_778
10
20.8812882
20
23.9470181
40
0.969867
50
247.1972183
51
256.3019932
0
ARC
8
DEFAULT_255_2_778
10
21.0512743
20
24.3576316
40
1.4142707
50
241.0052044
51
247.2959374
0
ARC
8
DEFAULT_255_2_778
10
21.2011683
20
24.6391475
40
1.733169
50
240.3981418
51
241.1821465
0
ARC
8
DEFAULT_255_2_778
10
-6.1795727
20
25.8524831
40
26.6637352
50
354.1443776
51
354.8887049
0
ARC
8
DEFAULT_255_2_778
10
20.9419298
20
24.4230173
40
1.1012837
50
239.2066218
51
247.1560928
0
ARC
8
DEFAULT_255_2_778
10
20.7706123
20
24.0106253
40
0.6547318
50
246.961886
51
259.3404351
0
ARC
8
DEFAULT_255_2_778
10
20.7273151
20
23.7942898
40
0.4341282
50
259.6748448
51
269.7638529
0
ARC
8
DEFAULT_255_2_778
10
20.7288239
20
23.6774757
40
0.3173274
50
269.4045063
51
325.4022615
0
ARC
8
DEFAULT_255_2_778
10
20.6850535
20
23.6348639
40
0.334573
50
335.7209123
51
350.1649213
0
ARC
8
DEFAULT_255_2_778
10
20.7711993
20
23.6181134
40
0.2468386
50
350.5803149
51
359.8756032
0
ARC
8
DEFAULT_255_2_778
10
20.783831
20
23.6130824
40
0.2342494
50
1.0995256
51
51.922715
0
ARC
8
DEFAULT_255_2_778
10
20.5736864
20
23.3763087
40
0.5505759
50
49.9036877
51
65.8373361
0
ARC
8
DEFAULT_255_2_778
10
20.4043488
20
23.0346051
40
0.9317713
50
64.9375377
51
68.7449535
0
ARC
8
DEFAULT_255_2_778
10
20.9317157
20
24.5658616
40
0.6894454
50
232.1947752
51
254.0394131
0
ARC
8
DEFAULT_255_2_778
10
20.8330026
20
24.4174618
40
0.51185
50
182.7988795
51
230.7424567
0
ARC
8
DEFAULT_255_2_778
10
21.0709936
20
24.4583559
40
0.7521219
50
183.6943593
51
185.0257028
0
ARC
8
DEFAULT_255_2_778
10
21.7565428
20
24.4385364
40
1.4363937
50
180.0063736
51
181.1425997
0
ARC
8
DEFAULT_255_2_778
10
21.3677592
20
24.4480371
40
1.0476547
50
168.7384102
51
180.528332
0
ARC
8
DEFAULT_255_2_778
10
20.9164725
20
24.5424051
40
0.5866449
50
147.5343096
51
169.1700836
0
ARC
8
DEFAULT_255_2_778
10
20.797628
20
24.6053732
40
0.452699
50
101.3661123
51
146.1839839
0
ARC
8
DEFAULT_255_2_778
10
20.8850436
20
24.2660527
40
0.8028131
50
89.4568645
51
102.7100251
0
ARC
8
DEFAULT_255_2_778
10
20.8897196
20
23.8649481
40
1.2038853
50
84.2835191
51
89.8603528
0
ARC
8
DEFAULT_255_2_778
10
20.8509545
20
23.469501
40
1.6012273
50
79.911739
51
84.3127405
0
ARC
8
DEFAULT_255_2_778
10
20.7649898
20
22.9827235
40
2.0955369
50
76.3082206
51
79.9289855
0
ARC
8
DEFAULT_255_2_778
10
20.6183368
20
22.3657042
40
2.7297371
50
76.3368953
51
76.3829866
0
ARC
8
DEFAULT_255_2_778
10
0.8842891
20
24.0645258
40
2.9713691
50
359.7718437
51
5.6130667
0
ARC
8
DEFAULT_255_2_778
10
2.1142502
20
24.1902073
40
1.7350194
50
5.4553292
51
14.4548656
0
ARC
8
DEFAULT_255_2_778
10
2.8867133
20
24.394393
40
0.9360537
50
14.1548135
51
29.0963477
0
ARC
8
DEFAULT_255_2_778
10
3.2787858
20
24.6232731
40
0.48225
50
27.9866856
51
67.3966061
0
ARC
8
DEFAULT_255_2_778
10
3.2797817
20
24.5880502
40
0.5145876
50
69.0065383
51
90.751249
0
ARC
8
DEFAULT_255_2_778
10
3.2484732
20
24.602022
40
0.5011738
50
87.1909246
51
149.4128362
0
ARC
8
DEFAULT_255_2_778
10
3.5581072
20
24.4136582
40
0.863585
50
149.1078166
51
165.6468024
0
ARC
8
DEFAULT_255_2_778
10
4.2497098
20
24.2270474
40
1.5798881
50
165.3081319
51
174.9980673
0
ARC
8
DEFAULT_255_2_778
10
5.2511631
20
24.1285147
40
2.5861413
50
174.7578744
51
180.1799219
0
ARC
8
DEFAULT_255_2_778
10
5.9938672
20
24.1077404
40
3.3288565
50
179.7822144
51
185.3833436
0
ARC
8
DEFAULT_255_2_778
10
4.6463552
20
23.9769761
40
1.9750232
50
185.2741067
51
193.3688061
0
ARC
8
DEFAULT_255_2_778
10
3.7940391
20
23.7696825
40
1.097883
50
193.1284685
51
206.1101935
0
ARC
8
DEFAULT_255_2_778
10
3.330975
20
23.5352815
40
0.5789538
50
205.4484752
51
232.1085327
0
ARC
8
DEFAULT_255_2_778
10
3.2601443
20
23.4695456
40
0.4838238
50
233.9473679
51
271.5266998
0
ARC
8
DEFAULT_255_2_778
10
3.2874422
20
23.4516592
40
0.4659884
50
268.2282408
51
332.1781009
0
ARC
8
DEFAULT_255_2_778
10
2.886832
20
23.6943742
40
0.9339807
50
330.4796097
51
345.6158687
0
ARC
8
DEFAULT_255_2_778
10
2.1116685
20
23.9034217
40
1.7368046
50
345.2883879
51
354.2090578
0
ARC
8
DEFAULT_255_2_778
10
0.8838156
20
24.0358248
40
2.971761
50
354.057935
51
359.9010415
0
ARC
8
DEFAULT_255_2_778
10
0.0215433
20
24.0526018
40
3.8340914
50
359.6725847
51
0.0013712
0
ARC
8
DEFAULT_255_2_778
10
3.2676888
20
24.6019076
40
0.128297
50
93.2860492
51
156.3092262
0
ARC
8
DEFAULT_255_2_778
10
3.5877319
20
24.4169628
40
0.4973535
50
151.6077007
51
167.6504767
0
ARC
8
DEFAULT_255_2_778
10
4.4294482
20
24.214499
40
1.3630109
50
166.9040168
51
174.6274485
0
ARC
8
DEFAULT_255_2_778
10
5.9791624
20
24.0561175
40
2.9207738
50
174.380594
51
178.7540354
0
ARC
8
DEFAULT_255_2_778
10
7.6524766
20
24.0044068
40
4.5948424
50
178.563086
51
180.031338
0
ARC
8
DEFAULT_255_2_778
10
6.2576723
20
23.9914445
40
3.2000546
50
179.8129132
51
183.7336741
0
ARC
8
DEFAULT_255_2_778
10
4.6362913
20
23.879969
40
1.5748661
50
183.5278801
51
190.3478898
0
ARC
8
DEFAULT_255_2_778
10
3.6940233
20
23.7017258
40
0.6159371
50
189.781409
51
203.2577561
0
ARC
8
DEFAULT_255_2_778
10
3.2932235
20
23.5207874
40
0.1764406
50
200.66817
51
239.4772578
0
ARC
8
DEFAULT_255_2_778
10
3.2496836
20
23.4614038
40
0.1034341
50
243.5502815
51
270.3665612
0
ARC
8
DEFAULT_255_2_778
10
3.250275
20
23.4781937
40
0.1202219
50
270.0335456
51
274.7999184
0
ARC
8
DEFAULT_255_2_778
10
3.2538821
20
23.4951574
40
0.136916
50
272.7012656
51
336.92804
0
ARC
8
DEFAULT_255_2_778
10
2.9335467
20
23.6753198
40
0.5038397
50
332.3498098
51
348.4640891
0
ARC
8
DEFAULT_255_2_778
10
2.1122675
20
23.8598135
40
1.3455256
50
347.7603681
51
355.7013487
0
ARC
8
DEFAULT_255_2_778
10
0.5728818
20
23.987177
40
2.8901509
50
355.4709839
51
0.1240494
0
ARC
8
DEFAULT_255_2_778
10
-0.5893595
20
24.0018796
40
4.0523942
50
359.8805944
51
0.0001974
0
ARC
8
DEFAULT_255_2_778
10
-1.1587012
20
24.0831171
40
4.6224496
50
358.9931742
51
359.7312096
0
ARC
8
DEFAULT_255_2_778
10
-0.7537963
20
24.0807407
40
4.2175381
50
359.7376868
51
359.999634
0
ARC
8
DEFAULT_255_2_778
10
0.3807843
20
24.0912432
40
3.0829755
50
359.8043153
51
3.9080996
0
ARC
8
DEFAULT_255_2_778
10
1.9344718
20
24.2028632
40
1.525303
50
3.7027474
51
10.7601393
0
ARC
8
DEFAULT_255_2_778
10
2.8311
20
24.3789689
40
0.6115871
50
10.2344966
51
23.7842354
0
ARC
8
DEFAULT_255_2_778
10
3.2174203
20
24.5575943
40
0.1861957
50
21.4281838
51
59.2790047
0
ARC
8
DEFAULT_255_2_778
10
3.2611491
20
24.6167864
40
0.1132101
50
63.0031675
51
90.4121561
0
LINE
8
DEFAULT_255_2_778
10
8.2951347
20
25.0511936
11
8.2620347
21
24.7112936
0
LINE
8
DEFAULT_255_2_778
10
11.9654347
20
23.0009936
11
12.5382347
21
25.0686936
0
LINE
8
DEFAULT_255_2_778
10
12.5382347
20
25.0686936
11
12.7821347
21
25.0686936
0
LINE
8
DEFAULT_255_2_778
10
12.7821347
20
25.0686936
11
12.2096347
21
23.0009936
0
LINE
8
DEFAULT_255_2_778
10
12.2096347
20
23.0009936
11
11.9654347
21
23.0009936
0
LINE
8
DEFAULT_255_2_778
10
11.9781347
20
25.1025936
11
11.9781347
21
24.7765936
0
LINE
8
DEFAULT_255_2_778
10
11.9781347
20
24.7765936
11
11.5090347
21
24.7765936
0
LINE
8
DEFAULT_255_2_778
10
11.5090347
20
24.7765936
11
11.5090347
21
23.0353936
0
LINE
8
DEFAULT_255_2_778
10
11.5090347
20
23.0353936
11
11.1803347
21
23.0353936
0
LINE
8
DEFAULT_255_2_778
10
11.1803347
20
23.0353936
11
11.1803347
21
24.7765936
0
LINE
8
DEFAULT_255_2_778
10
11.1803347
20
24.7765936
11
10.7112347
21
24.7765936
0
LINE
8
DEFAULT_255_2_778
10
10.7112347
20
24.7765936
11
10.7112347
21
25.1025936
0
LINE
8
DEFAULT_255_2_778
10
10.7112347
20
25.1025936
11
11.9783347
21
25.1025936
0
LINE
8
DEFAULT_255_2_778
10
10.6446347
20
24.1923936
11
10.6446347
21
23.8775936
0
LINE
8
DEFAULT_255_2_778
10
10.6446347
20
23.8775936
11
10.0273347
21
23.8775936
0
LINE
8
DEFAULT_255_2_778
10
10.0273347
20
23.8775936
11
10.0273347
21
24.1923936
0
LINE
8
DEFAULT_255_2_778
10
10.0273347
20
24.1923936
11
10.6446347
21
24.1923936
0
LINE
8
DEFAULT_255_2_778
10
9.7304347
20
23.3610936
11
9.7304347
21
23.0353936
0
LINE
8
DEFAULT_255_2_778
10
9.7304347
20
23.0353936
11
8.7589347
21
23.0353936
0
LINE
8
DEFAULT_255_2_778
10
8.7589347
20
23.0353936
11
8.7589347
21
25.1025936
0
LINE
8
DEFAULT_255_2_778
10
8.7589347
20
25.1025936
11
9.7257347
21
25.1025936
0
LINE
8
DEFAULT_255_2_778
10
9.7257347
20
25.1025936
11
9.7257347
21
24.7765936
0
LINE
8
DEFAULT_255_2_778
10
9.7257347
20
24.7765936
11
9.0878347
21
24.7765936
0
LINE
8
DEFAULT_255_2_778
10
9.0878347
20
24.7765936
11
9.0878347
21
24.2674936
0
LINE
8
DEFAULT_255_2_778
10
9.0878347
20
24.2674936
11
9.6720347
21
24.2674936
0
LINE
8
DEFAULT_255_2_778
10
9.6720347
20
24.2674936
11
9.6720347
21
23.9415936
0
LINE
8
DEFAULT_255_2_778
10
9.6720347
20
23.9415936
11
9.0878347
21
23.9415936
0
LINE
8
DEFAULT_255_2_778
10
9.0878347
20
23.9415936
11
9.0878347
21
23.3610936
0
LINE
8
DEFAULT_255_2_778
10
9.0878347
20
23.3610936
11
9.7307347
21
23.3610936
0
LINE
8
DEFAULT_255_2_778
10
13.0033347
20
24.5643936
11
13.4822347
21
25.0342936
0
LINE
8
DEFAULT_255_2_778
10
13.4822347
20
25.0342936
11
13.7730347
21
25.0342936
0
LINE
8
DEFAULT_255_2_778
10
13.7730347
20
25.0342936
11
13.7730347
21
23.0353936
0
LINE
8
DEFAULT_255_2_778
10
13.7730347
20
23.0353936
11
13.4447347
21
23.0353936
0
LINE
8
DEFAULT_255_2_778
10
13.4447347
20
23.0353936
11
13.4447347
21
24.5786936
0
LINE
8
DEFAULT_255_2_778
10
13.4447347
20
24.5786936
11
13.1676347
21
24.3037936
0
LINE
8
DEFAULT_255_2_778
10
13.1676347
20
24.3037936
11
13.0033347
21
24.5640936
0
LINE
8
DEFAULT_255_2_778
10
21.2631347
20
25.0181936
11
21.2300347
21
24.6836936
0
LINE
8
DEFAULT_255_2_778
10
25.1072347
20
23.0353936
11
25.6446347
21
24.1100936
0
LINE
8
DEFAULT_255_2_778
10
25.6446347
20
24.1100936
11
25.1567347
21
25.1022936
0
LINE
8
DEFAULT_255_2_778
10
25.1567347
20
25.1022936
11
25.5372347
21
25.1022936
0
LINE
8
DEFAULT_255_2_778
10
25.5372347
20
25.1022936
11
25.8795347
21
24.3648936
0
LINE
8
DEFAULT_255_2_778
10
25.8795347
20
24.3648936
11
26.2293347
21
25.1022936
0
LINE
8
DEFAULT_255_2_778
10
26.2293347
20
25.1022936
11
26.5815347
21
25.1022936
0
LINE
8
DEFAULT_255_2_778
10
26.5815347
20
25.1022936
11
26.0886347
21
24.1100936
0
LINE
8
DEFAULT_255_2_778
10
26.0886347
20
24.1100936
11
26.6259347
21
23.0350936
0
LINE
8
DEFAULT_255_2_778
10
26.6259347
20
23.0350936
11
26.2386347
21
23.0350936
0
LINE
8
DEFAULT_255_2_778
10
26.2386347
20
23.0350936
11
25.8610347
21
23.8401936
0
LINE
8
DEFAULT_255_2_778
10
25.8610347
20
23.8401936
11
25.4782347
21
23.0350936
0
LINE
8
DEFAULT_255_2_778
10
25.4782347
20
23.0350936
11
25.1072347
21
23.0350936
0
LINE
8
DEFAULT_255_2_778
10
24.9466347
20
25.1025936
11
24.9466347
21
24.7765936
0
LINE
8
DEFAULT_255_2_778
10
24.9466347
20
24.7765936
11
24.4775347
21
24.7765936
0
LINE
8
DEFAULT_255_2_778
10
24.4775347
20
24.7765936
11
24.4775347
21
23.0353936
0
LINE
8
DEFAULT_255_2_778
10
24.4775347
20
23.0353936
11
24.1489347
21
23.0353936
0
LINE
8
DEFAULT_255_2_778
10
24.1489347
20
23.0353936
11
24.1489347
21
24.7765936
0
LINE
8
DEFAULT_255_2_778
10
24.1489347
20
24.7765936
11
23.6793347
21
24.7765936
0
LINE
8
DEFAULT_255_2_778
10
23.6793347
20
24.7765936
11
23.6793347
21
25.1025936
0
LINE
8
DEFAULT_255_2_778
10
23.6793347
20
25.1025936
11
24.9466347
21
25.1025936
0
LINE
8
DEFAULT_255_2_778
10
23.6129347
20
24.1923936
11
23.6129347
21
23.8775936
0
LINE
8
DEFAULT_255_2_778
10
23.6129347
20
23.8775936
11
22.9958347
21
23.8775936
0
LINE
8
DEFAULT_255_2_778
10
22.9958347
20
23.8775936
11
22.9958347
21
24.1923936
0
LINE
8
DEFAULT_255_2_778
10
22.9958347
20
24.1923936
11
23.6129347
21
24.1923936
0
LINE
8
DEFAULT_255_2_778
10
22.6987347
20
23.3610936
11
22.6987347
21
23.0353936
0
LINE
8
DEFAULT_255_2_778
10
22.6987347
20
23.0353936
11
21.7272347
21
23.0353936
0
LINE
8
DEFAULT_255_2_778
10
21.7272347
20
23.0353936
11
21.7272347
21
25.1025936
0
LINE
8
DEFAULT_255_2_778
10
21.7272347
20
25.1025936
11
22.6942347
21
25.1025936
0
LINE
8
DEFAULT_255_2_778
10
22.6942347
20
25.1025936
11
22.6942347
21
24.7765936
0
LINE
8
DEFAULT_255_2_778
10
22.6942347
20
24.7765936
11
22.0555347
21
24.7765936
0
LINE
8
DEFAULT_255_2_778
10
22.0555347
20
24.7765936
11
22.0555347
21
24.2674936
0
LINE
8
DEFAULT_255_2_778
10
22.0555347
20
24.2674936
11
22.6402347
21
24.2674936
0
LINE
8
DEFAULT_255_2_778
10
22.6402347
20
24.2674936
11
22.6402347
21
23.9415936
0
LINE
8
DEFAULT_255_2_778
10
22.6402347
20
23.9415936
11
22.0555347
21
23.9415936
0
LINE
8
DEFAULT_255_2_778
10
22.0555347
20
23.9415936
11
22.0555347
21
23.3610936
0
LINE
8
DEFAULT_255_2_778
10
22.0555347
20
23.3610936
11
22.6987347
21
23.3610936
0
LINE
8
DEFAULT_255_2_778
10
3.8556347
20
24.0526936
11
3.8556347
21
24.0526936
0
LINE
8
DEFAULT_255_2_778
10
3.2603347
20
24.7299936
11
3.2603347
21
24.7299936
0
ARC
8
DEFAULT_255_2_778
10
3.9745376
20
23.5941656
40
1.2612719
50
352.9992479
51
357.1171945
0
ARC
8
DEFAULT_255_2_778
10
4.1902922
20
23.5823986
40
1.0451989
50
357.1665899
51
359.9667297
0
ARC
8
DEFAULT_255_2_778
10
4.5345581
20
23.592943
40
0.7010215
50
359.0885428
51
16.8416174
0
ARC
8
DEFAULT_255_2_778
10
4.7985694
20
23.6705887
40
0.4258431
50
17.1343637
51
78.3802283
0
ARC
8
DEFAULT_255_2_778
10
4.7155396
20
23.4458336
40
0.6636957
50
75.2657925
51
75.972947
0
ARC
8
DEFAULT_255_2_778
10
4.809316
20
24.4330466
40
0.3498019
50
281.0575424
51
342.0933306
0
ARC
8
DEFAULT_255_2_778
10
4.3955666
20
24.6072736
40
0.7980108
50
339.3227948
51
353.6013396
0
ARC
8
DEFAULT_255_2_778
10
3.8994331
20
24.5389405
40
1.2893376
50
359.0844555
51
359.995324
0
ARC
8
DEFAULT_255_2_778
10
4.2948097
20
24.5509893
40
0.8940436
50
359.2210756
51
13.8223331
0
ARC
8
DEFAULT_255_2_778
10
4.7287251
20
24.665427
40
0.4454157
50
12.8631714
51
47.0205891
0
ARC
8
DEFAULT_255_2_778
10
4.7422885
20
24.6502673
40
0.4477183
50
49.6139336
51
83.3209402
0
ARC
8
DEFAULT_255_2_778
10
4.6848192
20
24.3370501
40
0.7657724
50
81.7757225
51
90.2384769
0
ARC
8
DEFAULT_255_2_778
10
4.6817504
20
24.1607135
40
0.9421022
50
90.0072077
51
91.3894532
0
ARC
8
DEFAULT_255_2_778
10
4.6609248
20
23.7437865
40
0.7576847
50
270.5657452
51
289.2360589
0
ARC
8
DEFAULT_255_2_778
10
4.7498613
20
23.4738909
40
0.4735823
50
289.8348177
51
348.993527
0
ARC
8
DEFAULT_255_2_778
10
4.4537523
20
23.5724781
40
0.7841001
50
346.0517707
51
350.3276646
0
ARC
8
DEFAULT_255_2_778
10
4.6599978
20
23.6242451
40
0.3097321
50
269.2615924
51
300.9167937
0
ARC
8
DEFAULT_255_2_778
10
4.6830416
20
23.5525441
40
0.2369945
50
305.0471818
51
355.7731738
0
ARC
8
DEFAULT_255_2_778
10
4.4388302
20
23.5996476
40
0.4848801
50
352.3472177
51
0.2352865
0
ARC
8
DEFAULT_255_2_778
10
4.3927204
20
23.6139151
40
0.5311277
50
358.675558
51
17.2565972
0
ARC
8
DEFAULT_255_2_778
10
4.6814429
20
23.7070646
40
0.2277929
50
16.4249259
51
95.1472943
0
LINE
8
DEFAULT_255_2_778
10
4.6610062
20
23.9339388
11
4.4602062
21
23.9339388
0
LINE
8
DEFAULT_255_2_778
10
4.4602062
20
23.9339388
11
4.4602062
21
23.3145388
0
ARC
8
DEFAULT_255_2_778
10
4.5505395
20
24.3716095
40
1.0609235
50
265.1155825
51
270.1305133
0
ARC
8
DEFAULT_255_2_778
10
4.5502288
20
24.7647456
40
1.4540594
50
270.1074685
51
274.1717373
0
ARC
8
DEFAULT_255_2_778
10
4.6403796
20
24.5422486
40
0.2966532
50
269.0200679
51
299.7673243
0
ARC
8
DEFAULT_255_2_778
10
4.6698443
20
24.4587073
40
0.2101091
50
304.1072514
51
359.3895622
0
ARC
8
DEFAULT_255_2_778
10
4.4623087
20
24.4914841
40
0.419098
50
355.2074028
51
0.0895058
0
ARC
8
DEFAULT_255_2_778
10
4.4709663
20
24.5045325
40
0.4106269
50
358.2704101
51
20.810576
0
ARC
8
DEFAULT_255_2_778
10
4.6621175
20
24.5700784
40
0.2087652
50
22.6338856
51
95.3594445
0
ARC
8
DEFAULT_255_2_778
10
4.6400767
20
24.3639946
40
0.4139442
50
89.6482325
51
89.9959147
0
LINE
8
DEFAULT_255_2_778
10
4.6401062
20
24.7779388
11
4.4557062
21
24.7779388
0
LINE
8
DEFAULT_255_2_778
10
4.4557062
20
24.7779388
11
4.4557062
21
24.2456388
0
ARC
8
DEFAULT_255_2_778
10
4.5385952
20
25.2686976
40
1.0264112
50
265.367967
51
270.1234179
0
ARC
8
DEFAULT_255_2_778
10
4.538317
20
25.6470521
40
1.4047656
50
270.1015248
51
273.9590194
0
LINE
8
DEFAULT_255_2_778
10
4.6589062
20
25.1025388
11
4.1575062
21
25.1025388
0
LINE
8
DEFAULT_255_2_778
10
4.1575062
20
25.1025388
11
4.1575062
21
22.9861388
0
LINE
8
DEFAULT_255_2_778
10
4.1575062
20
22.9861388
11
4.6684062
21
22.9861388
0
LINE
8
DEFAULT_255_2_778
10
5.2267062
20
23.4407388
11
5.2264062
21
23.4404388
0
LINE
8
DEFAULT_255_2_778
10
4.6560062
20
23.3145388
11
4.6560062
21
23.3145388
0
LINE
8
DEFAULT_255_2_778
10
4.6353062
20
24.2456388
11
4.6353062
21
24.2456388
0
LINE
8
DEFAULT_255_2_778
10
5.4706386
20
23.0352948
11
6.1090386
21
25.1024948
0
LINE
8
DEFAULT_255_2_778
10
6.1090386
20
25.1024948
11
6.4797386
21
25.1024948
0
LINE
8
DEFAULT_255_2_778
10
6.4797386
20
25.1024948
11
7.1229386
21
23.0352948
0
LINE
8
DEFAULT_255_2_778
10
7.1229386
20
23.0352948
11
6.7591386
21
23.0352948
0
LINE
8
DEFAULT_255_2_778
10
6.7591386
20
23.0352948
11
6.6181386
21
23.5091948
0
LINE
8
DEFAULT_255_2_778
10
6.6181386
20
23.5091948
11
5.9540386
21
23.5091948
0
LINE
8
DEFAULT_255_2_778
10
5.9540386
20
23.5091948
11
5.8106386
21
23.0352948
0
LINE
8
DEFAULT_255_2_778
10
5.8106386
20
23.0352948
11
5.4706386
21
23.0352948
0
LINE
8
DEFAULT_255_2_778
10
6.2847386
20
24.6875948
11
6.0477386
21
23.8345948
0
LINE
8
DEFAULT_255_2_778
10
6.0477386
20
23.8345948
11
6.5266386
21
23.8345948
0
LINE
8
DEFAULT_255_2_778
10
6.5266386
20
23.8345948
11
6.2895386
21
24.6875948
0
LINE
8
DEFAULT_255_2_778
10
6.2895386
20
24.6875948
11
6.2847386
21
24.6875948
0
ARC
8
DEFAULT_255_2_778
10
12.5346373
20
24.0470689
40
2.8779737
50
359.7683334
51
5.703484
0
ARC
8
DEFAULT_255_2_778
10
13.7304973
20
24.1715622
40
1.6756694
50
5.5314188
51
14.828318
0
ARC
8
DEFAULT_255_2_778
10
14.4808252
20
24.375458
40
0.8981624
50
14.5043277
51
30.1626613
0
ARC
8
DEFAULT_255_2_778
10
14.8468939
20
24.5999808
40
0.4689563
50
28.9176546
51
92.0660186
0
ARC
8
DEFAULT_255_2_778
10
14.8042416
20
24.5659624
40
0.5033287
50
87.0679623
51
149.2624269
0
ARC
8
DEFAULT_255_2_778
10
15.109668
20
24.3820467
40
0.8598509
50
149.1309378
51
166.074924
0
ARC
8
DEFAULT_255_2_778
10
15.815718
20
24.1967567
40
1.5897726
50
165.7169845
51
175.5440088
0
ARC
8
DEFAULT_255_2_778
10
16.7787915
20
24.1086622
40
2.5568122
50
175.2526043
51
180.1463295
0
ARC
8
DEFAULT_255_2_778
10
17.4420009
20
24.0895392
40
3.220038
50
179.7759241
51
185.5081638
0
ARC
8
DEFAULT_255_2_778
10
16.1382194
20
23.9602503
40
1.9098699
50
185.401814
51
193.62635
0
ARC
8
DEFAULT_255_2_778
10
15.3104646
20
23.7542679
40
1.0568996
50
193.3458281
51
206.9906192
0
ARC
8
DEFAULT_255_2_778
10
14.8669215
20
23.520683
40
0.5556978
50
206.2850062
51
235.1349061
0
ARC
8
DEFAULT_255_2_778
10
14.8178417
20
23.4796044
40
0.4942215
50
237.0814904
51
271.4082273
0
ARC
8
DEFAULT_255_2_778
10
14.8456026
20
23.4529011
40
0.4676296
50
268.0864216
51
331.791177
0
ARC
8
DEFAULT_255_2_778
10
14.462186
20
23.6862752
40
0.9161464
50
330.2637357
51
345.466964
0
ARC
8
DEFAULT_255_2_778
10
13.7145268
20
23.8898804
40
1.6910015
50
345.1459498
51
354.1411564
0
ARC
8
DEFAULT_255_2_778
10
12.5068523
20
24.0206323
40
2.9057224
50
354.0072313
51
0.0786816
0
ARC
8
DEFAULT_255_2_778
10
11.6769876
20
24.0353494
40
3.7355998
50
359.8354745
51
0.0012715
0
ARC
8
DEFAULT_255_2_778
10
14.8244944
20
24.5728288
40
0.1293045
50
93.1950724
51
156.3062007
0
ARC
8
DEFAULT_255_2_778
10
15.1433824
20
24.3887739
40
0.4969189
50
151.6433828
51
167.7181008
0
ARC
8
DEFAULT_255_2_778
10
15.9799501
20
24.1886518
40
1.3570242
50
166.9755775
51
174.7334785
0
ARC
8
DEFAULT_255_2_778
10
17.551783
20
24.0318978
40
2.9366337
50
174.5029466
51
179.0185576
0
ARC
8
DEFAULT_255_2_778
10
19.1665198
20
23.9871277
40
4.5519327
50
178.8032485
51
180.0213402
0
ARC
8
DEFAULT_255_2_778
10
17.6328806
20
23.9734487
40
3.0183169
50
179.7725184
51
184.1661784
0
ARC
8
DEFAULT_255_2_778
10
16.0448332
20
23.8528034
40
1.4257098
50
183.9670233
51
191.29961
0
ARC
8
DEFAULT_255_2_778
10
15.1806953
20
23.6739056
40
0.5433037
50
190.6551103
51
205.4341039
0
ARC
8
DEFAULT_255_2_778
10
14.8298091
20
23.4974201
40
0.1508797
50
202.134388
51
249.5321502
0
ARC
8
DEFAULT_255_2_778
10
14.8069036
20
23.4588535
40
0.1070355
50
253.8042235
51
270.2200795
0
ARC
8
DEFAULT_255_2_778
10
14.8072448
20
23.4739435
40
0.1221248
50
270.0328108
51
274.7169198
0
ARC
8
DEFAULT_255_2_778
10
14.8107322
20
23.4907255
40
0.1386483
50
272.7099602
51
337.4212113
0
ARC
8
DEFAULT_255_2_778
10
14.4890338
20
23.6698442
40
0.5061973
50
332.6763003
51
348.462577
0
ARC
8
DEFAULT_255_2_778
10
13.6884441
20
23.8489059
40
1.3265126
50
347.8008764
51
355.710798
0
ARC
8
DEFAULT_255_2_778
10
12.1827466
20
23.9725592
40
2.8372612
50
355.4948293
51
0.2184916
0
ARC
8
DEFAULT_255_2_778
10
9.7548601
20
23.9859438
40
5.2651275
50
359.9720869
51
359.9944331
0
ARC
8
DEFAULT_255_2_778
10
10.5443641
20
24.0653616
40
4.4763371
50
358.9768734
51
359.7268587
0
ARC
8
DEFAULT_255_2_778
10
10.9365048
20
24.0630232
40
4.0841899
50
359.7334386
51
359.9996288
0
ARC
8
DEFAULT_255_2_778
10
12.0349998
20
24.0733558
40
2.9857127
50
359.801208
51
3.971267
0
ARC
8
DEFAULT_255_2_778
10
13.5432168
20
24.1836299
40
1.4734905
50
3.7552294
51
10.995491
0
ARC
8
DEFAULT_255_2_778
10
14.4151388
20
24.359009
40
0.584154
50
10.4210744
51
24.5988984
0
ARC
8
DEFAULT_255_2_778
10
14.7836548
20
24.5363715
40
0.1754299
50
22.0289342
51
62.9929907
0
ARC
8
DEFAULT_255_2_778
10
14.818038
20
24.5866456
40
0.1152892
50
66.8744942
51
90.372964
0
LINE
8
DEFAULT_255_2_778
10
15.4125875
20
24.0354323
11
15.4125875
21
24.0354323
0
LINE
8
DEFAULT_255_2_778
10
14.8172875
20
24.7019323
11
14.8172875
21
24.7019323
0
ARC
8
DEFAULT_255_2_778
10
13.9459373
20
24.0470689
40
2.8779737
50
359.7683334
51
5.703484
0
ARC
8
DEFAULT_255_2_778
10
15.1417973
20
24.1715622
40
1.6756694
50
5.5314188
51
14.828318
0
ARC
8
DEFAULT_255_2_778
10
15.8921252
20
24.375458
40
0.8981624
50
14.5043277
51
30.1626613
0
ARC
8
DEFAULT_255_2_778
10
16.2581939
20
24.5999808
40
0.4689563
50
28.9176546
51
92.0660186
0
ARC
8
DEFAULT_255_2_778
10
16.2155416
20
24.5659624
40
0.5033287
50
87.0679623
51
149.2624269
0
ARC
8
DEFAULT_255_2_778
10
16.520968
20
24.3820467
40
0.8598509
50
149.1309378
51
166.074924
0
ARC
8
DEFAULT_255_2_778
10
17.227018
20
24.1967567
40
1.5897726
50
165.7169845
51
175.5440088
0
ARC
8
DEFAULT_255_2_778
10
18.1900915
20
24.1086622
40
2.5568122
50
175.2526043
51
180.1463295
0
ARC
8
DEFAULT_255_2_778
10
18.8533009
20
24.0895392
40
3.220038
50
179.7759241
51
185.5081638
0
ARC
8
DEFAULT_255_2_778
10
17.5495194
20
23.9602503
40
1.9098699
50
185.401814
51
193.62635
0
ARC
8
DEFAULT_255_2_778
10
16.7217646
20
23.7542679
40
1.0568996
50
193.3458281
51
206.9906192
0
ARC
8
DEFAULT_255_2_778
10
16.2782215
20
23.520683
40
0.5556978
50
206.2850062
51
235.1349061
0
ARC
8
DEFAULT_255_2_778
10
16.2291417
20
23.4796044
40
0.4942215
50
237.0814904
51
271.4082273
0
ARC
8
DEFAULT_255_2_778
10
16.2569026
20
23.4529011
40
0.4676296
50
268.0864216
51
331.791177
0
ARC
8
DEFAULT_255_2_778
10
15.873486
20
23.6862752
40
0.9161464
50
330.2637357
51
345.466964
0
ARC
8
DEFAULT_255_2_778
10
15.1258268
20
23.8898804
40
1.6910015
50
345.1459498
51
354.1411564
0
ARC
8
DEFAULT_255_2_778
10
13.9181523
20
24.0206323
40
2.9057224
50
354.0072313
51
0.0786816
0
ARC
8
DEFAULT_255_2_778
10
13.0882876
20
24.0353494
40
3.7355998
50
359.8354745
51
0.0012715
0
ARC
8
DEFAULT_255_2_778
10
16.2357944
20
24.5728288
40
0.1293045
50
93.1950724
51
156.3062007
0
ARC
8
DEFAULT_255_2_778
10
16.5546824
20
24.3887739
40
0.4969189
50
151.6433828
51
167.7181008
0
ARC
8
DEFAULT_255_2_778
10
17.3912501
20
24.1886518
40
1.3570242
50
166.9755775
51
174.7334785
0
ARC
8
DEFAULT_255_2_778
10
18.963083
20
24.0318978
40
2.9366337
50
174.5029466
51
179.0185576
0
ARC
8
DEFAULT_255_2_778
10
20.5778198
20
23.9871277
40
4.5519327
50
178.8032485
51
180.0213402
0
ARC
8
DEFAULT_255_2_778
10
19.0441806
20
23.9734487
40
3.0183169
50
179.7725184
51
184.1661784
0
ARC
8
DEFAULT_255_2_778
10
17.4561332
20
23.8528034
40
1.4257098
50
183.9670233
51
191.29961
0
ARC
8
DEFAULT_255_2_778
10
16.5919953
20
23.6739056
40
0.5433037
50
190.6551103
51
205.4341039
0
ARC
8
DEFAULT_255_2_778
10
16.2411091
20
23.4974201
40
0.1508797
50
202.134388
51
249.5321502
0
ARC
8
DEFAULT_255_2_778
10
16.2182036
20
23.4588535
40
0.1070355
50
253.8042235
51
270.2200795
0
ARC
8
DEFAULT_255_2_778
10
16.2185448
20
23.4739435
40
0.1221248
50
270.0328108
51
274.7169198
0
ARC
8
DEFAULT_255_2_778
10
16.2220322
20
23.4907255
40
0.1386483
50
272.7099602
51
337.4212113
0
ARC
8
DEFAULT_255_2_778
10
15.9003338
20
23.6698442
40
0.5061973
50
332.6763003
51
348.462577
0
ARC
8
DEFAULT_255_2_778
10
15.0997441
20
23.8489059
40
1.3265126
50
347.8008764
51
355.710798
0
ARC
8
DEFAULT_255_2_778
10
13.5940466
20
23.9725592
40
2.8372612
50
355.4948293
51
0.2184916
0
ARC
8
DEFAULT_255_2_778
10
11.1661601
20
23.9859438
40
5.2651275
50
359.9720869
51
359.9944331
0
ARC
8
DEFAULT_255_2_778
10
11.9556641
20
24.0653616
40
4.4763371
50
358.9768734
51
359.7268587
0
ARC
8
DEFAULT_255_2_778
10
12.3478048
20
24.0630232
40
4.0841899
50
359.7334386
51
359.9996288
0
ARC
8
DEFAULT_255_2_778
10
13.4462998
20
24.0733558
40
2.9857127
50
359.801208
51
3.971267
0
ARC
8
DEFAULT_255_2_778
10
14.9545168
20
24.1836299
40
1.4734905
50
3.7552294
51
10.995491
0
ARC
8
DEFAULT_255_2_778
10
15.8264388
20
24.359009
40
0.584154
50
10.4210744
51
24.5988984
0
ARC
8
DEFAULT_255_2_778
10
16.1949548
20
24.5363715
40
0.1754299
50
22.0289342
51
62.9929907
0
ARC
8
DEFAULT_255_2_778
10
16.229338
20
24.5866456
40
0.1152892
50
66.8744942
51
90.372964
0
LINE
8
DEFAULT_255_2_778
10
16.8238875
20
24.0354323
11
16.8238875
21
24.0354323
0
LINE
8
DEFAULT_255_2_778
10
16.2285875
20
24.7019323
11
16.2285875
21
24.7019323
0
ARC
8
DEFAULT_255_2_778
10
16.9428376
20
23.5941656
40
1.2612719
50
352.9992479
51
357.1171945
0
ARC
8
DEFAULT_255_2_778
10
17.1585922
20
23.5823986
40
1.0451989
50
357.1665899
51
359.9667297
0
ARC
8
DEFAULT_255_2_778
10
17.5028581
20
23.592943
40
0.7010215
50
359.0885428
51
16.8416174
0
ARC
8
DEFAULT_255_2_778
10
17.7668694
20
23.6705887
40
0.4258431
50
17.1343637
51
78.3802283
0
ARC
8
DEFAULT_255_2_778
10
17.6838396
20
23.4458336
40
0.6636957
50
75.2657925
51
75.972947
0
ARC
8
DEFAULT_255_2_778
10
17.777616
20
24.4330466
40
0.3498019
50
281.0575424
51
342.0933306
0
ARC
8
DEFAULT_255_2_778
10
17.3638666
20
24.6072736
40
0.7980108
50
339.3227948
51
353.6013396
0
ARC
8
DEFAULT_255_2_778
10
16.8677331
20
24.5389405
40
1.2893376
50
359.0844555
51
359.995324
0
ARC
8
DEFAULT_255_2_778
10
17.2631097
20
24.5509893
40
0.8940436
50
359.2210756
51
13.8223331
0
ARC
8
DEFAULT_255_2_778
10
17.6970251
20
24.665427
40
0.4454157
50
12.8631714
51
47.0205891
0
ARC
8
DEFAULT_255_2_778
10
17.7105885
20
24.6502673
40
0.4477183
50
49.6139336
51
83.3209402
0
ARC
8
DEFAULT_255_2_778
10
17.6531192
20
24.3370501
40
0.7657724
50
81.7757225
51
90.2384769
0
ARC
8
DEFAULT_255_2_778
10
17.6500504
20
24.1607135
40
0.9421022
50
90.0072077
51
91.3894532
0
ARC
8
DEFAULT_255_2_778
10
17.6292248
20
23.7437865
40
0.7576847
50
270.5657452
51
289.2360589
0
ARC
8
DEFAULT_255_2_778
10
17.7181613
20
23.4738909
40
0.4735823
50
289.8348177
51
348.993527
0
ARC
8
DEFAULT_255_2_778
10
17.4220523
20
23.5724781
40
0.7841001
50
346.0517707
51
350.3276646
0
ARC
8
DEFAULT_255_2_778
10
17.6282978
20
23.6242451
40
0.3097321
50
269.2615924
51
300.9167937
0
ARC
8
DEFAULT_255_2_778
10
17.6513416
20
23.5525441
40
0.2369945
50
305.0471818
51
355.7731738
0
ARC
8
DEFAULT_255_2_778
10
17.4071302
20
23.5996476
40
0.4848801
50
352.3472177
51
0.2352865
0
ARC
8
DEFAULT_255_2_778
10
17.3610204
20
23.6139151
40
0.5311277
50
358.675558
51
17.2565972
0
ARC
8
DEFAULT_255_2_778
10
17.6497429
20
23.7070646
40
0.2277929
50
16.4249259
51
95.1472943
0
LINE
8
DEFAULT_255_2_778
10
17.6293062
20
23.9339388
11
17.4285062
21
23.9339388
0
LINE
8
DEFAULT_255_2_778
10
17.4285062
20
23.9339388
11
17.4285062
21
23.3145388
0
ARC
8
DEFAULT_255_2_778
10
17.5188395
20
24.3716095
40
1.0609235
50
265.1155825
51
270.1305133
0
ARC
8
DEFAULT_255_2_778
10
17.5185288
20
24.7647456
40
1.4540594
50
270.1074685
51
274.1717373
0
ARC
8
DEFAULT_255_2_778
10
17.6086796
20
24.5422486
40
0.2966532
50
269.0200679
51
299.7673243
0
ARC
8
DEFAULT_255_2_778
10
17.6381443
20
24.4587073
40
0.2101091
50
304.1072514
51
359.3895622
0
ARC
8
DEFAULT_255_2_778
10
17.4306087
20
24.4914841
40
0.419098
50
355.2074028
51
0.0895058
0
ARC
8
DEFAULT_255_2_778
10
17.4392663
20
24.5045325
40
0.4106269
50
358.2704101
51
20.810576
0
ARC
8
DEFAULT_255_2_778
10
17.6304175
20
24.5700784
40
0.2087652
50
22.6338856
51
95.3594445
0
ARC
8
DEFAULT_255_2_778
10
17.6083767
20
24.3639946
40
0.4139442
50
89.6482325
51
89.9959147
0
LINE
8
DEFAULT_255_2_778
10
17.6084062
20
24.7779388
11
17.4240062
21
24.7779388
0
LINE
8
DEFAULT_255_2_778
10
17.4240062
20
24.7779388
11
17.4240062
21
24.2456388
0
ARC
8
DEFAULT_255_2_778
10
17.5068952
20
25.2686976
40
1.0264112
50
265.367967
51
270.1234179
0
ARC
8
DEFAULT_255_2_778
10
17.506617
20
25.6470521
40
1.4047656
50
270.1015248
51
273.9590194
0
LINE
8
DEFAULT_255_2_778
10
17.6272062
20
25.1025388
11
17.1258062
21
25.1025388
0
LINE
8
DEFAULT_255_2_778
10
17.1258062
20
25.1025388
11
17.1258062
21
22.9861388
0
LINE
8
DEFAULT_255_2_778
10
17.1258062
20
22.9861388
11
17.6367062
21
22.9861388
0
LINE
8
DEFAULT_255_2_778
10
18.1950062
20
23.4407388
11
18.1947062
21
23.4404388
0
LINE
8
DEFAULT_255_2_778
10
17.6243062
20
23.3145388
11
17.6243062
21
23.3145388
0
LINE
8
DEFAULT_255_2_778
10
17.6036062
20
24.2456388
11
17.6036062
21
24.2456388
0
LINE
8
DEFAULT_255_2_778
10
18.4389503
20
23.0353333
11
19.0773503
21
25.1025333
0
LINE
8
DEFAULT_255_2_778
10
19.0773503
20
25.1025333
11
19.4480503
21
25.1025333
0
LINE
8
DEFAULT_255_2_778
10
19.4480503
20
25.1025333
11
20.0912503
21
23.0353333
0
LINE
8
DEFAULT_255_2_778
10
20.0912503
20
23.0353333
11
19.7274503
21
23.0353333
0
LINE
8
DEFAULT_255_2_778
10
19.7274503
20
23.0353333
11
19.5864503
21
23.5092333
0
LINE
8
DEFAULT_255_2_778
10
19.5864503
20
23.5092333
11
18.9223503
21
23.5092333
0
LINE
8
DEFAULT_255_2_778
10
18.9223503
20
23.5092333
11
18.7794503
21
23.0353333
0
LINE
8
DEFAULT_255_2_778
10
18.7794503
20
23.0353333
11
18.4389503
21
23.0353333
0
LINE
8
DEFAULT_255_2_778
10
19.2533503
20
24.6876333
11
19.0162503
21
23.8346333
0
LINE
8
DEFAULT_255_2_778
10
19.0162503
20
23.8346333
11
19.4951503
21
23.8346333
0
LINE
8
DEFAULT_255_2_778
10
19.4951503
20
23.8346333
11
19.2580503
21
24.6876333
0
LINE
8
DEFAULT_255_2_778
10
19.2580503
20
24.6876333
11
19.2533503
21
24.6876333
0
LINE
8
DEFAULT_255_2_778
10
1.7955503
20
24.2535333
11
1.6635503
21
24.6355333
0
LINE
8
DEFAULT_255_2_778
10
1.6635503
20
24.6355333
11
2.0403503
21
25.1025333
0
LINE
8
DEFAULT_255_2_778
10
2.0403503
20
25.1025333
11
2.3011503
21
25.1025333
0
LINE
8
DEFAULT_255_2_778
10
2.3011503
20
25.1025333
11
2.3011503
21
22.9858333
0
LINE
8
DEFAULT_255_2_778
10
2.3011503
20
22.9858333
11
2.0056503
21
22.9858333
0
LINE
8
DEFAULT_255_2_778
10
2.0056503
20
22.9858333
11
2.0056503
21
24.5384333
0
LINE
8
DEFAULT_255_2_778
10
2.0056503
20
24.5384333
11
1.7955503
21
24.2535333
0
LINE
8
DEFAULT_255_2_778
10
6.6869746
20
39.1698802
11
7.3529746
21
39.1698802
0
LINE
8
DEFAULT_255_2_778
10
7.3529746
20
39.1698802
11
7.3529746
21
37.5032802
0
ARC
8
DEFAULT_255_2_778
10
8.3397731
20
37.4909016
40
0.9868761
50
179.2813077
51
192.1701584
0
ARC
8
DEFAULT_255_2_778
10
7.829094
20
37.3740619
40
0.4630889
50
191.3591518
51
218.1803708
0
ARC
8
DEFAULT_255_2_778
10
7.7349387
20
37.3205181
40
0.3563433
50
220.7718612
51
268.6347394
0
ARC
8
DEFAULT_255_2_778
10
7.7685321
20
37.5554307
40
0.5926508
50
265.9280505
51
270.0524523
0
ARC
8
DEFAULT_255_2_778
10
7.7824639
20
37.3910537
40
0.4284827
50
268.2093249
51
298.0658156
0
ARC
8
DEFAULT_255_2_778
10
7.7964461
20
37.3255942
40
0.3646099
50
300.9678613
51
343.8540933
0
ARC
8
DEFAULT_255_2_778
10
7.3898026
20
37.4649609
40
0.7942419
50
342.3542731
51
357.7417669
0
ARC
8
DEFAULT_255_2_778
10
6.9159572
20
37.5021287
40
1.2693181
50
356.9081163
51
0.0519784
0
LINE
8
DEFAULT_255_2_778
10
8.1852746
20
37.5032802
11
8.1852746
21
39.1698802
0
LINE
8
DEFAULT_255_2_778
10
8.1852746
20
39.1698802
11
8.8927746
21
39.1698802
0
LINE
8
DEFAULT_255_2_778
10
8.8927746
20
39.1698802
11
8.8927746
21
37.3680802
0
ARC
8
DEFAULT_255_2_778
10
7.5698529
20
37.3551477
40
1.3229849
50
347.0846725
51
0.5600896
0
ARC
8
DEFAULT_255_2_778
10
8.0838357
20
37.2302776
40
0.7941246
50
319.693878
51
347.5774858
0
ARC
8
DEFAULT_255_2_778
10
8.1096998
20
37.2349202
40
0.777668
50
288.6524632
51
318.2002023
0
ARC
8
DEFAULT_255_2_778
10
7.9360823
20
37.711374
40
1.2846812
50
275.6146814
51
289.1928164
0
ARC
8
DEFAULT_255_2_778
10
7.857918
20
38.3724028
40
1.9502302
50
269.8400785
51
276.0000086
0
ARC
8
DEFAULT_255_2_778
10
7.8397233
20
38.5316097
40
2.109468
50
261.1885935
51
270.3463428
0
ARC
8
DEFAULT_255_2_778
10
7.7106314
20
37.7279865
40
1.2955622
50
247.0441192
51
261.3861581
0
ARC
8
DEFAULT_255_2_778
10
7.5094396
20
37.2786126
40
0.803369
50
194.6262255
51
247.7568098
0
ARC
8
DEFAULT_255_2_778
10
7.9548392
20
37.4128669
40
1.2683556
50
182.0235805
51
195.413836
0
LINE
8
DEFAULT_255_2_778
10
6.6872746
20
37.3680802
11
6.6872746
21
39.1698802
0
ARC
8
DEFAULT_255_2_778
10
10.1593893
20
36.8263466
40
2.0189874
50
67.0615179
51
72.403915
0
ARC
8
DEFAULT_255_2_778
10
10.3493864
20
37.4317049
40
1.3845173
50
72.3254813
51
79.854812
0
ARC
8
DEFAULT_255_2_778
10
10.4280889
20
37.8762805
40
0.9330303
50
79.8034153
51
89.6780791
0
ARC
8
DEFAULT_255_2_778
10
10.4259761
20
38.1961816
40
0.6131585
50
89.3126949
51
108.5174031
0
ARC
8
DEFAULT_255_2_778
10
10.3916826
20
38.3135808
40
0.4909692
50
109.0737331
51
139.6930217
0
ARC
8
DEFAULT_255_2_778
10
10.4520918
20
38.4024101
40
0.4913265
50
152.2498235
51
162.9699077
0
ARC
8
DEFAULT_255_2_778
10
10.2889
20
38.4514603
40
0.3209262
50
162.8100756
51
179.4793828
0
ARC
8
DEFAULT_255_2_778
10
10.2354918
20
38.4580265
40
0.2675296
50
180.7817695
51
231.4212111
0
ARC
8
DEFAULT_255_2_778
10
10.4513601
20
38.6981386
40
0.5901576
50
229.5739529
51
245.2496313
0
ARC
8
DEFAULT_255_2_778
10
10.7077977
20
39.2351295
40
1.1852099
50
244.8599027
51
253.8568327
0
ARC
8
DEFAULT_255_2_778
10
10.8653111
20
39.731764
40
1.706108
50
253.4128938
51
254.5662425
0
ARC
8
DEFAULT_255_2_778
10
9.7978557
20
36.2050635
40
1.9795571
50
64.0642106
51
71.9481898
0
ARC
8
DEFAULT_255_2_778
10
10.1228631
20
36.865954
40
1.2430861
50
52.4082514
51
64.2128474
0
ARC
8
DEFAULT_255_2_778
10
10.4131246
20
37.2362091
40
0.7726469
50
31.7835772
51
52.7144825
0
ARC
8
DEFAULT_255_2_778
10
10.5228332
20
37.3147318
40
0.638094
50
359.3163213
51
30.9787525
0
ARC
8
DEFAULT_255_2_778
10
10.3124123
20
37.3101397
40
0.8484748
50
349.882256
51
359.7959461
0
ARC
8
DEFAULT_255_2_778
10
10.0674592
20
37.3527629
40
1.0971066
50
342.7862909
51
349.9381853
0
ARC
8
DEFAULT_255_2_778
10
9.8211719
20
37.4265919
40
1.354213
50
339.1583005
51
342.8862864
0
ARC
8
DEFAULT_255_2_778
10
10.0037204
20
37.5503012
40
1.2408311
50
318.1341366
51
330.7910342
0
ARC
8
DEFAULT_255_2_778
10
10.2659813
20
37.3068281
40
0.8830542
50
274.5872213
51
318.5420441
0
ARC
8
DEFAULT_255_2_778
10
10.234578
20
37.5334638
40
1.1115537
50
269.9450904
51
275.2664596
0
ARC
8
DEFAULT_255_2_778
10
10.2385029
20
37.7784938
40
1.3565923
50
260.8356427
51
269.789243
0
ARC
8
DEFAULT_255_2_778
10
10.3072772
20
38.21564
40
1.7991129
50
254.3042846
51
260.8906265
0
ARC
8
DEFAULT_255_2_778
10
10.4584682
20
38.758682
40
2.3628077
50
249.1889473
51
254.337139
0
ARC
8
DEFAULT_255_2_778
10
10.6791708
20
39.3470086
40
2.9911643
50
245.8199691
51
249.2410807
0
ARC
8
DEFAULT_255_2_778
10
-24.8121755
20
41.0313605
40
34.5491581
50
352.6613682
51
353.4212883
0
ARC
8
DEFAULT_255_2_778
10
-28.2010989
20
41.4369884
40
37.9622416
50
353.3991099
51
353.4107321
0
ARC
8
DEFAULT_255_2_778
10
10.432484
20
39.0538235
40
2.1778855
50
244.9507832
51
250.5814491
0
ARC
8
DEFAULT_255_2_778
10
10.2093762
20
38.416121
40
1.5022835
50
250.5204868
51
258.1087443
0
ARC
8
DEFAULT_255_2_778
10
10.1107202
20
37.9391165
40
1.0151883
50
258.0099652
51
268.8180341
0
ARC
8
DEFAULT_255_2_778
10
10.1017399
20
37.7538997
40
0.8298415
50
269.1741516
51
269.9974136
0
ARC
8
DEFAULT_255_2_778
10
10.1090654
20
37.5900862
40
0.6660686
50
269.3666191
51
289.3543335
0
ARC
8
DEFAULT_255_2_778
10
10.1335177
20
37.5015219
40
0.57444
50
289.980787
51
316.7575045
0
ARC
8
DEFAULT_255_2_778
10
10.1905914
20
37.3127323
40
0.4153568
50
330.4650334
51
342.2294418
0
ARC
8
DEFAULT_255_2_778
10
10.3206589
20
37.271495
40
0.2789096
50
342.1415842
51
359.544458
0
ARC
8
DEFAULT_255_2_778
10
10.3421528
20
37.2638757
40
0.2574635
50
1.2021942
51
48.011114
0
ARC
8
DEFAULT_255_2_778
10
10.1142553
20
37.0365834
40
0.579124
50
46.2958252
51
62.0527561
0
ARC
8
DEFAULT_255_2_778
10
9.8251019
20
36.5105114
40
1.1793929
50
61.6211504
51
70.4161717
0
ARC
8
DEFAULT_255_2_778
10
9.5870628
20
35.8778027
40
1.8553282
50
70.0395944
51
72.9913984
0
ARC
8
DEFAULT_255_2_778
10
10.469246
20
39.1115631
40
1.4985403
50
245.5041903
51
256.9068589
0
ARC
8
DEFAULT_255_2_778
10
10.2012925
20
38.5365792
40
0.8642261
50
225.7214125
51
245.8642991
0
ARC
8
DEFAULT_255_2_778
10
10.0524364
20
38.3708915
40
0.6417424
50
183.4761894
51
224.9088881
0
ARC
8
DEFAULT_255_2_778
10
10.930408
20
38.3702524
40
1.5190156
50
180.0083492
51
181.4437398
0
ARC
8
DEFAULT_255_2_778
10
10.5673245
20
38.3797846
40
1.1559732
50
167.7619862
51
180.4834412
0
ARC
8
DEFAULT_255_2_778
10
10.149271
20
38.4754653
40
0.7271544
50
143.2687143
51
168.1473123
0
ARC
8
DEFAULT_255_2_778
10
10.1081097
20
38.4875322
40
0.6871115
50
112.0174988
51
142.022326
0
ARC
8
DEFAULT_255_2_778
10
10.2669588
20
38.1185276
40
1.0887918
50
98.8082431
51
112.4873265
0
ARC
8
DEFAULT_255_2_778
10
10.3719883
20
37.4769618
40
1.7388831
50
90.1804506
51
98.9910859
0
ARC
8
DEFAULT_255_2_778
10
10.3857822
20
37.0001923
40
2.2157276
50
89.9993524
51
90.4983155
0
ARC
8
DEFAULT_255_2_778
10
10.3832441
20
36.7206697
40
2.4952515
50
86.6564353
51
89.9411444
0
ARC
8
DEFAULT_255_2_778
10
10.3493047
20
36.1364769
40
3.0804293
50
83.7164122
51
86.6599746
0
ARC
8
DEFAULT_255_2_778
10
10.2742391
20
35.4486329
40
3.772357
50
81.2719293
51
83.7265828
0
ARC
8
DEFAULT_255_2_778
10
10.1541775
20
34.6641712
40
4.5659531
50
79.1153833
51
81.2765343
0
ARC
8
DEFAULT_255_2_778
10
12.3320062
20
37.2526854
40
1.2047857
50
350.4441509
51
355.1626629
0
ARC
8
DEFAULT_255_2_778
10
12.5476313
20
37.2341935
40
0.9883692
50
355.17675
51
359.9275378
0
ARC
8
DEFAULT_255_2_778
10
12.8589122
20
37.2447629
40
0.6771907
50
358.9999343
51
21.788838
0
ARC
8
DEFAULT_255_2_778
10
12.9738508
20
37.2756762
40
0.559163
50
23.2193097
51
63.277017
0
ARC
8
DEFAULT_255_2_778
10
12.7718224
20
36.9106194
40
0.9762122
50
62.3207526
51
76.6069082
0
ARC
8
DEFAULT_255_2_778
10
12.6571383
20
36.4887959
40
1.413196
50
76.0450547
51
79.7595928
0
ARC
8
DEFAULT_255_2_778
10
12.823687
20
38.5682007
40
0.6939077
50
277.0101102
51
301.0660368
0
ARC
8
DEFAULT_255_2_778
10
12.8711886
20
38.456925
40
0.5743236
50
302.7355502
51
343.4995686
0
ARC
8
DEFAULT_255_2_778
10
12.5515326
20
38.5776569
40
0.9154464
50
341.9365325
51
350.4057876
0
ARC
8
DEFAULT_255_2_778
10
12.2590129
20
38.4514379
40
1.1954523
50
358.7366262
51
359.9946982
0
ARC
8
DEFAULT_255_2_778
10
12.5892099
20
38.4639082
40
0.8653469
50
359.1669722
51
17.221778
0
ARC
8
DEFAULT_255_2_778
10
12.8583625
20
38.5409534
40
0.5854822
50
17.81848
51
71.6615804
0
ARC
8
DEFAULT_255_2_778
10
12.6620237
20
38.0544829
40
1.1095212
50
69.9411934
51
83.7618182
0
ARC
8
DEFAULT_255_2_778
10
12.5750447
20
37.3713253
40
1.7981267
50
83.3720902
51
90.2170236
0
ARC
8
DEFAULT_255_2_778
10
12.5684469
20
36.9079394
40
2.2614996
50
90.0053977
51
91.0203646
0
ARC
8
DEFAULT_255_2_778
10
12.518992
20
38.4470073
40
1.9736968
50
270.7513839
51
279.8157679
0
ARC
8
DEFAULT_255_2_778
10
12.662895
20
37.6425976
40
1.1565395
50
279.5849039
51
294.0541493
0
ARC
8
DEFAULT_255_2_778
10
12.8788137
20
37.1915927
40
0.6568267
50
292.8905019
51
347.745672
0
ARC
8
DEFAULT_255_2_778
10
12.5177052
20
37.7369469
40
0.8448807
50
270.3302238
51
284.3697999
0
ARC
8
DEFAULT_255_2_778
10
12.6413047
20
37.2840989
40
0.3755975
50
283.2492644
51
315.622772
0
ARC
8
DEFAULT_255_2_778
10
12.6610403
20
37.2379888
40
0.3297998
50
318.952346
51
1.0478146
0
ARC
8
DEFAULT_255_2_778
10
12.4631386
20
37.2581716
40
0.5278362
50
358.4636571
51
359.9575193
0
ARC
8
DEFAULT_255_2_778
10
12.4690174
20
37.2706797
40
0.5221166
50
358.5842998
51
21.5432631
0
ARC
8
DEFAULT_255_2_778
10
12.6404592
20
37.3264094
40
0.3423679
50
23.4041424
51
80.2011609
0
ARC
8
DEFAULT_255_2_778
10
12.5399394
20
36.9455
40
0.7356244
50
77.5343827
51
90.6281569
0
LINE
8
DEFAULT_255_2_778
10
12.5318746
20
37.6810802
11
12.1807746
21
37.6810802
0
LINE
8
DEFAULT_255_2_778
10
12.1807746
20
37.6810802
11
12.1807746
21
36.8920802
0
ARC
8
DEFAULT_255_2_778
10
12.3386642
20
39.5118242
40
2.6244975
50
266.5510071
51
270.0924637
0
ARC
8
DEFAULT_255_2_778
10
12.3382149
20
40.4767081
40
3.5893809
50
270.0747793
51
272.9489463
0
ARC
8
DEFAULT_255_2_778
10
12.4832803
20
38.8898856
40
0.8119113
50
270.2183616
51
284.164007
0
ARC
8
DEFAULT_255_2_778
10
12.6062213
20
38.4329436
40
0.3388578
50
282.914283
51
315.5656374
0
ARC
8
DEFAULT_255_2_778
10
12.6368408
20
38.3789784
40
0.2797362
50
319.0697592
51
2.664015
0
ARC
8
DEFAULT_255_2_778
10
12.5107122
20
38.4051269
40
0.4057754
50
358.1433627
51
26.4358661
0
ARC
8
DEFAULT_255_2_778
10
12.6052194
20
38.4338351
40
0.3088038
50
29.4742122
51
78.6452055
0
ARC
8
DEFAULT_255_2_778
10
12.5040239
20
38.0646153
40
0.6912296
50
76.4463181
51
90.7832756
0
LINE
8
DEFAULT_255_2_778
10
12.4945746
20
38.7557802
11
12.1720746
21
38.7557802
0
LINE
8
DEFAULT_255_2_778
10
12.1720746
20
38.7557802
11
12.1720746
21
38.0776802
0
ARC
8
DEFAULT_255_2_778
10
12.3169425
20
40.6330754
40
2.5594982
50
266.7553175
51
270.0885813
0
ARC
8
DEFAULT_255_2_778
10
12.3165315
20
41.5911911
40
3.5176136
50
270.0711484
51
272.767523
0
LINE
8
DEFAULT_255_2_778
10
6.6872746
20
39.1698802
11
6.6869746
21
39.1698802
0
LINE
8
DEFAULT_255_2_778
10
11.0163746
20
39.1479802
11
10.9599746
21
38.6991802
0
LINE
8
DEFAULT_255_2_778
10
12.5281746
20
39.1690802
11
11.6518746
21
39.1690802
0
LINE
8
DEFAULT_255_2_778
10
11.6518746
20
39.1690802
11
11.6518746
21
36.4734802
0
LINE
8
DEFAULT_255_2_778
10
11.6518746
20
36.4734802
11
12.5448746
21
36.4734802
0
LINE
8
DEFAULT_255_2_778
10
13.5206746
20
37.0521802
11
13.5200746
21
37.0526802
0
LINE
8
DEFAULT_255_2_778
10
12.5228746
20
36.8920802
11
12.5225746
21
36.8920802
0
LINE
8
DEFAULT_255_2_778
10
12.4863746
20
38.0776802
11
12.4863746
21
38.0779802
0
LINE
8
DEFAULT_255_2_778
10
14.3098907
20
43.6686271
11
14.7189907
21
43.6686271
0
ARC
8
DEFAULT_255_2_778
10
106.9584007
20
41.8672382
40
92.2569984
50
178.8811847
51
179.0415199
0
ARC
8
DEFAULT_255_2_778
10
81.8121985
20
42.288886
40
67.1072614
50
179.0423283
51
179.2041511
0
ARC
8
DEFAULT_255_2_778
10
62.3569322
20
42.5569764
40
47.6501481
50
179.2015491
51
179.4304084
0
ARC
8
DEFAULT_255_2_778
10
47.5650964
20
42.7044158
40
32.8575776
50
179.4310801
51
179.6753709
0
ARC
8
DEFAULT_255_2_778
10
37.0562576
20
42.7629176
40
22.3485761
50
179.6727038
51
179.9887221
0
ARC
8
DEFAULT_255_2_778
10
28.6901499
20
42.7623652
40
13.9824688
50
179.9797109
51
180.4635816
0
ARC
8
DEFAULT_255_2_778
10
23.1011246
20
42.7177194
40
8.3932652
50
180.4675144
51
180.9775611
0
ARC
8
DEFAULT_255_2_778
10
19.1426764
20
42.6465017
40
4.4341797
50
180.9301021
51
182.0284754
0
ARC
8
DEFAULT_255_2_778
10
16.3966659
20
42.54666
40
1.6863579
50
181.940787
51
184.0189896
0
ARC
8
DEFAULT_255_2_778
10
15.5419305
20
42.489836
40
0.8297481
50
184.2414546
51
184.7152877
0
ARC
8
DEFAULT_255_2_778
10
15.5876439
20
42.4678728
40
0.8738777
50
183.033521
51
196.8191823
0
ARC
8
DEFAULT_255_2_778
10
15.1417235
20
42.3259979
40
0.4060373
50
195.8627261
51
226.3225691
0
ARC
8
DEFAULT_255_2_778
10
15.0891714
20
42.2969611
40
0.3492062
50
229.2698197
51
271.43376
0
ARC
8
DEFAULT_255_2_778
10
15.1073368
20
42.4858566
40
0.5380748
50
268.9960419
51
270.004224
0
ARC
8
DEFAULT_255_2_778
10
15.1069921
20
42.5340873
40
0.5863056
50
270.037564
51
273.42222
0
ARC
8
DEFAULT_255_2_778
10
15.1264171
20
42.3804102
40
0.4318641
50
272.0666164
51
303.727853
0
ARC
8
DEFAULT_255_2_778
10
15.1330423
20
42.3353629
40
0.3912066
50
306.5853486
51
345.6923425
0
ARC
8
DEFAULT_255_2_778
10
14.7374886
20
42.4558828
40
0.8045003
50
344.3369769
51
358.7282231
0
ARC
8
DEFAULT_255_2_778
10
14.8712537
20
42.513991
40
0.6748262
50
353.5366235
51
357.2937882
0
ARC
8
DEFAULT_255_2_778
10
12.6515061
20
42.6331282
40
2.897758
50
357.0130278
51
358.5473701
0
ARC
8
DEFAULT_255_2_778
10
8.3879083
20
42.7531941
40
7.1630392
50
358.4518389
51
359.0796322
0
ARC
8
DEFAULT_255_2_778
10
1.3608578
20
42.8657815
40
14.1909916
50
359.0808471
51
359.6033753
0
ARC
8
DEFAULT_255_2_778
10
-10.7103299
20
42.9546819
40
26.2625059
50
359.5917313
51
359.9259515
0
ARC
8
DEFAULT_255_2_778
10
-21.7329769
20
42.9773702
40
37.285174
50
359.9129777
51
0.000972
0
ARC
8
DEFAULT_255_2_778
10
-32.5700777
20
42.9735854
40
48.122275
50
0.0052594
51
0.1802004
0
ARC
8
DEFAULT_255_2_778
10
-48.8293869
20
42.9255981
40
64.3816547
50
0.1773972
51
0.285484
0
ARC
8
DEFAULT_255_2_778
10
-69.1536029
20
42.8226133
40
84.7061315
50
0.2866445
51
0.4132125
0
ARC
8
DEFAULT_255_2_778
10
-97.9228399
20
42.6163491
40
113.4761079
50
0.4125962
51
0.5158015
0
ARC
8
DEFAULT_255_2_778
10
-120.9122975
20
42.4143477
40
136.4664526
50
0.5137168
51
0.5266197
0
LINE
8
DEFAULT_255_2_778
10
15.5483907
20
43.6686271
11
15.9386907
21
43.6686271
0
LINE
8
DEFAULT_255_2_778
10
15.9386907
20
43.6686271
11
15.9386907
21
42.3457271
0
ARC
8
DEFAULT_255_2_778
10
14.9384587
20
42.3683455
40
1.0004877
50
342.9385726
51
358.7045775
0
ARC
8
DEFAULT_255_2_778
10
15.3280875
20
42.2431327
40
0.5912936
50
284.3910854
51
343.4605221
0
ARC
8
DEFAULT_255_2_778
10
15.1745029
20
42.7279077
40
1.0993928
50
271.4480713
51
285.865073
0
ARC
8
DEFAULT_255_2_778
10
15.1454142
20
43.1843945
40
1.5565675
50
269.9807325
51
272.0938484
0
ARC
8
DEFAULT_255_2_778
10
15.1321786
20
43.0755031
40
1.4477319
50
259.2739381
51
270.5031067
0
ARC
8
DEFAULT_255_2_778
10
15.00768
20
42.4477455
40
0.80779
50
239.7166564
51
259.6632796
0
ARC
8
DEFAULT_255_2_778
10
14.9024047
20
42.2467532
40
0.5812306
50
189.5386912
51
238.6868644
0
ARC
8
DEFAULT_255_2_778
10
15.3139952
20
42.3464576
40
1.0041047
50
180.0416838
51
191.2576283
0
LINE
8
DEFAULT_255_2_778
10
14.3098907
20
42.3457271
11
14.3098907
21
43.6686271
0
LINE
8
DEFAULT_255_2_778
10
9.6878907
20
41.6697271
11
10.8427907
21
43.6699271
0
LINE
8
DEFAULT_255_2_778
10
10.8427907
20
43.6699271
11
11.9976907
21
41.6697271
0
LINE
8
DEFAULT_255_2_778
10
11.9976907
20
41.6697271
11
9.6881907
21
41.6697271
0
LINE
8
DEFAULT_255_2_778
10
14.3098907
20
43.6686271
11
14.3098907
21
43.6686271
0
LINE
8
DEFAULT_255_2_778
10
17.4832907
20
41.9845271
11
17.4832907
21
41.6697271
0
LINE
8
DEFAULT_255_2_778
10
17.4832907
20
41.6697271
11
16.3064907
21
41.6697271
0
LINE
8
DEFAULT_255_2_778
10
16.3064907
20
41.6697271
11
16.3064907
21
43.6686271
0
LINE
8
DEFAULT_255_2_778
10
16.3064907
20
43.6686271
11
16.7067907
21
43.6686271
0
LINE
8
DEFAULT_255_2_778
10
16.7067907
20
43.6686271
11
16.7067907
21
41.9845271
0
LINE
8
DEFAULT_255_2_778
10
16.7067907
20
41.9845271
11
17.4832907
21
41.9845271
0
LINE
8
DEFAULT_255_2_778
10
18.9160698
20
41.9844635
11
18.9160698
21
41.6696635
0
LINE
8
DEFAULT_255_2_778
10
18.9160698
20
41.6696635
11
17.7383698
21
41.6696635
0
LINE
8
DEFAULT_255_2_778
10
17.7383698
20
41.6696635
11
17.7383698
21
43.6685635
0
LINE
8
DEFAULT_255_2_778
10
17.7383698
20
43.6685635
11
18.1394698
21
43.6685635
0
LINE
8
DEFAULT_255_2_778
10
18.1394698
20
43.6685635
11
18.1394698
21
41.9844635
0
LINE
8
DEFAULT_255_2_778
10
18.1394698
20
41.9844635
11
18.9160698
21
41.9844635
0
ARC
8
DEFAULT_255_2_778
10
13.2159968
20
41.2971448
40
2.3714495
50
85.6991405
51
90.2919398
0
ARC
8
DEFAULT_255_2_778
10
13.3707164
20
42.8332891
40
0.8289499
50
56.2324487
51
88.4014871
0
ARC
8
DEFAULT_255_2_778
10
13.5373851
20
43.1349341
40
0.4864258
50
21.0074581
51
52.8015258
0
ARC
8
DEFAULT_255_2_778
10
13.3345263
20
43.0569327
40
0.7037641
50
4.7622116
51
21.0151285
0
ARC
8
DEFAULT_255_2_778
10
13.1295476
20
43.0295413
40
0.9103673
50
4.9544143
51
5.4091747
0
ARC
8
DEFAULT_255_2_778
10
13.3943619
20
43.0203499
40
0.6421526
50
328.0340908
51
0.0993634
0
ARC
8
DEFAULT_255_2_778
10
13.5212151
20
42.9651783
40
0.5057363
50
292.4684735
51
325.7277101
0
ARC
8
DEFAULT_255_2_778
10
13.3947109
20
43.2556907
40
0.8225637
50
277.327376
51
292.8776796
0
ARC
8
DEFAULT_255_2_778
10
13.3209226
20
43.756595
40
1.3288209
50
269.7352482
51
277.7284207
0
ARC
8
DEFAULT_255_2_778
10
13.3150755
20
44.127536
40
1.6997478
50
268.5873183
51
269.990121
0
ARC
8
DEFAULT_255_2_778
10
13.3162126
20
44.1879454
40
1.7601668
50
268.4015548
51
268.5987956
0
ARC
8
DEFAULT_255_2_778
10
13.2412886
20
43.7765126
40
1.0331534
50
269.8350101
51
273.1935907
0
ARC
8
DEFAULT_255_2_778
10
13.3144391
20
43.0562062
40
0.311633
50
267.1318095
51
328.1420865
0
ARC
8
DEFAULT_255_2_778
10
13.2481979
20
43.0689632
40
0.3754051
50
331.8271089
51
349.3311465
0
ARC
8
DEFAULT_255_2_778
10
13.3413066
20
43.0683151
40
0.2761852
50
2.9987533
51
76.4144571
0
ARC
8
DEFAULT_255_2_778
10
13.2734436
20
42.8455129
40
0.5088767
50
74.8797868
51
90.7270896
0
ARC
8
DEFAULT_255_2_778
10
13.2672353
20
42.6394291
40
0.7149196
50
90.0199719
51
92.3185034
0
LINE
8
DEFAULT_255_2_778
10
14.0365136
20
43.1081635
11
14.0376136
21
43.0642635
0
LINE
8
DEFAULT_255_2_778
10
14.0376136
20
43.0642635
11
14.0365136
21
43.0214635
0
LINE
8
DEFAULT_255_2_778
10
13.2671136
20
42.4284635
11
13.0975136
21
42.4284635
0
LINE
8
DEFAULT_255_2_778
10
13.0975136
20
42.4284635
11
13.0975136
21
41.6699635
0
LINE
8
DEFAULT_255_2_778
10
13.0975136
20
41.6699635
11
12.6964136
21
41.6699635
0
LINE
8
DEFAULT_255_2_778
10
12.6964136
20
41.6699635
11
12.6964136
21
43.6688635
0
LINE
8
DEFAULT_255_2_778
10
12.6964136
20
43.6688635
11
13.2039136
21
43.6685635
0
LINE
8
DEFAULT_255_2_778
10
13.6171136
20
42.9994635
11
13.6193136
21
43.0409635
0
LINE
8
DEFAULT_255_2_778
10
13.6193136
20
43.0409635
11
13.6171136
21
43.0827635
0
LINE
8
DEFAULT_255_2_778
10
13.2383136
20
43.3537635
11
13.0978136
21
43.3537635
0
LINE
8
DEFAULT_255_2_778
10
13.0978136
20
43.3537635
11
13.0978136
21
42.7433635
0
LINE
8
DEFAULT_255_2_778
10
13.0978136
20
42.7433635
11
13.2383136
21
42.7433635
0
LINE
8
DEFAULT_255_2_778
10
14.3099262
20
58.667026
11
14.7189262
21
58.667026
0
LINE
8
DEFAULT_255_2_778
10
14.7189262
20
58.667026
11
14.7179887
21
58.3764213
0
LINE
8
DEFAULT_255_2_778
10
14.7179887
20
58.3764213
11
14.7172709
21
58.1534705
0
LINE
8
DEFAULT_255_2_778
10
14.7172709
20
58.1534705
11
14.7167213
21
57.9823742
0
LINE
8
DEFAULT_255_2_778
10
14.7167213
20
57.9823742
11
14.7163006
21
57.8510289
0
ARC
8
DEFAULT_255_2_778
10
7663.5293836
20
33.3679986
40
7648.8522667
50
179.816603
51
179.8180158
0
ARC
8
DEFAULT_255_2_778
10
3282.8843655
20
47.2801935
40
3268.1851571
50
179.817985
51
179.8198611
0
ARC
8
DEFAULT_255_2_778
10
1090.7250801
20
54.1640719
40
1076.0150634
50
179.8194176
51
179.8245105
0
ARC
8
DEFAULT_255_2_778
10
127.8288186
20
57.1065418
40
113.1143063
50
179.8210838
51
179.8434008
0
ARC
8
DEFAULT_255_2_778
10
17.3436488
20
57.4082008
40
2.6287248
50
179.8364997
51
179.9275241
0
ARC
8
DEFAULT_255_2_778
10
15.5816774
20
57.4628039
40
0.8682667
50
183.3857277
51
197.0447628
0
ARC
8
DEFAULT_255_2_778
10
15.1390693
20
57.320284
40
0.4033773
50
196.1181821
51
225.9080737
0
ARC
8
DEFAULT_255_2_778
10
15.0823199
20
57.2864828
40
0.3400507
50
228.8140379
51
271.9914407
0
ARC
8
DEFAULT_255_2_778
10
15.0987864
20
57.4713829
40
0.5247659
50
269.4923253
51
269.9982927
0
ARC
8
DEFAULT_255_2_778
10
15.0980797
20
57.5222457
40
0.5756291
50
270.0687815
51
274.6680639
0
ARC
8
DEFAULT_255_2_778
10
15.140243
20
57.3878684
40
0.4393673
50
270.6107126
51
299.6222027
0
ARC
8
DEFAULT_255_2_778
10
15.1632583
20
57.311302
40
0.3618718
50
302.44765
51
346.6489538
0
ARC
8
DEFAULT_255_2_778
10
14.7509143
20
57.4308822
40
0.7909669
50
345.1180695
51
0.7156715
0
ARC
8
DEFAULT_255_2_778
10
14.3775452
20
57.4446222
40
1.1642809
50
359.8100234
51
0.0001862
0
ARC
8
DEFAULT_255_2_778
10
14.51406
20
57.5396434
40
1.032149
50
354.7179995
51
357.6753153
0
ARC
8
DEFAULT_255_2_778
10
12.4558229
20
57.6354127
40
3.092601
50
357.4492195
51
358.5584047
0
ARC
8
DEFAULT_255_2_778
10
8.996723
20
57.7246365
40
6.5528511
50
358.5394156
51
359.2955762
0
ARC
8
DEFAULT_255_2_778
10
3.7824973
20
57.7934119
40
11.7675292
50
359.2728599
51
359.6991393
0
ARC
8
DEFAULT_255_2_778
10
-2.8628399
20
57.8298675
40
18.4129663
50
359.6942835
51
0.0105285
0
ARC
8
DEFAULT_255_2_778
10
-13.479108
20
57.8262308
40
29.029235
50
0.013856
51
0.3321719
0
ARC
8
DEFAULT_255_2_778
10
-28.0838898
20
57.7465868
40
43.6342335
50
0.3255697
51
0.5152032
0
ARC
8
DEFAULT_255_2_778
10
-45.295977
20
57.5918304
40
60.8470164
50
0.5151855
51
0.6862142
0
ARC
8
DEFAULT_255_2_778
10
-66.1519594
20
57.3449176
40
81.7044603
50
0.6841913
51
0.8011998
0
ARC
8
DEFAULT_255_2_778
10
-88.3987205
20
57.0344063
40
103.9533882
50
0.8008701
51
0.9006013
0
LINE
8
DEFAULT_255_2_778
10
15.5418262
20
58.668326
11
15.9386262
21
58.667026
0
LINE
8
DEFAULT_255_2_778
10
15.9386262
20
58.667026
11
15.9386262
21
57.344126
0
ARC
8
DEFAULT_255_2_778
10
14.9694984
20
57.3435177
40
0.969128
50
343.9944201
51
0.0359619
0
ARC
8
DEFAULT_255_2_778
10
15.3532487
20
57.228556
40
0.5685746
50
284.7282665
51
344.4673837
0
ARC
8
DEFAULT_255_2_778
10
15.1957652
20
57.710716
40
1.0753409
50
271.9238783
51
286.3123649
0
ARC
8
DEFAULT_255_2_778
10
15.1624307
20
58.1850487
40
1.5506229
50
269.9702712
51
272.566512
0
ARC
8
DEFAULT_255_2_778
10
15.1491471
20
58.1078538
40
1.4734806
50
259.4298853
51
270.4852474
0
ARC
8
DEFAULT_255_2_778
10
15.0257715
20
57.4770102
40
0.8307285
50
240.1743186
51
259.8134331
0
ARC
8
DEFAULT_255_2_778
10
14.9183211
20
57.2690021
40
0.5969186
50
189.7116791
51
239.191601
0
ARC
8
DEFAULT_255_2_778
10
15.3179673
20
57.3699199
40
1.008371
50
181.4657717
51
191.5333611
0
LINE
8
DEFAULT_255_2_778
10
14.3099262
20
57.344126
11
14.3099262
21
58.667026
0
LINE
8
DEFAULT_255_2_778
10
11.9974262
20
58.668326
11
10.8425262
21
56.668126
0
LINE
8
DEFAULT_255_2_778
10
10.8425262
20
56.668126
11
9.6876262
21
58.668326
0
LINE
8
DEFAULT_255_2_778
10
9.6876262
20
58.668326
11
11.9971262
21
58.668326
0
LINE
8
DEFAULT_255_2_778
10
14.3099262
20
58.667026
11
14.3099262
21
58.667026
0
LINE
8
DEFAULT_255_2_778
10
17.4835262
20
56.982926
11
17.4835262
21
56.668126
0
LINE
8
DEFAULT_255_2_778
10
17.4835262
20
56.668126
11
16.3067262
21
56.668126
0
LINE
8
DEFAULT_255_2_778
10
16.3067262
20
56.668126
11
16.3067262
21
58.667026
0
LINE
8
DEFAULT_255_2_778
10
16.3067262
20
58.667026
11
16.7070262
21
58.667026
0
LINE
8
DEFAULT_255_2_778
10
16.7070262
20
58.667026
11
16.7070262
21
56.982926
0
LINE
8
DEFAULT_255_2_778
10
16.7070262
20
56.982926
11
17.4835262
21
56.982926
0
LINE
8
DEFAULT_255_2_778
10
18.9160698
20
56.9829635
11
18.9160698
21
56.6681635
0
LINE
8
DEFAULT_255_2_778
10
18.9160698
20
56.6681635
11
17.7383698
21
56.6681635
0
LINE
8
DEFAULT_255_2_778
10
17.7383698
20
56.6681635
11
17.7383698
21
58.6670635
0
LINE
8
DEFAULT_255_2_778
10
17.7383698
20
58.6670635
11
18.1394698
21
58.6670635
0
LINE
8
DEFAULT_255_2_778
10
18.1394698
20
58.6670635
11
18.1394698
21
56.9829635
0
LINE
8
DEFAULT_255_2_778
10
18.1394698
20
56.9829635
11
18.9160698
21
56.9829635
0
ARC
8
DEFAULT_255_2_778
10
13.2159968
20
56.2955448
40
2.3714495
50
85.6991405
51
90.2919398
0
ARC
8
DEFAULT_255_2_778
10
13.3707164
20
57.8316891
40
0.8289499
50
56.2324487
51
88.4014871
0
ARC
8
DEFAULT_255_2_778
10
13.5373851
20
58.1333341
40
0.4864258
50
21.0074581
51
52.8015258
0
ARC
8
DEFAULT_255_2_778
10
13.3345263
20
58.0553327
40
0.7037641
50
4.7622116
51
21.0151285
0
ARC
8
DEFAULT_255_2_778
10
13.1295476
20
58.0279413
40
0.9103673
50
4.9544143
51
5.4091747
0
ARC
8
DEFAULT_255_2_778
10
13.3943619
20
58.0187499
40
0.6421526
50
328.0340908
51
0.0993634
0
ARC
8
DEFAULT_255_2_778
10
13.5212151
20
57.9635783
40
0.5057363
50
292.4684735
51
325.7277101
0
ARC
8
DEFAULT_255_2_778
10
13.3947109
20
58.2540907
40
0.8225637
50
277.327376
51
292.8776796
0
ARC
8
DEFAULT_255_2_778
10
13.3209226
20
58.754995
40
1.3288209
50
269.7352482
51
277.7284207
0
ARC
8
DEFAULT_255_2_778
10
13.3150755
20
59.125936
40
1.6997478
50
268.5873183
51
269.990121
0
ARC
8
DEFAULT_255_2_778
10
13.3162126
20
59.1863454
40
1.7601668
50
268.4015548
51
268.5987956
0
ARC
8
DEFAULT_255_2_778
10
13.2412886
20
58.7749126
40
1.0331534
50
269.8350101
51
273.1935907
0
ARC
8
DEFAULT_255_2_778
10
13.3144391
20
58.0546062
40
0.311633
50
267.1318095
51
328.1420865
0
ARC
8
DEFAULT_255_2_778
10
13.2481979
20
58.0673632
40
0.3754051
50
331.8271089
51
349.3311465
0
ARC
8
DEFAULT_255_2_778
10
13.3413066
20
58.0667151
40
0.2761852
50
2.9987533
51
76.4144571
0
ARC
8
DEFAULT_255_2_778
10
13.2734436
20
57.8439129
40
0.5088767
50
74.8797868
51
90.7270896
0
ARC
8
DEFAULT_255_2_778
10
13.2672353
20
57.6378291
40
0.7149196
50
90.0199719
51
92.3185034
0
LINE
8
DEFAULT_255_2_778
10
14.0365136
20
58.1065635
11
14.0376136
21
58.0626635
0
LINE
8
DEFAULT_255_2_778
10
14.0376136
20
58.0626635
11
14.0365136
21
58.0198635
0
LINE
8
DEFAULT_255_2_778
10
13.2671136
20
57.4268635
11
13.0975136
21
57.4268635
0
LINE
8
DEFAULT_255_2_778
10
13.0975136
20
57.4268635
11
13.0975136
21
56.6683635
0
LINE
8
DEFAULT_255_2_778
10
13.0975136
20
56.6683635
11
12.6964136
21
56.6683635
0
LINE
8
DEFAULT_255_2_778
10
12.6964136
20
56.6683635
11
12.6964136
21
58.6672635
0
LINE
8
DEFAULT_255_2_778
10
12.6964136
20
58.6672635
11
13.2039136
21
58.6669635
0
LINE
8
DEFAULT_255_2_778
10
13.6171136
20
57.9978635
11
13.6193136
21
58.0393635
0
LINE
8
DEFAULT_255_2_778
10
13.6193136
20
58.0393635
11
13.6171136
21
58.0811635
0
LINE
8
DEFAULT_255_2_778
10
13.2383136
20
58.3521635
11
13.0978136
21
58.3521635
0
LINE
8
DEFAULT_255_2_778
10
13.0978136
20
58.3521635
11
13.0978136
21
57.7417635
0
LINE
8
DEFAULT_255_2_778
10
13.0978136
20
57.7417635
11
13.2383136
21
57.7417635
0
LINE
8
DEFAULT_255_2_778
10
14.6179044
20
79.4606635
11
14.6179044
21
77.4617635
0
LINE
8
DEFAULT_255_2_778
10
14.6179044
20
77.4617635
11
15.0190044
21
77.4617635
0
LINE
8
DEFAULT_255_2_778
10
15.0190044
20
77.4617635
11
15.0190044
21
79.4606635
0
LINE
8
DEFAULT_255_2_778
10
15.0190044
20
79.4606635
11
14.6179044
21
79.4606635
0
LINE
8
DEFAULT_255_2_778
10
12.7809044
20
79.4606635
11
12.7809044
21
79.1457635
0
LINE
8
DEFAULT_255_2_778
10
12.7809044
20
79.1457635
11
13.3537044
21
79.1457635
0
LINE
8
DEFAULT_255_2_778
10
13.3537044
20
79.1457635
11
13.3537044
21
77.4617635
0
LINE
8
DEFAULT_255_2_778
10
13.3537044
20
77.4617635
11
13.7548044
21
77.4617635
0
LINE
8
DEFAULT_255_2_778
10
13.7548044
20
77.4617635
11
13.7548044
21
79.1457635
0
LINE
8
DEFAULT_255_2_778
10
13.7548044
20
79.1457635
11
14.3274044
21
79.1457635
0
LINE
8
DEFAULT_255_2_778
10
14.3274044
20
79.1457635
11
14.3274044
21
79.4606635
0
LINE
8
DEFAULT_255_2_778
10
14.3274044
20
79.4606635
11
12.7809044
21
79.4606635
0
LINE
8
DEFAULT_255_2_778
10
10.2316044
20
79.4606635
11
10.2316044
21
77.9657635
0
LINE
8
DEFAULT_255_2_778
10
10.2316044
20
77.9657635
11
10.2258044
21
77.9657635
0
LINE
8
DEFAULT_255_2_778
10
10.2258044
20
77.9657635
11
9.4641044
21
79.4606635
0
LINE
8
DEFAULT_255_2_778
10
9.4641044
20
79.4606635
11
8.9714044
21
79.4606635
0
LINE
8
DEFAULT_255_2_778
10
8.9714044
20
79.4606635
11
8.9714044
21
77.4617635
0
LINE
8
DEFAULT_255_2_778
10
8.9714044
20
77.4617635
11
9.3550044
21
77.4617635
0
LINE
8
DEFAULT_255_2_778
10
9.3550044
20
77.4617635
11
9.3550044
21
78.9566635
0
LINE
8
DEFAULT_255_2_778
10
9.3550044
20
78.9566635
11
9.3606044
21
78.9566635
0
LINE
8
DEFAULT_255_2_778
10
9.3606044
20
78.9566635
11
10.1255044
21
77.4617635
0
LINE
8
DEFAULT_255_2_778
10
10.1255044
20
77.4617635
11
10.6155044
21
77.4617635
0
LINE
8
DEFAULT_255_2_778
10
10.6155044
20
77.4617635
11
10.6155044
21
79.4606635
0
LINE
8
DEFAULT_255_2_778
10
10.6155044
20
79.4606635
11
10.2316044
21
79.4606635
0
LINE
8
DEFAULT_255_2_778
10
5.3736044
20
79.4606635
11
5.3736044
21
77.4617635
0
LINE
8
DEFAULT_255_2_778
10
5.3736044
20
77.4617635
11
5.7742044
21
77.4617635
0
LINE
8
DEFAULT_255_2_778
10
5.7742044
20
77.4617635
11
5.7742044
21
78.3380635
0
LINE
8
DEFAULT_255_2_778
10
5.7742044
20
78.3380635
11
6.4502044
21
78.3380635
0
LINE
8
DEFAULT_255_2_778
10
6.4502044
20
78.3380635
11
6.4502044
21
78.6528635
0
LINE
8
DEFAULT_255_2_778
10
6.4502044
20
78.6528635
11
5.7742044
21
78.6528635
0
LINE
8
DEFAULT_255_2_778
10
5.7742044
20
78.6528635
11
5.7742044
21
79.1455635
0
LINE
8
DEFAULT_255_2_778
10
5.7742044
20
79.1455635
11
6.4846044
21
79.1455635
0
LINE
8
DEFAULT_255_2_778
10
6.4846044
20
79.1455635
11
6.4846044
21
79.4603635
0
LINE
8
DEFAULT_255_2_778
10
6.4846044
20
79.4603635
11
5.3736044
21
79.4606635
0
LINE
8
DEFAULT_255_2_778
10
18.1270044
20
78.9566635
11
18.1326044
21
78.9566635
0
LINE
8
DEFAULT_255_2_778
10
18.9973044
20
77.9657635
11
18.2358044
21
79.4606635
0
LINE
8
DEFAULT_255_2_778
10
18.2358044
20
79.4606635
11
17.7431044
21
79.4606635
0
LINE
8
DEFAULT_255_2_778
10
17.7431044
20
79.4606635
11
17.7431044
21
77.4617635
0
LINE
8
DEFAULT_255_2_778
10
17.7431044
20
77.4617635
11
18.1268044
21
77.4617635
0
LINE
8
DEFAULT_255_2_778
10
18.1268044
20
77.4617635
11
18.1268044
21
78.9566635
0
LINE
8
DEFAULT_255_2_778
10
19.0031044
20
77.9657635
11
19.0031044
21
79.4606635
0
LINE
8
DEFAULT_255_2_778
10
19.0031044
20
79.4606635
11
19.3870044
21
79.4606635
0
LINE
8
DEFAULT_255_2_778
10
19.3870044
20
79.4606635
11
19.3870044
21
77.4617635
0
LINE
8
DEFAULT_255_2_778
10
19.3870044
20
77.4617635
11
18.8975044
21
77.4617635
0
LINE
8
DEFAULT_255_2_778
10
18.8975044
20
77.4617635
11
18.1326044
21
78.9566635
0
LINE
8
DEFAULT_255_2_778
10
19.0029896
20
77.9657
11
18.9971896
21
77.9657
0
ARC
8
DEFAULT_255_2_778
10
12.3859799
20
78.4879541
40
0.9821804
50
166.1403752
51
177.4943017
0
ARC
8
DEFAULT_255_2_778
10
12.0505697
20
78.5729745
40
0.636173
50
148.3460466
51
166.3384787
0
ARC
8
DEFAULT_255_2_778
10
11.9644741
20
78.6062261
40
0.5456966
50
92.9807965
51
146.5737549
0
ARC
8
DEFAULT_255_2_778
10
12.0354041
20
78.2089488
40
0.9474546
50
89.8957105
51
96.0164729
0
ARC
8
DEFAULT_255_2_778
10
12.0311607
20
77.898614
40
1.2578019
50
80.9019542
51
89.7281441
0
ARC
8
DEFAULT_255_2_778
10
11.9762735
20
77.5252259
40
1.6351786
50
76.5445774
51
81.0717268
0
ARC
8
DEFAULT_255_2_778
10
11.9048175
20
77.2263174
40
1.9425096
50
72.0324806
51
76.5462874
0
ARC
8
DEFAULT_255_2_778
10
11.8589267
20
76.9350084
40
2.5669718
50
74.7842802
51
78.0772312
0
ARC
8
DEFAULT_255_2_778
10
11.9327164
20
77.284053
40
2.2102128
50
78.0795026
51
81.4732778
0
ARC
8
DEFAULT_255_2_778
10
11.9781273
20
77.5893815
40
1.9015261
50
81.4623626
51
85.5242986
0
ARC
8
DEFAULT_255_2_778
10
11.9990864
20
77.8577073
40
1.6323829
50
85.522756
51
89.9448749
0
ARC
8
DEFAULT_255_2_778
10
11.992908
20
78.2113339
40
1.2787792
50
89.6528041
51
102.3415373
0
ARC
8
DEFAULT_255_2_778
10
11.9209636
20
78.5331961
40
0.948979
50
102.2517316
51
121.4350328
0
ARC
8
DEFAULT_255_2_778
10
11.9480896
20
78.5453933
40
0.9531759
50
123.2089354
51
172.6102749
0
ARC
8
DEFAULT_255_2_778
10
12.3725603
20
78.4373178
40
1.3890171
50
170.4407345
51
177.8307668
0
ARC
8
DEFAULT_255_2_778
10
12.5762477
20
78.5010474
40
1.5975816
50
184.9141506
51
193.9333447
0
ARC
8
DEFAULT_255_2_778
10
12.1037802
20
78.3818878
40
1.1103246
50
193.8359863
51
206.6463497
0
ARC
8
DEFAULT_255_2_778
10
11.8459702
20
78.2515802
40
0.8214559
50
206.5874378
51
226.5850389
0
ARC
8
DEFAULT_255_2_778
10
11.914315
20
78.3876614
40
0.9682713
50
229.1824649
51
270.6289962
0
ARC
8
DEFAULT_255_2_778
10
11.9854386
20
79.0510698
40
1.6327423
50
267.8766711
51
270.0151144
0
ARC
8
DEFAULT_255_2_778
10
11.9853603
20
79.201359
40
1.7830316
50
270.0163583
51
272.1562283
0
ARC
8
DEFAULT_255_2_778
10
11.9548614
20
79.7102124
40
2.2927001
50
272.4394206
51
280.6566316
0
ARC
8
DEFAULT_255_2_778
10
11.8630047
20
80.2656005
40
2.8555231
50
280.4071949
51
281.3267058
0
ARC
8
DEFAULT_255_2_778
10
12.075112
20
78.9640004
40
1.221817
50
270.2357146
51
291.2547092
0
ARC
8
DEFAULT_255_2_778
10
12.0358606
20
78.422112
40
0.6813584
50
270.0127731
51
273.7259814
0
ARC
8
DEFAULT_255_2_778
10
12.0349088
20
78.3554606
40
0.6147081
50
198.716901
51
270.1028753
0
ARC
8
DEFAULT_255_2_778
10
12.239694
20
78.4472733
40
0.8383945
50
179.5961919
51
200.1688139
0
ARC
8
DEFAULT_255_2_778
10
12.3761351
20
78.4527825
40
0.9748148
50
175.4157916
51
179.9765134
0
LINE
8
DEFAULT_255_2_778
10
12.5040386
20
79.0740938
11
12.5326386
21
79.4119938
0
LINE
8
DEFAULT_255_2_778
10
10.9845386
20
78.4898938
11
10.9845386
21
78.3641938
0
LINE
8
DEFAULT_255_2_778
10
12.4238386
20
77.4656938
11
12.5352386
21
77.4900938
0
LINE
8
DEFAULT_255_2_778
10
12.5352386
20
77.4900938
11
12.5180386
21
77.8252938
0
LINE
8
DEFAULT_255_2_778
10
11.4044386
20
78.5306938
11
11.4047386
21
78.5308938
0
LINE
8
DEFAULT_255_2_778
10
6.9004304
20
79.4606968
11
7.4219304
21
79.4606968
0
LINE
8
DEFAULT_255_2_778
10
7.4219304
20
79.4606968
11
7.4219304
21
78.2215968
0
ARC
8
DEFAULT_255_2_778
10
8.075791
20
78.2091471
40
0.6539791
50
178.9091958
51
195.7164093
0
ARC
8
DEFAULT_255_2_778
10
7.7156243
20
78.0981017
40
0.2773552
50
193.7879781
51
269.9665157
0
ARC
8
DEFAULT_255_2_778
10
7.7475251
20
78.3098692
40
0.4901726
50
266.2495153
51
270.0473647
0
ARC
8
DEFAULT_255_2_778
10
7.7613769
20
78.152465
40
0.3330397
50
267.6860341
51
301.7847405
0
ARC
8
DEFAULT_255_2_778
10
7.7645125
20
78.110426
40
0.2962946
50
305.5539805
51
348.2139288
0
ARC
8
DEFAULT_255_2_778
10
7.3891932
20
78.2115116
40
0.6847116
50
346.3481965
51
0.8439503
0
LINE
8
DEFAULT_255_2_778
10
8.0738304
20
78.2215968
11
8.0738304
21
79.4606968
0
LINE
8
DEFAULT_255_2_778
10
8.0738304
20
79.4606968
11
8.6279304
21
79.4606968
0
LINE
8
DEFAULT_255_2_778
10
8.6279304
20
79.4606968
11
8.6279304
21
78.1213968
0
ARC
8
DEFAULT_255_2_778
10
7.7315096
20
78.1086483
40
0.8965114
50
343.6305963
51
0.8147858
0
ARC
8
DEFAULT_255_2_778
10
8.0463748
20
78.0189795
40
0.5691446
50
284.7815249
51
343.3583677
0
ARC
8
DEFAULT_255_2_778
10
7.8629842
20
78.5526146
40
1.1326572
50
273.1466656
51
286.8647258
0
ARC
8
DEFAULT_255_2_778
10
7.8152036
20
79.1134692
40
1.6953734
50
269.9333143
51
273.7185657
0
ARC
8
DEFAULT_255_2_778
10
7.8005454
20
79.1023649
40
1.6843158
50
260.3661055
51
270.4315128
0
ARC
8
DEFAULT_255_2_778
10
7.6747255
20
78.3906242
40
0.961569
50
243.8720606
51
260.6601145
0
ARC
8
DEFAULT_255_2_778
10
7.5251788
20
78.0808971
40
0.6176388
50
186.048045
51
243.6743095
0
ARC
8
DEFAULT_255_2_778
10
7.9117829
20
78.1662486
40
1.0120471
50
182.540057
51
188.5479297
0
LINE
8
DEFAULT_255_2_778
10
6.9007304
20
78.1213968
11
6.9007304
21
79.4606968
0
ARC
8
DEFAULT_255_2_778
10
16.7064828
20
78.4587142
40
0.8686739
50
154.2061105
51
180.403492
0
ARC
8
DEFAULT_255_2_778
10
16.4901981
20
78.5719913
40
0.6246975
50
119.6226879
51
154.9286549
0
ARC
8
DEFAULT_255_2_778
10
16.4011508
20
78.7116031
40
0.4593951
50
90.1397461
51
118.5749121
0
ARC
8
DEFAULT_255_2_778
10
16.383131
20
78.6536325
40
0.5176402
50
32.2321888
51
88.1291413
0
ARC
8
DEFAULT_255_2_778
10
16.1486424
20
78.4748391
40
0.8117745
50
6.7584795
51
34.0799906
0
ARC
8
DEFAULT_255_2_778
10
16.0348148
20
78.4530212
40
0.9274156
50
359.9737841
51
7.2694421
0
ARC
8
DEFAULT_255_2_778
10
16.0938327
20
78.4464941
40
0.8684191
50
334.2022762
51
0.402644
0
ARC
8
DEFAULT_255_2_778
10
16.3098734
20
78.3333148
40
0.6247043
50
299.6211912
51
334.9249774
0
ARC
8
DEFAULT_255_2_778
10
16.3989085
20
78.1937075
40
0.459412
50
270.1399126
51
298.5739602
0
ARC
8
DEFAULT_255_2_778
10
16.4169318
20
78.2516827
40
0.5176618
50
212.2355463
51
268.1289861
0
ARC
8
DEFAULT_255_2_778
10
16.651266
20
78.4303975
40
0.8116252
50
186.7608409
51
214.0835931
0
ARC
8
DEFAULT_255_2_778
10
16.7648399
20
78.4521739
40
0.9270096
50
179.9738602
51
187.27103
0
ARC
8
DEFAULT_255_2_778
10
16.4978105
20
78.4726535
40
1.0732882
50
148.9572448
51
180.2218987
0
ARC
8
DEFAULT_255_2_778
10
16.4098096
20
78.5369258
40
0.9647955
50
90.4085389
51
149.5325483
0
ARC
8
DEFAULT_255_2_778
10
16.3880872
20
78.5178745
40
0.9839343
50
15.3224636
51
89.1356322
0
ARC
8
DEFAULT_255_2_778
10
16.2887139
20
78.4699655
40
1.0926174
50
359.9229863
51
16.3684965
0
ARC
8
DEFAULT_255_2_778
10
16.3080502
20
78.4643402
40
1.0732882
50
328.9572448
51
0.2218987
0
ARC
8
DEFAULT_255_2_778
10
16.3960511
20
78.4000679
40
0.9647955
50
270.4085389
51
329.5325483
0
ARC
8
DEFAULT_255_2_778
10
16.4177735
20
78.4191192
40
0.9839343
50
195.3224636
51
269.1356322
0
ARC
8
DEFAULT_255_2_778
10
16.5171468
20
78.4670282
40
1.0926174
50
179.9229863
51
196.3684965
0
LINE
8
DEFAULT_255_2_778
10
6.9007304
20
79.4606968
11
6.9004304
21
79.4606968
0
LINE
8
DEFAULT_255_2_778
10
15.8378304
20
78.4525968
11
15.8378304
21
78.4525968
0
LINE
8
DEFAULT_255_2_778
10
15.4245304
20
78.4684968
11
15.4245304
21
78.4684968
0
ARC
8
DEFAULT_255_2_778
10
7.9365977
20
87.0493313
40
0.7237028
50
351.7635067
51
357.6979504
0
ARC
8
DEFAULT_255_2_778
10
8.0378564
20
87.0441491
40
0.6223186
50
357.8002119
51
359.987155
0
ARC
8
DEFAULT_255_2_778
10
8.2412972
20
87.0582103
40
0.4191185
50
358.0583088
51
36.9029148
0
ARC
8
DEFAULT_255_2_778
10
8.2100682
20
87.0112951
40
0.4726342
50
39.1782219
51
67.461827
0
ARC
8
DEFAULT_255_2_778
10
8.0329373
20
86.6147676
40
0.9068451
50
66.7280294
51
80.0432221
0
ARC
8
DEFAULT_255_2_778
10
8.1248138
20
88.0803472
40
0.576063
50
276.4709295
51
298.7325898
0
ARC
8
DEFAULT_255_2_778
10
8.2046468
20
87.9119037
40
0.3901364
50
300.3440365
51
354.5291697
0
ARC
8
DEFAULT_255_2_778
10
7.9870926
20
87.963996
40
0.6124568
50
351.6172157
51
352.886679
0
ARC
8
DEFAULT_255_2_778
10
7.7399664
20
87.9516595
40
0.8572247
50
355.7514898
51
359.398984
0
ARC
8
DEFAULT_255_2_778
10
7.807567
20
87.9502702
40
0.7896135
50
359.4483371
51
359.9974723
0
ARC
8
DEFAULT_255_2_778
10
8.0490454
20
87.9627755
40
0.5482786
50
358.6894287
51
23.5861967
0
ARC
8
DEFAULT_255_2_778
10
8.1595087
20
87.9947246
40
0.4345157
50
25.553877
51
69.8670699
0
ARC
8
DEFAULT_255_2_778
10
7.99592
20
87.6057055
40
0.8562981
50
68.5492896
51
83.7179494
0
ARC
8
DEFAULT_255_2_778
10
7.9201852
20
87.0558487
40
1.4112211
50
83.1043457
51
88.7879807
0
ARC
8
DEFAULT_255_2_778
10
7.9705197
20
87.9774837
40
1.5117795
50
269.5344342
51
279.0167495
0
ARC
8
DEFAULT_255_2_778
10
8.0922412
20
87.2454956
40
0.7697801
50
278.6075337
51
295.3264389
0
ARC
8
DEFAULT_255_2_778
10
8.2585665
20
86.9086836
40
0.3942407
50
294.416737
51
1.4157544
0
ARC
8
DEFAULT_255_2_778
10
8.0353712
20
86.9351226
40
0.6175414
50
358.4505153
51
0.0076111
0
ARC
8
DEFAULT_255_2_778
10
8.0083295
20
86.9351912
40
0.6445833
50
0.0011977
51
0.8856219
0
ARC
8
DEFAULT_255_2_778
10
7.8639067
20
87.9066316
40
0.3358448
50
354.039084
51
359.8982624
0
ARC
8
DEFAULT_255_2_778
10
7.9828669
20
87.9119954
40
0.216966
50
358.4258622
51
75.5790632
0
ARC
8
DEFAULT_255_2_778
10
7.838835
20
87.54052
40
0.6144061
50
71.1937075
51
85.8397106
0
ARC
8
DEFAULT_255_2_778
10
7.78609
20
87.0233375
40
1.1341528
50
85.0775661
51
90.163443
0
ARC
8
DEFAULT_255_2_778
10
7.7844134
20
86.5911147
40
1.5663717
50
90.0570154
51
92.749481
0
ARC
8
DEFAULT_255_2_778
10
7.799445
20
86.2530844
40
1.9047343
50
92.7133631
51
94.1791931
0
LINE
8
DEFAULT_255_2_778
10
7.6606356
20
88.1527541
11
7.6606356
21
87.6566541
0
ARC
8
DEFAULT_255_2_778
10
7.6722679
20
89.5570396
40
1.9004211
50
269.649296
51
275.9720421
0
ARC
8
DEFAULT_255_2_778
10
7.788665
20
88.5001504
40
0.8371775
50
275.574864
51
287.1699842
0
ARC
8
DEFAULT_255_2_778
10
7.9567891
20
87.9803962
40
0.2910445
50
285.7532286
51
313.2280739
0
ARC
8
DEFAULT_255_2_778
10
8.0548187
20
87.8694412
40
0.1431309
50
315.0561514
51
0.8058195
0
ARC
8
DEFAULT_255_2_778
10
7.8382475
20
87.0714177
40
0.4148758
50
354.3890696
51
359.9047877
0
ARC
8
DEFAULT_255_2_778
10
8.0035916
20
87.0823008
40
0.2497993
50
357.3446955
51
71.501851
0
ARC
8
DEFAULT_255_2_778
10
7.8640705
20
86.7546604
40
0.6054428
50
68.816954
51
84.5608035
0
ARC
8
DEFAULT_255_2_778
10
7.7992982
20
86.2242354
40
1.1397077
50
83.8468164
51
90.2374651
0
ARC
8
DEFAULT_255_2_778
10
7.7959855
20
85.7567143
40
1.6072198
50
90.0502955
51
92.6618961
0
ARC
8
DEFAULT_255_2_778
10
7.8113927
20
85.4088742
40
1.9554002
50
92.6395156
51
94.4217691
0
LINE
8
DEFAULT_255_2_778
10
7.6606356
20
87.3584541
11
7.6606356
21
86.7803541
0
ARC
8
DEFAULT_255_2_778
10
7.8421442
20
88.9579588
40
2.1851562
50
265.2352729
51
267.406229
0
ARC
8
DEFAULT_255_2_778
10
7.8212816
20
88.4922009
40
1.7189314
50
267.3983506
51
269.9458205
0
ARC
8
DEFAULT_255_2_778
10
7.8299711
20
87.8266527
40
1.0534329
50
269.4389631
51
279.1241042
0
ARC
8
DEFAULT_255_2_778
10
7.9293636
20
87.2401567
40
0.4586254
50
278.4829366
51
297.2294927
0
ARC
8
DEFAULT_255_2_778
10
8.0515346
20
87.0120756
40
0.1999656
50
296.0052487
51
2.0061465
0
ARC
8
DEFAULT_255_2_778
10
7.9611487
20
87.0189994
40
0.2902289
50
0.015065
51
2.3409668
0
LINE
8
DEFAULT_255_2_778
10
18.7911356
20
87.2584541
11
18.7911356
21
86.4681541
0
LINE
8
DEFAULT_255_2_778
10
18.7911356
20
86.4681541
11
18.3900356
21
86.4681541
0
LINE
8
DEFAULT_255_2_778
10
18.3900356
20
86.4681541
11
18.3900356
21
87.2584541
0
LINE
8
DEFAULT_255_2_778
10
18.3900356
20
87.2584541
11
17.6597356
21
88.4670541
0
LINE
8
DEFAULT_255_2_778
10
17.6597356
20
88.4670541
11
18.1296356
21
88.4670541
0
LINE
8
DEFAULT_255_2_778
10
18.1296356
20
88.4670541
11
18.6019356
21
87.6280541
0
LINE
8
DEFAULT_255_2_778
10
18.6019356
20
87.6280541
11
19.0832356
21
88.4670541
0
LINE
8
DEFAULT_255_2_778
10
19.0832356
20
88.4670541
11
19.5070356
21
88.4670541
0
LINE
8
DEFAULT_255_2_778
10
19.5070356
20
88.4670541
11
18.7911356
21
87.2584541
0
LINE
8
DEFAULT_255_2_778
10
15.6616356
20
86.7829541
11
15.6616356
21
86.4681541
0
LINE
8
DEFAULT_255_2_778
10
15.6616356
20
86.4681541
11
14.4757356
21
86.4681541
0
LINE
8
DEFAULT_255_2_778
10
14.4757356
20
86.4681541
11
14.4757356
21
88.4670541
0
LINE
8
DEFAULT_255_2_778
10
14.4757356
20
88.4670541
11
15.6558356
21
88.4670541
0
LINE
8
DEFAULT_255_2_778
10
15.6558356
20
88.4670541
11
15.6558356
21
88.1521541
0
LINE
8
DEFAULT_255_2_778
10
15.6558356
20
88.1521541
11
14.8768356
21
88.1521541
0
LINE
8
DEFAULT_255_2_778
10
14.8768356
20
88.1521541
11
14.8768356
21
87.6595541
0
LINE
8
DEFAULT_255_2_778
10
14.8768356
20
87.6595541
11
15.5899356
21
87.6595541
0
LINE
8
DEFAULT_255_2_778
10
15.5899356
20
87.6595541
11
15.5899356
21
87.3446541
0
LINE
8
DEFAULT_255_2_778
10
15.5899356
20
87.3446541
11
14.8768356
21
87.3446541
0
LINE
8
DEFAULT_255_2_778
10
14.8768356
20
87.3446541
11
14.8768356
21
86.7832541
0
LINE
8
DEFAULT_255_2_778
10
14.8768356
20
86.7832541
11
15.6616356
21
86.7829541
0
LINE
8
DEFAULT_255_2_778
10
14.1487356
20
88.4670541
11
14.1487356
21
88.1521541
0
LINE
8
DEFAULT_255_2_778
10
14.1487356
20
88.1521541
11
13.5761356
21
88.1521541
0
LINE
8
DEFAULT_255_2_778
10
13.5761356
20
88.1521541
11
13.5761356
21
86.4681541
0
LINE
8
DEFAULT_255_2_778
10
13.5761356
20
86.4681541
11
13.1750356
21
86.4681541
0
LINE
8
DEFAULT_255_2_778
10
13.1750356
20
86.4681541
11
13.1750356
21
88.1521541
0
LINE
8
DEFAULT_255_2_778
10
13.1750356
20
88.1521541
11
12.6022356
21
88.1521541
0
LINE
8
DEFAULT_255_2_778
10
12.6022356
20
88.1521541
11
12.6022356
21
88.4670541
0
LINE
8
DEFAULT_255_2_778
10
12.6022356
20
88.4670541
11
14.1487356
21
88.4670541
0
LINE
8
DEFAULT_255_2_778
10
12.4051356
20
88.4670541
11
12.4051356
21
88.1521541
0
LINE
8
DEFAULT_255_2_778
10
12.4051356
20
88.1521541
11
11.8325356
21
88.1521541
0
LINE
8
DEFAULT_255_2_778
10
11.8325356
20
88.1521541
11
11.8325356
21
86.4681541
0
LINE
8
DEFAULT_255_2_778
10
11.8325356
20
86.4681541
11
11.4314356
21
86.4681541
0
LINE
8
DEFAULT_255_2_778
10
11.4314356
20
86.4681541
11
11.4314356
21
88.1521541
0
LINE
8
DEFAULT_255_2_778
10
11.4314356
20
88.1521541
11
10.8589356
21
88.1521541
0
LINE
8
DEFAULT_255_2_778
10
10.8589356
20
88.1521541
11
10.8589356
21
88.4670541
0
LINE
8
DEFAULT_255_2_778
10
10.8589356
20
88.4670541
11
12.4051356
21
88.4670541
0
LINE
8
DEFAULT_255_2_778
10
7.9500356
20
88.4667541
11
7.2637356
21
88.4667541
0
LINE
8
DEFAULT_255_2_778
10
7.2637356
20
88.4667541
11
7.2637356
21
86.4657541
0
LINE
8
DEFAULT_255_2_778
10
7.2637356
20
86.4657541
11
7.9582356
21
86.4657541
0
LINE
8
DEFAULT_255_2_778
10
8.6528356
20
86.9451541
11
8.6528356
21
86.9456541
0
LINE
8
DEFAULT_255_2_778
10
8.1979356
20
87.8714541
11
8.1979356
21
87.8717541
0
LINE
8
DEFAULT_255_2_778
10
8.2511356
20
87.0308541
11
8.2511356
21
87.0308541
0
LINE
8
DEFAULT_255_2_778
10
9.8931375
20
88.0659635
11
9.8873375
21
88.0659635
0
LINE
8
DEFAULT_255_2_778
10
9.8931375
20
88.0659635
11
9.5979375
21
87.2412635
0
LINE
8
DEFAULT_255_2_778
10
9.5979375
20
87.2412635
11
10.1821375
21
87.2412635
0
LINE
8
DEFAULT_255_2_778
10
10.1821375
20
87.2412635
11
9.8931375
21
88.0659635
0
LINE
8
DEFAULT_255_2_778
10
8.8938375
20
86.4681635
11
9.6727375
21
88.4670635
0
LINE
8
DEFAULT_255_2_778
10
9.6727375
20
88.4670635
11
10.1252375
21
88.4670635
0
LINE
8
DEFAULT_255_2_778
10
10.1252375
20
88.4670635
11
10.9099375
21
86.4681635
0
LINE
8
DEFAULT_255_2_778
10
10.9099375
20
86.4681635
11
10.4662375
21
86.4681635
0
LINE
8
DEFAULT_255_2_778
10
10.4662375
20
86.4681635
11
10.2940375
21
86.9263635
0
LINE
8
DEFAULT_255_2_778
10
10.2940375
20
86.9263635
11
9.4838375
21
86.9263635
0
LINE
8
DEFAULT_255_2_778
10
9.4838375
20
86.9263635
11
9.3092375
21
86.4681635
0
LINE
8
DEFAULT_255_2_778
10
9.3092375
20
86.4681635
11
8.8938375
21
86.4681635
0
ARC
8
DEFAULT_255_2_778
10
16.8499615
20
87.8882944
40
0.1970548
50
358.502518
51
78.7307607
0
ARC
8
DEFAULT_255_2_778
10
16.7172895
20
87.4998762
40
0.606339
50
73.6014023
51
88.1455905
0
ARC
8
DEFAULT_255_2_778
10
16.6863911
20
87.064135
40
1.042987
50
87.2236642
51
90.0519484
0
ARC
8
DEFAULT_255_2_778
10
16.6872595
20
86.7593562
40
1.3477664
50
90.0771148
51
93.2295159
0
ARC
8
DEFAULT_255_2_778
10
16.7046917
20
86.4245765
40
1.6829971
50
93.1799646
51
94.8106995
0
LINE
8
DEFAULT_255_2_778
10
16.563549
20
88.1016448
11
16.563549
21
87.6645448
0
ARC
8
DEFAULT_255_2_778
10
16.7198481
20
89.2008498
40
1.5442353
50
264.1908833
51
267.1704991
0
ARC
8
DEFAULT_255_2_778
10
16.702024
20
88.8488927
40
1.1918276
50
267.1910933
51
269.9452872
0
ARC
8
DEFAULT_255_2_778
10
16.7112888
20
88.3581798
40
0.7011915
50
269.1499235
51
282.2292741
0
ARC
8
DEFAULT_255_2_778
10
16.8071333
20
87.944634
40
0.2767945
50
280.972582
51
311.0658376
0
ARC
8
DEFAULT_255_2_778
10
16.8545139
20
87.8739243
40
0.1926559
50
314.2580617
51
2.7432062
0
ARC
8
DEFAULT_255_2_778
10
16.6071792
20
86.2496617
40
1.0392769
50
90.0274108
51
91.9371144
0
ARC
8
DEFAULT_255_2_778
10
16.6178572
20
86.6971375
40
0.5919068
50
76.5728178
51
91.0818036
0
ARC
8
DEFAULT_255_2_778
10
16.7176285
20
87.0818834
40
0.1946621
50
38.2928195
51
78.8405328
0
ARC
8
DEFAULT_255_2_778
10
16.761072
20
87.1256531
40
0.1336489
50
29.5392794
51
35.1051518
0
ARC
8
DEFAULT_255_2_778
10
17.0872958
20
87.2297004
40
0.2669496
50
27.422768
51
70.7631068
0
ARC
8
DEFAULT_255_2_778
10
17.0577029
20
87.966442
40
0.4987469
50
283.6318735
51
312.1008491
0
ARC
8
DEFAULT_255_2_778
10
17.0883793
20
87.9054028
40
0.4332722
50
314.5033138
51
354.6734162
0
ARC
8
DEFAULT_255_2_778
10
16.8048451
20
87.9558111
40
0.7206569
50
352.7753335
51
0.1691415
0
ARC
8
DEFAULT_255_2_778
10
16.6754501
20
87.9578655
40
0.850049
50
0.0049238
51
1.0771139
0
ARC
8
DEFAULT_255_2_778
10
17.0297164
20
87.963688
40
0.4957367
50
1.1739667
51
32.083556
0
ARC
8
DEFAULT_255_2_778
10
17.0643914
20
87.9623492
40
0.4674776
50
34.480645
51
70.2652748
0
ARC
8
DEFAULT_255_2_778
10
16.9003955
20
87.55243
40
0.9088363
50
69.2598066
51
83.7988651
0
ARC
8
DEFAULT_255_2_778
10
16.8167961
20
86.9033543
40
1.5631986
50
83.322457
51
90.2413643
0
ARC
8
DEFAULT_255_2_778
10
16.8105517
20
86.4363873
40
2.0301518
50
90.0096164
51
91.2645444
0
LINE
8
DEFAULT_255_2_778
10
16.765749
20
88.4660448
11
16.088149
21
88.4660448
0
LINE
8
DEFAULT_255_2_778
10
17.046949
20
87.8831448
11
17.046949
21
87.8831448
0
LINE
8
DEFAULT_255_2_778
10
16.087849
20
88.4665448
11
16.087849
21
86.5139448
0
LINE
8
DEFAULT_255_2_778
10
16.087849
20
86.5139448
11
16.572049
21
86.5139448
0
LINE
8
DEFAULT_255_2_778
10
16.572049
20
86.5139448
11
16.572049
21
87.2883448
0
LINE
8
DEFAULT_255_2_778
10
16.877349
20
87.1915448
11
17.108349
21
86.5218448
0
LINE
8
DEFAULT_255_2_778
10
17.108349
20
86.5218448
11
17.607349
21
86.5136448
0
LINE
8
DEFAULT_255_2_778
10
17.607349
20
86.5136448
11
17.324249
21
87.3526448
0
LINE
8
DEFAULT_255_2_778
10
16.088149
20
88.4660448
11
16.087849
21
88.4665448
0
LINE
8
DEFAULT_255_2_778
10
12.4869084
20
91.4682244
11
12.9666084
21
91.4682244
0
LINE
8
DEFAULT_255_2_778
10
12.9666084
20
91.4682244
11
12.9666084
21
90.2344244
0
ARC
8
DEFAULT_255_2_778
10
13.6717572
20
90.2221878
40
0.7052549
50
179.0058373
51
194.3110992
0
ARC
8
DEFAULT_255_2_778
10
13.2659921
20
90.1096945
40
0.2844078
50
192.5576124
51
234.2054417
0
ARC
8
DEFAULT_255_2_778
10
13.2555165
20
90.1278638
40
0.2936416
50
237.9395681
51
272.1257381
0
ARC
8
DEFAULT_255_2_778
10
13.2816758
20
90.1064027
40
0.2724065
50
266.7870906
51
313.3381115
0
ARC
8
DEFAULT_255_2_778
10
13.2276495
20
90.1309153
40
0.3280839
50
317.2655023
51
349.8842276
0
ARC
8
DEFAULT_255_2_778
10
12.8127069
20
90.2254714
40
0.7534548
50
348.3474497
51
0.6808397
0
LINE
8
DEFAULT_255_2_778
10
13.5661084
20
90.2344244
11
13.5661084
21
91.4682244
0
LINE
8
DEFAULT_255_2_778
10
13.5661084
20
91.4682244
11
14.0757084
21
91.4682244
0
LINE
8
DEFAULT_255_2_778
10
14.0757084
20
91.4682244
11
14.0757084
21
90.1344244
0
ARC
8
DEFAULT_255_2_778
10
13.1134763
20
90.1215416
40
0.9623184
50
344.8896029
51
0.7670576
0
ARC
8
DEFAULT_255_2_778
10
13.511445
20
90.0073507
40
0.5483805
50
285.0700121
51
345.5687867
0
ARC
8
DEFAULT_255_2_778
10
13.3600565
20
90.4669512
40
1.0318808
50
271.9384284
51
286.5519547
0
ARC
8
DEFAULT_255_2_778
10
13.3271991
20
90.928764
40
1.4946399
50
269.9696894
51
272.5984616
0
ARC
8
DEFAULT_255_2_778
10
13.3136762
20
90.8476237
40
1.4135567
50
258.9430167
51
270.5160821
0
ARC
8
DEFAULT_255_2_778
10
13.1894545
20
90.240911
40
0.7943019
50
238.5331749
51
259.3438837
0
ARC
8
DEFAULT_255_2_778
10
13.0968541
20
90.0659381
40
0.5968501
50
191.3023918
51
237.3471568
0
ARC
8
DEFAULT_255_2_778
10
13.4837582
20
90.1710447
40
0.9972223
50
182.1045084
51
192.8676721
0
LINE
8
DEFAULT_255_2_778
10
12.4872084
20
90.1344244
11
12.4872084
21
91.4682244
0
ARC
8
DEFAULT_255_2_778
10
14.9937483
20
89.7670651
40
1.4572903
50
67.1429472
51
73.6704459
0
ARC
8
DEFAULT_255_2_778
10
15.1402623
20
90.2739394
40
0.929671
50
73.5527389
51
83.0758569
0
ARC
8
DEFAULT_255_2_778
10
15.1766233
20
90.5490986
40
0.6521415
50
83.332744
51
89.8680805
0
ARC
8
DEFAULT_255_2_778
10
15.1704888
20
90.7607713
40
0.4405333
50
89.0068186
51
113.0038301
0
ARC
8
DEFAULT_255_2_778
10
15.1468844
20
90.8315422
40
0.3662138
50
113.9315431
51
139.428924
0
ARC
8
DEFAULT_255_2_778
10
15.1774215
20
90.9052465
40
0.3497953
50
151.9519523
51
164.6487274
0
ARC
8
DEFAULT_255_2_778
10
15.0614982
20
90.9375699
40
0.2294514
50
164.7688559
51
179.6091628
0
ARC
8
DEFAULT_255_2_778
10
15.0343199
20
90.94356
40
0.2023161
50
181.2532178
51
235.0431175
0
ARC
8
DEFAULT_255_2_778
10
15.228486
20
91.1835309
40
0.5107005
50
232.6144109
51
248.576489
0
ARC
8
DEFAULT_255_2_778
10
15.4277913
20
91.65749
40
1.0247852
50
247.8822462
51
254.9566449
0
ARC
8
DEFAULT_255_2_778
10
14.7253636
20
89.3092891
40
1.4269205
50
62.8836092
51
72.1897957
0
ARC
8
DEFAULT_255_2_778
10
15.0016988
20
89.8408871
40
0.8278093
50
48.0338651
51
63.1368643
0
ARC
8
DEFAULT_255_2_778
10
15.240981
20
90.0953351
40
0.4786739
50
359.5491941
51
48.9638098
0
ARC
8
DEFAULT_255_2_778
10
15.0846981
20
90.0945977
40
0.6349491
50
348.4118847
51
359.7266907
0
ARC
8
DEFAULT_255_2_778
10
14.8629998
20
90.1389032
40
0.8610292
50
340.5023095
51
348.4871533
0
ARC
8
DEFAULT_255_2_778
10
14.6906942
20
90.1962549
40
1.0426019
50
339.0708926
51
340.6917626
0
ARC
8
DEFAULT_255_2_778
10
14.8919408
20
90.2560031
40
0.8852339
50
315.0625065
51
330.7771025
0
ARC
8
DEFAULT_255_2_778
10
15.0497329
20
90.1039322
40
0.6661345
50
269.4653294
51
314.7351027
0
ARC
8
DEFAULT_255_2_778
10
15.029866
20
90.3150986
40
0.8773782
50
269.9991248
51
270.8914809
0
ARC
8
DEFAULT_255_2_778
10
15.0349289
20
90.4772276
40
1.0395194
50
259.577241
51
269.7202049
0
ARC
8
DEFAULT_255_2_778
10
15.1069649
20
90.8793409
40
1.448031
50
252.3754539
51
259.652378
0
ARC
8
DEFAULT_255_2_778
10
15.2679443
20
91.3920456
40
1.9854118
50
246.999415
51
252.4277621
0
ARC
8
DEFAULT_255_2_778
10
15.4213827
20
91.7670908
40
2.3906018
50
246.0202256
51
247.1265634
0
ARC
8
DEFAULT_255_2_778
10
-9.8070028
20
92.7251947
40
24.4595049
50
352.6186753
51
353.4246074
0
ARC
8
DEFAULT_255_2_778
10
15.1620438
20
91.3674565
40
1.5912618
50
245.0818493
51
251.4954081
0
ARC
8
DEFAULT_255_2_778
10
14.9881912
20
90.8413289
40
1.0371606
50
251.3783687
51
260.7984357
0
ARC
8
DEFAULT_255_2_778
10
14.9343574
20
90.5202471
40
0.7116042
50
260.9431677
51
269.7769383
0
ARC
8
DEFAULT_255_2_778
10
14.9391827
20
90.2906641
40
0.4820757
50
269.0971876
51
294.0460159
0
ARC
8
DEFAULT_255_2_778
10
14.9540194
20
90.2417572
40
0.4314147
50
294.8932277
51
316.4328563
0
ARC
8
DEFAULT_255_2_778
10
15.0127747
20
90.090454
40
0.2928416
50
330.0883351
51
344.6932867
0
ARC
8
DEFAULT_255_2_778
10
15.1035923
20
90.0645627
40
0.1984132
50
344.9815568
51
359.7007673
0
ARC
8
DEFAULT_255_2_778
10
15.1065227
20
90.0576596
40
0.1955683
50
1.7190976
51
51.6859813
0
ARC
8
DEFAULT_255_2_778
10
14.9010579
20
89.830037
40
0.5019512
50
49.3917898
51
65.2446463
0
ARC
8
DEFAULT_255_2_778
10
14.6385053
20
89.2833879
40
1.1083488
50
64.7525713
51
73.3834974
0
ARC
8
DEFAULT_255_2_778
10
14.4886628
20
88.8278128
40
1.5878046
50
72.9033176
51
73.0106976
0
ARC
8
DEFAULT_255_2_778
10
15.1904674
20
91.3916258
40
1.0720224
50
243.5457945
51
257.1805968
0
ARC
8
DEFAULT_255_2_778
10
14.9582212
20
90.9397417
40
0.564032
50
215.8826825
51
244.2184337
0
ARC
8
DEFAULT_255_2_778
10
14.899105
20
90.8803845
40
0.4815318
50
183.7579196
51
214.2829702
0
ARC
8
DEFAULT_255_2_778
10
15.5321152
20
90.876889
40
1.1138604
50
180.0079916
51
181.4437665
0
ARC
8
DEFAULT_255_2_778
10
15.230936
20
90.8866077
40
0.8127411
50
164.994475
51
180.696111
0
ARC
8
DEFAULT_255_2_778
10
14.929276
20
90.9707446
40
0.4995935
50
108.3870495
51
165.3573912
0
ARC
8
DEFAULT_255_2_778
10
15.0774302
20
90.5946751
40
0.9034636
50
95.6553076
51
109.7801701
0
ARC
8
DEFAULT_255_2_778
10
15.138883
20
90.0841354
40
1.4176158
50
89.8262865
51
96.0935681
0
ARC
8
DEFAULT_255_2_778
10
15.1402106
20
89.5846805
40
1.9170664
50
85.9254473
51
89.9112222
0
ARC
8
DEFAULT_255_2_778
10
15.1018035
20
89.0357842
40
2.4673045
50
82.6696998
51
85.9415056
0
ARC
8
DEFAULT_255_2_778
10
15.0193221
20
88.3890495
40
3.1192773
50
79.984408
51
82.6827236
0
ARC
8
DEFAULT_255_2_778
10
14.9353913
20
87.8976912
40
3.6177455
50
79.2142008
51
80.0288068
0
ARC
8
DEFAULT_255_2_778
10
18.5749134
20
90.8922607
40
0.1961596
50
358.5288007
51
78.7827851
0
ARC
8
DEFAULT_255_2_778
10
18.4424825
20
90.5041715
40
0.6050479
50
73.6237261
51
88.1484083
0
ARC
8
DEFAULT_255_2_778
10
18.4116935
20
90.0694931
40
1.0406286
50
87.2273371
51
90.0523179
0
ARC
8
DEFAULT_255_2_778
10
18.4125668
20
89.7643525
40
1.34577
50
90.0776359
51
93.2379555
0
ARC
8
DEFAULT_255_2_778
10
18.4300979
20
89.4284139
40
1.6821631
50
93.1878296
51
94.8215237
0
LINE
8
DEFAULT_255_2_778
10
18.2887084
20
91.1046244
11
18.2887084
21
90.6694244
0
ARC
8
DEFAULT_255_2_778
10
18.4447649
20
92.2061899
40
1.5446689
50
264.2015668
51
267.1753448
0
ARC
8
DEFAULT_255_2_778
10
18.4269497
20
91.8537087
40
1.1917381
50
267.1957026
51
269.9453441
0
ARC
8
DEFAULT_255_2_778
10
18.436193
20
91.3630003
40
0.701106
50
269.1516822
51
282.1993816
0
ARC
8
DEFAULT_255_2_778
10
18.5319048
20
90.9490688
40
0.2763634
50
280.9386169
51
310.9878936
0
ARC
8
DEFAULT_255_2_778
10
18.5797783
20
90.8777833
40
0.1914484
50
314.1674763
51
2.7367301
0
ARC
8
DEFAULT_255_2_778
10
18.3313938
20
89.2519466
40
1.0436477
50
90.0262982
51
91.8935765
0
ARC
8
DEFAULT_255_2_778
10
18.3420947
20
89.7003097
40
0.5953896
50
76.64858
51
91.0759306
0
ARC
8
DEFAULT_255_2_778
10
18.4419782
20
90.0878491
40
0.1954105
50
38.7101839
51
78.9045555
0
ARC
8
DEFAULT_255_2_778
10
18.4861975
20
90.1328207
40
0.1329891
50
29.7065238
51
35.5038661
0
ARC
8
DEFAULT_255_2_778
10
18.8118112
20
90.2367119
40
0.2659483
50
27.4541497
51
70.8374809
0
ARC
8
DEFAULT_255_2_778
10
18.7823884
20
90.9713225
40
0.49729
50
283.5746637
51
312.037817
0
ARC
8
DEFAULT_255_2_778
10
18.8131626
20
90.9100096
40
0.4315296
50
314.4550505
51
354.7987673
0
ARC
8
DEFAULT_255_2_778
10
18.5302594
20
90.9599744
40
0.7182023
50
352.8747707
51
0.1647603
0
ARC
8
DEFAULT_255_2_778
10
18.4029677
20
90.9619774
40
0.8454911
50
0.0042226
51
1.080733
0
ARC
8
DEFAULT_255_2_778
10
18.7561306
20
90.9678836
40
0.4922803
50
1.1687083
51
32.3688158
0
ARC
8
DEFAULT_255_2_778
10
18.7882938
20
90.965042
40
0.4670482
50
34.7763423
51
70.2677143
0
ARC
8
DEFAULT_255_2_778
10
18.6245403
20
90.55506
40
0.9083795
50
69.2762897
51
83.8072832
0
ARC
8
DEFAULT_255_2_778
10
18.5409074
20
89.9050236
40
1.5636988
50
83.330082
51
90.2413418
0
ARC
8
DEFAULT_255_2_778
10
18.534646
20
89.438605
40
2.0301036
50
90.0091774
51
91.2514428
0
LINE
8
DEFAULT_255_2_778
10
18.4903084
20
91.4682244
11
17.8140084
21
91.4682244
0
LINE
8
DEFAULT_255_2_778
10
12.4872084
20
91.4682244
11
12.4869084
21
91.4682244
0
LINE
8
DEFAULT_255_2_778
10
15.6124084
20
91.4515244
11
15.5706084
21
91.1200244
0
LINE
8
DEFAULT_255_2_778
10
17.3589084
20
89.8296244
11
17.3589084
21
89.5232244
0
LINE
8
DEFAULT_255_2_778
10
17.3589084
20
89.5232244
11
16.1564084
21
89.5232244
0
LINE
8
DEFAULT_255_2_778
10
16.1564084
20
89.5232244
11
16.1564084
21
91.4682244
0
LINE
8
DEFAULT_255_2_778
10
16.1564084
20
91.4682244
11
17.3534084
21
91.4682244
0
LINE
8
DEFAULT_255_2_778
10
17.3534084
20
91.4682244
11
17.3534084
21
91.1618244
0
LINE
8
DEFAULT_255_2_778
10
17.3534084
20
91.1618244
11
16.5630084
21
91.1618244
0
LINE
8
DEFAULT_255_2_778
10
16.5630084
20
91.1618244
11
16.5630084
21
90.6824244
0
LINE
8
DEFAULT_255_2_778
10
16.5630084
20
90.6824244
11
17.2862084
21
90.6824244
0
LINE
8
DEFAULT_255_2_778
10
17.2862084
20
90.6824244
11
17.2862084
21
90.3760244
0
LINE
8
DEFAULT_255_2_778
10
17.2862084
20
90.3760244
11
16.5630084
21
90.3760244
0
LINE
8
DEFAULT_255_2_778
10
16.5630084
20
90.3760244
11
16.5630084
21
89.8296244
0
LINE
8
DEFAULT_255_2_778
10
16.5630084
20
89.8296244
11
17.3589084
21
89.8296244
0
LINE
8
DEFAULT_255_2_778
10
18.7710084
20
90.8869244
11
18.7710084
21
90.8872244
0
LINE
8
DEFAULT_255_2_778
10
17.8138084
20
91.4682244
11
17.8138084
21
89.5238244
0
LINE
8
DEFAULT_255_2_778
10
17.8138084
20
89.5238244
11
18.2969084
21
89.5238244
0
LINE
8
DEFAULT_255_2_778
10
18.2969084
20
89.5238244
11
18.2969084
21
90.2950244
0
LINE
8
DEFAULT_255_2_778
10
18.6017084
20
90.1987244
11
18.8321084
21
89.5317244
0
LINE
8
DEFAULT_255_2_778
10
18.8321084
20
89.5317244
11
19.3301084
21
89.5238244
0
LINE
8
DEFAULT_255_2_778
10
19.3301084
20
89.5238244
11
19.0478084
21
90.3593244
0
LINE
8
DEFAULT_255_2_778
10
17.8140084
20
91.4682244
11
17.8138084
21
91.4682244
0
LINE
8
DEFAULT_255_2_778
10
13.9265335
20
105.6689737
11
14.4556335
21
105.6689737
0
LINE
8
DEFAULT_255_2_778
10
14.4556335
20
105.6689737
11
14.4556335
21
104.4452737
0
ARC
8
DEFAULT_255_2_778
10
15.0849172
20
104.4330149
40
0.6294031
50
178.8839918
51
196.154749
0
ARC
8
DEFAULT_255_2_778
10
14.751405
20
104.3296454
40
0.2803746
50
194.827582
51
270.7924195
0
ARC
8
DEFAULT_255_2_778
10
14.7860655
20
104.561529
40
0.5131555
50
266.560897
51
270.0410902
0
ARC
8
DEFAULT_255_2_778
10
14.7998255
20
104.3959893
40
0.3478734
50
267.7937551
51
300.1809771
0
ARC
8
DEFAULT_255_2_778
10
14.8117591
20
104.3386367
40
0.2928819
50
303.8058554
51
348.4789105
0
ARC
8
DEFAULT_255_2_778
10
14.4509151
20
104.4358897
40
0.6662844
50
346.4815194
51
0.8069799
0
LINE
8
DEFAULT_255_2_778
10
15.1171335
20
104.4452737
11
15.1171335
21
105.6689737
0
LINE
8
DEFAULT_255_2_778
10
15.1171335
20
105.6689737
11
15.6793335
21
105.6689737
0
LINE
8
DEFAULT_255_2_778
10
15.6793335
20
105.6689737
11
15.6793335
21
104.3459737
0
ARC
8
DEFAULT_255_2_778
10
14.8207953
20
104.333067
40
0.8586353
50
342.8314788
51
0.8612825
0
ARC
8
DEFAULT_255_2_778
10
15.1034243
20
104.2514495
40
0.5645341
50
286.2075741
51
342.2786737
0
ARC
8
DEFAULT_255_2_778
10
14.915608
20
104.7650559
40
1.1107673
50
274.1087166
51
288.1162084
0
ARC
8
DEFAULT_255_2_778
10
14.8557158
20
105.3690034
40
1.7175326
50
269.8938423
51
274.6580197
0
ARC
8
DEFAULT_255_2_778
10
14.8401394
20
105.4169105
40
1.7654803
50
260.8495315
51
270.4022351
0
ARC
8
DEFAULT_255_2_778
10
14.7155624
20
104.6747029
40
1.012919
50
245.322631
51
261.1300944
0
ARC
8
DEFAULT_255_2_778
10
14.5430116
20
104.3099663
40
0.6094679
50
187.4445519
51
245.7467858
0
ARC
8
DEFAULT_255_2_778
10
14.8879933
20
104.3894265
40
0.9624411
50
182.5876988
51
189.4745444
0
LINE
8
DEFAULT_255_2_778
10
13.9265335
20
104.3459737
11
13.9265335
21
105.6689737
0
ARC
8
DEFAULT_255_2_778
10
7.4177546
20
103.5751011
40
1.849294
50
69.8290137
51
75.5432524
0
ARC
8
DEFAULT_255_2_778
10
7.5709716
20
104.1758575
40
1.2293103
50
75.4680875
51
83.3488132
0
ARC
8
DEFAULT_255_2_778
10
7.6148439
20
104.5323549
40
0.8701339
50
83.4993316
51
89.857301
0
ARC
8
DEFAULT_255_2_778
10
7.6097066
20
104.8113212
40
0.59121
50
89.2920948
51
107.1093963
0
ARC
8
DEFAULT_255_2_778
10
7.5627181
20
104.9706259
40
0.425136
50
107.3732719
51
135.089278
0
ARC
8
DEFAULT_255_2_778
10
7.5445395
20
105.0980675
40
0.3314562
50
148.5970952
51
161.5232218
0
ARC
8
DEFAULT_255_2_778
10
7.4249158
20
105.137966
40
0.2053544
50
161.5038722
51
179.4420086
0
ARC
8
DEFAULT_255_2_778
10
7.4043983
20
105.1451713
40
0.1849006
50
181.6132519
51
234.3723014
0
ARC
8
DEFAULT_255_2_778
10
7.5976679
20
105.3783109
40
0.4874485
50
231.8695433
51
247.9086076
0
ARC
8
DEFAULT_255_2_778
10
7.8347419
20
105.9361171
40
1.0935081
50
247.390575
51
256.0157478
0
ARC
8
DEFAULT_255_2_778
10
7.979123
20
106.459625
40
1.6364473
50
255.5398002
51
256.5479419
0
ARC
8
DEFAULT_255_2_778
10
7.0981017
20
103.0920761
40
1.8451285
50
67.0985389
51
74.2664763
0
ARC
8
DEFAULT_255_2_778
10
7.3928386
20
103.7812656
40
1.0955729
50
56.2731373
51
67.2715439
0
ARC
8
DEFAULT_255_2_778
10
7.6612931
20
104.1757779
40
0.6184187
50
37.0053311
51
56.6645987
0
ARC
8
DEFAULT_255_2_778
10
7.8127996
20
104.2941034
40
0.4262227
50
359.5320014
51
36.5614243
0
ARC
8
DEFAULT_255_2_778
10
7.683833
20
104.2935908
40
0.5551829
50
347.1467893
51
359.6936114
0
ARC
8
DEFAULT_255_2_778
10
7.4820501
20
104.3384187
40
0.7618829
50
338.6039292
51
347.2357409
0
ARC
8
DEFAULT_255_2_778
10
7.3080191
20
104.4030118
40
0.9474902
50
336.3200395
51
338.806349
0
ARC
8
DEFAULT_255_2_778
10
7.4267253
20
104.5025372
40
0.8896484
50
308.0689262
51
327.3428822
0
ARC
8
DEFAULT_255_2_778
10
7.4907914
20
104.4379979
40
0.7994057
50
276.322837
51
307.3061764
0
ARC
8
DEFAULT_255_2_778
10
7.4489578
20
104.6966612
40
1.0611836
50
269.8890046
51
277.029745
0
ARC
8
DEFAULT_255_2_778
10
7.4515259
20
104.9796177
40
1.344146
50
261.6623823
51
269.8029024
0
ARC
8
DEFAULT_255_2_778
10
7.5172669
20
105.4349237
40
1.8041729
50
255.2551623
51
261.6933732
0
ARC
8
DEFAULT_255_2_778
10
7.6713467
20
106.0257858
40
2.4147931
50
250.2298777
51
255.2878435
0
ARC
8
DEFAULT_255_2_778
10
7.8381055
20
106.5054534
40
2.9225984
50
248.7876226
51
250.3341068
0
ARC
8
DEFAULT_255_2_778
10
-14.4622336
20
106.9483219
40
21.4777125
50
351.5193119
51
352.4409507
0
ARC
8
DEFAULT_255_2_778
10
7.5770235
20
105.9691677
40
1.9920393
50
247.9392188
51
253.725984
0
ARC
8
DEFAULT_255_2_778
10
7.3976226
20
105.3482548
40
1.3457322
50
253.6499195
51
261.6671957
0
ARC
8
DEFAULT_255_2_778
10
7.3375519
20
104.9470619
40
0.94007
50
261.7460984
51
269.7918719
0
ARC
8
DEFAULT_255_2_778
10
7.3412138
20
104.6528562
40
0.6458969
50
269.3722349
51
287.3661359
0
ARC
8
DEFAULT_255_2_778
10
7.3810869
20
104.5148274
40
0.5022686
50
287.7246538
51
312.2558581
0
ARC
8
DEFAULT_255_2_778
10
7.4844747
20
104.2975022
40
0.2806639
50
326.6175006
51
341.0363256
0
ARC
8
DEFAULT_255_2_778
10
7.5813713
20
104.2638095
40
0.1780776
50
341.157194
51
359.5264655
0
ARC
8
DEFAULT_255_2_778
10
7.5821374
20
104.2560088
40
0.1774183
50
2.0443266
51
51.7821816
0
ARC
8
DEFAULT_255_2_778
10
7.3790454
20
104.0310091
40
0.4802678
50
49.3518579
51
65.2432578
0
ARC
8
DEFAULT_255_2_778
10
7.1123127
20
103.4769835
40
1.0951213
50
64.7090228
51
73.1708417
0
ARC
8
DEFAULT_255_2_778
10
6.900179
20
102.8217372
40
1.7837716
50
72.7422766
51
75.1302988
0
ARC
8
DEFAULT_255_2_778
10
7.6342767
20
105.9254936
40
1.4071221
50
248.1270483
51
258.6741298
0
ARC
8
DEFAULT_255_2_778
10
7.380689
20
105.3091716
40
0.7407159
50
229.5540331
51
248.5696515
0
ARC
8
DEFAULT_255_2_778
10
7.191283
20
105.0862602
40
0.4482031
50
184.7720203
51
229.4942007
0
ARC
8
DEFAULT_255_2_778
10
7.7179776
20
105.0772078
40
0.9737535
50
180.0096803
51
181.6615341
0
ARC
8
DEFAULT_255_2_778
10
7.45384
20
105.0872266
40
0.7096887
50
162.0878347
51
180.822165
0
ARC
8
DEFAULT_255_2_778
10
7.2638468
20
105.1410787
40
0.5123927
50
112.2971154
51
161.283576
0
ARC
8
DEFAULT_255_2_778
10
7.4378052
20
104.7755402
40
0.9168713
50
100.0218339
51
113.6884508
0
ARC
8
DEFAULT_255_2_778
10
7.5514604
20
104.1613901
40
1.5414374
50
91.315027
51
100.2093359
0
ARC
8
DEFAULT_255_2_778
10
7.576605
20
103.6086564
40
2.0946396
50
89.9844404
51
91.6556647
0
ARC
8
DEFAULT_255_2_778
10
7.5744046
20
103.2093697
40
2.4939278
50
86.7649973
51
89.9363788
0
ARC
8
DEFAULT_255_2_778
10
7.5395742
20
102.5812213
40
3.1230408
50
84.1613103
51
86.7773325
0
ARC
8
DEFAULT_255_2_778
10
7.4633987
20
101.8344295
40
3.8737077
50
81.8037241
51
84.1641126
0
ARC
8
DEFAULT_255_2_778
10
7.3642062
20
101.1300723
40
4.585012
50
80.5661055
51
81.8316797
0
ARC
8
DEFAULT_255_2_778
10
10.9805293
20
106.9516932
40
2.9870967
50
282.3964241
51
285.3077536
0
ARC
8
DEFAULT_255_2_778
10
11.1263711
20
106.282671
40
2.302364
50
278.5293574
51
282.4257973
0
ARC
8
DEFAULT_255_2_778
10
11.2122566
20
105.7047143
40
1.7180616
50
273.6524814
51
278.5555288
0
ARC
8
DEFAULT_255_2_778
10
11.2378328
20
105.3309757
40
1.3434539
50
270.0559045
51
273.5793221
0
ARC
8
DEFAULT_255_2_778
10
11.2298613
20
104.9200929
40
0.9326166
50
257.3034339
51
270.5702722
0
ARC
8
DEFAULT_255_2_778
10
11.1404959
20
104.5446292
40
0.5467122
50
231.2135892
51
257.7915957
0
ARC
8
DEFAULT_255_2_778
10
11.1282742
20
104.5071825
40
0.5100572
50
197.2477644
51
229.6485301
0
ARC
8
DEFAULT_255_2_778
10
11.4400776
20
104.6153102
40
0.8399692
50
185.0224828
51
197.9854475
0
ARC
8
DEFAULT_255_2_778
10
11.8247088
20
104.5400833
40
1.2213764
50
169.8566175
51
179.9207047
0
ARC
8
DEFAULT_255_2_778
10
11.3258129
20
104.6329618
40
0.7139301
50
153.3240265
51
170.1427354
0
ARC
8
DEFAULT_255_2_778
10
11.1109333
20
104.738342
40
0.4746181
50
98.149045
51
153.0457151
0
ARC
8
DEFAULT_255_2_778
10
11.1882891
20
104.3983207
40
0.8226607
50
89.6667447
51
100.125821
0
ARC
8
DEFAULT_255_2_778
10
11.1891676
20
104.0357554
40
1.1852186
50
83.1878302
51
89.8111533
0
ARC
8
DEFAULT_255_2_778
10
11.1371506
20
103.5890367
40
1.6349543
50
78.2305371
51
83.234712
0
ARC
8
DEFAULT_255_2_778
10
11.0278823
20
103.0569318
40
2.1781607
50
74.5884364
51
78.2716928
0
ARC
8
DEFAULT_255_2_778
10
10.857252
20
102.4357433
40
2.8223575
50
71.5014048
51
74.6003436
0
ARC
8
DEFAULT_255_2_778
10
11.6104653
20
105.3927456
40
0.2432706
50
37.897184
51
68.1418467
0
ARC
8
DEFAULT_255_2_778
10
11.4027613
20
104.9376476
40
0.7433475
50
66.3429903
51
78.076492
0
ARC
8
DEFAULT_255_2_778
10
11.2076128
20
104.0874779
40
1.6155652
50
77.5342906
51
82.9630911
0
ARC
8
DEFAULT_255_2_778
10
11.1358364
20
102.8688666
40
2.8348651
50
84.5408649
51
86.4483077
0
ARC
8
DEFAULT_255_2_778
10
11.1563647
20
103.2049975
40
2.4981081
50
86.4406436
51
88.8188458
0
ARC
8
DEFAULT_255_2_778
10
11.1620208
20
103.4386464
40
2.2643924
50
88.8400634
51
89.9940391
0
ARC
8
DEFAULT_255_2_778
10
11.151509
20
103.9434333
40
1.7596384
50
89.6500542
51
99.5175911
0
ARC
8
DEFAULT_255_2_778
10
11.0414519
20
104.5733169
40
1.1202357
50
99.2930237
51
115.4452725
0
ARC
8
DEFAULT_255_2_778
10
10.9164015
20
104.847724
40
0.8187346
50
115.7936842
51
163.5103673
0
ARC
8
DEFAULT_255_2_778
10
11.4210273
20
104.6697196
40
1.3534093
50
162.348237
51
175.1756673
0
ARC
8
DEFAULT_255_2_778
10
11.9984167
20
104.6089223
40
1.9339037
50
174.819464
51
180.1096001
0
ARC
8
DEFAULT_255_2_778
10
12.3563167
20
104.6056832
40
2.2918001
50
180.0115057
51
181.5941764
0
ARC
8
DEFAULT_255_2_778
10
12.4923514
20
104.6090577
40
2.4278761
50
181.5844682
51
182.1807085
0
ARC
8
DEFAULT_255_2_778
10
11.4641743
20
104.6025111
40
1.4005736
50
183.5137073
51
195.0859086
0
ARC
8
DEFAULT_255_2_778
10
10.9927463
20
104.4713281
40
0.9112588
50
194.8366178
51
214.8786795
0
ARC
8
DEFAULT_255_2_778
10
10.8854511
20
104.4119032
40
0.7893567
50
215.7937085
51
250.3921233
0
ARC
8
DEFAULT_255_2_778
10
11.0387678
20
104.8066178
40
1.2126915
50
249.8266943
51
263.2676386
0
ARC
8
DEFAULT_255_2_778
10
11.1149958
20
105.3798786
40
1.790956
50
262.9957703
51
270.1956083
0
ARC
8
DEFAULT_255_2_778
10
11.1183419
20
105.943046
40
2.3541145
50
270.067375
51
273.8332869
0
ARC
8
DEFAULT_255_2_778
10
11.0812075
20
106.5000182
40
2.9123233
50
273.8296619
51
277.1995298
0
ARC
8
DEFAULT_255_2_778
10
10.9981644
20
107.1630907
40
3.5805754
50
277.1881489
51
279.9908715
0
ARC
8
DEFAULT_255_2_778
10
10.8642448
20
107.9255423
40
4.3546986
50
279.9857413
51
282.4455529
0
ARC
8
DEFAULT_255_2_778
10
-21.7693092
20
101.3314527
40
33.6536136
50
3.9900391
51
4.2600021
0
ARC
8
DEFAULT_255_2_778
10
-1.5453019
20
102.8445858
40
13.3730827
50
4.2314626
51
4.7943175
0
ARC
8
DEFAULT_255_2_778
10
8.0951979
20
103.6565159
40
3.6984547
50
4.7424853
51
5.8495395
0
ARC
8
DEFAULT_255_2_778
10
11.2862769
20
103.988618
40
0.4901722
50
5.2476265
51
9.5656621
0
ARC
8
DEFAULT_255_2_778
10
2.257729
20
105.0756136
40
0.196428
50
359.1132603
51
75.5455553
0
ARC
8
DEFAULT_255_2_778
10
2.1118686
20
104.7045981
40
0.5941018
50
70.8499705
51
85.8521433
0
ARC
8
DEFAULT_255_2_778
10
2.0556489
20
104.158219
40
1.143236
50
85.0225486
51
90.1767186
0
ARC
8
DEFAULT_255_2_778
10
2.0539243
20
103.68292
40
1.6185307
50
90.0637728
51
92.82489
0
ARC
8
DEFAULT_255_2_778
10
2.0723682
20
103.2831554
40
2.0187189
50
92.788549
51
94.4188025
0
LINE
8
DEFAULT_255_2_778
10
1.9168335
20
105.2958737
11
1.9168335
21
104.8494737
0
ARC
8
DEFAULT_255_2_778
10
2.0928177
20
106.7344969
40
1.8932202
50
264.6663738
51
267.0800222
0
ARC
8
DEFAULT_255_2_778
10
2.0712097
20
106.3057948
40
1.4639741
50
267.0699004
51
269.9349566
0
ARC
8
DEFAULT_255_2_778
10
2.0799578
20
105.7084599
40
0.8667008
50
269.3117999
51
280.4555514
0
ARC
8
DEFAULT_255_2_778
10
2.1780294
20
105.207527
40
0.3563311
50
279.5651047
51
302.7873478
0
ARC
8
DEFAULT_255_2_778
10
2.2659875
20
105.0643178
40
0.1883403
50
303.8843764
51
2.6037255
0
ARC
8
DEFAULT_255_2_778
10
1.9643979
20
103.2034674
40
1.2618896
50
90.0244407
51
91.7421914
0
ARC
8
DEFAULT_255_2_778
10
1.9751225
20
103.7269416
40
0.7385011
50
78.5627982
51
90.8738581
0
ARC
8
DEFAULT_255_2_778
10
2.0776739
20
104.1994185
40
0.2551624
50
50.3275501
51
80.0956798
0
ARC
8
DEFAULT_255_2_778
10
2.1455125
20
104.2911924
40
0.141359
50
31.8912933
51
47.7437538
0
ARC
8
DEFAULT_255_2_778
10
2.5120916
20
104.3860015
40
0.2891386
50
30.0235424
51
72.9780381
0
ARC
8
DEFAULT_255_2_778
10
2.4648154
20
105.2458504
40
0.598106
50
282.7419108
51
305.5275201
0
ARC
8
DEFAULT_255_2_778
10
2.5503182
20
105.1041339
40
0.4332748
50
307.2158384
51
357.0914687
0
ARC
8
DEFAULT_255_2_778
10
2.2793842
20
105.147901
40
0.7067161
50
354.6615315
51
0.0867504
0
ARC
8
DEFAULT_255_2_778
10
2.1891179
20
105.1489177
40
0.7969814
50
0.003833
51
1.1687369
0
ARC
8
DEFAULT_255_2_778
10
2.5359445
20
105.1617078
40
0.4500023
50
0.441294
51
64.4565969
0
ARC
8
DEFAULT_255_2_778
10
2.358763
20
104.8192007
40
0.8355209
50
63.6215734
51
79.8437985
0
ARC
8
DEFAULT_255_2_778
10
2.2217392
20
104.1121234
40
1.5557139
50
79.46828
51
88.7263315
0
ARC
8
DEFAULT_255_2_778
10
2.1919702
20
103.4679456
40
2.2004484
50
88.3242206
51
90.0178051
0
ARC
8
DEFAULT_255_2_778
10
2.1916662
20
103.2138856
40
2.4545083
50
90.0088651
51
91.1796705
0
LINE
8
DEFAULT_255_2_778
10
2.1411335
20
105.6678737
11
1.3876335
21
105.6678737
0
LINE
8
DEFAULT_255_2_778
10
13.9265335
20
105.6689737
11
13.9265335
21
105.6689737
0
LINE
8
DEFAULT_255_2_778
10
3.5447335
20
104.8672737
11
3.3072335
21
105.2278737
0
LINE
8
DEFAULT_255_2_778
10
3.3072335
20
105.2278737
11
3.9858335
21
105.6689737
0
LINE
8
DEFAULT_255_2_778
10
3.9858335
20
105.6689737
11
4.4557335
21
105.6689737
0
LINE
8
DEFAULT_255_2_778
10
4.4557335
20
105.6689737
11
4.4557335
21
103.6699737
0
LINE
8
DEFAULT_255_2_778
10
4.4557335
20
103.6699737
11
3.9231335
21
103.6699737
0
LINE
8
DEFAULT_255_2_778
10
3.9231335
20
103.6699737
11
3.9231335
21
105.1363737
0
LINE
8
DEFAULT_255_2_778
10
3.9231335
20
105.1363737
11
3.5447335
21
104.8672737
0
LINE
8
DEFAULT_255_2_778
10
9.8731335
20
105.6689737
11
9.8731335
21
105.2910737
0
LINE
8
DEFAULT_255_2_778
10
9.8731335
20
105.2910737
11
9.0682335
21
105.2910737
0
LINE
8
DEFAULT_255_2_778
10
9.0682335
20
105.2910737
11
9.0682335
21
104.8526737
0
LINE
8
DEFAULT_255_2_778
10
9.0682335
20
104.8526737
11
9.8384335
21
104.8526737
0
LINE
8
DEFAULT_255_2_778
10
9.8384335
20
104.8526737
11
9.8384335
21
104.4748737
0
LINE
8
DEFAULT_255_2_778
10
9.8384335
20
104.4748737
11
9.0682335
21
104.4748737
0
LINE
8
DEFAULT_255_2_778
10
9.0682335
20
104.4748737
11
9.0682335
21
103.6699737
0
LINE
8
DEFAULT_255_2_778
10
9.0682335
20
103.6699737
11
8.5356335
21
103.6699737
0
LINE
8
DEFAULT_255_2_778
10
8.5356335
20
103.6699737
11
8.5356335
21
105.6689737
0
LINE
8
DEFAULT_255_2_778
10
8.5356335
20
105.6689737
11
9.8731335
21
105.6689737
0
LINE
8
DEFAULT_255_2_778
10
8.1157335
20
105.6530737
11
8.0675335
21
105.3209737
0
LINE
8
DEFAULT_255_2_778
10
11.7527335
20
105.1122737
11
11.8024335
21
105.5421737
0
LINE
8
DEFAULT_255_2_778
10
11.7696335
20
104.0700737
11
11.7691335
21
104.0705737
0
LINE
8
DEFAULT_255_2_778
10
2.4541335
20
105.0728737
11
2.4541335
21
105.0725737
0
LINE
8
DEFAULT_255_2_778
10
1.3876335
20
105.6683737
11
1.3876335
21
103.6736737
0
LINE
8
DEFAULT_255_2_778
10
1.3876335
20
103.6736737
11
1.9260335
21
103.6736737
0
LINE
8
DEFAULT_255_2_778
10
1.9260335
20
103.6736737
11
1.9260335
21
104.4647737
0
LINE
8
DEFAULT_255_2_778
10
2.2655335
20
104.3658737
11
2.5221335
21
103.6816737
0
LINE
8
DEFAULT_255_2_778
10
2.5221335
20
103.6816737
11
3.0770335
21
103.6734737
0
LINE
8
DEFAULT_255_2_778
10
3.0770335
20
103.6734737
11
2.7624335
21
104.5306737
0
LINE
8
DEFAULT_255_2_778
10
1.3876335
20
105.6678737
11
1.3876335
21
105.6683737
0
ARC
8
DEFAULT_255_2_778
10
5.7431911
20
103.3855509
40
2.3312838
50
73.9839258
51
77.9218305
0
ARC
8
DEFAULT_255_2_778
10
5.8415109
20
103.8473623
40
1.8591226
50
77.9067652
51
82.6519681
0
ARC
8
DEFAULT_255_2_778
10
5.8902722
20
104.2291444
40
1.4742395
50
82.6337965
51
88.4201996
0
ARC
8
DEFAULT_255_2_778
10
5.897997
20
104.422151
40
1.2810956
50
88.5275725
51
89.9933609
0
ARC
8
DEFAULT_255_2_778
10
5.8878086
20
104.7071522
40
0.9961479
50
89.4054416
51
106.3193294
0
ARC
8
DEFAULT_255_2_778
10
5.8313535
20
104.925646
40
0.7706275
50
106.8557054
51
149.8288091
0
ARC
8
DEFAULT_255_2_778
10
6.2124065
20
104.6822383
40
1.222538
50
148.9420136
51
161.9785829
0
ARC
8
DEFAULT_255_2_778
10
6.7387347
20
104.5014094
40
1.7790119
50
161.6846609
51
168.1857204
0
ARC
8
DEFAULT_255_2_778
10
8.2584545
20
104.599716
40
3.2718708
50
175.3380188
51
177.239243
0
ARC
8
DEFAULT_255_2_778
10
7.8183568
20
104.6209258
40
2.8312621
50
177.2389926
51
179.2579106
0
ARC
8
DEFAULT_255_2_778
10
7.5593123
20
104.6252638
40
2.5721835
50
179.2797977
51
179.997081
0
ARC
8
DEFAULT_255_2_778
10
6.9654207
20
104.6145241
40
1.9783218
50
179.685164
51
187.9157324
0
ARC
8
DEFAULT_255_2_778
10
6.1852449
20
104.5016463
40
1.1900425
50
187.7058519
51
200.7501942
0
ARC
8
DEFAULT_255_2_778
10
5.7307049
20
104.3233453
40
0.7018388
50
200.285316
51
226.003193
0
ARC
8
DEFAULT_255_2_778
10
5.6783946
20
104.2939505
40
0.6445871
50
227.5333678
51
260.8859502
0
ARC
8
DEFAULT_255_2_778
10
5.752666
20
104.6486073
40
1.0066772
50
259.909457
51
270.3040804
0
ARC
8
DEFAULT_255_2_778
10
5.7157347
20
104.8502383
40
1.2090332
50
272.0037596
51
285.2654833
0
ARC
8
DEFAULT_255_2_778
10
5.8609571
20
104.3429411
40
0.6814308
50
284.7163257
51
311.5008074
0
ARC
8
DEFAULT_255_2_778
10
5.8875298
20
104.2839876
40
0.6199662
50
313.2720755
51
348.331928
0
ARC
8
DEFAULT_255_2_778
10
5.5179168
20
104.3810957
40
1.0017875
50
347.1679406
51
357.4453826
0
ARC
8
DEFAULT_255_2_778
10
5.6874488
20
104.2974071
40
0.832176
50
2.6887221
51
20.5600852
0
ARC
8
DEFAULT_255_2_778
10
5.9779861
20
104.4022987
40
0.5233219
50
20.9786683
51
80.0596977
0
ARC
8
DEFAULT_255_2_778
10
5.8752505
20
104.0654594
40
0.8738998
50
77.236222
51
82.4807337
0
ARC
8
DEFAULT_255_2_778
10
5.8833551
20
104.2866637
40
0.6538715
50
80.6480139
51
89.8260507
0
ARC
8
DEFAULT_255_2_778
10
5.8819149
20
104.43294
40
0.5076036
50
89.6133648
51
141.3825563
0
ARC
8
DEFAULT_255_2_778
10
6.3376404
20
104.7776352
40
0.852788
50
180.0108881
51
181.8742208
0
ARC
8
DEFAULT_255_2_778
10
6.0733421
20
104.7906149
40
0.5886363
50
156.0223047
51
181.2792813
0
ARC
8
DEFAULT_255_2_778
10
5.9700141
20
104.8186246
40
0.4831208
50
111.9208731
51
154.0772072
0
ARC
8
DEFAULT_255_2_778
10
6.1187437
20
104.5139756
40
0.8216262
50
103.7533111
51
113.611706
0
ARC
8
DEFAULT_255_2_778
10
6.076976
20
104.521459
40
0.8053621
50
92.5201904
51
100.9925371
0
ARC
8
DEFAULT_255_2_778
10
6.0672696
20
104.67871
40
0.6478423
50
90.0153136
51
92.2741067
0
ARC
8
DEFAULT_255_2_778
10
6.0773583
20
104.8712575
40
0.4554102
50
63.5307291
51
91.2911685
0
ARC
8
DEFAULT_255_2_778
10
6.1068828
20
104.9458421
40
0.3755464
50
48.9706479
51
62.4910701
0
ARC
8
DEFAULT_255_2_778
10
25.3059755
20
103.8785565
40
19.0006283
50
175.2735866
51
175.9239087
0
ARC
8
DEFAULT_255_2_778
10
17.8611774
20
104.4965202
40
11.5302275
50
174.3781745
51
175.2856428
0
ARC
8
DEFAULT_255_2_778
10
5.7967449
20
104.3105305
40
0.303319
50
122.0054509
51
181.3386596
0
ARC
8
DEFAULT_255_2_778
10
5.7581843
20
104.3601833
40
0.240861
50
90.0417945
51
120.4868311
0
ARC
8
DEFAULT_255_2_778
10
5.7447114
20
104.3255279
40
0.2758371
50
4.9020354
51
87.2368836
0
ARC
8
DEFAULT_255_2_778
10
5.6835018
20
104.3035791
40
0.3391069
50
359.977225
51
7.7143311
0
ARC
8
DEFAULT_255_2_778
10
5.7193315
20
104.2963064
40
0.3033611
50
302.0019744
51
1.3482641
0
ARC
8
DEFAULT_255_2_778
10
5.7578469
20
104.246778
40
0.2410337
50
270.0384466
51
300.476966
0
ARC
8
DEFAULT_255_2_778
10
5.7712733
20
104.281022
40
0.275597
50
185.1786896
51
267.2412581
0
ARC
8
DEFAULT_255_2_778
10
5.8328047
20
104.3033001
40
0.339296
50
179.9756424
51
187.988618
0
ARC
8
DEFAULT_255_2_778
10
12.8522855
20
105.0164004
40
0.258239
50
357.6572626
51
75.8006732
0
ARC
8
DEFAULT_255_2_778
10
12.6965971
20
104.5967755
40
0.7048696
50
71.8959807
51
86.9304058
0
ARC
8
DEFAULT_255_2_778
10
12.6494534
20
104.0648908
40
1.2386553
50
86.0702702
51
90.0992087
0
LINE
8
DEFAULT_255_2_778
10
12.6473086
20
105.3035444
11
12.6473086
21
104.7413444
0
ARC
8
DEFAULT_255_2_778
10
12.6592506
20
105.8495145
40
1.1082345
50
269.3825898
51
279.6182292
0
ARC
8
DEFAULT_255_2_778
10
12.7738389
20
105.2121511
40
0.4607305
50
278.8116998
51
299.7575063
0
ARC
8
DEFAULT_255_2_778
10
12.8970734
20
104.9976965
40
0.2133909
50
299.6115108
51
2.1882394
0
ARC
8
DEFAULT_255_2_778
10
12.809791
20
106.8482683
40
2.5090904
50
266.2870716
51
268.0555813
0
ARC
8
DEFAULT_255_2_778
10
12.7996702
20
106.5484366
40
2.2090881
50
268.0540699
51
269.9792826
0
ARC
8
DEFAULT_255_2_778
10
12.8099738
20
105.9347342
40
1.5954243
50
269.6012802
51
279.1373726
0
ARC
8
DEFAULT_255_2_778
10
12.9219796
20
105.2669867
40
0.9183746
50
278.8538321
51
294.6927959
0
ARC
8
DEFAULT_255_2_778
10
13.076846
20
104.9391813
40
0.5558605
50
294.3048281
51
352.352354
0
ARC
8
DEFAULT_255_2_778
10
12.7119032
20
105.0187819
40
0.9286457
50
350.4809772
51
0.2831657
0
ARC
8
DEFAULT_255_2_778
10
12.4695419
20
105.022958
40
1.1709959
50
0.0202262
51
2.364581
0
ARC
8
DEFAULT_255_2_778
10
12.858478
20
105.0395433
40
0.7817066
50
2.326144
51
2.3828776
0
ARC
8
DEFAULT_255_2_778
10
13.0648657
20
105.085333
40
0.5747965
50
358.6752669
51
25.932835
0
ARC
8
DEFAULT_255_2_778
10
13.1326358
20
105.0985618
40
0.5083748
50
27.9326435
51
65.4335226
0
ARC
8
DEFAULT_255_2_778
10
12.9365094
20
104.7069899
40
0.9461689
50
64.4901779
51
79.2897675
0
ARC
8
DEFAULT_255_2_778
10
12.7868799
20
103.9603138
40
1.707665
50
79.0126605
51
88.0406024
0
ARC
8
DEFAULT_255_2_778
10
12.7455914
20
103.2095455
40
2.4594555
50
87.6773047
51
90.0342922
0
ARC
8
DEFAULT_255_2_778
10
12.7444463
20
102.8747631
40
2.7942375
50
90.0067023
51
90.9865674
0
ARC
8
DEFAULT_255_2_778
10
12.7483229
20
102.648669
40
3.020365
50
90.9862487
51
91.9165801
0
LINE
8
DEFAULT_255_2_778
10
12.6473086
20
105.6673444
11
12.1181086
21
105.6673444
0
LINE
8
DEFAULT_255_2_778
10
6.3864086
20
105.6260444
11
6.3864086
21
105.6263444
0
LINE
8
DEFAULT_255_2_778
10
5.4935086
20
104.3034444
11
5.4935086
21
104.3034444
0
LINE
8
DEFAULT_255_2_778
10
13.1103086
20
105.0058444
11
13.1103086
21
105.0058444
0
LINE
8
DEFAULT_255_2_778
10
12.1181086
20
105.6673444
11
12.1181086
21
103.6829444
0
LINE
8
DEFAULT_255_2_778
10
12.1181086
20
103.6829444
11
12.6473086
21
103.6829444
0
LINE
8
DEFAULT_255_2_778
10
12.6473086
20
103.6829444
11
12.6473086
21
104.3444444
0
LINE
8
DEFAULT_255_2_778
10
12.1181086
20
105.6673444
11
12.1181086
21
105.6673444
0
ARC
8
DEFAULT_255_2_778
10
12.9586694
20
96.8744617
40
0.2016552
50
358.2484162
51
78.6940079
0
ARC
8
DEFAULT_255_2_778
10
12.8269912
20
96.4854913
40
0.6111833
50
73.7318785
51
88.3657685
0
ARC
8
DEFAULT_255_2_778
10
12.7978868
20
96.0585501
40
1.0389186
50
87.4327777
51
90.0439333
0
ARC
8
DEFAULT_255_2_778
10
12.7989022
20
95.768861
40
1.3286087
50
90.0781459
51
93.2805878
0
ARC
8
DEFAULT_255_2_778
10
12.8162581
20
95.4403409
40
1.6575843
50
93.2296924
51
94.8875803
0
LINE
8
DEFAULT_255_2_778
10
12.6750303
20
97.0918979
11
12.6750303
21
96.6449979
0
ARC
8
DEFAULT_255_2_778
10
12.8318868
20
98.1581341
40
1.5212446
50
264.0816795
51
267.1174608
0
ARC
8
DEFAULT_255_2_778
10
12.8140092
20
97.8115364
40
1.1741865
50
267.1382017
51
269.9438364
0
ARC
8
DEFAULT_255_2_778
10
12.8232109
20
97.3295656
40
0.6922924
50
269.14315
51
282.4018502
0
ARC
8
DEFAULT_255_2_778
10
12.9185629
20
96.9241683
40
0.2759431
50
281.1432509
51
311.7429092
0
ARC
8
DEFAULT_255_2_778
10
12.961361
20
96.85893
40
0.1991042
50
315.0545409
51
2.7831975
0
ARC
8
DEFAULT_255_2_778
10
12.7181119
20
95.2342485
40
1.0264321
50
90.026755
51
91.9307184
0
ARC
8
DEFAULT_255_2_778
10
12.7288515
20
95.6745281
40
0.5862598
50
76.3567596
51
91.0965011
0
ARC
8
DEFAULT_255_2_778
10
12.8290416
20
96.0540223
40
0.1940001
50
36.9215531
51
78.6757136
0
ARC
8
DEFAULT_255_2_778
10
12.8702201
20
96.0943232
40
0.1370743
50
29.1529049
51
33.7925588
0
ARC
8
DEFAULT_255_2_778
10
13.1981431
20
96.2048277
40
0.2691108
50
26.8081486
51
70.3065046
0
ARC
8
DEFAULT_255_2_778
10
13.170843
20
96.937295
40
0.4934117
50
283.834931
51
313.6633843
0
ARC
8
DEFAULT_255_2_778
10
13.1900335
20
96.889642
40
0.4460953
50
316.1067759
51
354.0987063
0
ARC
8
DEFAULT_255_2_778
10
12.8966253
20
96.9427851
40
0.7437587
50
352.3501417
51
0.1924094
0
ARC
8
DEFAULT_255_2_778
10
12.7546644
20
96.9452195
40
0.8857155
50
0.0040927
51
1.0530867
0
ARC
8
DEFAULT_255_2_778
10
13.1198991
20
96.9499797
40
0.5204587
50
1.2681084
51
30.0701695
0
ARC
8
DEFAULT_255_2_778
10
13.1746137
20
96.9601976
40
0.4683566
50
32.3428157
51
70.1821176
0
ARC
8
DEFAULT_255_2_778
10
13.0090732
20
96.5496549
40
0.9108587
50
69.1410522
51
84.0639946
0
ARC
8
DEFAULT_255_2_778
10
12.9282148
20
95.9099494
40
1.5555616
50
83.5384563
51
90.2224531
0
ARC
8
DEFAULT_255_2_778
10
12.9225147
20
95.4661218
40
1.9993777
50
90.0097239
51
91.283483
0
LINE
8
DEFAULT_255_2_778
10
12.8777303
20
97.4649979
11
12.1974303
21
97.4649979
0
ARC
8
DEFAULT_255_2_778
10
14.870853
20
96.8733733
40
0.2003417
50
358.5483203
51
77.7370529
0
ARC
8
DEFAULT_255_2_778
10
14.7338822
20
96.487513
40
0.6087059
50
72.8469116
51
87.6298045
0
ARC
8
DEFAULT_255_2_778
10
14.6973985
20
96.0234637
40
1.0740057
50
86.7089131
51
90.0737926
0
ARC
8
DEFAULT_255_2_778
10
14.6978617
20
95.6811044
40
1.4163652
50
90.0746948
51
93.1573606
0
ARC
8
DEFAULT_255_2_778
10
14.7156684
20
95.3314911
40
1.7664291
50
93.1094693
51
94.7325295
0
LINE
8
DEFAULT_255_2_778
10
14.5699303
20
97.0918979
11
14.5699303
21
96.6449979
0
ARC
8
DEFAULT_255_2_778
10
14.7319186
20
98.2592363
40
1.6223458
50
264.2695724
51
267.2094745
0
ARC
8
DEFAULT_255_2_778
10
14.7134912
20
97.8901673
40
1.2528174
50
267.2294872
51
269.9456708
0
ARC
8
DEFAULT_255_2_778
10
14.7225966
20
97.3820945
40
0.7448151
50
269.2081413
51
281.6872345
0
ARC
8
DEFAULT_255_2_778
10
14.8186012
20
96.9473842
40
0.2997289
50
280.5487421
51
308.4436518
0
ARC
8
DEFAULT_255_2_778
10
14.8769192
20
96.8589766
40
0.1944494
50
311.1823972
51
2.8361286
0
ARC
8
DEFAULT_255_2_778
10
14.6141618
20
95.1648798
40
1.0958008
50
90.0258663
51
91.8686112
0
ARC
8
DEFAULT_255_2_778
10
14.6248883
20
95.6295556
40
0.6312247
50
77.1091913
51
91.0185954
0
ARC
8
DEFAULT_255_2_778
10
14.7256583
20
96.0366772
40
0.212012
50
42.1640503
51
79.1105052
0
ARC
8
DEFAULT_255_2_778
10
14.7762128
20
96.0923904
40
0.1373393
50
30.0182066
51
39.0916498
0
ARC
8
DEFAULT_255_2_778
10
15.1156122
20
96.1984079
40
0.274392
50
27.7568731
51
71.2240307
0
ARC
8
DEFAULT_255_2_778
10
15.0811292
20
96.9690978
40
0.5254511
50
283.5153663
51
310.3965296
0
ARC
8
DEFAULT_255_2_778
10
15.124957
20
96.8912598
40
0.4381004
50
312.6290878
51
354.5635539
0
ARC
8
DEFAULT_255_2_778
10
14.8403976
20
96.9429706
40
0.7266927
50
352.6300361
51
0.1734357
0
ARC
8
DEFAULT_255_2_778
10
14.7102314
20
96.9451061
40
0.8568556
50
0.0042889
51
1.0961427
0
ARC
8
DEFAULT_255_2_778
10
15.0646965
20
96.9506356
40
0.5023512
50
1.2389968
51
32.4885761
0
ARC
8
DEFAULT_255_2_778
10
15.0945046
20
96.9463407
40
0.4799169
50
34.8332195
51
69.6636825
0
ARC
8
DEFAULT_255_2_778
10
14.9253803
20
96.5328735
40
0.9265077
50
68.7428218
51
83.3732068
0
ARC
8
DEFAULT_255_2_778
10
14.8328646
20
95.8459782
40
1.6195396
50
82.9264227
51
90.2730824
0
ARC
8
DEFAULT_255_2_778
10
14.825496
20
95.3316898
40
2.1338096
50
90.0094084
51
91.242394
0
LINE
8
DEFAULT_255_2_778
10
14.7792303
20
97.4649979
11
14.0765303
21
97.4649979
0
ARC
8
DEFAULT_255_2_778
10
15.6469357
20
96.4875598
40
1.9340341
50
359.633777
51
8.8121907
0
ARC
8
DEFAULT_255_2_778
10
16.4268892
20
96.6134746
40
1.1440083
50
8.564645
51
23.4857433
0
ARC
8
DEFAULT_255_2_778
10
16.8478564
20
96.8062986
40
0.6811305
50
22.7214084
51
78.8822382
0
ARC
8
DEFAULT_255_2_778
10
16.7431501
20
96.3855873
40
1.1143461
50
77.7706927
51
90.4586291
0
ARC
8
DEFAULT_255_2_778
10
16.7213237
20
96.2589915
40
1.2409735
50
89.4040896
51
103.258232
0
ARC
8
DEFAULT_255_2_778
10
16.5972142
20
96.7543634
40
0.7303773
50
102.6939682
51
132.5849593
0
ARC
8
DEFAULT_255_2_778
10
16.6178181
20
96.7624599
40
0.7386471
50
134.1868725
51
162.9365252
0
ARC
8
DEFAULT_255_2_778
10
17.106772
20
96.6002855
40
1.2537177
50
162.4081589
51
176.125055
0
ARC
8
DEFAULT_255_2_778
10
17.7006169
20
96.543866
40
1.8500885
50
175.6246138
51
180.0857256
0
ARC
8
DEFAULT_255_2_778
10
18.0401041
20
96.5288727
40
2.1896079
50
179.6801001
51
188.0561369
0
ARC
8
DEFAULT_255_2_778
10
17.1809611
20
96.4024155
40
1.32123
50
187.8477154
51
201.0953516
0
ARC
8
DEFAULT_255_2_778
10
16.6834126
20
96.2034466
40
0.7854401
50
200.6170794
51
227.2990344
0
ARC
8
DEFAULT_255_2_778
10
16.6403013
20
96.1860408
40
0.7436775
50
228.8307344
51
260.5035787
0
ARC
8
DEFAULT_255_2_778
10
16.7275895
20
96.5987667
40
1.1652877
50
259.6186036
51
270.3265239
0
ARC
8
DEFAULT_255_2_778
10
16.7473492
20
96.476062
40
1.0426467
50
269.2790693
51
285.8437846
0
ARC
8
DEFAULT_255_2_778
10
16.8418081
20
96.1345238
40
0.6882991
50
286.0414753
51
341.3039943
0
ARC
8
DEFAULT_255_2_778
10
16.2995435
20
96.3580566
40
1.2741669
50
339.5987526
51
353.0138766
0
ARC
8
DEFAULT_255_2_778
10
15.510326
20
96.4655385
40
2.0706256
50
352.7180128
51
0.2589828
0
ARC
8
DEFAULT_255_2_778
10
16.7183561
20
96.9164502
40
0.2199634
50
90.6839771
51
156.0402572
0
ARC
8
DEFAULT_255_2_778
10
17.0775861
20
96.7125736
40
0.6323259
50
152.3745892
51
168.132524
0
ARC
8
DEFAULT_255_2_778
10
17.8735055
20
96.5319556
40
1.4484359
50
167.6152038
51
176.094746
0
ARC
8
DEFAULT_255_2_778
10
19.1093264
20
96.4337915
40
2.6881082
50
175.8012774
51
180.1725111
0
ARC
8
DEFAULT_255_2_778
10
18.4720161
20
96.4139167
40
2.0508196
50
179.6708547
51
186.0914183
0
ARC
8
DEFAULT_255_2_778
10
17.413215
20
96.2958689
40
0.985483
50
185.7991819
51
196.7156046
0
ARC
8
DEFAULT_255_2_778
10
16.8542788
20
96.1211521
40
0.3999668
50
195.7741114
51
218.9705335
0
ARC
8
DEFAULT_255_2_778
10
16.6973333
20
95.99705
40
0.1999084
50
219.6070107
51
271.0648185
0
ARC
8
DEFAULT_255_2_778
10
16.7009488
20
96.0564994
40
0.2593231
50
270.0219785
51
273.2676472
0
ARC
8
DEFAULT_255_2_778
10
16.7154586
20
96.030276
40
0.2326783
50
270.0669133
51
338.4902037
0
ARC
8
DEFAULT_255_2_778
10
16.3372751
20
96.2261227
40
0.657775
50
334.6946781
51
350.2022196
0
ARC
8
DEFAULT_255_2_778
10
15.5414832
20
96.3765239
40
1.4676096
50
349.7030239
51
358.0820222
0
ARC
8
DEFAULT_255_2_778
10
14.6449954
20
96.4236907
40
2.3652359
50
357.6669134
51
0.0486225
0
ARC
8
DEFAULT_255_2_778
10
13.9815784
20
96.505162
40
3.0296942
50
358.4970499
51
359.5987687
0
ARC
8
DEFAULT_255_2_778
10
14.2284142
20
96.5029076
40
2.7828486
50
359.6095935
51
359.9979569
0
ARC
8
DEFAULT_255_2_778
10
15.0308459
20
96.514453
40
1.9804511
50
359.6631125
51
6.3090613
0
ARC
8
DEFAULT_255_2_778
10
16.0440188
20
96.631586
40
0.9605558
50
6.0057739
51
17.3518259
0
ARC
8
DEFAULT_255_2_778
10
16.5770447
20
96.8046284
40
0.4002275
50
16.4644036
51
40.1017832
0
ARC
8
DEFAULT_255_2_778
10
16.7206115
20
96.9209204
40
0.2155327
50
41.0392159
51
91.297686
0
ARC
8
DEFAULT_255_2_778
10
18.5862649
20
96.8758165
40
0.2016249
50
357.7207599
51
78.5883695
0
ARC
8
DEFAULT_255_2_778
10
18.4620771
20
96.5002911
40
0.5961877
50
74.0250968
51
89.0348424
0
ARC
8
DEFAULT_255_2_778
10
18.4384077
20
96.1072098
40
0.9897588
50
88.0480923
51
90.0243482
0
ARC
8
DEFAULT_255_2_778
10
18.4397343
20
95.8644408
40
1.2325289
50
90.0812176
51
93.4060917
0
ARC
8
DEFAULT_255_2_778
10
18.4564938
20
95.5589585
40
1.5384679
50
93.3532273
51
95.0739204
0
LINE
8
DEFAULT_255_2_778
10
18.3204303
20
97.0913979
11
18.3204303
21
96.6444979
0
ARC
8
DEFAULT_255_2_778
10
18.4705813
20
98.0375263
40
1.4010973
50
263.8479867
51
267.1908803
0
ARC
8
DEFAULT_255_2_778
10
18.4541282
20
97.7170568
40
1.0802068
50
267.2294688
51
269.949359
0
ARC
8
DEFAULT_255_2_778
10
18.4635114
20
97.273931
40
0.6371644
50
269.0703392
51
283.2191668
0
ARC
8
DEFAULT_255_2_778
10
18.558216
20
96.8992118
40
0.2508019
50
281.7327768
51
316.5423776
0
ARC
8
DEFAULT_255_2_778
10
18.5809075
20
96.8588611
40
0.2070291
50
320.3317459
51
2.5571541
0
ARC
8
DEFAULT_255_2_778
10
18.3616842
20
95.3062103
40
0.953871
50
90.0281794
51
92.0038615
0
ARC
8
DEFAULT_255_2_778
10
18.3723665
20
95.7199622
40
0.540234
50
75.5154282
51
91.1827721
0
ARC
8
DEFAULT_255_2_778
10
18.4706138
20
96.0684021
40
0.1784739
50
31.1030145
51
78.075862
0
ARC
8
DEFAULT_255_2_778
10
18.8185511
20
96.2120478
40
0.2625517
50
25.6496676
51
69.3294382
0
ARC
8
DEFAULT_255_2_778
10
18.7985624
20
96.9033196
40
0.4596442
50
284.1889219
51
318.3306425
0
ARC
8
DEFAULT_255_2_778
10
18.7824665
20
96.8901117
40
0.4633433
50
320.8747684
51
354.215489
0
ARC
8
DEFAULT_255_2_778
10
18.4784106
20
96.9420352
40
0.7713706
50
352.6544106
51
0.1850871
0
ARC
8
DEFAULT_255_2_778
10
18.3296829
20
96.9444512
40
0.9200944
50
0.0047196
51
1.0242151
0
ARC
8
DEFAULT_255_2_778
10
18.7102143
20
96.9494294
40
0.5395379
50
1.2179794
51
28.2175754
0
ARC
8
DEFAULT_255_2_778
10
18.7902175
20
96.9727719
40
0.4583307
50
30.3755883
51
70.862186
0
ARC
8
DEFAULT_255_2_778
10
18.6307566
20
96.5668158
40
0.8943011
50
69.7371741
51
84.9147096
0
ARC
8
DEFAULT_255_2_778
10
18.562824
20
95.9801469
40
1.4847647
50
84.310249
51
90.1677294
0
ARC
8
DEFAULT_255_2_778
10
18.5587995
20
95.6112947
40
1.8536107
50
90.0099545
51
91.3406794
0
LINE
8
DEFAULT_255_2_778
10
18.5154303
20
97.4643979
11
17.8603303
21
97.4643979
0
LINE
8
DEFAULT_255_2_778
10
11.7315303
20
95.7827979
11
11.7315303
21
95.4681979
0
LINE
8
DEFAULT_255_2_778
10
11.7315303
20
95.4681979
11
10.3464303
21
95.4681979
0
LINE
8
DEFAULT_255_2_778
10
10.3464303
20
95.4681979
11
10.3464303
21
97.4654979
0
LINE
8
DEFAULT_255_2_778
10
10.3464303
20
97.4654979
11
11.7249303
21
97.4654979
0
LINE
8
DEFAULT_255_2_778
10
11.7249303
20
97.4654979
11
11.7249303
21
97.1508979
0
LINE
8
DEFAULT_255_2_778
10
11.7249303
20
97.1508979
11
10.8147303
21
97.1508979
0
LINE
8
DEFAULT_255_2_778
10
10.8147303
20
97.1508979
11
10.8147303
21
96.6584979
0
LINE
8
DEFAULT_255_2_778
10
10.8147303
20
96.6584979
11
11.6474303
21
96.6584979
0
LINE
8
DEFAULT_255_2_778
10
11.6474303
20
96.6584979
11
11.6474303
21
96.3438979
0
LINE
8
DEFAULT_255_2_778
10
11.6474303
20
96.3438979
11
10.8147303
21
96.3438979
0
LINE
8
DEFAULT_255_2_778
10
10.8147303
20
96.3438979
11
10.8147303
21
95.7827979
0
LINE
8
DEFAULT_255_2_778
10
10.8147303
20
95.7827979
11
11.7315303
21
95.7827979
0
LINE
8
DEFAULT_255_2_778
10
13.1602303
20
96.8685979
11
13.1602303
21
96.8682979
0
LINE
8
DEFAULT_255_2_778
10
12.1974303
20
97.4649979
11
12.1974303
21
95.4678979
0
LINE
8
DEFAULT_255_2_778
10
12.1974303
20
95.4678979
11
12.6835303
21
95.4678979
0
LINE
8
DEFAULT_255_2_778
10
12.6835303
20
95.4678979
11
12.6835303
21
96.2600979
0
LINE
8
DEFAULT_255_2_778
10
12.9899303
20
96.1610979
11
13.2216303
21
95.4760979
0
LINE
8
DEFAULT_255_2_778
10
13.2216303
20
95.4760979
11
13.7225303
21
95.4678979
0
LINE
8
DEFAULT_255_2_778
10
13.7225303
20
95.4678979
11
13.4383303
21
96.3261979
0
LINE
8
DEFAULT_255_2_778
10
12.1974303
20
97.4649979
11
12.1974303
21
97.4649979
0
LINE
8
DEFAULT_255_2_778
10
15.0711303
20
96.8685979
11
15.0711303
21
96.8682979
0
LINE
8
DEFAULT_255_2_778
10
14.0765303
20
97.4649979
11
14.0765303
21
95.4678979
0
LINE
8
DEFAULT_255_2_778
10
14.0765303
20
95.4678979
11
14.5784303
21
95.4678979
0
LINE
8
DEFAULT_255_2_778
10
14.5784303
20
95.4678979
11
14.5784303
21
96.2600979
0
LINE
8
DEFAULT_255_2_778
10
14.8951303
20
96.1610979
11
15.1346303
21
95.4760979
0
LINE
8
DEFAULT_255_2_778
10
15.1346303
20
95.4760979
11
15.6518303
21
95.4678979
0
LINE
8
DEFAULT_255_2_778
10
15.6518303
20
95.4678979
11
15.3584303
21
96.3261979
0
LINE
8
DEFAULT_255_2_778
10
14.0765303
20
97.4649979
11
14.0765303
21
97.4649979
0
LINE
8
DEFAULT_255_2_778
10
17.5809303
20
96.4748979
11
17.5809303
21
96.4751979
0
LINE
8
DEFAULT_255_2_778
10
16.7157303
20
97.1363979
11
16.7157303
21
97.1363979
0
LINE
8
DEFAULT_255_2_778
10
18.7877303
20
96.8680979
11
18.7877303
21
96.8677979
0
LINE
8
DEFAULT_255_2_778
10
17.8606303
20
97.4643979
11
17.8606303
21
95.4673979
0
LINE
8
DEFAULT_255_2_778
10
17.8606303
20
95.4673979
11
18.3283303
21
95.4673979
0
LINE
8
DEFAULT_255_2_778
10
18.3283303
20
95.4673979
11
18.3283303
21
96.2594979
0
LINE
8
DEFAULT_255_2_778
10
18.6234303
20
96.1605979
11
18.8464303
21
95.4755979
0
LINE
8
DEFAULT_255_2_778
10
18.8464303
20
95.4755979
11
19.3287303
21
95.4673979
0
LINE
8
DEFAULT_255_2_778
10
19.3287303
20
95.4673979
11
19.0552303
21
96.3256979
0
LINE
8
DEFAULT_255_2_778
10
17.8603303
20
97.4643979
11
17.8606303
21
97.4643979
0
LINE
8
DEFAULT_255_2_778
10
13.3190594
20
98.7839635
11
13.3190594
21
98.4691635
0
LINE
8
DEFAULT_255_2_778
10
13.3190594
20
98.4691635
11
12.1609594
21
98.4691635
0
LINE
8
DEFAULT_255_2_778
10
12.1609594
20
98.4691635
11
12.1609594
21
100.4680635
0
LINE
8
DEFAULT_255_2_778
10
12.1609594
20
100.4680635
11
13.3137594
21
100.4680635
0
LINE
8
DEFAULT_255_2_778
10
13.3137594
20
100.4680635
11
13.3137594
21
100.1531635
0
LINE
8
DEFAULT_255_2_778
10
13.3137594
20
100.1531635
11
12.5527594
21
100.1531635
0
LINE
8
DEFAULT_255_2_778
10
12.5527594
20
100.1531635
11
12.5527594
21
99.6605635
0
LINE
8
DEFAULT_255_2_778
10
12.5527594
20
99.6605635
11
13.2491594
21
99.6605635
0
LINE
8
DEFAULT_255_2_778
10
13.2491594
20
99.6605635
11
13.2491594
21
99.3456635
0
LINE
8
DEFAULT_255_2_778
10
13.2491594
20
99.3456635
11
12.5527594
21
99.3456635
0
LINE
8
DEFAULT_255_2_778
10
12.5527594
20
99.3456635
11
12.5527594
21
98.7842635
0
LINE
8
DEFAULT_255_2_778
10
12.5527594
20
98.7842635
11
13.3190594
21
98.7842635
0
LINE
8
DEFAULT_255_2_778
10
19.5070709
20
100.4677635
11
18.8074709
21
99.2591635
0
LINE
8
DEFAULT_255_2_778
10
18.8074709
20
99.2591635
11
18.8074709
21
98.4688635
0
LINE
8
DEFAULT_255_2_778
10
18.8074709
20
98.4688635
11
18.4156709
21
98.4688635
0
LINE
8
DEFAULT_255_2_778
10
18.4156709
20
98.4688635
11
18.4156709
21
99.2591635
0
LINE
8
DEFAULT_255_2_778
10
18.4156709
20
99.2591635
11
17.7025709
21
100.4677635
0
LINE
8
DEFAULT_255_2_778
10
17.7025709
20
100.4677635
11
18.1610709
21
100.4677635
0
LINE
8
DEFAULT_255_2_778
10
18.1610709
20
100.4677635
11
18.6232709
21
99.6287635
0
LINE
8
DEFAULT_255_2_778
10
18.6232709
20
99.6287635
11
19.0931709
21
100.4677635
0
LINE
8
DEFAULT_255_2_778
10
19.0931709
20
100.4677635
11
19.5070709
21
100.4677635
0
ARC
8
DEFAULT_255_2_778
10
11.0679013
20
99.8788628
40
0.2013274
50
357.5857202
51
78.3103407
0
ARC
8
DEFAULT_255_2_778
10
10.9458207
20
99.5113771
40
0.5876585
50
73.9096052
51
89.0257643
0
ARC
8
DEFAULT_255_2_778
10
10.9223653
20
99.1245633
40
0.9749611
50
88.0340143
51
90.0251839
0
ARC
8
DEFAULT_255_2_778
10
10.9236944
20
98.8841022
40
1.2154236
50
90.0828525
51
93.4520009
0
ARC
8
DEFAULT_255_2_778
10
10.940583
20
98.5804727
40
1.5195197
50
93.3982981
51
95.1399919
0
LINE
8
DEFAULT_255_2_778
10
10.80445
20
100.093882
11
10.80445
21
99.646782
0
ARC
8
DEFAULT_255_2_778
10
10.9537413
20
101.0238228
40
1.3851099
50
263.8124703
51
267.1745359
0
ARC
8
DEFAULT_255_2_778
10
10.9373754
20
100.7069012
40
1.0677671
50
267.2133711
51
269.9490629
0
ARC
8
DEFAULT_255_2_778
10
10.9468322
20
100.2670943
40
0.6280458
50
269.0506285
51
283.4126035
0
ARC
8
DEFAULT_255_2_778
10
11.0416867
20
99.8974408
40
0.2465584
50
281.8968828
51
317.519878
0
ARC
8
DEFAULT_255_2_778
10
11.0605379
20
99.8612951
40
0.2087101
50
321.3459918
51
2.495346
0
ARC
8
DEFAULT_255_2_778
10
10.8455213
20
98.3189012
40
0.943464
50
90.0283542
51
92.0148785
0
ARC
8
DEFAULT_255_2_778
10
10.8561426
20
98.7281644
40
0.5343158
50
75.4350282
51
91.1890997
0
ARC
8
DEFAULT_255_2_778
10
10.9535295
20
99.0718361
40
0.177371
50
30.8843956
51
77.9655938
0
ARC
8
DEFAULT_255_2_778
10
11.299394
20
99.2160275
40
0.2613447
50
25.4132378
51
69.1646565
0
ARC
8
DEFAULT_255_2_778
10
11.2809509
20
99.9002285
40
0.4538312
50
284.209238
51
319.3779995
0
ARC
8
DEFAULT_255_2_778
10
11.2563726
20
99.8938651
40
0.4688068
50
321.9248648
51
354.3755167
0
ARC
8
DEFAULT_255_2_778
10
10.9494805
20
99.9450814
40
0.779521
50
352.8397548
51
0.1776815
0
ARC
8
DEFAULT_255_2_778
10
10.8012475
20
99.9474222
40
0.9277503
50
0.0047322
51
1.0227489
0
ARC
8
DEFAULT_255_2_778
10
11.1865661
20
99.9524482
40
0.5424065
50
1.2184376
51
28.0799243
0
ARC
8
DEFAULT_255_2_778
10
11.2691395
20
99.9768415
40
0.458399
50
30.2484719
51
71.2062362
0
ARC
8
DEFAULT_255_2_778
10
11.1103512
20
99.5673737
40
0.8973802
50
70.0308966
51
85.1124259
0
ARC
8
DEFAULT_255_2_778
10
11.0452201
20
98.9903214
40
1.4779671
50
84.5026587
51
90.1561758
0
ARC
8
DEFAULT_255_2_778
10
11.041525
20
98.6350111
40
1.8332722
50
90.010421
51
91.3401053
0
LINE
8
DEFAULT_255_2_778
10
10.99865
20
100.467782
11
10.34725
21
100.467782
0
LINE
8
DEFAULT_255_2_778
10
11.26905
20
99.870382
11
11.26905
21
99.870382
0
LINE
8
DEFAULT_255_2_778
10
10.34695
20
100.467482
11
10.34695
21
98.469082
0
LINE
8
DEFAULT_255_2_778
10
10.34695
20
98.469082
11
10.81235
21
98.469082
0
LINE
8
DEFAULT_255_2_778
10
10.81235
20
98.469082
11
10.81235
21
99.261782
0
LINE
8
DEFAULT_255_2_778
10
11.10575
20
99.162882
11
11.32775
21
98.477582
0
LINE
8
DEFAULT_255_2_778
10
11.32775
20
98.477582
11
11.80745
21
98.469382
0
LINE
8
DEFAULT_255_2_778
10
11.80745
20
98.469382
11
11.53545
21
99.328182
0
LINE
8
DEFAULT_255_2_778
10
10.34725
20
100.467782
11
10.34695
21
100.467482
0
LINE
8
DEFAULT_255_2_778
10
13.6174886
20
98.4688635
11
14.3783886
21
100.4677635
0
LINE
8
DEFAULT_255_2_778
10
14.3783886
20
100.4677635
11
14.8205886
21
100.4677635
0
LINE
8
DEFAULT_255_2_778
10
14.8205886
20
100.4677635
11
15.5872886
21
98.4688635
0
LINE
8
DEFAULT_255_2_778
10
15.5872886
20
98.4688635
11
15.1536886
21
98.4688635
0
LINE
8
DEFAULT_255_2_778
10
15.1536886
20
98.4688635
11
14.9856886
21
98.9270635
0
LINE
8
DEFAULT_255_2_778
10
14.9856886
20
98.9270635
11
14.1942886
21
98.9270635
0
LINE
8
DEFAULT_255_2_778
10
14.1942886
20
98.9270635
11
14.0235886
21
98.4688635
0
LINE
8
DEFAULT_255_2_778
10
14.0235886
20
98.4688635
11
13.6174886
21
98.4688635
0
LINE
8
DEFAULT_255_2_778
10
14.5884886
20
100.0666635
11
14.3059886
21
99.2419635
0
LINE
8
DEFAULT_255_2_778
10
14.3059886
20
99.2419635
11
14.8766886
21
99.2419635
0
LINE
8
DEFAULT_255_2_778
10
14.8766886
20
99.2419635
11
14.5934886
21
100.0666635
0
LINE
8
DEFAULT_255_2_778
10
14.5934886
20
100.0666635
11
14.5884886
21
100.0666635
0
LINE
8
DEFAULT_255_2_778
10
15.91875
20
98.4852614
11
16.57415
21
98.4852614
0
ARC
8
DEFAULT_255_2_778
10
16.5869926
20
100.1256615
40
1.6404504
50
269.5514436
51
280.6040906
0
ARC
8
DEFAULT_255_2_778
10
16.7137751
20
99.4766545
40
0.97921
50
280.3006426
51
299.249744
0
ARC
8
DEFAULT_255_2_778
10
16.8211481
20
99.2623456
40
0.7398437
50
300.1041493
51
345.4730972
0
ARC
8
DEFAULT_255_2_778
10
16.3385463
20
99.4144374
40
1.2454418
50
344.268789
51
357.1522628
0
ARC
8
DEFAULT_255_2_778
10
15.7337955
20
99.3652319
40
1.8486979
50
359.6073075
51
9.8399837
0
ARC
8
DEFAULT_255_2_778
10
16.4382287
20
99.4924168
40
1.1329028
50
9.5907405
51
26.4605561
0
ARC
8
DEFAULT_255_2_778
10
16.7277144
20
99.6293956
40
0.812733
50
26.9089569
51
76.2665413
0
ARC
8
DEFAULT_255_2_778
10
16.5576822
20
99.0693638
40
1.3974918
50
74.9455785
51
88.0465532
0
ARC
8
DEFAULT_255_2_778
10
16.5246355
20
98.5727056
40
1.8950562
50
87.5598464
51
90.0237498
0
LINE
8
DEFAULT_255_2_778
10
16.52385
20
100.4677614
11
15.91875
21
100.4677614
0
LINE
8
DEFAULT_255_2_778
10
15.91875
20
100.4677614
11
15.91875
21
98.4852614
0
ARC
8
DEFAULT_255_2_778
10
16.1833569
20
99.4502886
40
0.9975387
50
3.2913978
51
17.670332
0
ARC
8
DEFAULT_255_2_778
10
16.594051
20
99.588512
40
0.5643092
50
16.9555364
51
50.3117616
0
ARC
8
DEFAULT_255_2_778
10
16.5853753
20
99.548754
40
0.6007361
50
52.0968789
51
79.9562489
0
ARC
8
DEFAULT_255_2_778
10
16.5015058
20
99.1548443
40
1.0033321
50
79.1632438
51
90.4074423
0
ARC
8
DEFAULT_255_2_778
10
16.4956286
20
98.7821949
40
1.3759568
50
90.0523704
51
93.5383536
0
ARC
8
DEFAULT_255_2_778
10
16.5120009
20
98.5153463
40
1.6433071
50
93.5338925
51
96.6306723
0
LINE
8
DEFAULT_255_2_778
10
16.32225
20
100.1476614
11
16.32225
21
98.7744614
0
ARC
8
DEFAULT_255_2_778
10
16.3349714
20
100.2923833
40
1.5179752
50
269.5198294
51
280.3634745
0
ARC
8
DEFAULT_255_2_778
10
16.4600518
20
99.6379278
40
0.8517119
50
280.0063613
51
298.8635272
0
ARC
8
DEFAULT_255_2_778
10
16.5799751
20
99.4039384
40
0.5889538
50
299.6347223
51
351.4136565
0
ARC
8
DEFAULT_255_2_778
10
16.1583277
20
99.5012272
40
1.0209422
50
349.5475112
51
0.3554806
0
LINE
8
DEFAULT_255_2_778
10
15.91875
20
98.4852614
11
15.91875
21
98.4852614
0
LINE
8
DEFAULT_255_2_778
10
17.17925
20
99.5075614
11
17.17925
21
99.5075614
0
LINE
8
DEFAULT_255_2_778
10
16.273004
20
94.4678059
11
16.720704
21
94.4678059
0
LINE
8
DEFAULT_255_2_778
10
16.720704
20
94.4678059
11
16.720704
21
93.2579059
0
ARC
8
DEFAULT_255_2_778
10
17.442958
20
93.2455846
40
0.7223591
50
179.0226573
51
193.8056738
0
ARC
8
DEFAULT_255_2_778
10
17.0194812
20
93.1331932
40
0.2844113
50
192.1756181
51
230.2169612
0
ARC
8
DEFAULT_255_2_778
10
16.9897913
20
93.1250073
40
0.2597183
50
234.0977263
51
272.3418798
0
ARC
8
DEFAULT_255_2_778
10
17.0159469
20
93.1085895
40
0.24358
50
266.3414415
51
346.0634512
0
ARC
8
DEFAULT_255_2_778
10
16.6437876
20
93.2340604
40
0.6358167
50
343.1656115
51
359.423612
0
ARC
8
DEFAULT_255_2_778
10
16.2420297
20
93.2576094
40
1.0379743
50
358.3468102
51
0.0163636
0
LINE
8
DEFAULT_255_2_778
10
17.280004
20
93.2579059
11
17.280004
21
94.4678059
0
LINE
8
DEFAULT_255_2_778
10
17.280004
20
94.4678059
11
17.755504
21
94.4678059
0
LINE
8
DEFAULT_255_2_778
10
17.755504
20
94.4678059
11
17.755504
21
93.1600059
0
ARC
8
DEFAULT_255_2_778
10
16.7677919
20
93.1471926
40
0.9877952
50
345.5615899
51
0.7432415
0
ARC
8
DEFAULT_255_2_778
10
17.2114056
20
93.020781
40
0.5268056
50
285.4823542
51
346.8460235
0
ARC
8
DEFAULT_255_2_778
10
17.081068
20
93.4297742
40
0.9558913
50
270.991176
51
286.4672538
0
ARC
8
DEFAULT_255_2_778
10
17.0565128
20
93.8352822
40
1.3618762
50
269.9870082
51
271.7289944
0
ARC
8
DEFAULT_255_2_778
10
17.0435025
20
93.7175496
40
1.2442086
50
257.854136
51
270.5849132
0
ARC
8
DEFAULT_255_2_778
10
16.9211599
20
93.1781761
40
0.6911948
50
233.7487913
51
258.3613802
0
ARC
8
DEFAULT_255_2_778
10
16.8719465
20
93.0817085
40
0.5845567
50
192.6385092
51
232.0473242
0
ARC
8
DEFAULT_255_2_778
10
17.2680517
20
93.1927022
40
0.9955847
50
181.8820059
51
193.883804
0
LINE
8
DEFAULT_255_2_778
10
16.273004
20
93.1600059
11
16.273004
21
94.4678059
0
ARC
8
DEFAULT_255_2_778
10
15.4309781
20
93.8799634
40
0.2009082
50
357.5587949
51
78.2544742
0
ARC
8
DEFAULT_255_2_778
10
15.3095364
20
93.5147213
40
0.5849229
50
73.8865417
51
89.023842
0
ARC
8
DEFAULT_255_2_778
10
15.2861592
20
93.1295962
40
0.9705361
50
88.0312531
51
90.0248943
0
ARC
8
DEFAULT_255_2_778
10
15.2874839
20
92.8907706
40
1.209363
50
90.0827408
51
93.4557596
0
ARC
8
DEFAULT_255_2_778
10
15.3042571
20
92.5892249
40
1.5113721
50
93.4014013
51
95.1457022
0
LINE
8
DEFAULT_255_2_778
10
15.168704
20
94.0945059
11
15.168704
21
93.6481059
0
ARC
8
DEFAULT_255_2_778
10
15.3171959
20
95.0186371
40
1.378552
50
263.8163365
51
267.1767812
0
ARC
8
DEFAULT_255_2_778
10
15.300935
20
94.703508
40
1.0630048
50
267.21557
51
269.9496662
0
ARC
8
DEFAULT_255_2_778
10
15.3103775
20
94.2659533
40
0.6255358
50
269.0495404
51
283.4295263
0
ARC
8
DEFAULT_255_2_778
10
15.4052179
20
93.8973296
40
0.2450549
50
281.8781167
51
317.8858147
0
ARC
8
DEFAULT_255_2_778
10
15.4229234
20
93.8624089
40
0.2089742
50
321.7356965
51
2.4675261
0
ARC
8
DEFAULT_255_2_778
10
15.2096629
20
92.3277061
40
0.9370831
50
90.0284494
51
92.0217302
0
ARC
8
DEFAULT_255_2_778
10
15.2204329
20
92.7366181
40
0.5282904
50
75.2118862
51
91.2186227
0
ARC
8
DEFAULT_255_2_778
10
15.317536
20
93.0753148
40
0.1761844
50
30.715649
51
77.6307988
0
ARC
8
DEFAULT_255_2_778
10
15.6608773
20
93.2175647
40
0.261665
50
25.4736767
51
69.03416
0
ARC
8
DEFAULT_255_2_778
10
15.6433435
20
93.8994709
40
0.451464
50
284.2540701
51
319.7898199
0
ARC
8
DEFAULT_255_2_778
10
15.6160644
20
93.8952588
40
0.4700391
50
322.3294868
51
354.4266562
0
ARC
8
DEFAULT_255_2_778
10
15.3096649
20
93.9459453
40
0.780187
50
352.9070776
51
0.1744618
0
ARC
8
DEFAULT_255_2_778
10
15.164302
20
93.9482686
40
0.9255462
50
0.0032428
51
1.0114116
0
ARC
8
DEFAULT_255_2_778
10
15.5481203
20
93.9532488
40
0.5417027
50
1.2013243
51
28.0347792
0
ARC
8
DEFAULT_255_2_778
10
15.6312832
20
93.9779473
40
0.4570165
50
30.2025185
51
71.2418536
0
ARC
8
DEFAULT_255_2_778
10
15.473251
20
93.5700369
40
0.8942702
50
70.0587334
51
85.1149382
0
ARC
8
DEFAULT_255_2_778
10
15.4085814
20
92.996511
40
1.4713025
50
84.507627
51
90.1555646
0
ARC
8
DEFAULT_255_2_778
10
15.4049203
20
92.6424656
40
1.8253426
50
90.0104731
51
91.3440876
0
LINE
8
DEFAULT_255_2_778
10
15.362104
20
94.4673059
11
14.713104
21
94.4673059
0
ARC
8
DEFAULT_255_2_778
10
8.4434908
20
93.5269551
40
1.4121827
50
180.6674014
51
190.8147093
0
ARC
8
DEFAULT_255_2_778
10
7.8366951
20
93.4066114
40
0.7935957
50
190.500564
51
207.6051909
0
ARC
8
DEFAULT_255_2_778
10
7.5805351
20
93.2752415
40
0.5057279
50
207.8639017
51
266.114932
0
ARC
8
DEFAULT_255_2_778
10
7.6420113
20
93.6146464
40
0.8493838
50
263.527907
51
270.1310869
0
ARC
8
DEFAULT_255_2_778
10
7.6421593
20
93.8390265
40
1.073763
50
270.0957999
51
275.1144683
0
ARC
8
DEFAULT_255_2_778
10
7.6196002
20
94.0974463
40
1.3331652
50
275.0900667
51
279.0117806
0
ARC
8
DEFAULT_255_2_778
10
7.5957245
20
94.2589837
40
1.4964496
50
278.9458538
51
279.4648326
0
LINE
8
DEFAULT_255_2_778
10
7.841804
20
92.7829059
11
7.841804
21
93.3121059
0
LINE
8
DEFAULT_255_2_778
10
7.841804
20
93.3121059
11
7.461604
21
93.3121059
0
LINE
8
DEFAULT_255_2_778
10
7.461604
20
93.3121059
11
7.461604
21
93.6262059
0
LINE
8
DEFAULT_255_2_778
10
7.461604
20
93.6262059
11
8.156204
21
93.6262059
0
LINE
8
DEFAULT_255_2_778
10
8.156204
20
93.6262059
11
8.156204
21
92.5512059
0
ARC
8
DEFAULT_255_2_778
10
7.4349183
20
94.6944189
40
2.2613304
50
282.1957806
51
288.6003556
0
ARC
8
DEFAULT_255_2_778
10
7.5641453
20
94.088299
40
1.641591
50
273.5626849
51
282.2563018
0
ARC
8
DEFAULT_255_2_778
10
7.5881324
20
93.7818661
40
1.3342689
50
270.0271462
51
273.352319
0
ARC
8
DEFAULT_255_2_778
10
7.5823686
20
93.5380508
40
1.090472
50
256.381773
51
270.3360599
0
ARC
8
DEFAULT_255_2_778
10
7.5448906
20
93.3682315
40
0.9166096
50
245.4467604
51
256.1592538
0
ARC
8
DEFAULT_255_2_778
10
7.6047347
20
93.3236639
40
0.9038883
50
193.4069865
51
240.8174157
0
ARC
8
DEFAULT_255_2_778
10
7.9923605
20
93.4247805
40
1.3044235
50
180.3337606
51
193.7796182
0
ARC
8
DEFAULT_255_2_778
10
8.3140326
20
93.4390621
40
1.6262207
50
179.9981177
51
180.7709141
0
ARC
8
DEFAULT_255_2_778
10
8.5112135
20
93.436544
40
1.8234034
50
175.142855
51
179.9191947
0
ARC
8
DEFAULT_255_2_778
10
8.9145314
20
93.4026643
40
2.2281417
50
171.0830599
51
175.152924
0
ARC
8
DEFAULT_255_2_778
10
9.1844625
20
93.3631822
40
2.5009318
50
170.5313359
51
171.1480105
0
ARC
8
DEFAULT_255_2_778
10
8.0002881
20
93.4528148
40
1.3224326
50
153.857837
51
165.9166783
0
ARC
8
DEFAULT_255_2_778
10
7.5910586
20
93.6584133
40
0.8644896
50
132.2265716
51
154.1401811
0
ARC
8
DEFAULT_255_2_778
10
7.5297495
20
93.7050634
40
0.7888669
50
100.0053748
51
131.2062672
0
ARC
8
DEFAULT_255_2_778
10
7.6057269
20
93.3493538
40
1.1524405
50
89.6961501
51
100.6527388
0
ARC
8
DEFAULT_255_2_778
10
7.6086055
20
92.9557308
40
1.5460506
50
84.0419964
51
89.880189
0
ARC
8
DEFAULT_255_2_778
10
7.5664417
20
92.5431634
40
1.9607662
50
79.4512743
51
84.0679509
0
ARC
8
DEFAULT_255_2_778
10
7.4741612
20
92.0450305
40
2.4673745
50
75.5346161
51
79.4622618
0
ARC
8
DEFAULT_255_2_778
10
7.3907758
20
91.7078203
40
2.8147261
50
75.0922109
51
75.6056861
0
ARC
8
DEFAULT_255_2_778
10
7.4712223
20
92.0723056
40
2.1093997
50
72.9416839
51
76.9305474
0
ARC
8
DEFAULT_255_2_778
10
7.5868132
20
92.5731994
40
1.5953423
50
76.9064346
51
81.8860037
0
ARC
8
DEFAULT_255_2_778
10
7.6436752
20
92.9767837
40
1.1877726
50
81.8536672
51
88.1867678
0
ARC
8
DEFAULT_255_2_778
10
7.6526049
20
93.1750259
40
0.9893507
50
88.3403809
51
89.9902457
0
ARC
8
DEFAULT_255_2_778
10
7.6429424
20
93.4401572
40
0.7242862
50
89.2222871
51
107.2311278
0
ARC
8
DEFAULT_255_2_778
10
7.5858935
20
93.6433183
40
0.5133756
50
107.866549
51
157.9672434
0
ARC
8
DEFAULT_255_2_778
10
7.954798
20
93.4699324
40
0.9206533
50
156.5771843
51
170.3793633
0
ARC
8
DEFAULT_255_2_778
10
8.3941117
20
93.3836881
40
1.3682511
50
169.8931233
51
174.7028758
0
LINE
8
DEFAULT_255_2_778
10
16.273004
20
94.4678059
11
16.273004
21
94.4678059
0
LINE
8
DEFAULT_255_2_778
10
15.631704
20
93.8714059
11
15.631704
21
93.8714059
0
LINE
8
DEFAULT_255_2_778
10
14.713104
20
94.4673059
11
14.713104
21
92.4731059
0
LINE
8
DEFAULT_255_2_778
10
14.713104
20
92.4731059
11
15.176604
21
92.4731059
0
LINE
8
DEFAULT_255_2_778
10
15.176604
20
92.4731059
11
15.176604
21
93.2642059
0
LINE
8
DEFAULT_255_2_778
10
15.469004
20
93.1653059
11
15.690204
21
92.4813059
0
LINE
8
DEFAULT_255_2_778
10
15.690204
20
92.4813059
11
16.168004
21
92.4731059
0
LINE
8
DEFAULT_255_2_778
10
16.168004
20
92.4731059
11
15.897104
21
93.3301059
0
LINE
8
DEFAULT_255_2_778
10
14.713104
20
94.4673059
11
14.713104
21
94.4673059
0
LINE
8
DEFAULT_255_2_778
10
19.060404
20
92.9734059
11
19.060404
21
94.4678059
0
LINE
8
DEFAULT_255_2_778
10
19.060404
20
94.4678059
11
19.386404
21
94.4678059
0
LINE
8
DEFAULT_255_2_778
10
19.386404
20
94.4678059
11
19.386404
21
92.4689059
0
LINE
8
DEFAULT_255_2_778
10
19.386404
20
92.4689059
11
18.970404
21
92.4689059
0
LINE
8
DEFAULT_255_2_778
10
18.970404
20
92.4689059
11
18.320704
21
93.9640059
0
LINE
8
DEFAULT_255_2_778
10
18.320704
20
93.9640059
11
18.315904
21
93.9640059
0
LINE
8
DEFAULT_255_2_778
10
18.315904
20
93.9640059
11
18.315904
21
92.4689059
0
LINE
8
DEFAULT_255_2_778
10
18.315904
20
92.4689059
11
17.989904
21
92.4689059
0
LINE
8
DEFAULT_255_2_778
10
17.989904
20
92.4689059
11
17.989904
21
94.4678059
0
LINE
8
DEFAULT_255_2_778
10
17.989904
20
94.4678059
11
18.408204
21
94.4678059
0
LINE
8
DEFAULT_255_2_778
10
18.408204
20
94.4678059
11
19.055704
21
92.9734059
0
LINE
8
DEFAULT_255_2_778
10
19.055704
20
92.9734059
11
19.060404
21
92.9734059
0
LINE
8
DEFAULT_255_2_778
10
8.114904
20
94.4278059
11
8.090004
21
94.0889059
0
LINE
8
DEFAULT_255_2_778
10
7.031704
20
93.5100059
11
7.031404
21
93.5105059
0
LINE
8
DEFAULT_255_2_778
10
12.831604
20
92.9533059
11
13.240704
21
94.4678059
0
LINE
8
DEFAULT_255_2_778
10
13.240704
20
94.4678059
11
13.785704
21
94.4678059
0
LINE
8
DEFAULT_255_2_778
10
13.785704
20
94.4678059
11
13.785704
21
92.4689059
0
LINE
8
DEFAULT_255_2_778
10
13.785704
20
92.4689059
11
13.459704
21
92.4689059
0
LINE
8
DEFAULT_255_2_778
10
13.459704
20
92.4689059
11
13.459704
21
94.1186059
0
LINE
8
DEFAULT_255_2_778
10
13.459704
20
94.1186059
11
13.454404
21
94.1186059
0
LINE
8
DEFAULT_255_2_778
10
13.454404
20
94.1186059
11
12.997204
21
92.4691059
0
LINE
8
DEFAULT_255_2_778
10
12.997204
20
92.4691059
11
12.671004
21
92.4691059
0
LINE
8
DEFAULT_255_2_778
10
12.671004
20
92.4691059
11
12.213804
21
94.1186059
0
LINE
8
DEFAULT_255_2_778
10
12.213804
20
94.1186059
11
12.208504
21
94.1130059
0
LINE
8
DEFAULT_255_2_778
10
12.208504
20
94.1130059
11
12.208504
21
92.4689059
0
LINE
8
DEFAULT_255_2_778
10
12.208504
20
92.4689059
11
11.882504
21
92.4689059
0
LINE
8
DEFAULT_255_2_778
10
11.882504
20
92.4689059
11
11.882504
21
94.4678059
0
LINE
8
DEFAULT_255_2_778
10
11.882504
20
94.4678059
11
12.427604
21
94.4678059
0
LINE
8
DEFAULT_255_2_778
10
12.427604
20
94.4678059
11
12.831604
21
92.9533059
0
ARC
8
DEFAULT_255_2_778
10
3.9801608
20
93.8857606
40
0.1997693
50
355.8873328
51
77.0364819
0
ARC
8
DEFAULT_255_2_778
10
3.8821493
20
93.5723517
40
0.5277797
50
74.2990407
51
90.9617323
0
ARC
8
DEFAULT_255_2_778
10
3.8704719
20
93.2723793
40
0.8276825
50
89.8048687
51
90.0002216
0
ARC
8
DEFAULT_255_2_778
10
3.8720355
20
93.1348412
40
0.9652218
50
90.0930037
51
93.8690604
0
ARC
8
DEFAULT_255_2_778
10
3.887204
20
92.8915539
40
1.2089789
50
93.8082932
51
95.757764
0
LINE
8
DEFAULT_255_2_778
10
3.7659158
20
94.0944335
11
3.7659158
21
93.6480335
0
ARC
8
DEFAULT_255_2_778
10
3.8975628
20
94.7334971
40
1.0934177
50
263.0848331
51
267.053979
0
ARC
8
DEFAULT_255_2_778
10
3.8836991
20
94.4820934
40
0.8416342
50
267.1169175
51
269.951856
0
ARC
8
DEFAULT_255_2_778
10
3.8932191
20
94.1292279
40
0.4888754
50
268.8012855
51
286.1978779
0
ARC
8
DEFAULT_255_2_778
10
3.9792441
20
93.8542551
40
0.2009075
50
284.513634
51
4.905001
0
ARC
8
DEFAULT_255_2_778
10
3.8025525
20
92.5166174
40
0.7480994
50
90.0318712
51
92.2627584
0
ARC
8
DEFAULT_255_2_778
10
3.8133653
20
92.8551971
40
0.4096735
50
71.919398
51
91.5706474
0
ARC
8
DEFAULT_255_2_778
10
3.8940589
20
93.0944795
40
0.157182
50
26.7527193
51
72.8112881
0
ARC
8
DEFAULT_255_2_778
10
4.1889189
20
93.2369485
40
0.2463594
50
22.200083
51
65.899807
0
ARC
8
DEFAULT_255_2_778
10
4.1731039
20
93.8515261
40
0.4067088
50
286.6323321
51
353.0035152
0
ARC
8
DEFAULT_255_2_778
10
3.782344
20
93.942783
40
0.8068204
50
349.949909
51
0.3783919
0
ARC
8
DEFAULT_255_2_778
10
3.5531728
20
93.9480464
40
1.0359741
50
0.0035911
51
0.9118777
0
ARC
8
DEFAULT_255_2_778
10
3.9847294
20
93.9526586
40
0.6044031
50
1.1257791
51
23.7037369
0
ARC
8
DEFAULT_255_2_778
10
4.1434023
20
94.0087092
40
0.4367616
50
25.3392633
51
75.2353257
0
ARC
8
DEFAULT_255_2_778
10
4.0047451
20
93.5822333
40
0.8848565
50
73.5909501
51
88.6385703
0
ARC
8
DEFAULT_255_2_778
10
3.9773558
20
93.1592129
40
1.3085231
50
87.8796882
51
90.0214193
0
ARC
8
DEFAULT_255_2_778
10
3.9771652
20
93.0109557
40
1.4567801
50
90.0117433
51
91.5045413
0
LINE
8
DEFAULT_255_2_778
10
3.9389158
20
94.4672335
11
3.3590158
21
94.4672335
0
LINE
8
DEFAULT_255_2_778
10
12.8316158
20
92.9533335
11
12.8369158
21
92.9533335
0
LINE
8
DEFAULT_255_2_778
10
4.1794158
20
93.8714335
11
4.1794158
21
93.8714335
0
LINE
8
DEFAULT_255_2_778
10
3.3587158
20
94.4672335
11
3.3587158
21
92.4730335
0
LINE
8
DEFAULT_255_2_778
10
3.3587158
20
92.4730335
11
3.7730158
21
92.4730335
0
LINE
8
DEFAULT_255_2_778
10
3.7730158
20
92.4730335
11
3.7730158
21
93.2641335
0
LINE
8
DEFAULT_255_2_778
10
4.0344158
20
93.1652335
11
4.2321158
21
92.4812335
0
LINE
8
DEFAULT_255_2_778
10
4.2321158
20
92.4812335
11
4.6591158
21
92.4730335
0
LINE
8
DEFAULT_255_2_778
10
4.6591158
20
92.4730335
11
4.4170158
21
93.3300335
0
LINE
8
DEFAULT_255_2_778
10
3.3590158
20
94.4672335
11
3.3587158
21
94.4672335
0
ARC
8
DEFAULT_255_2_778
10
9.1415012
20
93.8859902
40
0.1997536
50
355.8224154
51
76.8845657
0
ARC
8
DEFAULT_255_2_778
10
9.0444985
20
93.5762614
40
0.523973
50
74.2384048
51
90.9645252
0
ARC
8
DEFAULT_255_2_778
10
9.0328694
20
93.2783296
40
0.8218354
50
89.8041738
51
90.000223
0
ARC
8
DEFAULT_255_2_778
10
9.0344266
20
93.1421432
40
0.958023
50
90.0933212
51
93.8828618
0
ARC
8
DEFAULT_255_2_778
10
9.0494972
20
92.9011653
40
1.199469
50
93.8216083
51
95.778835
0
LINE
8
DEFAULT_255_2_778
10
8.9287241
20
94.0945385
11
8.9287241
21
93.6481385
0
ARC
8
DEFAULT_255_2_778
10
9.0601437
20
94.7256318
40
1.0854782
50
263.0461001
51
267.0364337
0
ARC
8
DEFAULT_255_2_778
10
9.0462661
20
94.4754697
40
0.8349338
50
267.0999407
51
269.9514608
0
ARC
8
DEFAULT_255_2_778
10
9.0559825
20
94.1225463
40
0.4821228
50
268.7611366
51
286.5322503
0
ARC
8
DEFAULT_255_2_778
10
9.1408639
20
93.8540318
40
0.2006167
50
285.1140427
51
4.9775948
0
ARC
8
DEFAULT_255_2_778
10
8.9650183
20
92.5231533
40
0.7416679
50
90.0315799
51
92.2713707
0
ARC
8
DEFAULT_255_2_778
10
8.9759174
20
92.8599668
40
0.4050123
50
71.6851303
51
91.5999045
0
ARC
8
DEFAULT_255_2_778
10
9.056054
20
93.095225
40
0.156504
50
26.5743653
51
72.4722378
0
ARC
8
DEFAULT_255_2_778
10
9.3497001
20
93.2380109
40
0.2452829
50
22.0612331
51
65.8571238
0
ARC
8
DEFAULT_255_2_778
10
9.3327969
20
93.8509685
40
0.4064041
50
286.7651682
51
353.0774873
0
ARC
8
DEFAULT_255_2_778
10
8.939349
20
93.9427384
40
0.8092243
50
349.9833021
51
0.3769819
0
ARC
8
DEFAULT_255_2_778
10
8.7089398
20
93.9479847
40
1.0396159
50
0.004302
51
0.9123618
0
ARC
8
DEFAULT_255_2_778
10
9.1416839
20
93.9528692
40
0.6068524
50
1.1018217
51
23.511293
0
ARC
8
DEFAULT_255_2_778
10
9.3033801
20
94.0098938
40
0.4360023
50
25.1166923
51
75.4054528
0
ARC
8
DEFAULT_255_2_778
10
9.1648043
20
93.5794819
40
0.8878149
50
73.7498511
51
88.8840966
0
ARC
8
DEFAULT_255_2_778
10
9.13894
20
93.1601711
40
1.3076696
50
88.1088397
51
90.0174791
0
ARC
8
DEFAULT_255_2_778
10
9.1388388
20
93.0213061
40
1.4465346
50
90.0117923
51
91.5098614
0
LINE
8
DEFAULT_255_2_778
10
9.1007241
20
94.4673385
11
8.5229241
21
94.4673385
0
ARC
8
DEFAULT_255_2_778
10
4.5267669
20
93.5283473
40
1.8750003
50
359.6116437
51
9.0010365
0
ARC
8
DEFAULT_255_2_778
10
5.3007422
20
93.6557417
40
1.090635
50
8.7522707
51
23.9375594
0
ARC
8
DEFAULT_255_2_778
10
5.7037295
20
93.8433503
40
0.6462382
50
23.231482
51
80.4445604
0
ARC
8
DEFAULT_255_2_778
10
5.6102883
20
93.443148
40
1.0567121
50
79.0503854
51
90.3667651
0
ARC
8
DEFAULT_255_2_778
10
5.5906983
20
93.3600185
40
1.1398922
50
89.3553104
51
103.9882971
0
ARC
8
DEFAULT_255_2_778
10
5.4617937
20
93.8283602
40
0.6543877
50
102.9487102
51
159.9379304
0
ARC
8
DEFAULT_255_2_778
10
5.881428
20
93.6600884
40
1.1063726
50
159.2071538
51
174.3577118
0
ARC
8
DEFAULT_255_2_778
10
6.4979289
20
93.5842004
40
1.727412
50
173.8632439
51
180.1678965
0
ARC
8
DEFAULT_255_2_778
10
6.9122461
20
93.5673813
40
2.1417543
50
179.685472
51
187.9083018
0
ARC
8
DEFAULT_255_2_778
10
6.0643193
20
93.4445963
40
1.2850074
50
187.6874727
51
200.8646877
0
ARC
8
DEFAULT_255_2_778
10
5.5697299
20
93.2491164
40
0.7532566
50
200.3697254
51
226.8447778
0
ARC
8
DEFAULT_255_2_778
10
5.520115
20
93.2247796
40
0.7018398
50
228.4408514
51
261.4018422
0
ARC
8
DEFAULT_255_2_778
10
5.5982122
20
93.6105928
40
1.0951671
50
260.3795636
51
270.2779028
0
ARC
8
DEFAULT_255_2_778
10
5.616656
20
93.4721406
40
0.9567922
50
269.2135965
51
286.8260776
0
ARC
8
DEFAULT_255_2_778
10
5.6995752
20
93.1778878
40
0.6511605
50
287.337071
51
340.7702609
0
ARC
8
DEFAULT_255_2_778
10
5.1796973
20
93.396361
40
1.2144939
50
339.1160996
51
352.8363382
0
ARC
8
DEFAULT_255_2_778
10
4.393589
20
93.5059357
40
2.0081587
50
352.5313752
51
0.276836
0
ARC
8
DEFAULT_255_2_778
10
5.5894785
20
93.9441478
40
0.2065148
50
90.875203
51
156.3859908
0
ARC
8
DEFAULT_255_2_778
10
5.9405262
20
93.7463974
40
0.6087343
50
152.5644531
51
168.2817471
0
ARC
8
DEFAULT_255_2_778
10
6.7220734
20
93.5709985
40
1.4096762
50
167.7528855
51
176.1564081
0
ARC
8
DEFAULT_255_2_778
10
7.9373018
20
93.4757739
40
2.6285895
50
175.8610565
51
180.1707892
0
ARC
8
DEFAULT_255_2_778
10
7.3140634
20
93.4566161
40
2.0053713
50
179.6765039
51
185.9818048
0
ARC
8
DEFAULT_255_2_778
10
6.2651885
20
93.3411191
40
0.9501873
50
185.6464112
51
196.7878977
0
ARC
8
DEFAULT_255_2_778
10
5.7147895
20
93.1682009
40
0.3733601
50
195.7785425
51
219.7912769
0
ARC
8
DEFAULT_255_2_778
10
5.5692825
20
93.0506658
40
0.1863549
50
220.6557742
51
271.0188918
0
ARC
8
DEFAULT_255_2_778
10
5.5725005
20
93.1044719
40
0.2401315
50
270.0228513
51
273.3001577
0
ARC
8
DEFAULT_255_2_778
10
5.5853152
20
93.0832161
40
0.2184799
50
270.2645758
51
338.7378154
0
ARC
8
DEFAULT_255_2_778
10
5.2163687
20
93.2734384
40
0.6327896
50
334.7977633
51
350.3072597
0
ARC
8
DEFAULT_255_2_778
10
4.4231834
20
93.4214625
40
1.439627
50
349.8150655
51
358.2670257
0
ARC
8
DEFAULT_255_2_778
10
3.5344497
20
93.4661854
40
2.3293749
50
357.8285609
51
0.0431223
0
ARC
8
DEFAULT_255_2_778
10
2.8986625
20
93.5445435
40
2.966151
50
358.5200913
51
359.604732
0
ARC
8
DEFAULT_255_2_778
10
3.1447135
20
93.5423575
40
2.7200907
50
359.6150221
51
359.9979447
0
ARC
8
DEFAULT_255_2_778
10
3.93361
20
93.5536529
40
1.9312277
50
359.661993
51
6.2623142
0
ARC
8
DEFAULT_255_2_778
10
4.9273986
20
93.6675366
40
0.9309592
50
5.9668221
51
17.1653057
0
ARC
8
DEFAULT_255_2_778
10
5.4507897
20
93.8359436
40
0.3812338
50
16.1977683
51
40.1855518
0
ARC
8
DEFAULT_255_2_778
10
5.5906095
20
93.9495324
40
0.2011518
50
41.1664717
51
91.2207375
0
ARC
8
DEFAULT_255_2_778
10
2.4817113
20
93.8192443
40
0.2794895
50
357.0249454
51
39.6239732
0
ARC
8
DEFAULT_255_2_778
10
2.4766252
20
93.7865967
40
0.3050153
50
43.7419162
51
79.4176623
0
ARC
8
DEFAULT_255_2_778
10
2.3829861
20
93.3976677
40
0.7048277
50
77.7411861
51
90.7285417
0
LINE
8
DEFAULT_255_2_778
10
2.3740241
20
94.1024385
11
2.3740241
21
93.5402385
0
ARC
8
DEFAULT_255_2_778
10
2.3863089
20
94.2797937
40
0.7396572
50
269.048343
51
283.3133888
0
ARC
8
DEFAULT_255_2_778
10
2.4980778
20
93.8407139
40
0.286742
50
281.783594
51
317.1119023
0
ARC
8
DEFAULT_255_2_778
10
2.524702
20
93.7945535
40
0.2363416
50
320.9211523
51
2.4698913
0
ARC
8
DEFAULT_255_2_778
10
2.5082499
20
94.8660689
40
1.7279515
50
265.5448238
51
268.1476352
0
ARC
8
DEFAULT_255_2_778
10
2.5009972
20
94.6573914
40
1.5191489
50
268.1666302
51
269.984565
0
ARC
8
DEFAULT_255_2_778
10
2.5119773
20
94.2197371
40
1.0815544
50
269.3966317
51
282.5633859
0
ARC
8
DEFAULT_255_2_778
10
2.6211182
20
93.7558979
40
0.6051074
50
282.0299538
51
308.1759973
0
ARC
8
DEFAULT_255_2_778
10
2.6503211
20
93.6923278
40
0.5373327
50
309.9180113
51
345.9975011
0
ARC
8
DEFAULT_255_2_778
10
2.2482432
20
93.8062284
40
0.9551145
50
345.2039746
51
359.8840196
0
ARC
8
DEFAULT_255_2_778
10
1.9002571
20
93.822287
40
1.3032229
50
359.2089613
51
0.0032587
0
ARC
8
DEFAULT_255_2_778
10
1.8011158
20
93.8219409
40
1.4023643
50
0.0171701
51
1.9707288
0
ARC
8
DEFAULT_255_2_778
10
2.4305171
20
93.8439416
40
0.7725788
50
1.9452722
51
2.0025466
0
ARC
8
DEFAULT_255_2_778
10
2.5139202
20
93.883452
40
0.6888176
50
358.9590724
51
19.7471152
0
ARC
8
DEFAULT_255_2_778
10
2.7046096
20
93.9407281
40
0.4901032
50
20.9770835
51
71.4238315
0
ARC
8
DEFAULT_255_2_778
10
2.5327745
20
93.5122828
40
0.951334
50
69.8339437
51
84.40961
0
ARC
8
DEFAULT_255_2_778
10
2.4599759
20
92.9096625
40
1.5582405
50
83.9041151
51
90.1876664
0
ARC
8
DEFAULT_255_2_778
10
2.4554764
20
92.4806756
40
1.9872193
50
90.0174233
51
91.7547476
0
ARC
8
DEFAULT_255_2_778
10
2.459787
20
92.32114
40
2.1468123
50
91.7393571
51
92.2895144
0
LINE
8
DEFAULT_255_2_778
10
2.3740241
20
94.4662385
11
1.9321241
21
94.4662385
0
LINE
8
DEFAULT_255_2_778
10
9.3407241
20
93.8714385
11
9.3407241
21
93.8714385
0
LINE
8
DEFAULT_255_2_778
10
8.5229241
20
94.4673385
11
8.5229241
21
92.4731385
0
LINE
8
DEFAULT_255_2_778
10
8.5229241
20
92.4731385
11
8.9356241
21
92.4731385
0
LINE
8
DEFAULT_255_2_778
10
8.9356241
20
92.4731385
11
8.9356241
21
93.2642385
0
LINE
8
DEFAULT_255_2_778
10
9.1960241
20
93.1652385
11
9.3928241
21
92.4813385
0
LINE
8
DEFAULT_255_2_778
10
9.3928241
20
92.4813385
11
9.8183241
21
92.4731385
0
LINE
8
DEFAULT_255_2_778
10
9.8183241
20
92.4731385
11
9.5770241
21
93.3301385
0
LINE
8
DEFAULT_255_2_778
10
8.5229241
20
94.4673385
11
8.5229241
21
94.4673385
0
LINE
8
DEFAULT_255_2_778
10
6.4017241
20
93.5156385
11
6.4017241
21
93.5156385
0
LINE
8
DEFAULT_255_2_778
10
5.5863241
20
94.1506385
11
5.5863241
21
94.1506385
0
LINE
8
DEFAULT_255_2_778
10
2.7608241
20
93.8047385
11
2.7608241
21
93.8047385
0
LINE
8
DEFAULT_255_2_778
10
1.9321241
20
94.4662385
11
1.9321241
21
92.4818385
0
LINE
8
DEFAULT_255_2_778
10
1.9321241
20
92.4818385
11
2.3740241
21
92.4818385
0
LINE
8
DEFAULT_255_2_778
10
2.3740241
20
92.4818385
11
2.3740241
21
93.1433385
0
LINE
8
DEFAULT_255_2_778
10
1.9321241
20
94.4662385
11
1.9321241
21
94.4662385
0
LINE
8
DEFAULT_255_2_778
10
11.0568241
20
93.2425385
11
10.8107241
21
94.0672385
0
LINE
8
DEFAULT_255_2_778
10
10.8107241
20
94.0672385
11
10.8060241
21
94.0672385
0
LINE
8
DEFAULT_255_2_778
10
10.8060241
20
94.0672385
11
10.5604241
21
93.2425385
0
LINE
8
DEFAULT_255_2_778
10
10.5604241
20
93.2425385
11
11.0568241
21
93.2425385
0
LINE
8
DEFAULT_255_2_778
10
11.2976241
20
92.4691385
11
11.1515241
21
92.9274385
0
LINE
8
DEFAULT_255_2_778
10
11.1515241
20
92.9274385
11
10.4628241
21
92.9274385
0
LINE
8
DEFAULT_255_2_778
10
10.4628241
20
92.9274385
11
10.3146241
21
92.4691385
0
LINE
8
DEFAULT_255_2_778
10
10.3146241
20
92.4691385
11
9.9619241
21
92.4691385
0
LINE
8
DEFAULT_255_2_778
10
9.9619241
20
92.4691385
11
10.6237241
21
94.4681385
0
LINE
8
DEFAULT_255_2_778
10
10.6237241
20
94.4681385
11
11.0078241
21
94.4681385
0
LINE
8
DEFAULT_255_2_778
10
11.0078241
20
94.4681385
11
11.6749241
21
92.4691385
0
LINE
8
DEFAULT_255_2_778
10
11.6749241
20
92.4691385
11
11.2976241
21
92.4691385
0
ARC
8
DEFAULT_255_2_778
10
11.1830767
20
84.8812175
40
0.2003807
50
357.4201008
51
78.2967303
0
ARC
8
DEFAULT_255_2_778
10
11.0634821
20
84.5171899
40
0.5827082
50
74.0384257
51
89.3636685
0
ARC
8
DEFAULT_255_2_778
10
11.0421653
20
84.1411804
40
0.9590846
50
88.3396992
51
90.0179952
0
ARC
8
DEFAULT_255_2_778
10
11.0435744
20
83.9198542
40
1.1804122
50
90.0830142
51
93.4793725
0
ARC
8
DEFAULT_255_2_778
10
11.0600822
20
83.6255553
40
1.4751709
50
93.425643
51
95.1816454
0
LINE
8
DEFAULT_255_2_778
10
10.9268543
20
85.0946979
11
10.9268543
21
84.6493979
0
ARC
8
DEFAULT_255_2_778
10
11.0734961
20
85.983513
40
1.3421502
50
263.7274075
51
267.135147
0
ARC
8
DEFAULT_255_2_778
10
11.0573966
20
85.6762561
40
1.0344728
50
267.1751655
51
269.9483566
0
ARC
8
DEFAULT_255_2_778
10
11.0668048
20
85.2486047
40
0.6069092
50
269.0237371
51
283.7194316
0
ARC
8
DEFAULT_255_2_778
10
11.1612931
20
84.8904807
40
0.2366928
50
282.0593434
51
320.0024
0
ARC
8
DEFAULT_255_2_778
10
11.1708884
20
84.8635768
40
0.2125409
50
323.8988455
51
2.3246685
0
ARC
8
DEFAULT_255_2_778
10
10.9671722
20
83.3561829
40
0.9106993
50
90.0285772
51
92.0525646
0
ARC
8
DEFAULT_255_2_778
10
10.9779493
20
83.7554432
40
0.5115622
50
74.8438602
51
91.2580297
0
ARC
8
DEFAULT_255_2_778
10
11.0729745
20
84.0803345
40
0.1732598
50
30.2422111
51
77.0855203
0
ARC
8
DEFAULT_255_2_778
10
11.4116587
20
84.2238232
40
0.2569248
50
24.9246115
51
68.9469579
0
ARC
8
DEFAULT_255_2_778
10
11.3951354
20
84.8897639
40
0.4398397
50
284.3240477
51
322.1797063
0
ARC
8
DEFAULT_255_2_778
10
11.3490841
20
84.8987606
40
0.4821972
50
324.6913713
51
355.0120082
0
ARC
8
DEFAULT_255_2_778
10
11.0405071
20
84.9462635
40
0.7940003
50
353.5330392
51
0.1478467
0
ARC
8
DEFAULT_255_2_778
10
10.9014012
20
84.948245
40
0.9331035
50
0.0041313
51
1.0287378
0
ARC
8
DEFAULT_255_2_778
10
11.2875306
20
84.9537152
40
0.5469401
50
1.1820199
51
27.5101793
0
ARC
8
DEFAULT_255_2_778
10
11.3789144
20
84.9824853
40
0.4529077
50
29.622522
51
71.4169906
0
ARC
8
DEFAULT_255_2_778
10
11.2232816
20
84.5772462
40
0.8868062
50
70.2295353
51
85.4308545
0
ARC
8
DEFAULT_255_2_778
10
11.1626112
20
84.0203233
40
1.4468821
50
84.7928208
51
90.1386219
0
ARC
8
DEFAULT_255_2_778
10
11.1594323
20
83.6909905
40
1.7762106
50
90.0103774
51
91.3639052
0
LINE
8
DEFAULT_255_2_778
10
11.1171543
20
85.4666979
11
10.4773543
21
85.4666979
0
LINE
8
DEFAULT_255_2_778
10
13.3962543
20
83.7904979
11
13.3962543
21
83.4769979
0
LINE
8
DEFAULT_255_2_778
10
13.3962543
20
83.4769979
11
12.2590543
21
83.4769979
0
LINE
8
DEFAULT_255_2_778
10
12.2590543
20
83.4769979
11
12.2590543
21
85.4671979
0
LINE
8
DEFAULT_255_2_778
10
12.2590543
20
85.4671979
11
13.3912543
21
85.4671979
0
LINE
8
DEFAULT_255_2_778
10
13.3912543
20
85.4671979
11
13.3912543
21
85.1536979
0
LINE
8
DEFAULT_255_2_778
10
13.3912543
20
85.1536979
11
12.6437543
21
85.1536979
0
LINE
8
DEFAULT_255_2_778
10
12.6437543
20
85.1536979
11
12.6437543
21
84.6630979
0
LINE
8
DEFAULT_255_2_778
10
12.6437543
20
84.6630979
11
13.3277543
21
84.6630979
0
LINE
8
DEFAULT_255_2_778
10
13.3277543
20
84.6630979
11
13.3277543
21
84.3495979
0
LINE
8
DEFAULT_255_2_778
10
13.3277543
20
84.3495979
11
12.6437543
21
84.3495979
0
LINE
8
DEFAULT_255_2_778
10
12.6437543
20
84.3495979
11
12.6437543
21
83.7904979
0
LINE
8
DEFAULT_255_2_778
10
12.6437543
20
83.7904979
11
13.3962543
21
83.7904979
0
LINE
8
DEFAULT_255_2_778
10
19.4742543
20
85.4671979
11
18.7871543
21
84.2638979
0
LINE
8
DEFAULT_255_2_778
10
18.7871543
20
84.2638979
11
18.7871543
21
83.4769979
0
LINE
8
DEFAULT_255_2_778
10
18.7871543
20
83.4769979
11
18.4024543
21
83.4769979
0
LINE
8
DEFAULT_255_2_778
10
18.4024543
20
83.4769979
11
18.4024543
21
84.2638979
0
LINE
8
DEFAULT_255_2_778
10
18.4024543
20
84.2638979
11
17.7020543
21
85.4671979
0
LINE
8
DEFAULT_255_2_778
10
17.7020543
20
85.4671979
11
18.1523543
21
85.4671979
0
LINE
8
DEFAULT_255_2_778
10
18.1523543
20
85.4671979
11
18.6061543
21
84.6318979
0
LINE
8
DEFAULT_255_2_778
10
18.6061543
20
84.6318979
11
19.0678543
21
85.4671979
0
LINE
8
DEFAULT_255_2_778
10
19.0678543
20
85.4671979
11
19.4742543
21
85.4671979
0
LINE
8
DEFAULT_255_2_778
10
11.3832543
20
84.8721979
11
11.3832543
21
84.8721979
0
LINE
8
DEFAULT_255_2_778
10
10.4776543
20
85.4666979
11
10.4776543
21
83.4769979
0
LINE
8
DEFAULT_255_2_778
10
10.4776543
20
83.4769979
11
10.9345543
21
83.4769979
0
LINE
8
DEFAULT_255_2_778
10
10.9345543
20
83.4769979
11
10.9345543
21
84.2662979
0
LINE
8
DEFAULT_255_2_778
10
11.2226543
20
84.1675979
11
11.4406543
21
83.4851979
0
LINE
8
DEFAULT_255_2_778
10
11.4406543
20
83.4851979
11
11.9119543
21
83.4769979
0
LINE
8
DEFAULT_255_2_778
10
11.9119543
20
83.4769979
11
11.6446543
21
84.3320979
0
LINE
8
DEFAULT_255_2_778
10
10.4773543
20
85.4666979
11
10.4776543
21
85.4666979
0
LINE
8
DEFAULT_255_2_778
10
13.6899543
20
83.4769979
11
14.4373543
21
85.4671979
0
LINE
8
DEFAULT_255_2_778
10
14.4373543
20
85.4671979
11
14.8715543
21
85.4671979
0
LINE
8
DEFAULT_255_2_778
10
14.8715543
20
85.4671979
11
15.6245543
21
83.4769979
0
LINE
8
DEFAULT_255_2_778
10
15.6245543
20
83.4769979
11
15.1985543
21
83.4769979
0
LINE
8
DEFAULT_255_2_778
10
15.1985543
20
83.4769979
11
15.0334543
21
83.9330979
0
LINE
8
DEFAULT_255_2_778
10
15.0334543
20
83.9330979
11
14.2561543
21
83.9330979
0
LINE
8
DEFAULT_255_2_778
10
14.2561543
20
83.9330979
11
14.0886543
21
83.4769979
0
LINE
8
DEFAULT_255_2_778
10
14.0886543
20
83.4769979
11
13.6899543
21
83.4769979
0
LINE
8
DEFAULT_255_2_778
10
14.6437543
20
85.0678979
11
14.3661543
21
84.2468979
0
LINE
8
DEFAULT_255_2_778
10
14.3661543
20
84.2468979
11
14.9268543
21
84.2468979
0
LINE
8
DEFAULT_255_2_778
10
14.9268543
20
84.2468979
11
14.6487543
21
85.0678979
0
LINE
8
DEFAULT_255_2_778
10
14.6487543
20
85.0678979
11
14.6437543
21
85.0678979
0
LINE
8
DEFAULT_255_2_778
10
15.9499667
20
83.4933958
11
16.5936667
21
83.4933958
0
ARC
8
DEFAULT_255_2_778
10
16.6062773
20
85.0835086
40
1.5901628
50
269.5456171
51
280.7551565
0
ARC
8
DEFAULT_255_2_778
10
16.731363
20
84.4541583
40
0.9485408
50
280.4263299
51
300.0639607
0
ARC
8
DEFAULT_255_2_778
10
16.8285532
20
84.2612732
40
0.7330232
50
301.0421559
51
344.9659433
0
ARC
8
DEFAULT_255_2_778
10
16.3429193
20
84.4166869
40
1.242582
50
343.8535036
51
357.2465681
0
ARC
8
DEFAULT_255_2_778
10
15.7194303
20
84.3696279
40
1.8646792
50
359.611853
51
9.7100861
0
ARC
8
DEFAULT_255_2_778
10
16.4337671
20
84.4969221
40
1.1391173
50
9.4591739
51
26.1059064
0
ARC
8
DEFAULT_255_2_778
10
16.7371824
20
84.6397373
40
0.8038299
50
26.481318
51
77.0409404
0
ARC
8
DEFAULT_255_2_778
10
16.5705167
20
84.0652513
40
1.4014621
50
75.6675694
51
88.916818
0
ARC
8
DEFAULT_255_2_778
10
16.5446028
20
83.5929303
40
1.8742655
50
88.3977224
51
90.0102751
0
LINE
8
DEFAULT_255_2_778
10
16.5442667
20
85.4671958
11
15.9499667
21
85.4671958
0
LINE
8
DEFAULT_255_2_778
10
15.9499667
20
85.4671958
11
15.9499667
21
83.4933958
0
ARC
8
DEFAULT_255_2_778
10
16.1846513
20
84.4547001
40
1.0049104
50
3.228561
51
17.4239349
0
ARC
8
DEFAULT_255_2_778
10
16.6014252
20
84.5925361
40
0.5660262
50
16.7444034
51
48.5516751
0
ARC
8
DEFAULT_255_2_778
10
16.6061212
20
84.5700198
40
0.5800877
50
50.3717807
51
79.641787
0
ARC
8
DEFAULT_255_2_778
10
16.5224396
20
84.1892932
40
0.9697545
50
78.8227223
51
90.4259446
0
ARC
8
DEFAULT_255_2_778
10
16.5164651
20
83.8248654
40
1.3341563
50
90.0530268
51
93.5823914
0
ARC
8
DEFAULT_255_2_778
10
16.5325495
20
83.5658521
40
1.5936685
50
93.5776735
51
96.7126086
0
LINE
8
DEFAULT_255_2_778
10
16.3462667
20
85.1485958
11
16.3462667
21
83.7812958
0
ARC
8
DEFAULT_255_2_778
10
16.3589935
20
85.2486336
40
1.467393
50
269.5030639
51
280.6311245
0
ARC
8
DEFAULT_255_2_778
10
16.4837467
20
84.6135018
40
0.8201659
50
280.2511296
51
299.8981221
0
ARC
8
DEFAULT_255_2_778
10
16.5926112
20
84.4042181
40
0.5845552
50
300.8727813
51
350.8275114
0
ARC
8
DEFAULT_255_2_778
10
16.1691409
20
84.5043239
40
1.0190496
50
349.066192
51
0.3919985
0
LINE
8
DEFAULT_255_2_778
10
15.9499667
20
83.4933958
11
15.9499667
21
83.4933958
0
LINE
8
DEFAULT_255_2_778
10
17.1881667
20
84.5112958
11
17.1879667
21
84.5112958
0
ARC
8
DEFAULT_255_2_778
10
3.3954799
20
84.4995541
40
0.9821804
50
166.1403752
51
177.4943017
0
ARC
8
DEFAULT_255_2_778
10
3.0600697
20
84.5845745
40
0.636173
50
148.3460466
51
166.3384787
0
ARC
8
DEFAULT_255_2_778
10
2.9739741
20
84.6178261
40
0.5456966
50
92.9807965
51
146.5737549
0
ARC
8
DEFAULT_255_2_778
10
3.0449041
20
84.2205488
40
0.9474546
50
89.8957105
51
96.0164729
0
ARC
8
DEFAULT_255_2_778
10
3.0406607
20
83.910214
40
1.2578019
50
80.9019542
51
89.7281441
0
ARC
8
DEFAULT_255_2_778
10
2.9857735
20
83.5368259
40
1.6351786
50
76.5445774
51
81.0717268
0
ARC
8
DEFAULT_255_2_778
10
2.9143175
20
83.2379174
40
1.9425096
50
72.0324806
51
76.5462874
0
ARC
8
DEFAULT_255_2_778
10
2.8684267
20
82.9466084
40
2.5669718
50
74.7842802
51
78.0772312
0
ARC
8
DEFAULT_255_2_778
10
2.9422164
20
83.295653
40
2.2102128
50
78.0795026
51
81.4732778
0
ARC
8
DEFAULT_255_2_778
10
2.9876273
20
83.6009815
40
1.9015261
50
81.4623626
51
85.5242986
0
ARC
8
DEFAULT_255_2_778
10
3.0085864
20
83.8693073
40
1.6323829
50
85.522756
51
89.9448749
0
ARC
8
DEFAULT_255_2_778
10
3.002408
20
84.2229339
40
1.2787792
50
89.6528041
51
102.3415373
0
ARC
8
DEFAULT_255_2_778
10
2.9304636
20
84.5447961
40
0.948979
50
102.2517316
51
121.4350328
0
ARC
8
DEFAULT_255_2_778
10
2.9575896
20
84.5569933
40
0.9531759
50
123.2089354
51
172.6102749
0
ARC
8
DEFAULT_255_2_778
10
3.3820603
20
84.4489178
40
1.3890171
50
170.4407345
51
177.8307668
0
ARC
8
DEFAULT_255_2_778
10
3.5857477
20
84.5126474
40
1.5975816
50
184.9141506
51
193.9333447
0
ARC
8
DEFAULT_255_2_778
10
3.1132802
20
84.3934878
40
1.1103246
50
193.8359863
51
206.6463497
0
ARC
8
DEFAULT_255_2_778
10
2.8554702
20
84.2631802
40
0.8214559
50
206.5874378
51
226.5850389
0
ARC
8
DEFAULT_255_2_778
10
2.923815
20
84.3992614
40
0.9682713
50
229.1824649
51
270.6289962
0
ARC
8
DEFAULT_255_2_778
10
2.9949386
20
85.0626698
40
1.6327423
50
267.8766711
51
270.0151144
0
ARC
8
DEFAULT_255_2_778
10
2.9948603
20
85.212959
40
1.7830316
50
270.0163583
51
272.1562283
0
ARC
8
DEFAULT_255_2_778
10
2.9643614
20
85.7218124
40
2.2927001
50
272.4394206
51
280.6566316
0
ARC
8
DEFAULT_255_2_778
10
2.8725047
20
86.2772005
40
2.8555231
50
280.4071949
51
281.3267058
0
ARC
8
DEFAULT_255_2_778
10
3.084612
20
84.9756004
40
1.221817
50
270.2357146
51
291.2547092
0
ARC
8
DEFAULT_255_2_778
10
3.0453606
20
84.433712
40
0.6813584
50
270.0127731
51
273.7259814
0
ARC
8
DEFAULT_255_2_778
10
3.0444088
20
84.3670606
40
0.6147081
50
198.716901
51
270.1028753
0
ARC
8
DEFAULT_255_2_778
10
3.249194
20
84.4588733
40
0.8383945
50
179.5961919
51
200.1688139
0
ARC
8
DEFAULT_255_2_778
10
3.3856351
20
84.4643825
40
0.9748148
50
175.4157916
51
179.9765134
0
LINE
8
DEFAULT_255_2_778
10
3.5135386
20
85.0856938
11
3.5421386
21
85.4235938
0
LINE
8
DEFAULT_255_2_778
10
1.9940386
20
84.5014938
11
1.9940386
21
84.3757938
0
LINE
8
DEFAULT_255_2_778
10
3.4333386
20
83.4772938
11
3.5447386
21
83.5016938
0
LINE
8
DEFAULT_255_2_778
10
3.5447386
20
83.5016938
11
3.5275386
21
83.8368938
0
LINE
8
DEFAULT_255_2_778
10
2.4139386
20
84.5422938
11
2.4142386
21
84.5424938
0
LINE
8
DEFAULT_255_2_778
10
4.6202823
20
85.0660635
11
4.6257823
21
85.0660635
0
LINE
8
DEFAULT_255_2_778
10
4.6202823
20
85.0660635
11
4.3450823
21
84.2413635
0
LINE
8
DEFAULT_255_2_778
10
4.3450823
20
84.2413635
11
4.9006823
21
84.2413635
0
LINE
8
DEFAULT_255_2_778
10
4.9006823
20
84.2413635
11
4.6202823
21
85.0660635
0
LINE
8
DEFAULT_255_2_778
10
5.5925823
20
83.4682635
11
4.8464823
21
85.4671635
0
LINE
8
DEFAULT_255_2_778
10
4.8464823
20
85.4671635
11
4.4157823
21
85.4671635
0
LINE
8
DEFAULT_255_2_778
10
4.4157823
20
85.4671635
11
3.6751823
21
83.4682635
0
LINE
8
DEFAULT_255_2_778
10
3.6751823
20
83.4682635
11
4.0699823
21
83.4682635
0
LINE
8
DEFAULT_255_2_778
10
4.0699823
20
83.4682635
11
4.2363823
21
83.9264635
0
LINE
8
DEFAULT_255_2_778
10
4.2363823
20
83.9264635
11
5.0070823
21
83.9264635
0
LINE
8
DEFAULT_255_2_778
10
5.0070823
20
83.9264635
11
5.1703823
21
83.4682635
0
LINE
8
DEFAULT_255_2_778
10
5.1703823
20
83.4682635
11
5.5925823
21
83.4682635
0
ARC
8
DEFAULT_255_2_778
10
6.6333615
20
84.8883944
40
0.1970548
50
358.502518
51
78.7307607
0
ARC
8
DEFAULT_255_2_778
10
6.5006895
20
84.4999762
40
0.606339
50
73.6014023
51
88.1455905
0
ARC
8
DEFAULT_255_2_778
10
6.4697911
20
84.064235
40
1.042987
50
87.2236642
51
90.0519484
0
ARC
8
DEFAULT_255_2_778
10
6.4706595
20
83.7594562
40
1.3477664
50
90.0771148
51
93.2295159
0
ARC
8
DEFAULT_255_2_778
10
6.4880917
20
83.4246765
40
1.6829971
50
93.1799646
51
94.8106995
0
LINE
8
DEFAULT_255_2_778
10
6.346949
20
85.1017448
11
6.346949
21
84.6646448
0
ARC
8
DEFAULT_255_2_778
10
6.5032481
20
86.2009498
40
1.5442353
50
264.1908833
51
267.1704991
0
ARC
8
DEFAULT_255_2_778
10
6.485424
20
85.8489927
40
1.1918276
50
267.1910933
51
269.9452872
0
ARC
8
DEFAULT_255_2_778
10
6.4946888
20
85.3582798
40
0.7011915
50
269.1499235
51
282.2292741
0
ARC
8
DEFAULT_255_2_778
10
6.5905333
20
84.944734
40
0.2767945
50
280.972582
51
311.0658376
0
ARC
8
DEFAULT_255_2_778
10
6.6379139
20
84.8740243
40
0.1926559
50
314.2580617
51
2.7432062
0
ARC
8
DEFAULT_255_2_778
10
6.3905792
20
83.2497617
40
1.0392769
50
90.0274108
51
91.9371144
0
ARC
8
DEFAULT_255_2_778
10
6.4012572
20
83.6972375
40
0.5919068
50
76.5728178
51
91.0818036
0
ARC
8
DEFAULT_255_2_778
10
6.5010285
20
84.0819834
40
0.1946621
50
38.2928195
51
78.8405328
0
ARC
8
DEFAULT_255_2_778
10
6.544472
20
84.1257531
40
0.1336489
50
29.5392794
51
35.1051518
0
ARC
8
DEFAULT_255_2_778
10
6.8706958
20
84.2298004
40
0.2669496
50
27.422768
51
70.7631068
0
ARC
8
DEFAULT_255_2_778
10
6.8411029
20
84.966542
40
0.4987469
50
283.6318735
51
312.1008491
0
ARC
8
DEFAULT_255_2_778
10
6.8717793
20
84.9055028
40
0.4332722
50
314.5033138
51
354.6734162
0
ARC
8
DEFAULT_255_2_778
10
6.5882451
20
84.9559111
40
0.7206569
50
352.7753335
51
0.1691415
0
ARC
8
DEFAULT_255_2_778
10
6.4588501
20
84.9579655
40
0.850049
50
0.0049238
51
1.0771139
0
ARC
8
DEFAULT_255_2_778
10
6.8131164
20
84.963788
40
0.4957367
50
1.1739667
51
32.083556
0
ARC
8
DEFAULT_255_2_778
10
6.8477914
20
84.9624492
40
0.4674776
50
34.480645
51
70.2652748
0
ARC
8
DEFAULT_255_2_778
10
6.6837955
20
84.55253
40
0.9088363
50
69.2598066
51
83.7988651
0
ARC
8
DEFAULT_255_2_778
10
6.6001961
20
83.9034543
40
1.5631986
50
83.322457
51
90.2413643
0
ARC
8
DEFAULT_255_2_778
10
6.5939517
20
83.4364873
40
2.0301518
50
90.0096164
51
91.2645444
0
LINE
8
DEFAULT_255_2_778
10
6.549149
20
85.4661448
11
5.871549
21
85.4661448
0
LINE
8
DEFAULT_255_2_778
10
6.830349
20
84.8832448
11
6.830349
21
84.8832448
0
LINE
8
DEFAULT_255_2_778
10
5.871249
20
85.4666448
11
5.871249
21
83.5140448
0
LINE
8
DEFAULT_255_2_778
10
5.871249
20
83.5140448
11
6.355449
21
83.5140448
0
LINE
8
DEFAULT_255_2_778
10
6.355449
20
83.5140448
11
6.355449
21
84.2884448
0
LINE
8
DEFAULT_255_2_778
10
6.660749
20
84.1916448
11
6.891749
21
83.5219448
0
LINE
8
DEFAULT_255_2_778
10
6.891749
20
83.5219448
11
7.390749
21
83.5137448
0
LINE
8
DEFAULT_255_2_778
10
7.390749
20
83.5137448
11
7.107649
21
84.3527448
0
LINE
8
DEFAULT_255_2_778
10
5.871549
20
85.4661448
11
5.871249
21
85.4666448
0
LINE
8
DEFAULT_255_2_778
10
7.6074667
20
83.4933958
11
8.2511667
21
83.4933958
0
ARC
8
DEFAULT_255_2_778
10
8.2637773
20
85.0835086
40
1.5901628
50
269.5456171
51
280.7551565
0
ARC
8
DEFAULT_255_2_778
10
8.388863
20
84.4541583
40
0.9485408
50
280.4263299
51
300.0639607
0
ARC
8
DEFAULT_255_2_778
10
8.4860532
20
84.2612732
40
0.7330232
50
301.0421559
51
344.9659433
0
ARC
8
DEFAULT_255_2_778
10
8.0004193
20
84.4166869
40
1.242582
50
343.8535036
51
357.2465681
0
ARC
8
DEFAULT_255_2_778
10
7.3769303
20
84.3696279
40
1.8646792
50
359.611853
51
9.7100861
0
ARC
8
DEFAULT_255_2_778
10
8.0912671
20
84.4969221
40
1.1391173
50
9.4591739
51
26.1059064
0
ARC
8
DEFAULT_255_2_778
10
8.3946824
20
84.6397373
40
0.8038299
50
26.481318
51
77.0409404
0
ARC
8
DEFAULT_255_2_778
10
8.2280167
20
84.0652513
40
1.4014621
50
75.6675694
51
88.916818
0
ARC
8
DEFAULT_255_2_778
10
8.2021028
20
83.5929303
40
1.8742655
50
88.3977224
51
90.0102751
0
LINE
8
DEFAULT_255_2_778
10
8.2017667
20
85.4671958
11
7.6074667
21
85.4671958
0
LINE
8
DEFAULT_255_2_778
10
7.6074667
20
85.4671958
11
7.6074667
21
83.4933958
0
ARC
8
DEFAULT_255_2_778
10
7.8421513
20
84.4547001
40
1.0049104
50
3.228561
51
17.4239349
0
ARC
8
DEFAULT_255_2_778
10
8.2589252
20
84.5925361
40
0.5660262
50
16.7444034
51
48.5516751
0
ARC
8
DEFAULT_255_2_778
10
8.2636212
20
84.5700198
40
0.5800877
50
50.3717807
51
79.641787
0
ARC
8
DEFAULT_255_2_778
10
8.1799396
20
84.1892932
40
0.9697545
50
78.8227223
51
90.4259446
0
ARC
8
DEFAULT_255_2_778
10
8.1739651
20
83.8248654
40
1.3341563
50
90.0530268
51
93.5823914
0
ARC
8
DEFAULT_255_2_778
10
8.1900495
20
83.5658521
40
1.5936685
50
93.5776735
51
96.7126086
0
LINE
8
DEFAULT_255_2_778
10
8.0037667
20
85.1485958
11
8.0037667
21
83.7812958
0
ARC
8
DEFAULT_255_2_778
10
8.0164935
20
85.2486336
40
1.467393
50
269.5030639
51
280.6311245
0
ARC
8
DEFAULT_255_2_778
10
8.1412467
20
84.6135018
40
0.8201659
50
280.2511296
51
299.8981221
0
ARC
8
DEFAULT_255_2_778
10
8.2501112
20
84.4042181
40
0.5845552
50
300.8727813
51
350.8275114
0
ARC
8
DEFAULT_255_2_778
10
7.8266409
20
84.5043239
40
1.0190496
50
349.066192
51
0.3919985
0
LINE
8
DEFAULT_255_2_778
10
7.6074667
20
83.4933958
11
7.6074667
21
83.4933958
0
LINE
8
DEFAULT_255_2_778
10
8.8456667
20
84.5112958
11
8.8454667
21
84.5112958
0
ARC
8
DEFAULT_255_2_778
10
3.3901799
20
81.4993541
40
0.9821804
50
166.1403752
51
177.4943017
0
ARC
8
DEFAULT_255_2_778
10
3.0547697
20
81.5843745
40
0.636173
50
148.3460466
51
166.3384787
0
ARC
8
DEFAULT_255_2_778
10
2.9686741
20
81.6176261
40
0.5456966
50
92.9807965
51
146.5737549
0
ARC
8
DEFAULT_255_2_778
10
3.0396041
20
81.2203488
40
0.9474546
50
89.8957105
51
96.0164729
0
ARC
8
DEFAULT_255_2_778
10
3.0353607
20
80.910014
40
1.2578019
50
80.9019542
51
89.7281441
0
ARC
8
DEFAULT_255_2_778
10
2.9804735
20
80.5366259
40
1.6351786
50
76.5445774
51
81.0717268
0
ARC
8
DEFAULT_255_2_778
10
2.9090175
20
80.2377174
40
1.9425096
50
72.0324806
51
76.5462874
0
ARC
8
DEFAULT_255_2_778
10
2.8631267
20
79.9464084
40
2.5669718
50
74.7842802
51
78.0772312
0
ARC
8
DEFAULT_255_2_778
10
2.9369164
20
80.295453
40
2.2102128
50
78.0795026
51
81.4732778
0
ARC
8
DEFAULT_255_2_778
10
2.9823273
20
80.6007815
40
1.9015261
50
81.4623626
51
85.5242986
0
ARC
8
DEFAULT_255_2_778
10
3.0032864
20
80.8691073
40
1.6323829
50
85.522756
51
89.9448749
0
ARC
8
DEFAULT_255_2_778
10
2.997108
20
81.2227339
40
1.2787792
50
89.6528041
51
102.3415373
0
ARC
8
DEFAULT_255_2_778
10
2.9251636
20
81.5445961
40
0.948979
50
102.2517316
51
121.4350328
0
ARC
8
DEFAULT_255_2_778
10
2.9522896
20
81.5567933
40
0.9531759
50
123.2089354
51
172.6102749
0
ARC
8
DEFAULT_255_2_778
10
3.3767603
20
81.4487178
40
1.3890171
50
170.4407345
51
177.8307668
0
ARC
8
DEFAULT_255_2_778
10
3.5804477
20
81.5124474
40
1.5975816
50
184.9141506
51
193.9333447
0
ARC
8
DEFAULT_255_2_778
10
3.1079802
20
81.3932878
40
1.1103246
50
193.8359863
51
206.6463497
0
ARC
8
DEFAULT_255_2_778
10
2.8501702
20
81.2629802
40
0.8214559
50
206.5874378
51
226.5850389
0
ARC
8
DEFAULT_255_2_778
10
2.918515
20
81.3990614
40
0.9682713
50
229.1824649
51
270.6289962
0
ARC
8
DEFAULT_255_2_778
10
2.9896386
20
82.0624698
40
1.6327423
50
267.8766711
51
270.0151144
0
ARC
8
DEFAULT_255_2_778
10
2.9895603
20
82.212759
40
1.7830316
50
270.0163583
51
272.1562283
0
ARC
8
DEFAULT_255_2_778
10
2.9590614
20
82.7216124
40
2.2927001
50
272.4394206
51
280.6566316
0
ARC
8
DEFAULT_255_2_778
10
2.8672047
20
83.2770005
40
2.8555231
50
280.4071949
51
281.3267058
0
ARC
8
DEFAULT_255_2_778
10
3.079312
20
81.9754004
40
1.221817
50
270.2357146
51
291.2547092
0
ARC
8
DEFAULT_255_2_778
10
3.0400606
20
81.433512
40
0.6813584
50
270.0127731
51
273.7259814
0
ARC
8
DEFAULT_255_2_778
10
3.0391088
20
81.3668606
40
0.6147081
50
198.716901
51
270.1028753
0
ARC
8
DEFAULT_255_2_778
10
3.243894
20
81.4586733
40
0.8383945
50
179.5961919
51
200.1688139
0
ARC
8
DEFAULT_255_2_778
10
3.3803351
20
81.4641825
40
0.9748148
50
175.4157916
51
179.9765134
0
LINE
8
DEFAULT_255_2_778
10
3.5082386
20
82.0854938
11
3.5368386
21
82.4233938
0
LINE
8
DEFAULT_255_2_778
10
1.9887386
20
81.5012938
11
1.9887386
21
81.3755938
0
LINE
8
DEFAULT_255_2_778
10
3.4280386
20
80.4770938
11
3.5394386
21
80.5014938
0
LINE
8
DEFAULT_255_2_778
10
3.5394386
20
80.5014938
11
3.5222386
21
80.8366938
0
LINE
8
DEFAULT_255_2_778
10
2.4086386
20
81.5420938
11
2.4089386
21
81.5422938
0
ARC
8
DEFAULT_255_2_778
10
6.6293615
20
81.8882944
40
0.1970548
50
358.502518
51
78.7307607
0
ARC
8
DEFAULT_255_2_778
10
6.4966895
20
81.4998762
40
0.606339
50
73.6014023
51
88.1455905
0
ARC
8
DEFAULT_255_2_778
10
6.4657911
20
81.064135
40
1.042987
50
87.2236642
51
90.0519484
0
ARC
8
DEFAULT_255_2_778
10
6.4666595
20
80.7593562
40
1.3477664
50
90.0771148
51
93.2295159
0
ARC
8
DEFAULT_255_2_778
10
6.4840917
20
80.4245765
40
1.6829971
50
93.1799646
51
94.8106995
0
LINE
8
DEFAULT_255_2_778
10
6.342949
20
82.1016448
11
6.342949
21
81.6645448
0
ARC
8
DEFAULT_255_2_778
10
6.4992481
20
83.2008498
40
1.5442353
50
264.1908833
51
267.1704991
0
ARC
8
DEFAULT_255_2_778
10
6.481424
20
82.8488927
40
1.1918276
50
267.1910933
51
269.9452872
0
ARC
8
DEFAULT_255_2_778
10
6.4906888
20
82.3581798
40
0.7011915
50
269.1499235
51
282.2292741
0
ARC
8
DEFAULT_255_2_778
10
6.5865333
20
81.944634
40
0.2767945
50
280.972582
51
311.0658376
0
ARC
8
DEFAULT_255_2_778
10
6.6339139
20
81.8739243
40
0.1926559
50
314.2580617
51
2.7432062
0
ARC
8
DEFAULT_255_2_778
10
6.3865792
20
80.2496617
40
1.0392769
50
90.0274108
51
91.9371144
0
ARC
8
DEFAULT_255_2_778
10
6.3972572
20
80.6971375
40
0.5919068
50
76.5728178
51
91.0818036
0
ARC
8
DEFAULT_255_2_778
10
6.4970285
20
81.0818834
40
0.1946621
50
38.2928195
51
78.8405328
0
ARC
8
DEFAULT_255_2_778
10
6.540472
20
81.1256531
40
0.1336489
50
29.5392794
51
35.1051518
0
ARC
8
DEFAULT_255_2_778
10
6.8666958
20
81.2297004
40
0.2669496
50
27.422768
51
70.7631068
0
ARC
8
DEFAULT_255_2_778
10
6.8371029
20
81.966442
40
0.4987469
50
283.6318735
51
312.1008491
0
ARC
8
DEFAULT_255_2_778
10
6.8677793
20
81.9054028
40
0.4332722
50
314.5033138
51
354.6734162
0
ARC
8
DEFAULT_255_2_778
10
6.5842451
20
81.9558111
40
0.7206569
50
352.7753335
51
0.1691415
0
ARC
8
DEFAULT_255_2_778
10
6.4548501
20
81.9578655
40
0.850049
50
0.0049238
51
1.0771139
0
ARC
8
DEFAULT_255_2_778
10
6.8091164
20
81.963688
40
0.4957367
50
1.1739667
51
32.083556
0
ARC
8
DEFAULT_255_2_778
10
6.8437914
20
81.9623492
40
0.4674776
50
34.480645
51
70.2652748
0
ARC
8
DEFAULT_255_2_778
10
6.6797955
20
81.55243
40
0.9088363
50
69.2598066
51
83.7988651
0
ARC
8
DEFAULT_255_2_778
10
6.5961961
20
80.9033543
40
1.5631986
50
83.322457
51
90.2413643
0
ARC
8
DEFAULT_255_2_778
10
6.5899517
20
80.4363873
40
2.0301518
50
90.0096164
51
91.2645444
0
LINE
8
DEFAULT_255_2_778
10
6.545149
20
82.4660448
11
5.867549
21
82.4660448
0
LINE
8
DEFAULT_255_2_778
10
6.826349
20
81.8831448
11
6.826349
21
81.8831448
0
LINE
8
DEFAULT_255_2_778
10
5.867249
20
82.4665448
11
5.867249
21
80.5139448
0
LINE
8
DEFAULT_255_2_778
10
5.867249
20
80.5139448
11
6.351449
21
80.5139448
0
LINE
8
DEFAULT_255_2_778
10
6.351449
20
80.5139448
11
6.351449
21
81.2883448
0
LINE
8
DEFAULT_255_2_778
10
6.656749
20
81.1915448
11
6.887749
21
80.5218448
0
LINE
8
DEFAULT_255_2_778
10
6.887749
20
80.5218448
11
7.386749
21
80.5136448
0
LINE
8
DEFAULT_255_2_778
10
7.386749
20
80.5136448
11
7.103649
21
81.3526448
0
LINE
8
DEFAULT_255_2_778
10
5.867549
20
82.4660448
11
5.867249
21
82.4665448
0
LINE
8
DEFAULT_255_2_778
10
7.6034667
20
80.4932958
11
8.2471667
21
80.4932958
0
ARC
8
DEFAULT_255_2_778
10
8.2597773
20
82.0834086
40
1.5901628
50
269.5456171
51
280.7551565
0
ARC
8
DEFAULT_255_2_778
10
8.384863
20
81.4540583
40
0.9485408
50
280.4263299
51
300.0639607
0
ARC
8
DEFAULT_255_2_778
10
8.4820532
20
81.2611732
40
0.7330232
50
301.0421559
51
344.9659433
0
ARC
8
DEFAULT_255_2_778
10
7.9964193
20
81.4165869
40
1.242582
50
343.8535036
51
357.2465681
0
ARC
8
DEFAULT_255_2_778
10
7.3729303
20
81.3695279
40
1.8646792
50
359.611853
51
9.7100861
0
ARC
8
DEFAULT_255_2_778
10
8.0872671
20
81.4968221
40
1.1391173
50
9.4591739
51
26.1059064
0
ARC
8
DEFAULT_255_2_778
10
8.3906824
20
81.6396373
40
0.8038299
50
26.481318
51
77.0409404
0
ARC
8
DEFAULT_255_2_778
10
8.2240167
20
81.0651513
40
1.4014621
50
75.6675694
51
88.916818
0
ARC
8
DEFAULT_255_2_778
10
8.1981028
20
80.5928303
40
1.8742655
50
88.3977224
51
90.0102751
0
LINE
8
DEFAULT_255_2_778
10
8.1977667
20
82.4670958
11
7.6034667
21
82.4670958
0
LINE
8
DEFAULT_255_2_778
10
7.6034667
20
82.4670958
11
7.6034667
21
80.4932958
0
ARC
8
DEFAULT_255_2_778
10
7.8381513
20
81.4546001
40
1.0049104
50
3.228561
51
17.4239349
0
ARC
8
DEFAULT_255_2_778
10
8.2549252
20
81.5924361
40
0.5660262
50
16.7444034
51
48.5516751
0
ARC
8
DEFAULT_255_2_778
10
8.2596212
20
81.5699198
40
0.5800877
50
50.3717807
51
79.641787
0
ARC
8
DEFAULT_255_2_778
10
8.1759396
20
81.1891932
40
0.9697545
50
78.8227223
51
90.4259446
0
ARC
8
DEFAULT_255_2_778
10
8.1699651
20
80.8247654
40
1.3341563
50
90.0530268
51
93.5823914
0
ARC
8
DEFAULT_255_2_778
10
8.1860495
20
80.5657521
40
1.5936685
50
93.5776735
51
96.7126086
0
LINE
8
DEFAULT_255_2_778
10
7.9997667
20
82.1484958
11
7.9997667
21
80.7811958
0
ARC
8
DEFAULT_255_2_778
10
8.0124935
20
82.2485336
40
1.467393
50
269.5030639
51
280.6311245
0
ARC
8
DEFAULT_255_2_778
10
8.1372467
20
81.6134018
40
0.8201659
50
280.2511296
51
299.8981221
0
ARC
8
DEFAULT_255_2_778
10
8.2461112
20
81.4041181
40
0.5845552
50
300.8727813
51
350.8275114
0
ARC
8
DEFAULT_255_2_778
10
7.8226409
20
81.5042239
40
1.0190496
50
349.066192
51
0.3919985
0
LINE
8
DEFAULT_255_2_778
10
7.6034667
20
80.4932958
11
7.6034667
21
80.4932958
0
LINE
8
DEFAULT_255_2_778
10
8.8416667
20
81.5111958
11
8.8414667
21
81.5111958
0
LINE
8
DEFAULT_255_2_778
10
4.6215471
20
82.0659958
11
4.8964471
21
81.2412958
0
LINE
8
DEFAULT_255_2_778
10
4.8964471
20
81.2412958
11
4.3411471
21
81.2412958
0
LINE
8
DEFAULT_255_2_778
10
4.3411471
20
81.2412958
11
4.6160471
21
82.0659958
0
LINE
8
DEFAULT_255_2_778
10
4.6160471
20
82.0659958
11
4.6215471
21
82.0659958
0
LINE
8
DEFAULT_255_2_778
10
4.0659471
20
80.4681958
11
4.2323471
21
80.9263958
0
LINE
8
DEFAULT_255_2_778
10
4.2323471
20
80.9263958
11
5.0028471
21
80.9263958
0
LINE
8
DEFAULT_255_2_778
10
5.0028471
20
80.9263958
11
5.1660471
21
80.4681958
0
LINE
8
DEFAULT_255_2_778
10
5.1660471
20
80.4681958
11
5.5880471
21
80.4681958
0
LINE
8
DEFAULT_255_2_778
10
5.5880471
20
80.4681958
11
4.8419471
21
82.4670958
0
LINE
8
DEFAULT_255_2_778
10
4.8419471
20
82.4670958
11
4.4117471
21
82.4670958
0
LINE
8
DEFAULT_255_2_778
10
4.4117471
20
82.4670958
11
3.6706471
21
80.4681958
0
LINE
8
DEFAULT_255_2_778
10
3.6706471
20
80.4681958
11
4.0659471
21
80.4681958
0
LINE
8
DEFAULT_255_2_778
10
15.7427471
20
80.7829958
11
15.7427471
21
81.3444958
0
LINE
8
DEFAULT_255_2_778
10
15.7427471
20
81.3444958
11
16.3701471
21
81.3444958
0
LINE
8
DEFAULT_255_2_778
10
16.3701471
20
81.3444958
11
16.3701471
21
81.6592958
0
LINE
8
DEFAULT_255_2_778
10
16.3701471
20
81.6592958
11
15.7427471
21
81.6592958
0
LINE
8
DEFAULT_255_2_778
10
15.7427471
20
81.6592958
11
15.7427471
21
82.1519958
0
LINE
8
DEFAULT_255_2_778
10
15.7427471
20
82.1519958
11
16.4280471
21
82.1519958
0
LINE
8
DEFAULT_255_2_778
10
16.4280471
20
82.1519958
11
16.4280471
21
82.4667958
0
LINE
8
DEFAULT_255_2_778
10
16.4280471
20
82.4667958
11
15.3901471
21
82.4667958
0
LINE
8
DEFAULT_255_2_778
10
15.3901471
20
82.4667958
11
15.3901471
21
80.4678958
0
LINE
8
DEFAULT_255_2_778
10
15.3901471
20
80.4678958
11
16.4333471
21
80.4678958
0
LINE
8
DEFAULT_255_2_778
10
16.4333471
20
80.4678958
11
16.4333471
21
80.7827958
0
LINE
8
DEFAULT_255_2_778
10
16.4333471
20
80.7827958
11
15.7427471
21
80.7829958
0
ARC
8
DEFAULT_255_2_778
10
13.4990799
20
81.4993541
40
0.9821804
50
166.1403752
51
177.4943017
0
ARC
8
DEFAULT_255_2_778
10
13.1636697
20
81.5843745
40
0.636173
50
148.3460466
51
166.3384787
0
ARC
8
DEFAULT_255_2_778
10
13.0775741
20
81.6176261
40
0.5456966
50
92.9807965
51
146.5737549
0
ARC
8
DEFAULT_255_2_778
10
13.1485041
20
81.2203488
40
0.9474546
50
89.8957105
51
96.0164729
0
ARC
8
DEFAULT_255_2_778
10
13.1442607
20
80.910014
40
1.2578019
50
80.9019542
51
89.7281441
0
ARC
8
DEFAULT_255_2_778
10
13.0893735
20
80.5366259
40
1.6351786
50
76.5445774
51
81.0717268
0
ARC
8
DEFAULT_255_2_778
10
13.0179175
20
80.2377174
40
1.9425096
50
72.0324806
51
76.5462874
0
ARC
8
DEFAULT_255_2_778
10
12.9720267
20
79.9464084
40
2.5669718
50
74.7842802
51
78.0772312
0
ARC
8
DEFAULT_255_2_778
10
13.0458164
20
80.295453
40
2.2102128
50
78.0795026
51
81.4732778
0
ARC
8
DEFAULT_255_2_778
10
13.0912273
20
80.6007815
40
1.9015261
50
81.4623626
51
85.5242986
0
ARC
8
DEFAULT_255_2_778
10
13.1121864
20
80.8691073
40
1.6323829
50
85.522756
51
89.9448749
0
ARC
8
DEFAULT_255_2_778
10
13.106008
20
81.2227339
40
1.2787792
50
89.6528041
51
102.3415373
0
ARC
8
DEFAULT_255_2_778
10
13.0340636
20
81.5445961
40
0.948979
50
102.2517316
51
121.4350328
0
ARC
8
DEFAULT_255_2_778
10
13.0611896
20
81.5567933
40
0.9531759
50
123.2089354
51
172.6102749
0
ARC
8
DEFAULT_255_2_778
10
13.4856603
20
81.4487178
40
1.3890171
50
170.4407345
51
177.8307668
0
ARC
8
DEFAULT_255_2_778
10
13.6893477
20
81.5124474
40
1.5975816
50
184.9141506
51
193.9333447
0
ARC
8
DEFAULT_255_2_778
10
13.2168802
20
81.3932878
40
1.1103246
50
193.8359863
51
206.6463497
0
ARC
8
DEFAULT_255_2_778
10
12.9590702
20
81.2629802
40
0.8214559
50
206.5874378
51
226.5850389
0
ARC
8
DEFAULT_255_2_778
10
13.027415
20
81.3990614
40
0.9682713
50
229.1824649
51
270.6289962
0
ARC
8
DEFAULT_255_2_778
10
13.0985386
20
82.0624698
40
1.6327423
50
267.8766711
51
270.0151144
0
ARC
8
DEFAULT_255_2_778
10
13.0984603
20
82.212759
40
1.7830316
50
270.0163583
51
272.1562283
0
ARC
8
DEFAULT_255_2_778
10
13.0679614
20
82.7216124
40
2.2927001
50
272.4394206
51
280.6566316
0
ARC
8
DEFAULT_255_2_778
10
12.9761047
20
83.2770005
40
2.8555231
50
280.4071949
51
281.3267058
0
ARC
8
DEFAULT_255_2_778
10
13.188212
20
81.9754004
40
1.221817
50
270.2357146
51
291.2547092
0
ARC
8
DEFAULT_255_2_778
10
13.1489606
20
81.433512
40
0.6813584
50
270.0127731
51
273.7259814
0
ARC
8
DEFAULT_255_2_778
10
13.1480088
20
81.3668606
40
0.6147081
50
198.716901
51
270.1028753
0
ARC
8
DEFAULT_255_2_778
10
13.352794
20
81.4586733
40
0.8383945
50
179.5961919
51
200.1688139
0
ARC
8
DEFAULT_255_2_778
10
13.4892351
20
81.4641825
40
0.9748148
50
175.4157916
51
179.9765134
0
LINE
8
DEFAULT_255_2_778
10
13.6171386
20
82.0854938
11
13.6457386
21
82.4233938
0
LINE
8
DEFAULT_255_2_778
10
12.0976386
20
81.5012938
11
12.0976386
21
81.3755938
0
LINE
8
DEFAULT_255_2_778
10
13.5369386
20
80.4770938
11
13.6483386
21
80.5014938
0
LINE
8
DEFAULT_255_2_778
10
13.6483386
20
80.5014938
11
13.6311386
21
80.8366938
0
LINE
8
DEFAULT_255_2_778
10
12.5175386
20
81.5420938
11
12.5178386
21
81.5422938
0
ARC
8
DEFAULT_255_2_778
10
15.0767799
20
81.4993541
40
0.9821804
50
166.1403752
51
177.4943017
0
ARC
8
DEFAULT_255_2_778
10
14.7413697
20
81.5843745
40
0.636173
50
148.3460466
51
166.3384787
0
ARC
8
DEFAULT_255_2_778
10
14.6552741
20
81.6176261
40
0.5456966
50
92.9807965
51
146.5737549
0
ARC
8
DEFAULT_255_2_778
10
14.7262041
20
81.2203488
40
0.9474546
50
89.8957105
51
96.0164729
0
ARC
8
DEFAULT_255_2_778
10
14.7219607
20
80.910014
40
1.2578019
50
80.9019542
51
89.7281441
0
ARC
8
DEFAULT_255_2_778
10
14.6670735
20
80.5366259
40
1.6351786
50
76.5445774
51
81.0717268
0
ARC
8
DEFAULT_255_2_778
10
14.5956175
20
80.2377174
40
1.9425096
50
72.0324806
51
76.5462874
0
ARC
8
DEFAULT_255_2_778
10
14.5497267
20
79.9464084
40
2.5669718
50
74.7842802
51
78.0772312
0
ARC
8
DEFAULT_255_2_778
10
14.6235164
20
80.295453
40
2.2102128
50
78.0795026
51
81.4732778
0
ARC
8
DEFAULT_255_2_778
10
14.6689273
20
80.6007815
40
1.9015261
50
81.4623626
51
85.5242986
0
ARC
8
DEFAULT_255_2_778
10
14.6898864
20
80.8691073
40
1.6323829
50
85.522756
51
89.9448749
0
ARC
8
DEFAULT_255_2_778
10
14.683708
20
81.2227339
40
1.2787792
50
89.6528041
51
102.3415373
0
ARC
8
DEFAULT_255_2_778
10
14.6117636
20
81.5445961
40
0.948979
50
102.2517316
51
121.4350328
0
ARC
8
DEFAULT_255_2_778
10
14.6388896
20
81.5567933
40
0.9531759
50
123.2089354
51
172.6102749
0
ARC
8
DEFAULT_255_2_778
10
15.0633603
20
81.4487178
40
1.3890171
50
170.4407345
51
177.8307668
0
ARC
8
DEFAULT_255_2_778
10
15.2670477
20
81.5124474
40
1.5975816
50
184.9141506
51
193.9333447
0
ARC
8
DEFAULT_255_2_778
10
14.7945802
20
81.3932878
40
1.1103246
50
193.8359863
51
206.6463497
0
ARC
8
DEFAULT_255_2_778
10
14.5367702
20
81.2629802
40
0.8214559
50
206.5874378
51
226.5850389
0
ARC
8
DEFAULT_255_2_778
10
14.605115
20
81.3990614
40
0.9682713
50
229.1824649
51
270.6289962
0
ARC
8
DEFAULT_255_2_778
10
14.6762386
20
82.0624698
40
1.6327423
50
267.8766711
51
270.0151144
0
ARC
8
DEFAULT_255_2_778
10
14.6761603
20
82.212759
40
1.7830316
50
270.0163583
51
272.1562283
0
ARC
8
DEFAULT_255_2_778
10
14.6456614
20
82.7216124
40
2.2927001
50
272.4394206
51
280.6566316
0
ARC
8
DEFAULT_255_2_778
10
14.5538047
20
83.2770005
40
2.8555231
50
280.4071949
51
281.3267058
0
ARC
8
DEFAULT_255_2_778
10
14.765912
20
81.9754004
40
1.221817
50
270.2357146
51
291.2547092
0
ARC
8
DEFAULT_255_2_778
10
14.7266606
20
81.433512
40
0.6813584
50
270.0127731
51
273.7259814
0
ARC
8
DEFAULT_255_2_778
10
14.7257088
20
81.3668606
40
0.6147081
50
198.716901
51
270.1028753
0
ARC
8
DEFAULT_255_2_778
10
14.930494
20
81.4586733
40
0.8383945
50
179.5961919
51
200.1688139
0
ARC
8
DEFAULT_255_2_778
10
15.0669351
20
81.4641825
40
0.9748148
50
175.4157916
51
179.9765134
0
LINE
8
DEFAULT_255_2_778
10
15.1948386
20
82.0854938
11
15.2234386
21
82.4233938
0
LINE
8
DEFAULT_255_2_778
10
13.6753386
20
81.5012938
11
13.6753386
21
81.3755938
0
LINE
8
DEFAULT_255_2_778
10
15.1146386
20
80.4770938
11
15.2260386
21
80.5014938
0
LINE
8
DEFAULT_255_2_778
10
15.2260386
20
80.5014938
11
15.2088386
21
80.8366938
0
LINE
8
DEFAULT_255_2_778
10
14.0952386
20
81.5420938
11
14.0955386
21
81.5422938
0
ARC
8
DEFAULT_255_2_778
10
17.3530306
20
80.7666649
40
1.4564011
50
67.0748029
51
73.6197568
0
ARC
8
DEFAULT_255_2_778
10
17.4994359
20
81.2710157
40
0.931235
50
73.5108925
51
82.9298878
0
ARC
8
DEFAULT_255_2_778
10
17.5364193
20
81.5467865
40
0.6530149
50
83.1719901
51
89.8620033
0
ARC
8
DEFAULT_255_2_778
10
17.5303627
20
81.7595902
40
0.4402754
50
89.0070826
51
113.0684385
0
ARC
8
DEFAULT_255_2_778
10
17.5072225
20
81.829191
40
0.3672217
50
114.0018014
51
139.5105456
0
ARC
8
DEFAULT_255_2_778
10
17.5390232
20
81.9023799
40
0.3522499
50
152.0221582
51
164.6890712
0
ARC
8
DEFAULT_255_2_778
10
17.4223412
20
81.9348226
40
0.231143
50
164.8081784
51
179.6099916
0
ARC
8
DEFAULT_255_2_778
10
17.3943565
20
81.9407311
40
0.2031992
50
181.2224741
51
234.9649502
0
ARC
8
DEFAULT_255_2_778
10
17.5881502
20
82.1798995
40
0.5107306
50
232.566056
51
248.5605949
0
ARC
8
DEFAULT_255_2_778
10
17.7872492
20
82.6529761
40
1.0239217
50
247.8664462
51
254.9595784
0
ARC
8
DEFAULT_255_2_778
10
17.0836862
20
80.3050655
40
1.4278571
50
62.8230791
51
72.1424339
0
ARC
8
DEFAULT_255_2_778
10
17.3610436
20
80.8370325
40
0.8279474
50
47.8582258
51
63.0837586
0
ARC
8
DEFAULT_255_2_778
10
17.5994476
20
81.0894526
40
0.4808771
50
359.5318888
51
48.740885
0
ARC
8
DEFAULT_255_2_778
10
17.4415301
20
81.0885635
40
0.638786
50
348.4325169
51
359.727359
0
ARC
8
DEFAULT_255_2_778
10
17.2187616
20
81.1329996
40
0.8659411
50
340.5351731
51
348.5077061
0
ARC
8
DEFAULT_255_2_778
10
17.0464272
20
81.1902356
40
1.0475045
50
339.1046838
51
340.7245316
0
ARC
8
DEFAULT_255_2_778
10
17.2471297
20
81.2507268
40
0.8908341
50
315.3650501
51
330.837286
0
ARC
8
DEFAULT_255_2_778
10
17.4086077
20
81.0960961
40
0.667294
50
269.1243982
51
315.0716104
0
ARC
8
DEFAULT_255_2_778
10
17.3892127
20
81.3137725
40
0.8849403
50
270.0004848
51
270.5955179
0
ARC
8
DEFAULT_255_2_778
10
17.3942808
20
81.4676865
40
1.0388668
50
259.5805008
51
269.7208928
0
ARC
8
DEFAULT_255_2_778
10
17.4663342
20
81.8697568
40
1.4473391
50
252.3498063
51
259.6537677
0
ARC
8
DEFAULT_255_2_778
10
17.627996
20
82.3838612
40
1.9862596
50
246.957285
51
252.402516
0
ARC
8
DEFAULT_255_2_778
10
17.7820165
20
82.7595973
40
2.3923091
50
245.9754696
51
247.085128
0
ARC
8
DEFAULT_255_2_778
10
-9.5295888
20
83.9745095
40
26.5561782
50
352.644251
51
353.3896026
0
ARC
8
DEFAULT_255_2_778
10
17.5222479
20
82.3605224
40
1.5919721
50
245.0234149
51
251.4499317
0
ARC
8
DEFAULT_255_2_778
10
17.3494277
20
81.8398868
40
1.0434072
50
251.3516378
51
260.5009999
0
ARC
8
DEFAULT_255_2_778
10
17.2939586
20
81.5165815
40
0.7153821
50
260.6093848
51
269.759529
0
ARC
8
DEFAULT_255_2_778
10
17.2985463
20
81.2832999
40
0.482154
50
269.0980051
51
294.093184
0
ARC
8
DEFAULT_255_2_778
10
17.3130043
20
81.2352724
40
0.4324557
50
294.9421356
51
316.4893104
0
ARC
8
DEFAULT_255_2_778
10
17.3715424
20
81.0839178
40
0.2941164
50
330.1508879
51
344.732004
0
ARC
8
DEFAULT_255_2_778
10
17.4625403
20
81.0580421
40
0.1995187
50
345.0190518
51
359.7022856
0
ARC
8
DEFAULT_255_2_778
10
17.465615
20
81.0511512
40
0.1965287
50
1.7069905
51
51.6227309
0
ARC
8
DEFAULT_255_2_778
10
17.2597426
20
80.8234468
40
0.503247
50
49.3423202
51
65.2040831
0
ARC
8
DEFAULT_255_2_778
10
16.9965422
20
80.2764135
40
1.1102714
50
64.7129797
51
73.3536901
0
ARC
8
DEFAULT_255_2_778
10
16.8638322
20
79.8770472
40
1.5309704
50
72.8767235
51
72.9884011
0
ARC
8
DEFAULT_255_2_778
10
17.55024
20
82.3861104
40
1.0719481
50
243.4845307
51
257.1446135
0
ARC
8
DEFAULT_255_2_778
10
17.3173806
20
81.9346735
40
0.5640798
50
215.4613167
51
244.1779426
0
ARC
8
DEFAULT_255_2_778
10
17.2610569
20
81.8777649
40
0.4853807
50
183.7959586
51
213.8467366
0
ARC
8
DEFAULT_255_2_778
10
17.8975533
20
81.8737556
40
1.1211651
50
180.0079389
51
181.4374282
0
ARC
8
DEFAULT_255_2_778
10
17.5941135
20
81.8835203
40
0.8177855
50
165.0237815
51
180.6950351
0
ARC
8
DEFAULT_255_2_778
10
17.2892789
20
81.968568
40
0.5013387
50
108.4479409
51
165.4105404
0
ARC
8
DEFAULT_255_2_778
10
17.4371185
20
81.5936609
40
0.9040209
50
95.6672652
51
109.8174139
0
ARC
8
DEFAULT_255_2_778
10
17.4986758
20
81.0832248
40
1.4180823
50
89.8259698
51
96.1056568
0
ARC
8
DEFAULT_255_2_778
10
17.5000479
20
80.5854065
40
1.9158964
50
85.9437945
51
89.9122234
0
ARC
8
DEFAULT_255_2_778
10
17.4618739
20
80.0380953
40
2.4645371
50
82.6699819
51
85.9585717
0
ARC
8
DEFAULT_255_2_778
10
17.3792348
20
79.3901221
40
3.1177583
50
79.9719722
51
82.6829827
0
ARC
8
DEFAULT_255_2_778
10
17.2955551
20
78.9005605
40
3.6144131
50
79.198185
51
80.0170884
0
LINE
8
DEFAULT_255_2_778
10
17.9729411
20
82.4509309
11
17.9309411
21
82.1181309
0
ARC
8
DEFAULT_255_2_778
10
18.7675306
20
80.7666649
40
1.4564011
50
67.0748029
51
73.6197568
0
ARC
8
DEFAULT_255_2_778
10
18.9139359
20
81.2710157
40
0.931235
50
73.5108925
51
82.9298878
0
ARC
8
DEFAULT_255_2_778
10
18.9509193
20
81.5467865
40
0.6530149
50
83.1719901
51
89.8620033
0
ARC
8
DEFAULT_255_2_778
10
18.9448627
20
81.7595902
40
0.4402754
50
89.0070826
51
113.0684385
0
ARC
8
DEFAULT_255_2_778
10
18.9217225
20
81.829191
40
0.3672217
50
114.0018014
51
139.5105456
0
ARC
8
DEFAULT_255_2_778
10
18.9535232
20
81.9023799
40
0.3522499
50
152.0221582
51
164.6890712
0
ARC
8
DEFAULT_255_2_778
10
18.8368412
20
81.9348226
40
0.231143
50
164.8081784
51
179.6099916
0
ARC
8
DEFAULT_255_2_778
10
18.8088565
20
81.9407311
40
0.2031992
50
181.2224741
51
234.9649502
0
ARC
8
DEFAULT_255_2_778
10
19.0026502
20
82.1798995
40
0.5107306
50
232.566056
51
248.5605949
0
ARC
8
DEFAULT_255_2_778
10
19.2017492
20
82.6529761
40
1.0239217
50
247.8664462
51
254.9595784
0
ARC
8
DEFAULT_255_2_778
10
18.4981862
20
80.3050655
40
1.4278571
50
62.8230791
51
72.1424339
0
ARC
8
DEFAULT_255_2_778
10
18.7755436
20
80.8370325
40
0.8279474
50
47.8582258
51
63.0837586
0
ARC
8
DEFAULT_255_2_778
10
19.0139476
20
81.0894526
40
0.4808771
50
359.5318888
51
48.740885
0
ARC
8
DEFAULT_255_2_778
10
18.8560301
20
81.0885635
40
0.638786
50
348.4325169
51
359.727359
0
ARC
8
DEFAULT_255_2_778
10
18.6332616
20
81.1329996
40
0.8659411
50
340.5351731
51
348.5077061
0
ARC
8
DEFAULT_255_2_778
10
18.4609272
20
81.1902356
40
1.0475045
50
339.1046838
51
340.7245316
0
ARC
8
DEFAULT_255_2_778
10
18.6616297
20
81.2507268
40
0.8908341
50
315.3650501
51
330.837286
0
ARC
8
DEFAULT_255_2_778
10
18.8231077
20
81.0960961
40
0.667294
50
269.1243982
51
315.0716104
0
ARC
8
DEFAULT_255_2_778
10
18.8037127
20
81.3137725
40
0.8849403
50
270.0004848
51
270.5955179
0
ARC
8
DEFAULT_255_2_778
10
18.8087808
20
81.4676865
40
1.0388668
50
259.5805008
51
269.7208928
0
ARC
8
DEFAULT_255_2_778
10
18.8808342
20
81.8697568
40
1.4473391
50
252.3498063
51
259.6537677
0
ARC
8
DEFAULT_255_2_778
10
19.042496
20
82.3838612
40
1.9862596
50
246.957285
51
252.402516
0
ARC
8
DEFAULT_255_2_778
10
19.1965165
20
82.7595973
40
2.3923091
50
245.9754696
51
247.085128
0
ARC
8
DEFAULT_255_2_778
10
-8.1150888
20
83.9745095
40
26.5561782
50
352.644251
51
353.3896026
0
ARC
8
DEFAULT_255_2_778
10
18.9367479
20
82.3605224
40
1.5919721
50
245.0234149
51
251.4499317
0
ARC
8
DEFAULT_255_2_778
10
18.7639277
20
81.8398868
40
1.0434072
50
251.3516378
51
260.5009999
0
ARC
8
DEFAULT_255_2_778
10
18.7084586
20
81.5165815
40
0.7153821
50
260.6093848
51
269.759529
0
ARC
8
DEFAULT_255_2_778
10
18.7130463
20
81.2832999
40
0.482154
50
269.0980051
51
294.093184
0
ARC
8
DEFAULT_255_2_778
10
18.7275043
20
81.2352724
40
0.4324557
50
294.9421356
51
316.4893104
0
ARC
8
DEFAULT_255_2_778
10
18.7860424
20
81.0839178
40
0.2941164
50
330.1508879
51
344.732004
0
ARC
8
DEFAULT_255_2_778
10
18.8770403
20
81.0580421
40
0.1995187
50
345.0190518
51
359.7022856
0
ARC
8
DEFAULT_255_2_778
10
18.880115
20
81.0511512
40
0.1965287
50
1.7069905
51
51.6227309
0
ARC
8
DEFAULT_255_2_778
10
18.6742426
20
80.8234468
40
0.503247
50
49.3423202
51
65.2040831
0
ARC
8
DEFAULT_255_2_778
10
18.4110422
20
80.2764135
40
1.1102714
50
64.7129797
51
73.3536901
0
ARC
8
DEFAULT_255_2_778
10
18.2783322
20
79.8770472
40
1.5309704
50
72.8767235
51
72.9884011
0
ARC
8
DEFAULT_255_2_778
10
18.96474
20
82.3861104
40
1.0719481
50
243.4845307
51
257.1446135
0
ARC
8
DEFAULT_255_2_778
10
18.7318806
20
81.9346735
40
0.5640798
50
215.4613167
51
244.1779426
0
ARC
8
DEFAULT_255_2_778
10
18.6755569
20
81.8777649
40
0.4853807
50
183.7959586
51
213.8467366
0
ARC
8
DEFAULT_255_2_778
10
19.3120533
20
81.8737556
40
1.1211651
50
180.0079389
51
181.4374282
0
ARC
8
DEFAULT_255_2_778
10
19.0086135
20
81.8835203
40
0.8177855
50
165.0237815
51
180.6950351
0
ARC
8
DEFAULT_255_2_778
10
18.7037789
20
81.968568
40
0.5013387
50
108.4479409
51
165.4105404
0
ARC
8
DEFAULT_255_2_778
10
18.8516185
20
81.5936609
40
0.9040209
50
95.6672652
51
109.8174139
0
ARC
8
DEFAULT_255_2_778
10
18.9131758
20
81.0832248
40
1.4180823
50
89.8259698
51
96.1056568
0
ARC
8
DEFAULT_255_2_778
10
18.9145479
20
80.5854065
40
1.9158964
50
85.9437945
51
89.9122234
0
ARC
8
DEFAULT_255_2_778
10
18.8763739
20
80.0380953
40
2.4645371
50
82.6699819
51
85.9585717
0
ARC
8
DEFAULT_255_2_778
10
18.7937348
20
79.3901221
40
3.1177583
50
79.9719722
51
82.6829827
0
ARC
8
DEFAULT_255_2_778
10
18.7100551
20
78.9005605
40
3.6144131
50
79.198185
51
80.0170884
0
LINE
8
DEFAULT_255_2_778
10
19.3874411
20
82.4509309
11
19.3454411
21
82.1181309
0
LINE
8
DEFAULT_255_2_778
10
11.069149
20
82.0659635
11
11.073949
21
82.0659635
0
LINE
8
DEFAULT_255_2_778
10
11.073949
20
82.0659635
11
11.328449
21
81.2412635
0
LINE
8
DEFAULT_255_2_778
10
11.328449
20
81.2412635
11
10.814449
21
81.2412635
0
LINE
8
DEFAULT_255_2_778
10
10.814449
20
81.2412635
11
11.073949
21
82.0659635
0
LINE
8
DEFAULT_255_2_778
10
10.559849
20
80.4681635
11
10.713549
21
80.9263635
0
LINE
8
DEFAULT_255_2_778
10
10.713549
20
80.9263635
11
11.426649
21
80.9263635
0
LINE
8
DEFAULT_255_2_778
10
11.426649
20
80.9263635
11
11.577949
21
80.4681635
0
LINE
8
DEFAULT_255_2_778
10
11.577949
20
80.4681635
11
11.968249
21
80.4681635
0
LINE
8
DEFAULT_255_2_778
10
11.968249
20
80.4681635
11
11.277949
21
82.4670635
0
LINE
8
DEFAULT_255_2_778
10
11.277949
20
82.4670635
11
10.880249
21
82.4670635
0
LINE
8
DEFAULT_255_2_778
10
10.880249
20
82.4670635
11
10.194749
21
80.4681635
0
LINE
8
DEFAULT_255_2_778
10
10.194749
20
80.4681635
11
10.559849
21
80.4681635
0
ARC
8
DEFAULT_255_2_778
10
19.5015775
20
37.0844963
40
0.407555
50
269.9433193
51
275.6597613
0
ARC
8
DEFAULT_255_2_778
10
19.5063697
20
37.2146755
40
0.5377591
50
255.1885416
51
269.4464434
0
ARC
8
DEFAULT_255_2_778
10
19.5561245
20
37.4251546
40
0.7539855
50
250.761672
51
255.6220838
0
ARC
8
DEFAULT_255_2_778
10
19.8236744
20
38.0636187
40
1.4455697
50
232.1249165
51
249.0873913
0
ARC
8
DEFAULT_255_2_778
10
20.3729655
20
38.8436217
40
2.3989264
50
229.7810896
51
233.2067555
0
ARC
8
DEFAULT_255_2_778
10
20.4421171
20
38.9278189
40
2.5078703
50
227.516497
51
229.8168203
0
ARC
8
DEFAULT_255_2_778
10
20.2176818
20
38.6836585
40
2.1762304
50
225.8669255
51
227.5326684
0
ARC
8
DEFAULT_255_2_778
10
19.8065652
20
38.2594834
40
1.585518
50
224.8175807
51
225.8562194
0
ARC
8
DEFAULT_255_2_778
10
18.0479742
20
36.5052808
40
0.8984124
50
45.1240384
51
47.4468156
0
ARC
8
DEFAULT_255_2_778
10
16.5672939
20
34.9003379
40
3.0820441
50
47.347147
51
48.8035486
0
ARC
8
DEFAULT_255_2_778
10
15.259662
20
33.4159695
40
5.0602319
50
48.732595
51
49.8900402
0
ARC
8
DEFAULT_255_2_778
10
15.3927278
20
33.5747248
40
4.8530858
50
49.8840278
51
50.2303034
0
ARC
8
DEFAULT_255_2_778
10
16.4719417
20
34.8850965
40
3.1555407
50
50.0715833
51
52.5184634
0
ARC
8
DEFAULT_255_2_778
10
17.831912
20
36.6625567
40
0.9174916
50
52.3691454
51
56.5177513
0
ARC
8
DEFAULT_255_2_778
10
18.2173594
20
37.2448988
40
0.2191424
50
56.5750951
51
62.6405537
0
ARC
8
DEFAULT_255_2_778
10
16.5524045
20
35.6813682
40
2.4917271
50
44.8779485
51
47.131168
0
ARC
8
DEFAULT_255_2_778
10
17.3675416
20
36.5620772
40
1.2916891
50
47.0539259
51
51.1268543
0
ARC
8
DEFAULT_255_2_778
10
17.5112885
20
36.7335051
40
1.0680196
50
51.3588491
51
55.1969547
0
ARC
8
DEFAULT_255_2_778
10
17.0187563
20
36.0330893
40
1.924266
50
55.0581991
51
55.5797138
0
ARC
8
DEFAULT_255_2_778
10
21.695814
20
42.9313007
40
6.4100424
50
235.2041329
51
235.9471685
0
ARC
8
DEFAULT_255_2_778
10
19.1770277
20
39.2891265
40
1.981793
50
233.1091022
51
234.9144593
0
ARC
8
DEFAULT_255_2_778
10
17.0503315
20
37.8514256
40
0.2669604
50
136.5128017
51
145.7095214
0
ARC
8
DEFAULT_255_2_778
10
17.843562
20
37.1250624
40
1.3424822
50
134.0398355
51
137.319391
0
ARC
8
DEFAULT_255_2_778
10
19.7107206
20
35.2103105
40
4.0169006
50
132.6477226
51
134.1990707
0
ARC
8
DEFAULT_255_2_778
10
23.2081022
20
31.4260614
40
9.169782
50
131.9374202
51
132.7017903
0
ARC
8
DEFAULT_255_2_778
10
26.799893
20
27.4441682
40
14.5322779
50
131.8915383
51
131.9794932
0
ARC
8
DEFAULT_255_2_778
10
24.4614925
20
30.0524334
40
11.0292561
50
131.8772214
51
131.8960504
0
ARC
8
DEFAULT_255_2_778
10
30.2224976
20
23.6267162
40
19.6593789
50
131.8670656
51
131.8775434
0
ARC
8
DEFAULT_255_2_778
10
30.0025595
20
23.8714157
40
19.3303647
50
131.8550936
51
131.8656626
0
ARC
8
DEFAULT_255_2_778
10
29.7819651
20
24.1166609
40
19.0005062
50
131.8424195
51
131.8530832
0
ARC
8
DEFAULT_255_2_778
10
82.8251117
20
-35.1303418
40
98.5227215
50
131.8365806
51
131.83862
0
ARC
8
DEFAULT_255_2_778
10
29.3487793
20
24.5986666
40
18.3524493
50
131.8169392
51
131.8277954
0
ARC
8
DEFAULT_255_2_778
10
29.1385676
20
24.8348542
40
18.0362646
50
131.8085668
51
131.8195197
0
ARC
8
DEFAULT_255_2_778
10
27.8948335
20
26.2247701
40
16.1711264
50
131.7947865
51
131.8068984
0
ARC
8
DEFAULT_255_2_778
10
27.7045506
20
26.4390901
40
15.8845263
50
131.7860748
51
131.798299
0
ARC
8
DEFAULT_255_2_778
10
27.5160772
20
26.6514089
40
15.6006238
50
131.7772104
51
131.789549
0
ARC
8
DEFAULT_255_2_778
10
27.3294373
20
26.8616996
40
15.3194552
50
131.7681893
51
131.7806444
0
ARC
8
DEFAULT_255_2_778
10
54.9925798
20
-4.1177135
40
56.8522552
50
131.7613184
51
131.764645
0
ARC
8
DEFAULT_255_2_778
10
54.2111481
20
-3.2512398
40
55.6854743
50
131.7519913
51
131.7553575
0
ARC
8
DEFAULT_255_2_778
10
32.1676616
20
21.4433182
40
22.5835636
50
131.7373679
51
131.7497033
0
ARC
8
DEFAULT_255_2_778
10
26.4400524
20
27.8646639
40
13.978961
50
131.7211285
51
131.7407871
0
ARC
8
DEFAULT_255_2_778
10
30.4927456
20
23.3214233
40
20.0670933
50
131.7114724
51
131.7249798
0
ARC
8
DEFAULT_255_2_778
10
41.9172393
20
10.5049205
40
37.2363043
50
131.7052147
51
131.7123937
0
ARC
8
DEFAULT_255_2_778
10
38.7498178
20
14.0563267
40
32.4776235
50
131.6936027
51
131.701719
0
ARC
8
DEFAULT_255_2_778
10
38.0755517
20
14.8107441
40
31.4658046
50
131.6822757
51
131.6905355
0
ARC
8
DEFAULT_255_2_778
10
37.4402376
20
15.5247112
40
30.5100992
50
131.6744544
51
131.6828525
0
ARC
8
DEFAULT_255_2_778
10
120.1564598
20
-77.4146669
40
154.9275473
50
131.6685587
51
131.670189
0
ARC
8
DEFAULT_255_2_778
10
34.4672226
20
18.8645922
40
26.0386761
50
131.6552596
51
131.6648205
0
ARC
8
DEFAULT_255_2_778
10
35.6110906
20
17.5800429
40
27.7587053
50
131.6482318
51
131.6570706
0
ARC
8
DEFAULT_255_2_778
10
33.4154996
20
20.0502224
40
24.453799
50
131.6405478
51
131.6504351
0
ARC
8
DEFAULT_255_2_778
10
32.8638471
20
20.6718058
40
23.6227238
50
131.6306012
51
131.6423642
0
ARC
8
DEFAULT_255_2_778
10
31.363593
20
22.3641058
40
21.3611687
50
131.6255497
51
131.6383342
0
ARC
8
DEFAULT_255_2_778
10
48.2870358
20
3.3199907
40
46.8382413
50
131.6199061
51
131.6256355
0
ARC
8
DEFAULT_255_2_778
10
30.3483026
20
23.5129025
40
19.8280243
50
131.6107609
51
131.6240587
0
ARC
8
DEFAULT_255_2_778
10
40.3752417
20
12.2297191
40
34.9227163
50
131.6095246
51
131.6174707
0
ARC
8
DEFAULT_255_2_778
10
122.3900224
20
-80.1179983
40
158.431927
50
131.6070448
51
131.6087632
0
ARC
8
DEFAULT_255_2_778
10
-32.4139178
20
94.273326
40
74.7559781
50
311.5690661
51
311.653843
0
ARC
8
DEFAULT_255_2_778
10
12.6459823
20
43.621679
40
6.9622924
50
311.6288028
51
312.2251425
0
ARC
8
DEFAULT_255_2_778
10
16.5160041
20
39.3635827
40
1.2083064
50
312.0281644
51
314.143558
0
ARC
8
DEFAULT_255_2_778
10
17.1305979
20
38.7263146
40
0.3229778
50
314.6403027
51
314.9983082
0
ARC
8
DEFAULT_255_2_778
10
10.9141512
20
46.1136616
40
9.9767278
50
310.2395916
51
310.2701058
0
ARC
8
DEFAULT_255_2_778
10
9.7208425
20
47.5216565
40
11.822381
50
310.2719716
51
310.2974094
0
ARC
8
DEFAULT_255_2_778
10
10.2407232
20
46.9074723
40
11.0177087
50
310.3011284
51
310.3280932
0
ARC
8
DEFAULT_255_2_778
10
8.6060563
20
48.8322664
40
13.5429747
50
310.3303494
51
310.3520211
0
ARC
8
DEFAULT_255_2_778
10
8.8875528
20
48.4981788
40
13.1061091
50
310.3598582
51
310.3819822
0
ARC
8
DEFAULT_255_2_778
10
12.2989854
20
44.4874812
40
7.8407917
50
310.3806708
51
310.4172067
0
ARC
8
DEFAULT_255_2_778
10
9.7632915
20
47.4653571
40
11.7519921
50
310.4163915
51
310.4404752
0
ARC
8
DEFAULT_255_2_778
10
11.6619313
20
45.2380591
40
8.8252724
50
310.4387661
51
310.4704527
0
ARC
8
DEFAULT_255_2_778
10
10.5116854
20
46.5865925
40
10.5977306
50
310.4691849
51
310.4952566
0
ARC
8
DEFAULT_255_2_778
10
12.1582054
20
44.6594255
40
8.0629723
50
310.4907189
51
310.5245784
0
ARC
8
DEFAULT_255_2_778
10
11.1614647
20
45.82651
40
9.5977615
50
310.5204497
51
310.5485565
0
ARC
8
DEFAULT_255_2_778
10
12.5988899
20
44.1477709
40
7.3877038
50
310.5415776
51
310.5776595
0
ARC
8
DEFAULT_255_2_778
10
10.6515699
20
46.4226952
40
10.3822547
50
310.5735191
51
310.6031039
0
ARC
8
DEFAULT_255_2_778
10
11.0758109
20
45.9285708
40
9.7309952
50
310.6000695
51
310.6312
0
ARC
8
DEFAULT_255_2_778
10
11.2885653
20
45.6811664
40
9.4046927
50
310.6290296
51
310.6607982
0
ARC
8
DEFAULT_255_2_778
10
10.2007872
20
46.947454
40
11.0740475
50
310.661212
51
310.6878226
0
ARC
8
DEFAULT_255_2_778
10
8.9004862
20
48.4585213
40
13.0675636
50
310.691602
51
310.7138453
0
ARC
8
DEFAULT_255_2_778
10
11.7421322
20
45.1570876
40
8.7116005
50
310.7109699
51
310.7462238
0
ARC
8
DEFAULT_255_2_778
10
9.4179194
20
47.8550865
40
12.2726624
50
310.7454388
51
310.7700998
0
ARC
8
DEFAULT_255_2_778
10
10.5182939
20
46.5782564
40
10.5871005
50
310.7725322
51
310.801641
0
ARC
8
DEFAULT_255_2_778
10
10.5549306
20
46.536153
40
10.5312893
50
310.8004388
51
310.8297286
0
ARC
8
DEFAULT_255_2_778
10
10.3937187
20
46.7232792
40
10.778282
50
310.8277956
51
310.8564136
0
ARC
8
DEFAULT_255_2_778
10
9.0237687
20
48.3065851
40
12.8719916
50
310.8582794
51
310.8818877
0
ARC
8
DEFAULT_255_2_778
10
9.6406687
20
47.5924316
40
11.9282862
50
310.8866964
51
310.9117841
0
ARC
8
DEFAULT_255_2_778
10
10.1864826
20
46.9627934
40
11.0950055
50
310.9110912
51
310.9376533
0
ARC
8
DEFAULT_255_2_778
10
10.6778429
20
46.3972552
40
10.3458273
50
310.9342025
51
310.9622567
0
ARC
8
DEFAULT_255_2_778
10
9.1907314
20
48.1096242
40
12.6138016
50
310.9641471
51
310.9868097
0
ARC
8
DEFAULT_255_2_778
10
11.3528799
20
45.6221354
40
9.3179732
50
310.9830378
51
311.0132549
0
ARC
8
DEFAULT_255_2_778
10
7.585478
20
49.9545469
40
15.0593236
50
311.0119174
51
311.030334
0
ARC
8
DEFAULT_255_2_778
10
7.9688735
20
49.5116707
40
14.4735514
50
311.0363146
51
311.0551902
0
ARC
8
DEFAULT_255_2_778
10
8.7474092
20
48.6177659
40
13.288147
50
311.0553099
51
311.0755631
0
ARC
8
DEFAULT_255_2_778
10
5.2225805
20
52.6589221
40
18.6505493
50
311.0814398
51
311.0956556
0
ARC
8
DEFAULT_255_2_778
10
6.4291529
20
51.273489
40
16.8133667
50
311.1003627
51
311.1158986
0
ARC
8
DEFAULT_255_2_778
10
10.3121804
20
46.8248091
40
10.9083979
50
311.1158106
51
311.1394034
0
ARC
8
DEFAULT_255_2_778
10
7.8200112
20
49.6788527
40
14.6973914
50
311.1363785
51
311.1536318
0
ARC
8
DEFAULT_255_2_778
10
8.6751024
20
48.6994468
40
13.3972311
50
311.1565776
51
311.1752281
0
ARC
8
DEFAULT_255_2_778
10
8.9886394
20
48.3410128
40
12.9210164
50
311.1751432
51
311.1941988
0
ARC
8
DEFAULT_255_2_778
10
4.5162847
20
53.4514087
40
19.7120474
50
311.1930074
51
311.2053164
0
ARC
8
DEFAULT_255_2_778
10
5.9517972
20
51.809601
40
17.53117
50
311.2103585
51
311.2239982
0
ARC
8
DEFAULT_255_2_778
10
7.1371918
20
50.4562261
40
15.7320636
50
311.2250866
51
311.2400666
0
ARC
8
DEFAULT_255_2_778
10
-5.022745
20
64.3230697
40
34.175312
50
311.2442188
51
311.2510153
0
ARC
8
DEFAULT_255_2_778
10
11.2836576
20
45.7301286
40
9.4448404
50
311.2498845
51
311.2741242
0
ARC
8
DEFAULT_255_2_778
10
-0.537544
20
59.2014167
40
27.3673517
50
311.2696569
51
311.2779028
0
ARC
8
DEFAULT_255_2_778
10
2.1641839
20
56.1186668
40
23.2682458
50
311.2860975
51
311.2956577
0
ARC
8
DEFAULT_255_2_778
10
-60.8735933
20
127.8768452
40
118.7826299
50
311.2979453
51
311.2997914
0
ARC
8
DEFAULT_255_2_778
10
267.993824
20
-245.7519536
40
378.9646228
50
131.354659
51
131.3712254
0
ARC
8
DEFAULT_255_2_778
10
19.9431283
20
36.0707628
40
3.527304
50
129.6575432
51
131.5176056
0
ARC
8
DEFAULT_255_2_778
10
18.2714592
20
38.09592
40
0.9013524
50
122.6683175
51
130.0057605
0
ARC
8
DEFAULT_255_2_778
10
18.0805772
20
38.3812365
40
0.5581771
50
106.1875679
51
121.982655
0
ARC
8
DEFAULT_255_2_778
10
18.2607502
20
37.7908373
40
1.1754289
50
102.0860634
51
106.5988172
0
ARC
8
DEFAULT_255_2_778
10
18.4373935
20
37.0138634
40
1.9721917
50
101.9427782
51
102.3778784
0
ARC
8
DEFAULT_255_2_778
10
18.5678492
20
36.3902434
40
2.6093093
50
100.9502638
51
101.9116698
0
ARC
8
DEFAULT_255_2_778
10
18.8565774
20
34.899929
40
4.1273347
50
100.2863123
51
100.9554805
0
ARC
8
DEFAULT_255_2_778
10
19.0246547
20
32.6737006
40
6.3520396
50
97.5094246
51
98.1917903
0
ARC
8
DEFAULT_255_2_778
10
18.5109969
20
36.6042384
40
2.388087
50
95.0946658
51
97.6156341
0
ARC
8
DEFAULT_255_2_778
10
18.485623
20
36.7723387
40
2.2184217
50
91.4444196
51
94.8274522
0
ARC
8
DEFAULT_255_2_778
10
18.597266
20
32.8598202
40
6.1325249
50
90.5460028
51
91.5657273
0
ARC
8
DEFAULT_255_2_778
10
18.7633559
20
17.7030004
40
21.2902503
50
90.3207399
51
90.6042584
0
ARC
8
DEFAULT_255_2_778
10
19.0475808
20
-27.4543397
40
66.4484813
50
90.3126896
51
90.3478428
0
ARC
8
DEFAULT_255_2_778
10
19.2038673
20
-57.3713014
40
96.3658506
50
90.307873
51
90.3085361
0
ARC
8
DEFAULT_255_2_778
10
5.8818156
20
2393.0545329
40
2354.0961971
50
270.3116409
51
270.3118583
0
ARC
8
DEFAULT_255_2_778
10
19.3924944
20
-92.4366452
40
131.4317027
50
90.3036082
51
90.3040686
0
ARC
8
DEFAULT_255_2_778
10
15.8343428
20
572.4978954
40
533.512358
50
270.3073299
51
270.3082376
0
ARC
8
DEFAULT_255_2_778
10
19.3281109
20
-80.6446482
40
119.6395312
50
90.2981737
51
90.2986519
0
ARC
8
DEFAULT_255_2_778
10
19.3215751
20
-78.4883457
40
117.4832241
50
90.299975
51
90.300459
0
ARC
8
DEFAULT_255_2_778
10
17.2271664
20
317.9996324
40
279.0102858
50
270.3037856
51
270.3054157
0
ARC
8
DEFAULT_255_2_778
10
10.6220559
20
1581.1898144
40
1542.2177353
50
270.3006455
51
270.3029884
0
ARC
8
DEFAULT_255_2_778
10
18.000894
20
185.7041659
40
146.7125787
50
270.3032858
51
270.330499
0
ARC
8
DEFAULT_255_2_778
10
19.3166492
20
39.1249612
40
0.4873944
50
195.5832945
51
217.288132
0
ARC
8
DEFAULT_255_2_778
10
19.2003859
20
39.05959
40
0.3557695
50
220.2568839
51
265.4296168
0
ARC
8
DEFAULT_255_2_778
10
19.3017783
20
39.6724095
40
0.9761184
50
262.3618915
51
270.4985043
0
ARC
8
DEFAULT_255_2_778
10
19.3077647
20
39.0301075
40
0.3337888
50
270.4301981
51
286.7798735
0
ARC
8
DEFAULT_255_2_778
10
19.2959817
20
39.0767129
40
0.3818178
50
286.4537239
51
290.0832176
0
ARC
8
DEFAULT_255_2_778
10
19.2838578
20
39.1051614
40
0.4127026
50
290.3078346
51
322.9745747
0
ARC
8
DEFAULT_255_2_778
10
19.2478234
20
39.1298227
40
0.4563261
50
323.2269448
51
349.2128312
0
ARC
8
DEFAULT_255_2_778
10
19.1236096
20
39.1571239
40
0.5834656
50
348.8621836
51
0.216445
0
ARC
8
DEFAULT_255_2_778
10
19.014811
20
39.0268249
40
0.7048269
50
10.8357364
51
22.2533193
0
ARC
8
DEFAULT_255_2_778
10
19.2591696
20
39.1283702
40
0.4402154
50
22.06552
51
40.2333318
0
ARC
8
DEFAULT_255_2_778
10
19.3155358
20
39.1699839
40
0.370335
50
40.9509563
51
67.5131584
0
ARC
8
DEFAULT_255_2_778
10
19.1838713
20
38.8441079
40
0.7217979
50
67.7500669
51
77.1256722
0
ARC
8
DEFAULT_255_2_778
10
23.4131887
20
56.1644506
40
17.1075131
50
256.1238736
51
256.24215
0
LINE
8
DEFAULT_255_2_778
10
19.3104042
20
39.5561947
11
19.3102709
21
39.5562281
0
ARC
8
DEFAULT_255_2_778
10
19.2979622
20
38.2008566
40
1.3554274
50
89.4796852
51
94.4141443
0
ARC
8
DEFAULT_255_2_778
10
19.2139219
20
39.193444
40
0.3593922
50
93.2349082
51
112.2958005
0
ARC
8
DEFAULT_255_2_778
10
19.1853626
20
39.2934619
40
0.2562761
50
114.8725341
51
142.4290721
0
ARC
8
DEFAULT_255_2_778
10
19.4852883
20
39.0426259
40
0.6471387
50
141.0181094
51
147.3445522
0
ARC
8
DEFAULT_255_2_778
10
20.3103415
20
38.5074786
40
1.6305431
50
147.1558581
51
149.8563686
0
ARC
8
DEFAULT_255_2_778
10
22.1711846
20
37.413197
40
3.7892764
50
149.6773025
51
150.2825701
0
ARC
8
DEFAULT_255_2_778
10
18.7804006
20
48.5376418
40
9.2465531
50
270.2908762
51
270.6188533
0
ARC
8
DEFAULT_255_2_778
10
18.7777261
20
49.1064608
40
9.8153782
50
269.9978503
51
270.2896312
0
ARC
8
DEFAULT_255_2_778
10
18.7792093
20
51.0001923
40
11.70911
50
269.617922
51
269.9909403
0
ARC
8
DEFAULT_255_2_778
10
18.8494149
20
61.126372
40
21.8355328
50
269.4164456
51
269.6108953
0
ARC
8
DEFAULT_255_2_778
10
18.831857
20
60.2608755
40
20.9699043
50
269.4274448
51
269.4403316
0
ARC
8
DEFAULT_255_2_778
10
18.2387165
20
2.30393
40
36.9900772
50
89.4058241
51
89.5112852
0
ARC
8
DEFAULT_255_2_778
10
18.4860086
20
31.3746681
40
7.9182873
50
89.5063789
51
89.9651967
0
ARC
8
DEFAULT_255_2_778
10
18.4816743
20
36.1986777
40
3.0942898
50
89.8306818
51
92.152389
0
ARC
8
DEFAULT_255_2_778
10
18.4464269
20
37.2757263
40
2.0166842
50
92.3009395
51
93.4480786
0
ARC
8
DEFAULT_255_2_778
10
18.4275253
20
37.5714079
40
1.7204012
50
93.4119814
51
99.8108138
0
ARC
8
DEFAULT_255_2_778
10
18.5288095
20
36.9961597
40
2.3044958
50
99.8551509
51
103.4616109
0
ARC
8
DEFAULT_255_2_778
10
18.8242304
20
35.7473054
40
3.5878129
50
103.4069792
51
105.4603096
0
ARC
8
DEFAULT_255_2_778
10
19.1610949
20
34.5083307
40
4.8717574
50
105.3944572
51
105.9545602
0
LINE
8
DEFAULT_255_2_778
10
17.8219709
20
39.1924281
11
17.821821
21
39.1923981
0
ARC
8
DEFAULT_255_2_778
10
17.9327265
20
38.6344323
40
0.5688812
50
101.2420268
51
119.0243281
0
ARC
8
DEFAULT_255_2_778
10
18.1838757
20
38.1771619
40
1.0905798
50
118.9060855
51
126.9640788
0
ARC
8
DEFAULT_255_2_778
10
18.9262856
20
37.1732143
40
2.3391919
50
126.7070638
51
130.7574934
0
ARC
8
DEFAULT_255_2_778
10
20.4877039
20
35.351846
40
4.7382313
50
130.6806614
51
133.1764891
0
ARC
8
DEFAULT_255_2_778
10
22.9258296
20
32.7334819
40
8.3159655
50
133.0827294
51
134.1967754
0
ARC
8
DEFAULT_255_2_778
10
26.0382898
20
29.5299775
40
12.7824907
50
134.1888669
51
135.028742
0
ARC
8
DEFAULT_255_2_778
10
18.0469515
20
37.3627409
40
1.5966631
50
131.2035937
51
136.6825553
0
ARC
8
DEFAULT_255_2_778
10
40.6006364
20
15.9900503
40
32.6685205
50
136.5470339
51
136.840278
0
ARC
8
DEFAULT_255_2_778
10
15.8885842
20
39.0832195
40
1.1556883
50
295.4837484
51
319.7463074
0
ARC
8
DEFAULT_255_2_778
10
16.1810344
20
38.5429643
40
0.5430848
50
270.0687282
51
292.153389
0
ARC
8
DEFAULT_255_2_778
10
16.1818641
20
38.5579472
40
0.5580675
50
265.2107927
51
269.9817069
0
ARC
8
DEFAULT_255_2_778
10
15.4874607
20
37.8658905
40
0.565201
50
13.9167515
51
86.8088634
0
ARC
8
DEFAULT_255_2_778
10
15.4739796
20
37.7634449
40
0.6682832
50
86.1437623
51
90.0178884
0
ARC
8
DEFAULT_255_2_778
10
15.4684163
20
37.8430472
40
0.5887052
50
89.4788501
51
174.6623065
0
ARC
8
DEFAULT_255_2_778
10
15.534559
20
37.8273632
40
0.6560882
50
173.8358769
51
180.0205353
0
ARC
8
DEFAULT_255_2_778
10
15.4732746
20
37.8395618
40
0.5949336
50
181.1975324
51
263.8608288
0
ARC
8
DEFAULT_255_2_778
10
15.5067321
20
37.9263405
40
0.6852126
50
261.8548439
51
270.0116116
0
ARC
8
DEFAULT_255_2_778
10
15.5143784
20
37.721522
40
0.4804525
50
269.104672
51
313.2063215
0
ARC
8
DEFAULT_255_2_778
10
15.3289376
20
37.8914752
40
0.7315301
50
314.6798862
51
345.1610418
0
ARC
8
DEFAULT_255_2_778
10
17.2518618
20
37.1388865
40
0.5353246
50
89.9090368
51
96.2512671
0
ARC
8
DEFAULT_255_2_778
10
17.2468775
20
36.9498218
40
0.7244122
50
77.2134364
51
89.538551
0
ARC
8
DEFAULT_255_2_778
10
17.1989885
20
36.712371
40
0.966591
50
73.1491068
51
77.5602713
0
ARC
8
DEFAULT_255_2_778
10
17.0653337
20
36.3312665
40
1.3701869
50
51.7820024
51
72.4197909
0
ARC
8
DEFAULT_255_2_778
10
17.2263578
20
36.5335366
40
1.1116534
50
46.5991435
51
51.852878
0
ARC
8
DEFAULT_255_2_778
10
17.4089265
20
36.7270858
40
0.8455847
50
42.0033104
51
46.5761427
0
ARC
8
DEFAULT_255_2_778
10
17.5281924
20
36.8359532
40
0.6841069
50
39.8404959
51
41.911987
0
ARC
8
DEFAULT_255_2_778
10
19.331037
20
37.5976617
40
1.0856734
50
226.4244496
51
230.3418881
0
ARC
8
DEFAULT_255_2_778
10
19.5358208
20
37.8424756
40
1.4048423
50
230.2841919
51
232.8363136
0
ARC
8
DEFAULT_255_2_778
10
19.8121685
20
38.2158015
40
1.8692981
50
232.9987301
51
239.652484
0
ARC
8
DEFAULT_255_2_778
10
19.8864555
20
38.3270373
40
2.0028406
50
239.4262948
51
248.51597
0
ARC
8
DEFAULT_255_2_778
10
19.6584566
20
37.7413894
40
1.3743829
50
248.4187805
51
257.2991071
0
ARC
8
DEFAULT_255_2_778
10
19.535502
20
37.1921311
40
0.8115317
50
257.2415843
51
268.0358331
0
ARC
8
DEFAULT_255_2_778
10
19.5224774
20
36.9721848
40
0.5912937
50
268.5666925
51
269.9924535
0
ARC
8
DEFAULT_255_2_778
10
19.5225409
20
36.9300116
40
0.5491204
50
269.9852547
51
272.0068936
0
LINE
8
DEFAULT_255_2_778
10
20.4016709
20
36.0835281
11
20.4016709
21
36.9434281
0
LINE
8
DEFAULT_255_2_778
10
20.4016709
20
36.9434281
11
19.5417709
21
36.9434281
0
LINE
8
DEFAULT_255_2_778
10
19.5417709
20
36.9434281
11
19.5417709
21
36.6789281
0
LINE
8
DEFAULT_255_2_778
10
17.9873709
20
37.7041281
11
21.0300709
21
37.7041281
0
LINE
8
DEFAULT_255_2_778
10
21.0300709
20
37.7041281
11
21.0300709
21
37.3403281
0
LINE
8
DEFAULT_255_2_778
10
21.0300709
20
37.3403281
11
21.8899709
21
37.8695281
0
LINE
8
DEFAULT_255_2_778
10
21.8899709
20
37.8695281
11
20.9969709
21
38.3656281
0
LINE
8
DEFAULT_255_2_778
10
20.9969709
20
38.3656281
11
20.9969709
21
38.0018281
0
LINE
8
DEFAULT_255_2_778
10
20.9969709
20
38.0018281
11
16.8297709
21
38.0018281
0
LINE
8
DEFAULT_255_2_778
10
16.1352709
20
38.0018281
11
16.0360709
21
38.0018281
0
LINE
8
DEFAULT_255_2_778
10
16.0360709
20
37.7041281
11
17.1935709
21
37.6710281
0
LINE
8
DEFAULT_255_2_778
10
18.0534709
20
37.2742281
11
18.5826709
21
36.8111281
0
LINE
8
DEFAULT_255_2_778
10
19.5417709
20
36.3812281
11
19.5417709
21
36.0835281
0
LINE
8
DEFAULT_255_2_778
10
19.5417709
20
36.0835281
11
20.4016709
21
36.0835281
0
LINE
8
DEFAULT_255_2_778
10
20.4016709
20
36.0835281
11
20.4016709
21
36.0835281
0
ENDSEC
0
EOF