0
SECTION
2
HEADER
9
$MEASUREMENT
70
1
0
ENDSEC
0
SECTION
2
TABLES
0
TABLE
2
LTYPE
0
LTYPE
72
65
70
64
2
CONTINUOUS
3
______
73
0
40
0
0
ENDTAB
0
TABLE
2
LAYER
0
LAYER
2
DEFAULT_255_2_778
70
0
62
255
6
CONTINUOUS
0
ENDTAB
0
ENDSEC
0
SECTION
2
ENTITIES
0
ARC
8
DEFAULT_255_2_778
10
1.1110276
20
35.3754618
40
0.5000909
50
179.9936162
51
224.971911
0
ARC
8
DEFAULT_255_2_778
10
1.1110282
20
94.0611726
40
0.5000916
50
135.02809
51
180.0063115
0
ARC
8
DEFAULT_255_2_778
10
1.3178817
20
94.2680248
40
0.5000927
50
89.9937129
51
134.9718405
0
ARC
8
DEFAULT_255_2_778
10
1.7594077
20
19.4683745
40
0.6985029
50
179.9979693
51
207.215933
0
ARC
8
DEFAULT_255_2_778
10
1.7599443
20
19.468397
40
0.6990395
50
178.5391599
51
179.9998146
0
ARC
8
DEFAULT_255_2_778
10
1.7591699
20
19.4684133
40
0.6982648
50
162.1182884
51
178.5388808
0
ARC
8
DEFAULT_255_2_778
10
1.7617457
20
19.4680852
40
0.7008171
50
117.2153631
51
162.157425
0
ARC
8
DEFAULT_255_2_778
10
1.7575267
20
19.4721458
40
0.9954209
50
117.0955508
51
148.164523
0
ARC
8
DEFAULT_255_2_778
10
1.7655677
20
19.4673121
40
1.0048019
50
148.1722167
51
179.9689696
0
ARC
8
DEFAULT_255_2_778
10
1.7559235
20
19.4678267
40
0.9951574
50
179.9982977
51
185.0375912
0
ARC
8
DEFAULT_255_2_778
10
1.7553073
20
19.4679153
40
0.9945513
50
185.0457889
51
202.2880297
0
ARC
8
DEFAULT_255_2_778
10
1.7729084
20
19.4747438
40
1.0134274
50
202.2678388
51
207.1612761
0
ARC
8
DEFAULT_255_2_778
10
79.9108464
20
4.6685273
40
0.4999902
50
359.9988754
51
90.0011189
0
ARC
8
DEFAULT_255_2_778
10
80.2099915
20
2.2256793
40
0.2008454
50
310.6150509
51
359.8967819
0
ARC
8
DEFAULT_255_2_778
10
80.211025
20
2.2248412
40
0.1995366
50
269.919265
51
310.5464311
0
ARC
8
DEFAULT_255_2_778
10
80.2107496
20
2.2270802
40
0.2017754
50
265.183269
51
269.9983625
0
ARC
8
DEFAULT_255_2_778
10
80.210788
20
2.2274464
40
0.2021436
50
261.1350794
51
265.1811451
0
ARC
8
DEFAULT_255_2_778
10
60.0470355
20
-55.5327342
40
60.0012517
50
80.9994805
51
89.9993305
0
LINE
8
DEFAULT_255_2_778
10
2.3108366
20
33.4684175
11
0.7572366
21
35.0220175
0
LINE
8
DEFAULT_255_2_778
10
0.6109366
20
35.3755175
11
0.6109366
21
94.0611175
0
LINE
8
DEFAULT_255_2_778
10
0.7572366
20
94.4146175
11
0.9644366
21
94.6218175
0
LINE
8
DEFAULT_255_2_778
10
1.3179366
20
94.7681175
11
8.6108366
21
94.7681175
0
LINE
8
DEFAULT_255_2_778
10
3.2700366
20
14.9973175
11
1.1382366
21
19.1489175
0
LINE
8
DEFAULT_255_2_778
10
1.4412366
20
20.0913175
11
2.3307366
21
20.5480175
0
LINE
8
DEFAULT_255_2_778
10
2.3307366
20
20.5480175
11
2.1936366
21
20.8149175
0
LINE
8
DEFAULT_255_2_778
10
2.1936366
20
20.8149175
11
1.3041366
21
20.3583175
0
LINE
8
DEFAULT_255_2_778
10
0.8712366
20
19.0121175
11
3.0136366
21
14.8399175
0
LINE
8
DEFAULT_255_2_778
10
84.7108366
20
2.4685175
11
84.6108366
21
2.4685175
0
LINE
8
DEFAULT_255_2_778
10
27.3108366
20
5.1685175
11
79.9108366
21
5.1685175
0
LINE
8
DEFAULT_255_2_778
10
80.4108366
20
4.6685175
11
80.4108366
21
2.2253175
0
LINE
8
DEFAULT_255_2_778
10
80.1796366
20
2.0277175
11
69.4338366
21
3.7297175
0
LINE
8
DEFAULT_255_2_778
10
60.0477366
20
4.4685175
11
19.5958366
21
4.4685175
0
LINE
8
DEFAULT_255_2_778
10
19.5958366
20
4.4685175
11
19.3072366
21
4.9685175
0
ARC
8
DEFAULT_255_2_778
10
77.210645
20
0.9792694
40
0.5001066
50
0.0272659
51
80.9915782
0
ARC
8
DEFAULT_255_2_778
10
77.2107635
20
0.2708251
40
0.499988
50
310.4957646
51
359.9750544
0
ARC
8
DEFAULT_255_2_778
10
77.2106906
20
0.2707935
40
0.5000111
50
269.9987865
51
310.5044714
0
ARC
8
DEFAULT_255_2_778
10
77.2106801
20
0.2707365
40
0.4999541
50
264.6359385
51
269.9999912
0
ARC
8
DEFAULT_255_2_778
10
77.2107569
20
0.2715431
40
0.5007643
50
261.0268037
51
264.6358179
0
ARC
8
DEFAULT_255_2_778
10
76.3082599
20
0.9200391
40
1.0001845
50
183.5098653
51
260.9857856
0
ARC
8
DEFAULT_255_2_778
10
109.6413774
20
25.7893253
40
0.2024741
50
356.8806446
51
359.9971234
0
ARC
8
DEFAULT_255_2_778
10
109.6438328
20
25.7893909
40
0.2000187
50
359.9782774
51
69.966969
0
ARC
8
DEFAULT_255_2_778
10
107.0462051
20
29.7691228
40
3.5005154
50
223.6337211
51
269.9909391
0
ARC
8
DEFAULT_255_2_778
10
107.0462516
20
29.7691413
40
3.5005618
50
180.0030239
51
223.6334146
0
ARC
8
DEFAULT_255_2_778
10
107.0493623
20
29.7689402
40
3.5036725
50
177.275089
51
179.999734
0
ARC
8
DEFAULT_255_2_778
10
-388.9027493
20
53.4518381
40
493.0135747
50
357.2660024
51
358.9249988
0
ARC
8
DEFAULT_255_2_778
10
103.5236739
20
44.2118404
40
0.5004684
50
358.9085568
51
0.0016976
0
ARC
8
DEFAULT_255_2_778
10
103.5242234
20
44.2118441
40
0.4999189
50
0.0012752
51
58.9664547
0
ARC
8
DEFAULT_255_2_778
10
41.1609122
20
34.2185681
40
0.4000393
50
359.9913084
51
89.9943766
0
ARC
8
DEFAULT_255_2_778
10
41.1609337
20
34.2185252
40
0.4000178
50
270.0025492
51
359.9974508
0
ARC
8
DEFAULT_255_2_778
10
12.0609695
20
34.2185254
40
0.400018
50
180.0025736
51
269.9974264
0
ARC
8
DEFAULT_255_2_778
10
12.0609906
20
34.2185684
40
0.4000391
50
90.005601
51
180.0087355
0
LINE
8
DEFAULT_255_2_778
10
84.7108515
20
10.2184074
11
84.6108515
21
10.2184074
0
LINE
8
DEFAULT_255_2_778
10
75.2524515
20
1.7957074
11
77.2889515
21
1.4732074
0
LINE
8
DEFAULT_255_2_778
10
77.7107515
20
0.9795074
11
77.7107515
21
0.2706074
0
LINE
8
DEFAULT_255_2_778
10
77.1326515
20
-0.2230926
11
76.1515515
21
-0.0677926
0
LINE
8
DEFAULT_255_2_778
10
75.3099515
20
0.8588074
11
75.1900515
21
2.8180074
0
LINE
8
DEFAULT_255_2_778
10
80.9108515
20
3.3295074
11
80.4108515
21
3.4086074
0
LINE
8
DEFAULT_255_2_778
10
84.7108515
20
24.7187074
11
84.6108515
21
24.7187074
0
LINE
8
DEFAULT_255_2_778
10
2.4108515
20
28.7758074
11
2.4108515
21
25.4688074
0
LINE
8
DEFAULT_255_2_778
10
2.4108515
20
25.4688074
11
5.0109515
21
25.4688074
0
LINE
8
DEFAULT_255_2_778
10
5.0109515
20
25.4688074
11
5.0109515
21
16.0686074
0
LINE
8
DEFAULT_255_2_778
10
5.0109515
20
16.0686074
11
5.5109515
21
15.7892074
0
LINE
8
DEFAULT_255_2_778
10
109.7123515
20
25.9773074
11
108.9122515
21
26.2686074
0
LINE
8
DEFAULT_255_2_778
10
108.9122515
20
26.2686074
11
107.0456515
21
26.2686074
0
LINE
8
DEFAULT_255_2_778
10
104.0912515
20
30.8186074
11
110.0941515
21
30.8186074
0
LINE
8
DEFAULT_255_2_778
10
110.0941515
20
30.8186074
11
110.0642515
21
30.0966074
0
LINE
8
DEFAULT_255_2_778
10
9.0108515
20
32.9686074
11
9.4609515
21
32.9686074
0
LINE
8
DEFAULT_255_2_778
10
41.1609515
20
33.8185074
11
12.0609515
21
33.8185074
0
LINE
8
DEFAULT_255_2_778
10
12.0609515
20
34.6186074
11
41.1609515
21
34.6186074
0
ARC
8
DEFAULT_255_2_778
10
109.3730443
20
31.7097395
40
0.5859325
50
28.6500435
51
37.8133868
0
ARC
8
DEFAULT_255_2_778
10
4.4615367
20
94.8176711
40
0.1507004
50
90.2656871
51
179.7343511
0
ARC
8
DEFAULT_255_2_778
10
8.7098279
20
86.96736
40
0.4989912
50
179.8725621
51
270.1159799
0
ARC
8
DEFAULT_255_2_778
10
8.7097428
20
88.5672747
40
0.4989061
50
179.8742308
51
270.1257692
0
ARC
8
DEFAULT_255_2_778
10
43.3609549
20
87.0682027
40
1.0001672
50
45.0034073
51
90.0009706
0
ARC
8
DEFAULT_255_2_778
10
43.3608853
20
87.068293
40
1.0001527
50
359.9929444
51
44.9969303
0
ARC
8
DEFAULT_255_2_778
10
46.502055
20
66.9241923
40
2.1410272
50
179.8239792
51
190.9804886
0
ARC
8
DEFAULT_255_2_778
10
45.9006145
20
66.8034033
40
1.5275959
50
190.8297679
51
202.5360332
0
ARC
8
DEFAULT_255_2_778
10
45.2899811
20
66.5445477
40
0.864396
50
202.2009685
51
218.2556397
0
ARC
8
DEFAULT_255_2_778
10
44.919651
20
66.2426981
40
0.3867725
50
217.1102357
51
249.0155128
0
ARC
8
DEFAULT_255_2_778
10
44.8615852
20
66.1161895
40
0.2480202
50
251.0742993
51
269.896681
0
ARC
8
DEFAULT_255_2_778
10
8.9110057
20
99.6447878
40
0.3001679
50
131.8246046
51
179.9652557
0
ARC
8
DEFAULT_255_2_778
10
60.0476013
20
162.4706713
40
60.0021016
50
270.0001305
51
278.9998453
0
ARC
8
DEFAULT_255_2_778
10
9.2109122
20
101.9686484
40
0.4999214
50
89.9970476
51
135.0123843
0
ARC
8
DEFAULT_255_2_778
10
9.2107595
20
101.9684956
40
0.4999216
50
134.987625
51
180.0029491
0
ARC
8
DEFAULT_255_2_778
10
9.3097531
20
86.7869987
40
0.3183311
50
270.0101929
51
270.2132534
0
ARC
8
DEFAULT_255_2_778
10
9.309793
20
86.7674341
40
0.2987664
50
224.9741331
51
270.0032202
0
ARC
8
DEFAULT_255_2_778
10
9.3097919
20
86.7675623
40
0.2988561
50
180.0036864
51
224.9916654
0
ARC
8
DEFAULT_255_2_778
10
9.3283528
20
86.7674867
40
0.317417
50
179.7864333
51
179.9898254
0
ARC
8
DEFAULT_255_2_778
10
10.4614536
20
86.8686429
40
1.0005157
50
135.0116937
51
179.9927334
0
ARC
8
DEFAULT_255_2_778
10
10.4611655
20
86.8683535
40
1.0005164
50
90.0073027
51
134.9883058
0
ARC
8
DEFAULT_255_2_778
10
43.0611552
20
86.8687031
40
1.0001667
50
45.0034016
51
90.000987
0
ARC
8
DEFAULT_255_2_778
10
43.0611467
20
86.868677
40
1.0001912
50
0.0053149
51
45.0041129
0
ARC
8
DEFAULT_255_2_778
10
43.0611467
20
66.8686626
40
1.0001912
50
314.9958871
51
359.9946851
0
ARC
8
DEFAULT_255_2_778
10
43.0611547
20
66.8686376
40
1.0001679
50
269.9990367
51
314.9965718
0
ARC
8
DEFAULT_255_2_778
10
40.7111495
20
65.3684582
40
0.5000116
50
90.0013268
51
180.0101312
0
ARC
8
DEFAULT_255_2_778
10
40.7111495
20
54.3682814
40
0.5000116
50
179.9898688
51
269.9986732
0
ARC
8
DEFAULT_255_2_778
10
43.0611549
20
52.8681027
40
1.0001672
50
45.0034073
51
90.0009706
0
ARC
8
DEFAULT_255_2_778
10
43.0613204
20
52.8681491
40
1.0000175
50
0.0011895
51
45.0082334
0
ARC
8
DEFAULT_255_2_778
10
43.0650572
20
32.5668463
40
0.9962817
50
318.352397
51
0.0818679
0
ARC
8
DEFAULT_255_2_778
10
43.0622923
20
32.5659505
40
0.9977557
50
271.7308645
51
318.4963478
0
ARC
8
DEFAULT_255_2_778
10
43.0611476
20
32.5872936
40
1.0191238
50
269.9994553
51
271.7589451
0
ARC
8
DEFAULT_255_2_778
10
10.4596189
20
32.5644914
40
0.9963226
50
228.3541388
51
270.0816049
0
ARC
8
DEFAULT_255_2_778
10
10.4585994
20
32.5671535
40
0.9976376
50
181.732932
51
228.4994886
0
ARC
8
DEFAULT_255_2_778
10
10.4796971
20
32.5682601
40
1.0187592
50
179.9994554
51
181.7592612
0
ARC
8
DEFAULT_255_2_778
10
104.0408017
20
45.0687477
40
0.5015312
50
179.0606508
51
180.0010223
0
ARC
8
DEFAULT_255_2_778
10
104.0397823
20
45.0687282
40
0.500512
50
179.9987897
51
224.4911659
0
ARC
8
DEFAULT_255_2_778
10
104.0392004
20
45.0681879
40
0.499718
50
224.4937342
51
269.9928428
0
ARC
8
DEFAULT_255_2_778
10
104.7106072
20
44.8686006
40
0.3001307
50
270.0058739
51
359.9750442
0
ARC
8
DEFAULT_255_2_778
10
105.2108575
20
45.2684358
40
0.2001196
50
153.7744469
51
179.9616173
0
LINE
8
DEFAULT_255_2_778
10
103.7751379
20
35.2686698
11
104.2733379
21
35.2686698
0
LINE
8
DEFAULT_255_2_778
10
110.0941379
20
30.8183698
11
110.0917379
21
31.0027698
0
LINE
8
DEFAULT_255_2_778
10
110.0917379
20
31.0027698
11
110.0814379
21
31.1868698
0
LINE
8
DEFAULT_255_2_778
10
110.0814379
20
31.1868698
11
110.0621379
21
31.3702698
0
LINE
8
DEFAULT_255_2_778
10
110.0621379
20
31.3702698
11
110.0325379
21
31.5525698
0
LINE
8
DEFAULT_255_2_778
10
110.0325379
20
31.5525698
11
110.0129379
21
31.6427698
0
LINE
8
DEFAULT_255_2_778
10
110.0129379
20
31.6427698
11
109.9896379
21
31.7321698
0
LINE
8
DEFAULT_255_2_778
10
109.9896379
20
31.7321698
11
109.9618379
21
31.8205698
0
LINE
8
DEFAULT_255_2_778
10
109.9618379
20
31.8205698
11
109.9282379
21
31.9070698
0
LINE
8
DEFAULT_255_2_778
10
109.9282379
20
31.9070698
11
109.8872379
21
31.9906698
0
LINE
8
DEFAULT_255_2_778
10
109.8359379
20
32.0689698
11
109.8049379
21
32.1044698
0
LINE
8
DEFAULT_255_2_778
10
109.8049379
20
32.1044698
11
109.7695379
21
32.1356698
0
LINE
8
DEFAULT_255_2_778
10
109.7695379
20
32.1356698
11
109.7285379
21
32.1602698
0
LINE
8
DEFAULT_255_2_778
10
109.7285379
20
32.1602698
11
109.6824379
21
32.1745698
0
LINE
8
DEFAULT_255_2_778
10
109.6824379
20
32.1745698
11
104.7853379
21
32.9683698
0
LINE
8
DEFAULT_255_2_778
10
104.7853379
20
32.9683698
11
105.1192379
21
43.9683698
0
LINE
8
DEFAULT_255_2_778
10
4.3108379
20
94.7683698
11
4.3108379
21
94.8183698
0
LINE
8
DEFAULT_255_2_778
10
4.4608379
20
94.9683698
11
8.6108379
21
94.9683698
0
LINE
8
DEFAULT_255_2_778
10
8.7108379
20
86.4683698
11
8.7108379
21
86.4683698
0
LINE
8
DEFAULT_255_2_778
10
8.2108379
20
86.9684698
11
8.2108379
21
88.5683698
0
LINE
8
DEFAULT_255_2_778
10
8.7108379
20
88.0683698
11
8.7108379
21
88.0683698
0
LINE
8
DEFAULT_255_2_778
10
8.7108379
20
88.0683698
11
43.3609379
21
88.0683698
0
LINE
8
DEFAULT_255_2_778
10
44.3610379
20
87.0681698
11
44.3610379
21
66.9307698
0
LINE
8
DEFAULT_255_2_778
10
44.8611379
20
65.8681698
11
48.1927379
21
65.8681698
0
LINE
8
DEFAULT_255_2_778
10
8.6108379
20
99.6449698
11
8.6108379
21
94.7686698
0
LINE
8
DEFAULT_255_2_778
10
8.6108379
20
94.7686698
11
9.1109379
21
94.2685698
0
LINE
8
DEFAULT_255_2_778
10
60.0477379
20
102.4685698
11
9.2109379
21
102.4685698
0
LINE
8
DEFAULT_255_2_778
10
8.7108379
20
101.9684698
11
8.7108379
21
99.8684698
0
LINE
8
DEFAULT_255_2_778
10
8.7108379
20
99.8684698
11
9.2109379
21
99.8684698
0
LINE
8
DEFAULT_255_2_778
10
9.0109379
20
31.3686698
11
9.0109379
21
35.1185698
0
LINE
8
DEFAULT_255_2_778
10
9.3109379
20
86.4686698
11
9.3109379
21
86.4686698
0
LINE
8
DEFAULT_255_2_778
10
9.0109379
20
86.7686698
11
9.0109379
21
88.0685698
0
LINE
8
DEFAULT_255_2_778
10
9.4609379
20
86.3186698
11
9.4609379
21
86.8687698
0
LINE
8
DEFAULT_255_2_778
10
10.4610379
20
87.8688698
11
43.0611379
21
87.8688698
0
LINE
8
DEFAULT_255_2_778
10
44.0613379
20
86.8687698
11
44.0613379
21
66.8685698
0
LINE
8
DEFAULT_255_2_778
10
43.0611379
20
65.8684698
11
40.7111379
21
65.8684698
0
LINE
8
DEFAULT_255_2_778
10
40.2111379
20
65.3683698
11
40.2111379
21
54.3683698
0
LINE
8
DEFAULT_255_2_778
10
40.7111379
20
53.8682698
11
43.0611379
21
53.8682698
0
LINE
8
DEFAULT_255_2_778
10
44.0613379
20
52.8681698
11
44.0613379
21
32.5682698
0
LINE
8
DEFAULT_255_2_778
10
43.0611379
20
31.5681698
11
10.4610379
21
31.5681698
0
LINE
8
DEFAULT_255_2_778
10
9.4609379
20
32.5682698
11
9.4609379
21
35.1183698
0
LINE
8
DEFAULT_255_2_778
10
104.0391379
20
44.5684698
11
104.7106379
21
44.5684698
0
LINE
8
DEFAULT_255_2_778
10
105.0107379
20
44.8684698
11
105.0107379
21
45.2685698
0
ARC
8
DEFAULT_255_2_778
10
104.3527106
20
45.96831
40
0.298681
50
179.071712
51
179.9995891
0
ARC
8
DEFAULT_255_2_778
10
104.3538146
20
45.9685529
40
0.2997851
50
180.0460004
51
224.6024032
0
ARC
8
DEFAULT_255_2_778
10
104.3535657
20
45.9672254
40
0.2986766
50
224.4546191
51
270.0248636
0
LINE
8
DEFAULT_255_2_778
10
104.3536953
20
45.6685487
11
104.3540687
21
45.668549
0
ARC
8
DEFAULT_255_2_778
10
108.910938
20
45.3684182
40
0.3001307
50
0.0249558
51
89.9941261
0
ARC
8
DEFAULT_255_2_778
10
108.7109718
20
44.4684459
40
0.5000969
50
269.9996485
51
0.0003515
0
ARC
8
DEFAULT_255_2_778
10
104.814115
20
43.6680342
40
0.3003147
50
90.027899
51
178.7760709
0
ARC
8
DEFAULT_255_2_778
10
107.0628777
20
30.0687464
40
3.003121
50
177.3088589
51
179.9996511
0
ARC
8
DEFAULT_255_2_778
10
107.0599308
20
30.0688993
40
3.0001738
50
180.0025716
51
223.6520233
0
ARC
8
DEFAULT_255_2_778
10
107.060065
20
30.068966
40
3.000317
50
223.651175
51
269.9943427
0
ARC
8
DEFAULT_255_2_778
10
108.1580592
20
28.9116763
40
1.8430289
50
269.9256864
51
296.5721152
0
ARC
8
DEFAULT_255_2_778
10
108.1542645
20
28.9195828
40
1.8517977
50
296.567694
51
348.2869928
0
ARC
8
DEFAULT_255_2_778
10
108.1426074
20
28.9190405
40
1.8631043
50
348.3761017
51
357.1883213
0
ARC
8
DEFAULT_255_2_778
10
-388.9751499
20
53.4552823
40
499.5860108
50
357.1743973
51
359.198403
0
ARC
8
DEFAULT_255_2_778
10
110.363051
20
46.469021
40
0.19894
50
359.1440089
51
359.9958183
0
ARC
8
DEFAULT_255_2_778
10
110.36189
20
46.4686486
40
0.2001012
50
0.102457
51
44.5994315
0
ARC
8
DEFAULT_255_2_778
10
110.3618733
20
46.4686054
40
0.2001436
50
44.6048828
51
89.9726667
0
ARC
8
DEFAULT_255_2_778
10
1.1110442
20
46.8685244
40
0.5000754
50
180.0086483
51
270.0028154
0
ARC
8
DEFAULT_255_2_778
10
8.5111933
20
46.8685244
40
0.5000755
50
269.9971846
51
359.9913517
0
ARC
8
DEFAULT_255_2_778
10
106.0108746
20
52.3685547
40
0.2000942
50
0.0269965
51
90.0016788
0
ARC
8
DEFAULT_255_2_778
10
104.1106049
20
53.0684785
40
0.4998295
50
224.9670446
51
270.0073228
0
ARC
8
DEFAULT_255_2_778
10
104.1108004
20
53.0688517
40
0.5002316
50
179.9888559
51
224.9814586
0
ARC
8
DEFAULT_255_2_778
10
44.8738171
20
53.5635983
40
0.3052339
50
92.4688625
51
138.5956587
0
ARC
8
DEFAULT_255_2_778
10
45.1717701
20
53.2666994
40
0.7255295
50
136.5707717
51
154.5503704
0
ARC
8
DEFAULT_255_2_778
10
45.7341735
20
52.9880962
40
1.3531159
50
154.1314231
51
166.406842
0
ARC
8
DEFAULT_255_2_778
10
46.3698648
20
52.8283499
40
2.0085542
50
166.2394619
51
177.2960571
0
ARC
8
DEFAULT_255_2_778
10
46.65349
20
52.8062757
40
2.2929214
50
177.0794212
51
180.0081652
0
ARC
8
DEFAULT_255_2_778
10
43.3640581
20
32.3670789
40
0.9965117
50
318.3612403
51
0.08452
0
ARC
8
DEFAULT_255_2_778
10
43.3616481
20
32.3659211
40
0.9975466
50
271.729783
51
318.5029145
0
ARC
8
DEFAULT_255_2_778
10
43.3604786
20
32.3874497
40
1.0191008
50
269.999446
51
271.7589697
0
ARC
8
DEFAULT_255_2_778
10
8.7097953
20
30.8694225
40
0.4989278
50
89.8652478
51
180.1232884
0
ARC
8
DEFAULT_255_2_778
10
8.7098804
20
34.4693373
40
0.4990128
50
89.8750358
51
180.1249585
0
LINE
8
DEFAULT_255_2_778
10
104.3540687
20
45.668549
11
108.9109687
21
45.668549
0
LINE
8
DEFAULT_255_2_778
10
109.2110687
20
45.368549
11
109.2110687
21
44.468449
0
LINE
8
DEFAULT_255_2_778
10
108.7109687
20
43.968349
11
104.8139687
21
43.968349
0
LINE
8
DEFAULT_255_2_778
10
104.5138687
20
43.674449
11
104.0630687
21
30.209749
0
LINE
8
DEFAULT_255_2_778
10
107.0597687
20
27.068649
11
108.1556687
21
27.068649
0
LINE
8
DEFAULT_255_2_778
10
1.1110687
20
46.368449
11
8.5111687
21
46.368449
0
LINE
8
DEFAULT_255_2_778
10
36.2109687
20
61.211049
11
34.6109687
21
59.868549
0
LINE
8
DEFAULT_255_2_778
10
34.6109687
20
59.868549
11
36.2109687
21
58.526049
0
LINE
8
DEFAULT_255_2_778
10
36.2109687
20
58.526049
11
36.2109687
21
59.368449
0
LINE
8
DEFAULT_255_2_778
10
36.2109687
20
59.368449
11
38.2108687
21
59.368449
0
LINE
8
DEFAULT_255_2_778
10
38.2108687
20
59.368449
11
38.2108687
21
60.368549
0
LINE
8
DEFAULT_255_2_778
10
38.2108687
20
60.368549
11
36.2109687
21
60.368549
0
LINE
8
DEFAULT_255_2_778
10
36.2109687
20
60.368549
11
36.2109687
21
61.211049
0
LINE
8
DEFAULT_255_2_778
10
19.3503687
20
94.768649
11
19.3109687
21
95.268749
0
LINE
8
DEFAULT_255_2_778
10
19.3109687
20
95.268749
11
15.2109687
21
95.268749
0
LINE
8
DEFAULT_255_2_778
10
15.2109687
20
95.268749
11
15.2109687
21
102.468549
0
LINE
8
DEFAULT_255_2_778
10
15.2109687
20
102.468549
11
14.7108687
21
101.968449
0
LINE
8
DEFAULT_255_2_778
10
9.0109687
20
48.868449
11
9.4609687
21
48.868449
0
LINE
8
DEFAULT_255_2_778
10
106.0108687
20
52.568649
11
104.1106687
21
52.568649
0
LINE
8
DEFAULT_255_2_778
10
48.1922687
20
53.868549
11
44.8606687
21
53.868549
0
LINE
8
DEFAULT_255_2_778
10
44.3605687
20
52.805949
11
44.3605687
21
32.368549
0
LINE
8
DEFAULT_255_2_778
10
43.3604687
20
31.368349
11
8.7109687
21
31.368349
0
LINE
8
DEFAULT_255_2_778
10
8.2108687
20
30.868349
11
8.2108687
21
34.468249
0
ARC
8
DEFAULT_255_2_778
10
-389.2861683
20
53.4733737
40
493.8971555
50
0.3704693
51
5.3536882
0
ARC
8
DEFAULT_255_2_778
10
104.9007945
20
56.668783
40
0.3001379
50
180.3699451
51
269.9939676
0
ARC
8
DEFAULT_255_2_778
10
108.6109659
20
55.8685482
40
0.5000969
50
359.9996485
51
90.0003515
0
ARC
8
DEFAULT_255_2_778
10
108.810932
20
54.968576
40
0.3001308
50
270.0058834
51
359.9750212
0
ARC
8
DEFAULT_255_2_778
10
104.4101733
20
54.3688147
40
0.2996304
50
90.0019951
51
135.091949
0
ARC
8
DEFAULT_255_2_778
10
104.4109845
20
54.3682227
40
0.3006229
50
135.1211968
51
179.9292611
0
ARC
8
DEFAULT_255_2_778
10
104.3439835
20
54.3685315
40
0.2336216
50
179.9846996
51
180.1683395
0
ARC
8
DEFAULT_255_2_778
10
27.4616912
20
105.3882545
40
0.2992717
50
359.9982031
51
30.0784638
0
ARC
8
DEFAULT_255_2_778
10
27.0102327
20
106.1683327
40
0.3002123
50
30.0234096
51
89.9942431
0
ARC
8
DEFAULT_255_2_778
10
22.5115996
20
106.1684945
40
0.3000507
50
90.0070187
51
149.994406
0
ARC
8
DEFAULT_255_2_778
10
22.0601356
20
105.3884536
40
0.2991728
50
149.9546409
51
180.0399327
0
LINE
8
DEFAULT_255_2_778
10
43.5107629
20
54.8684451
11
40.2108629
21
54.8684451
0
LINE
8
DEFAULT_255_2_778
10
104.9007629
20
56.3686451
11
108.6109629
21
56.3686451
0
LINE
8
DEFAULT_255_2_778
10
109.1110629
20
55.8685451
11
109.1110629
21
54.9684451
0
LINE
8
DEFAULT_255_2_778
10
108.8109629
20
54.6684451
11
104.4101629
21
54.6684451
0
LINE
8
DEFAULT_255_2_778
10
27.7609629
20
102.4685451
11
27.7609629
21
105.3882451
0
LINE
8
DEFAULT_255_2_778
10
27.7206629
20
105.5382451
11
27.2701629
21
106.3185451
0
LINE
8
DEFAULT_255_2_778
10
27.0102629
20
106.4685451
11
22.5115629
21
106.4685451
0
LINE
8
DEFAULT_255_2_778
10
22.2517629
20
106.3185451
11
21.8011629
21
105.5382451
0
LINE
8
DEFAULT_255_2_778
10
21.7609629
20
105.3882451
11
21.7609629
21
102.4685451
0
LINE
8
DEFAULT_255_2_778
10
9.0109629
20
63.8685451
11
9.4610629
21
63.8685451
0
ARC
8
DEFAULT_255_2_778
10
8.510801
20
74.5685626
40
0.5000956
50
0.0053149
51
45.0041129
0
ARC
8
DEFAULT_255_2_778
10
8.5109621
20
74.5687835
40
0.4998255
50
44.9992653
51
90.0189709
0
ARC
8
DEFAULT_255_2_778
10
1.1108312
20
74.5687832
40
0.4998258
50
89.9810357
51
135.0007161
0
ARC
8
DEFAULT_255_2_778
10
1.1109922
20
74.5685626
40
0.5000956
50
134.9958871
51
179.9946851
0
ARC
8
DEFAULT_255_2_778
10
41.1606786
20
85.2185909
40
0.4000181
50
0.0025859
51
89.9974213
0
ARC
8
DEFAULT_255_2_778
10
41.1606575
20
85.218548
40
0.4000391
50
270.0056061
51
0.0087232
0
ARC
8
DEFAULT_255_2_778
10
10.5108357
20
85.2185479
40
0.400039
50
179.9912616
51
269.9944061
0
ARC
8
DEFAULT_255_2_778
10
10.5108143
20
85.2185912
40
0.4000177
50
90.0025391
51
179.9974651
0
ARC
8
DEFAULT_255_2_778
10
1.1109709
20
86.9684308
40
0.4999218
50
224.9876425
51
270.0029459
0
ARC
8
DEFAULT_255_2_778
10
1.1105858
20
86.9684869
40
0.4996892
50
179.9974732
51
225.0234147
0
ARC
8
DEFAULT_255_2_778
10
105.2266796
20
54.8688377
40
0.200261
50
225.0092421
51
262.4585192
0
ARC
8
DEFAULT_255_2_778
10
104.461046
20
55.0690727
40
0.1995362
50
44.9767856
51
90.0370702
0
LINE
8
DEFAULT_255_2_778
10
104.4609169
20
55.2686089
11
104.4607591
21
55.2686089
0
ARC
8
DEFAULT_255_2_778
10
104.4604423
20
55.0693264
40
0.1992828
50
89.9089246
51
135.0534957
0
ARC
8
DEFAULT_255_2_778
10
104.609236
20
54.7925014
40
0.5002407
50
135.0349764
51
180.0183246
0
ARC
8
DEFAULT_255_2_778
10
104.64332
20
54.7924358
40
0.5343247
50
180.0101212
51
180.1315532
0
ARC
8
DEFAULT_255_2_778
10
110.8695749
20
53.8685007
40
0.1998918
50
270.0348869
51
335.6580423
0
ARC
8
DEFAULT_255_2_778
10
110.8693265
20
53.8686757
40
0.2001902
50
335.6417061
51
357.6572664
0
ARC
8
DEFAULT_255_2_778
10
110.8691196
20
53.8686769
40
0.200397
50
357.659351
51
359.999239
0
ARC
8
DEFAULT_255_2_778
10
110.8702617
20
53.8688342
40
0.1992549
50
359.9540009
51
41.3253486
0
ARC
8
DEFAULT_255_2_778
10
111.1093853
20
54.6570972
40
0.5000898
50
180.1246837
51
221.1976184
0
ARC
8
DEFAULT_255_2_778
10
105.2109319
20
105.4686247
40
0.9999842
50
51.9335914
51
89.996295
0
ARC
8
DEFAULT_255_2_778
10
94.7470559
20
46.4674899
40
60.001119
50
90.0000566
51
98.9999191
0
ARC
8
DEFAULT_255_2_778
10
94.7470591
20
60.4697769
40
60.0011679
50
261.0000852
51
269.9999403
0
ARC
8
DEFAULT_255_2_778
10
107.3442671
20
0.9686132
40
0.5000043
50
270.0033834
51
353.9608682
0
ARC
8
DEFAULT_255_2_778
10
-389.4478504
20
53.4717186
40
500.0587938
50
353.9671261
51
357.1728176
0
ARC
8
DEFAULT_255_2_778
10
80.1608686
20
4.6185373
40
0.750028
50
0.0054748
51
44.9915563
0
ARC
8
DEFAULT_255_2_778
10
80.1608811
20
4.6180339
40
0.750375
50
45.0194128
51
89.9835473
0
LINE
8
DEFAULT_255_2_778
10
40.2107966
20
64.8687089
11
43.5106966
21
64.8687089
0
LINE
8
DEFAULT_255_2_778
10
9.4608966
20
70.8686089
11
9.0108966
21
70.8686089
0
LINE
8
DEFAULT_255_2_778
10
43.5109966
20
65.9765089
11
43.5109966
21
64.8264089
0
LINE
8
DEFAULT_255_2_778
10
43.5109966
20
54.9108089
11
43.5109966
21
53.7607089
0
LINE
8
DEFAULT_255_2_778
10
8.5107966
20
75.0686089
11
1.1109966
21
75.0686089
0
LINE
8
DEFAULT_255_2_778
10
41.1606966
20
84.8185089
11
10.5107966
21
84.8185089
0
LINE
8
DEFAULT_255_2_778
10
10.5107966
20
85.6186089
11
41.1606966
21
85.6186089
0
LINE
8
DEFAULT_255_2_778
10
84.7107966
20
85.7187089
11
84.6107966
21
85.7187089
0
LINE
8
DEFAULT_255_2_778
10
9.4608966
20
86.4685089
11
1.1109966
21
86.4685089
0
LINE
8
DEFAULT_255_2_778
10
105.0850966
20
54.7272089
11
104.6021966
21
55.2101089
0
LINE
8
DEFAULT_255_2_778
10
104.3193966
20
55.2101089
11
104.2552966
21
55.1460089
0
LINE
8
DEFAULT_255_2_778
10
104.1089966
20
54.7912089
11
104.1108966
21
53.6686089
0
LINE
8
DEFAULT_255_2_778
10
104.1108966
20
53.6686089
11
110.8696966
21
53.6686089
0
LINE
8
DEFAULT_255_2_778
10
111.0198966
20
54.0004089
11
110.7330966
21
54.3277089
0
LINE
8
DEFAULT_255_2_778
10
15.2108966
20
95.2685089
11
14.7107966
21
94.7685089
0
LINE
8
DEFAULT_255_2_778
10
105.2109966
20
106.4686089
11
94.7469966
21
106.4686089
0
LINE
8
DEFAULT_255_2_778
10
85.3608966
20
105.7299089
11
84.7107966
21
105.6270089
0
LINE
8
DEFAULT_255_2_778
10
84.7107966
20
105.6270089
11
84.7107966
21
1.3102089
0
LINE
8
DEFAULT_255_2_778
10
84.7107966
20
1.3102089
11
85.3608966
21
1.2073089
0
LINE
8
DEFAULT_255_2_778
10
94.7469966
20
0.4686089
11
107.3442966
21
0.4686089
0
LINE
8
DEFAULT_255_2_778
10
19.3108966
20
95.2685089
11
84.6107966
21
105.6111089
0
LINE
8
DEFAULT_255_2_778
10
84.6107966
20
105.6111089
11
84.6107966
21
1.3261089
0
LINE
8
DEFAULT_255_2_778
10
84.6107966
20
1.3261089
11
80.9108966
21
1.9121089
0
LINE
8
DEFAULT_255_2_778
10
80.9108966
20
1.9121089
11
80.9108966
21
4.6186089
0
LINE
8
DEFAULT_255_2_778
10
80.1610966
20
5.3684089
11
27.3107966
21
5.3684089
0
LINE
8
DEFAULT_255_2_778
10
27.3107966
20
5.3684089
11
27.3107966
21
4.4683089
0
LINE
8
DEFAULT_255_2_778
10
27.3107966
20
4.4683089
11
27.8108966
21
4.9684089
0
ARC
8
DEFAULT_255_2_778
10
100.9636166
20
99.416022
40
1.4993822
50
5.3478826
51
30.0112674
0
ARC
8
DEFAULT_255_2_778
10
100.8841193
20
103.7522038
40
0.5997721
50
179.9878576
51
209.9944124
0
LINE
8
DEFAULT_255_2_778
10
100.2843472
20
103.7523309
11
100.2843473
21
103.7526918
0
ARC
8
DEFAULT_255_2_778
10
100.8845296
20
103.7524234
40
0.6001823
50
150.0161
51
179.9743723
0
ARC
8
DEFAULT_255_2_778
10
107.3755
20
105.6734413
40
0.5000073
50
5.995632
51
87.0110356
0
ARC
8
DEFAULT_255_2_778
10
-389.3832443
20
53.4683179
40
499.9943766
50
0.0458659
51
5.9992749
0
ARC
8
DEFAULT_255_2_778
10
110.4111922
20
53.8683203
40
0.1997802
50
315.0057154
51
0.0711641
0
ARC
8
DEFAULT_255_2_778
10
110.4109169
20
53.868399
40
0.2000306
50
269.9871979
51
315.0455118
0
ARC
8
DEFAULT_255_2_778
10
99.4312139
20
106.2683029
40
0.2002655
50
30.0438639
51
89.9833139
0
ARC
8
DEFAULT_255_2_778
10
99.7713029
20
105.6788072
40
0.2004695
50
359.988927
51
29.9097774
0
ARC
8
DEFAULT_255_2_778
10
100.9717893
20
103.2933438
40
1.0000171
50
179.9871289
51
209.9911885
0
ARC
8
DEFAULT_255_2_778
10
100.9734387
20
99.2877837
40
1.0014252
50
5.3679457
51
29.991549
0
ARC
8
DEFAULT_255_2_778
10
-389.2735138
20
53.4765197
40
493.3841486
50
0.3087338
51
5.3385773
0
ARC
8
DEFAULT_255_2_778
10
103.607597
20
56.1319829
40
0.4958849
50
0.0000895
51
0.3565136
0
ARC
8
DEFAULT_255_2_778
10
103.603635
20
56.1320793
40
0.4998467
50
300.2669142
51
359.9890337
0
LINE
8
DEFAULT_255_2_778
10
102.3559722
20
99.9685684
11
101.7367722
21
99.9685684
0
LINE
8
DEFAULT_255_2_778
10
10.6608722
20
7.4686684
11
10.9495722
21
7.9686684
0
LINE
8
DEFAULT_255_2_778
10
102.2619722
20
100.1659684
11
100.3646722
21
103.4523684
0
LINE
8
DEFAULT_255_2_778
10
100.3646722
20
104.0523684
11
101.7595722
21
106.4685684
0
LINE
8
DEFAULT_255_2_778
10
101.7595722
20
106.4685684
11
107.4015722
21
106.1727684
0
LINE
8
DEFAULT_255_2_778
10
88.0609722
20
97.7185684
11
88.0609722
21
88.2183684
0
LINE
8
DEFAULT_255_2_778
10
88.0609722
20
22.2186684
11
88.0609722
21
12.7184684
0
LINE
8
DEFAULT_255_2_778
10
99.6045722
20
106.3685684
11
99.9450722
21
105.7787684
0
LINE
8
DEFAULT_255_2_778
10
99.9717722
20
105.6787684
11
99.9717722
21
103.2935684
0
LINE
8
DEFAULT_255_2_778
10
100.1056722
20
102.7934684
11
101.8407722
21
99.7883684
0
ARC
8
DEFAULT_255_2_778
10
105.012989
20
55.0693233
40
0.2022529
50
180.1504223
51
206.0848643
0
ARC
8
DEFAULT_255_2_778
10
104.510606
20
55.4687615
40
0.3001308
50
0.0058767
51
89.975024
0
ARC
8
DEFAULT_255_2_778
10
104.1075501
20
55.2688728
40
0.5000195
50
90.0015211
51
135.1210349
0
ARC
8
DEFAULT_255_2_778
10
104.1073139
20
55.2688325
40
0.4998806
50
135.0986495
51
179.995286
0
ARC
8
DEFAULT_255_2_778
10
104.0991225
20
55.2688215
40
0.4916892
50
179.9939308
51
180.2131534
0
ARC
8
DEFAULT_255_2_778
10
107.9622793
20
7.1187795
40
0.4986576
50
346.0058089
51
359.9784967
0
ARC
8
DEFAULT_255_2_778
10
106.0108427
20
47.9687865
40
0.2000942
50
269.9983355
51
359.9730179
0
ARC
8
DEFAULT_255_2_778
10
104.0720816
20
47.2685055
40
0.5001868
50
90.0051245
51
179.2569244
0
ARC
8
DEFAULT_255_2_778
10
1.161238
20
4.9684388
40
1.0003119
50
135.0140784
51
180.0136584
0
ARC
8
DEFAULT_255_2_778
10
1.160349
20
4.9681947
40
0.9994229
50
179.9996751
51
183.3035589
0
ARC
8
DEFAULT_255_2_778
10
1.159718
20
4.9682177
40
0.9987942
50
183.3069635
51
202.5126332
0
ARC
8
DEFAULT_255_2_778
10
1.1610394
20
4.9686866
40
1.0001944
50
202.5084624
51
269.9998536
0
ARC
8
DEFAULT_255_2_778
10
6.4540887
20
4.4683516
40
0.4998593
50
269.9940647
51
314.9828922
0
ARC
8
DEFAULT_255_2_778
10
7.1607718
20
5.1755086
40
0.500265
50
315.0363451
51
359.99813
0
ARC
8
DEFAULT_255_2_778
10
7.9608222
20
7.1685172
40
0.2997853
50
134.9743446
51
180.023866
0
ARC
8
DEFAULT_255_2_778
10
7.9608777
20
7.1686893
40
0.2997029
50
89.9695787
51
135.0051204
0
ARC
8
DEFAULT_255_2_778
10
13.6059027
20
4.3685354
40
1.0001432
50
209.998117
51
269.9847705
0
ARC
8
DEFAULT_255_2_778
10
18.6725009
20
3.8684327
40
0.5000404
50
269.9926657
51
329.9973272
0
LINE
8
DEFAULT_255_2_778
10
104.6109369
20
106.4685923
11
104.6109369
21
106.3190923
0
LINE
8
DEFAULT_255_2_778
10
104.8107369
20
55.0687923
11
104.8107369
21
55.4687923
0
LINE
8
DEFAULT_255_2_778
10
104.5107369
20
55.7688923
11
104.1075369
21
55.7688923
0
LINE
8
DEFAULT_255_2_778
10
103.6074369
20
55.2669923
11
103.6105369
21
53.0690923
0
LINE
8
DEFAULT_255_2_778
10
103.6105369
20
53.0690923
11
103.6074369
21
55.2669923
0
LINE
8
DEFAULT_255_2_778
10
106.2109369
20
43.9686923
11
106.2109369
21
45.6686923
0
LINE
8
DEFAULT_255_2_778
10
106.2109369
20
46.6684923
11
106.2109369
21
53.6685923
0
LINE
8
DEFAULT_255_2_778
10
106.2109369
20
54.6686923
11
106.2109369
21
56.3686923
0
LINE
8
DEFAULT_255_2_778
10
108.4609369
20
7.1185923
11
108.4609369
21
7.1508923
0
LINE
8
DEFAULT_255_2_778
10
106.0108369
20
47.7686923
11
104.0720369
21
47.7686923
0
LINE
8
DEFAULT_255_2_778
10
103.5719369
20
47.2749923
11
103.5394369
21
45.0770923
0
LINE
8
DEFAULT_255_2_778
10
103.5394369
20
45.0770923
11
103.5719369
21
47.2749923
0
LINE
8
DEFAULT_255_2_778
10
5.0109369
20
25.4684923
11
5.5110369
21
25.9685923
0
LINE
8
DEFAULT_255_2_778
10
45.5110369
20
62.3685923
11
45.8110369
21
62.6686923
0
LINE
8
DEFAULT_255_2_778
10
2.4109369
20
7.6326923
11
0.4537369
21
5.6755923
0
LINE
8
DEFAULT_255_2_778
10
1.1610369
20
3.9684923
11
6.4540369
21
3.9684923
0
LINE
8
DEFAULT_255_2_778
10
6.8074369
20
4.1147923
11
7.5147369
21
4.8219923
0
LINE
8
DEFAULT_255_2_778
10
7.6610369
20
5.1754923
11
7.6610369
21
7.1683923
0
LINE
8
DEFAULT_255_2_778
10
7.9610369
20
7.4683923
11
10.6611369
21
7.4683923
0
LINE
8
DEFAULT_255_2_778
10
10.6611369
20
7.4683923
11
12.7397369
21
3.8684923
0
LINE
8
DEFAULT_255_2_778
10
13.6056369
20
3.3683923
11
18.6724369
21
3.3683923
0
LINE
8
DEFAULT_255_2_778
10
19.1055369
20
3.6183923
11
19.5963369
21
4.4685923
0
LINE
8
DEFAULT_255_2_778
10
108.9120369
20
26.2685923
11
108.8768369
21
26.0685923
0
ARC
8
DEFAULT_255_2_778
10
2.911109
20
14.1892028
40
0.4999405
50
121.6105943
51
179.9926237
0
ARC
8
DEFAULT_255_2_778
10
111.0505116
20
45.6859737
40
0.5002039
50
140.5853534
51
179.1072646
0
ARC
8
DEFAULT_255_2_778
10
110.7876653
20
46.4683368
40
0.1997633
50
320.5726191
51
0.0476997
0
ARC
8
DEFAULT_255_2_778
10
110.7860498
20
46.4684955
40
0.2013786
50
0.0021449
51
1.8111271
0
ARC
8
DEFAULT_255_2_778
10
110.7868478
20
46.468529
40
0.2005799
50
1.8087593
51
25.1795756
0
ARC
8
DEFAULT_255_2_778
10
110.7876963
20
46.468748
40
0.1997191
50
25.2262902
51
90.0079791
0
ARC
8
DEFAULT_255_2_778
10
104.5470807
20
45.4086158
40
0.5018785
50
179.0693747
51
179.998221
0
ARC
8
DEFAULT_255_2_778
10
104.5455074
20
45.4086661
40
0.500305
50
180.0039835
51
224.972472
0
ARC
8
DEFAULT_255_2_778
10
104.4605442
20
45.0681078
40
0.1994158
50
224.9319224
51
270.078809
0
ARC
8
DEFAULT_255_2_778
10
104.4610927
20
45.0681078
40
0.1994158
50
269.921191
51
315.0680776
0
ARC
8
DEFAULT_255_2_778
10
105.4263106
20
45.4688099
40
0.1997573
50
89.8973655
51
134.9563814
0
LINE
8
DEFAULT_255_2_778
10
5.0109684
20
16.0685672
11
2.6490684
21
14.6149672
0
LINE
8
DEFAULT_255_2_778
10
2.4111684
20
14.1892672
11
2.4111684
21
7.6328672
0
LINE
8
DEFAULT_255_2_778
10
2.4111684
20
7.6328672
11
2.9112684
21
7.4257672
0
LINE
8
DEFAULT_255_2_778
10
3.0109684
20
28.1685672
11
3.5110684
21
28.3756672
0
LINE
8
DEFAULT_255_2_778
10
110.6640684
20
46.0035672
11
110.9419684
21
46.3414672
0
LINE
8
DEFAULT_255_2_778
10
110.7876684
20
46.6684672
11
104.0640684
21
46.6684672
0
LINE
8
DEFAULT_255_2_778
10
104.0640684
20
46.6684672
11
104.0452684
21
45.4167672
0
LINE
8
DEFAULT_255_2_778
10
104.1915684
20
45.0550672
11
104.3193684
21
44.9272672
0
LINE
8
DEFAULT_255_2_778
10
104.6022684
20
44.9272672
11
105.2851684
21
45.6101672
0
ARC
8
DEFAULT_255_2_778
10
105.0587803
20
46.4703167
40
0.1025483
50
358.8684155
51
0.0002878
0
ARC
8
DEFAULT_255_2_778
10
105.0580581
20
46.4703158
40
0.1032705
50
0.000779
51
2.2440723
0
ARC
8
DEFAULT_255_2_778
10
105.0550123
20
46.4701299
40
0.1063213
50
2.2799184
51
15.4152979
0
ARC
8
DEFAULT_255_2_778
10
105.0400694
20
46.4676159
40
0.1214047
50
14.6844936
51
28.8476228
0
ARC
8
DEFAULT_255_2_778
10
104.8012602
20
46.0289932
40
0.6392983
50
80.2151168
51
90.0135844
0
ARC
8
DEFAULT_255_2_778
10
104.8499245
20
54.2818238
40
0.6134347
50
269.8397306
51
269.9999982
0
ARC
8
DEFAULT_255_2_778
10
104.8497132
20
54.3019962
40
0.6336071
50
270.019106
51
279.7770071
0
ARC
8
DEFAULT_255_2_778
10
105.0824777
20
53.8729387
40
0.1290951
50
331.0199608
51
344.3857235
0
ARC
8
DEFAULT_255_2_778
10
105.0927042
20
53.8694524
40
0.1183092
50
344.6787724
51
359.4862215
0
ARC
8
DEFAULT_255_2_778
10
-389.3276688
20
53.4707847
40
494.538668
50
0.3357448
51
5.2285135
0
ARC
8
DEFAULT_255_2_778
10
85.1108444
20
11.2185474
40
0.5000357
50
143.2270627
51
179.9949518
0
ARC
8
DEFAULT_255_2_778
10
107.6109919
20
29.7684337
40
3.8821443
50
305.9316106
51
356.2449819
0
ARC
8
DEFAULT_255_2_778
10
107.6032864
20
29.7688379
40
3.8898597
50
356.2464734
51
357.2630028
0
ARC
8
DEFAULT_255_2_778
10
107.6076659
20
29.7689976
40
3.8854927
50
357.2575672
51
359.9996355
0
ARC
8
DEFAULT_255_2_778
10
107.610919
20
29.7683729
40
3.8822397
50
0.0088548
51
48.5957047
0
LINE
8
DEFAULT_255_2_778
10
105.1493086
20
45.6683915
11
105.1613086
21
46.4682915
0
LINE
8
DEFAULT_255_2_778
10
105.1464086
20
46.5261915
11
105.1303086
21
46.5504915
0
LINE
8
DEFAULT_255_2_778
10
105.1303086
20
46.5504915
11
105.1107086
21
46.5713915
0
LINE
8
DEFAULT_255_2_778
10
105.1107086
20
46.5713915
11
105.0652086
21
46.6047915
0
LINE
8
DEFAULT_255_2_778
10
105.0652086
20
46.6047915
11
105.0155086
21
46.6293915
0
LINE
8
DEFAULT_255_2_778
10
105.0155086
20
46.6293915
11
104.9633086
21
46.6470915
0
LINE
8
DEFAULT_255_2_778
10
104.9633086
20
46.6470915
11
104.9099086
21
46.6589915
0
LINE
8
DEFAULT_255_2_778
10
104.9573086
20
53.6775915
11
105.0110086
21
53.6894915
0
LINE
8
DEFAULT_255_2_778
10
105.0110086
20
53.6894915
11
105.0634086
21
53.7072915
0
LINE
8
DEFAULT_255_2_778
10
105.0634086
20
53.7072915
11
105.1134086
21
53.7318915
0
LINE
8
DEFAULT_255_2_778
10
105.1134086
20
53.7318915
11
105.1591086
21
53.7651915
0
LINE
8
DEFAULT_255_2_778
10
105.1591086
20
53.7651915
11
105.1790086
21
53.7860915
0
LINE
8
DEFAULT_255_2_778
10
105.1790086
20
53.7860915
11
105.1954086
21
53.8103915
0
LINE
8
DEFAULT_255_2_778
10
105.2110086
20
53.8683915
11
105.2097086
21
54.6684915
0
ARC
8
DEFAULT_255_2_778
10
107.6108411
20
29.7686062
40
3.5780236
50
310.0075888
51
357.2731883
0
ARC
8
DEFAULT_255_2_778
10
107.6057508
20
29.768569
40
3.5831064
50
357.2776535
51
359.9998095
0
ARC
8
DEFAULT_255_2_778
10
107.6105327
20
29.7686209
40
3.5783246
50
359.9989794
51
44.5310792
0
ARC
8
DEFAULT_255_2_778
10
107.6107106
20
29.768106
40
2.8995589
50
244.4276246
51
270.0037561
0
ARC
8
DEFAULT_255_2_778
10
107.6109002
20
29.7697752
40
2.9012281
50
270.0000089
51
270.5498595
0
ARC
8
DEFAULT_255_2_778
10
107.6110462
20
29.7678855
40
2.8993371
50
270.5473323
51
291.9798874
0
ARC
8
DEFAULT_255_2_778
10
108.5091392
20
27.5430024
40
0.5000299
50
291.9703023
51
319.9695321
0
ARC
8
DEFAULT_255_2_778
10
107.6131945
20
29.7674862
40
2.8569328
50
325.5511968
51
343.8845324
0
ARC
8
DEFAULT_255_2_778
10
107.607548
20
29.7687621
40
2.8627117
50
343.8913675
51
0.0023967
0
ARC
8
DEFAULT_255_2_778
10
107.6052117
20
29.7688658
40
2.8650481
50
0.0003211
51
0.7763416
0
ARC
8
DEFAULT_255_2_778
10
107.6128903
20
29.7694012
40
2.8573631
50
0.7676934
51
22.2514983
0
ARC
8
DEFAULT_255_2_778
10
107.6062419
20
29.7663101
40
2.8646869
50
22.2583652
51
28.9604066
0
ARC
8
DEFAULT_255_2_778
10
43.3110157
20
55.368603
40
0.5000969
50
269.9996485
51
0.0003515
0
ARC
8
DEFAULT_255_2_778
10
43.3110157
20
64.3686092
40
0.5000969
50
359.9996485
51
90.0003515
0
ARC
8
DEFAULT_255_2_778
10
85.1106553
20
86.7187595
40
0.4997426
50
143.2158941
51
179.9946556
0
ARC
8
DEFAULT_255_2_778
10
100.6346671
20
104.1330905
40
0.50053
50
86.0080001
51
89.9997441
0
ARC
8
DEFAULT_255_2_778
10
100.6347101
20
104.1335873
40
0.5000332
50
90.0046683
51
137.0161667
0
ARC
8
DEFAULT_255_2_778
10
100.6352725
20
104.133315
40
0.5006305
50
137.0372521
51
179.9883828
0
ARC
8
DEFAULT_255_2_778
10
100.6345132
20
104.1334225
40
0.4998712
50
180.0006834
51
186.1561496
0
ARC
8
DEFAULT_255_2_778
10
100.6353487
20
104.1335003
40
0.5007103
50
186.154749
51
188.0010193
0
ARC
8
DEFAULT_255_2_778
10
103.0115657
20
104.4689655
40
2.9004901
50
188.0297072
51
224.9972951
0
ARC
8
DEFAULT_255_2_778
10
102.776296
20
98.5027996
40
0.378683
50
5.2129832
51
17.0617638
0
ARC
8
DEFAULT_255_2_778
10
102.7624961
20
98.4984869
40
0.3931408
50
17.0725473
51
28.3721558
0
ARC
8
DEFAULT_255_2_778
10
102.7645403
20
98.5020773
40
0.3896421
50
28.0504607
51
39.2880198
0
ARC
8
DEFAULT_255_2_778
10
102.6803755
20
98.4391172
40
0.494672
50
38.7592219
51
47.462031
0
LINE
8
DEFAULT_255_2_778
10
100.6983126
20
104.6303061
11
100.6695126
21
104.6324061
0
LINE
8
DEFAULT_255_2_778
10
108.4557126
20
7.0456061
11
108.4525126
21
7.0625061
0
LINE
8
DEFAULT_255_2_778
10
8.5109126
20
46.4103061
11
8.5604126
21
46.3944061
0
LINE
8
DEFAULT_255_2_778
10
8.5604126
20
46.3944061
11
8.6109126
21
46.3891061
0
LINE
8
DEFAULT_255_2_778
10
8.6109126
20
46.3891061
11
8.6614126
21
46.3944061
0
LINE
8
DEFAULT_255_2_778
10
8.6614126
20
46.3944061
11
8.7109126
21
46.4103061
0
ARC
8
DEFAULT_255_2_778
10
48.193167
20
65.5861136
40
0.282612
50
89.9582947
51
90.125216
0
ARC
8
DEFAULT_255_2_778
10
48.2083286
20
65.5602696
40
0.3088186
50
20.3623665
51
92.775894
0
ARC
8
DEFAULT_255_2_778
10
48.2346186
20
65.5832972
40
0.2764389
50
0.4410247
51
17.7829668
0
ARC
8
DEFAULT_255_2_778
10
48.2504185
20
54.1508117
40
0.2606325
50
0.0000022
51
0.2007752
0
ARC
8
DEFAULT_255_2_778
10
48.2527409
20
54.1509477
40
0.2583101
50
341.6029489
51
359.9698292
0
ARC
8
DEFAULT_255_2_778
10
48.2076852
20
54.1776421
40
0.3096872
50
267.1985735
51
339.5469285
0
ARC
8
DEFAULT_255_2_778
10
5.7109435
20
35.018631
40
0.0999941
50
89.9393296
51
180.0034318
0
ARC
8
DEFAULT_255_2_778
10
3.5107463
20
25.9685219
40
0.5000969
50
179.9996485
51
270.0003515
0
ARC
8
DEFAULT_255_2_778
10
2.8111155
20
29.0755416
40
0.5002659
50
180.0018944
51
224.9635853
0
ARC
8
DEFAULT_255_2_778
10
2.8109463
20
34.4685281
40
0.5000969
50
89.9996485
51
180.0003515
0
ARC
8
DEFAULT_255_2_778
10
8.7109742
20
34.6688397
40
0.2997853
50
44.9743446
51
90.023866
0
ARC
8
DEFAULT_255_2_778
10
8.7115072
20
34.6689331
40
0.2993425
50
359.9218888
51
45.0338001
0
ARC
8
DEFAULT_255_2_778
10
3.5108405
20
35.0187162
40
0.0999089
50
359.9477078
51
90.0522922
0
LINE
8
DEFAULT_255_2_778
10
8.7108493
20
75.026825
11
8.6613493
21
75.042625
0
LINE
8
DEFAULT_255_2_778
10
8.6613493
20
75.042625
11
8.6108493
21
75.047925
0
LINE
8
DEFAULT_255_2_778
10
8.6108493
20
75.047925
11
8.5603493
21
75.042625
0
LINE
8
DEFAULT_255_2_778
10
8.5603493
20
75.042625
11
8.5108493
21
75.026825
0
LINE
8
DEFAULT_255_2_778
10
105.2353493
20
32.427525
11
104.5950493
21
31.505225
0
LINE
8
DEFAULT_255_2_778
10
102.5196493
20
99.257325
11
103.0543493
21
98.766025
0
LINE
8
DEFAULT_255_2_778
10
43.4350493
20
64.868625
11
43.5107493
21
64.863825
0
LINE
8
DEFAULT_255_2_778
10
43.5107493
20
54.873225
11
43.4350493
21
54.868425
0
LINE
8
DEFAULT_255_2_778
10
5.6109493
20
34.968625
11
5.6109493
21
35.018625
0
LINE
8
DEFAULT_255_2_778
10
3.0106493
20
25.968525
11
3.0106493
21
28.168525
0
LINE
8
DEFAULT_255_2_778
10
3.0106493
20
28.168525
11
2.4571493
21
28.722025
0
LINE
8
DEFAULT_255_2_778
10
2.3108493
20
29.075525
11
2.3108493
21
34.468525
0
LINE
8
DEFAULT_255_2_778
10
2.8109493
20
34.968625
11
8.7108493
21
34.968625
0
LINE
8
DEFAULT_255_2_778
10
3.6107493
20
34.968625
11
3.6107493
21
35.018625
0
ARC
8
DEFAULT_255_2_778
10
5.7106298
20
86.4183421
40
0.0999085
50
179.9475005
51
270.0524185
0
ARC
8
DEFAULT_255_2_778
10
3.5108128
20
86.4183422
40
0.0999086
50
269.9474921
51
0.0524387
0
ARC
8
DEFAULT_255_2_778
10
8.7098667
20
46.8673454
40
0.4991464
50
179.8980345
51
246.4610281
0
ARC
8
DEFAULT_255_2_778
10
8.7093367
20
74.5697685
40
0.498617
50
113.4990428
51
180.1418929
0
ARC
8
DEFAULT_255_2_778
10
8.5104248
20
37.2188302
40
0.6004967
50
270.0378211
51
359.9526189
0
ARC
8
DEFAULT_255_2_778
10
8.5102751
20
37.2177875
40
0.6006464
50
0.0520945
51
89.9479055
0
ARC
8
DEFAULT_255_2_778
10
8.4608683
20
46.8685287
40
1.000095
50
269.9973023
51
314.9982952
0
ARC
8
DEFAULT_255_2_778
10
8.4607541
20
46.8685162
40
1.000167
50
315.0034277
51
0.0009994
0
ARC
8
DEFAULT_255_2_778
10
8.4604056
20
74.5684068
40
1.0005157
50
0.0072666
51
44.9883063
0
ARC
8
DEFAULT_255_2_778
10
8.4608683
20
74.5685387
40
1.000095
50
45.0017048
51
90.0026977
0
ARC
8
DEFAULT_255_2_778
10
8.5102751
20
84.2189798
40
0.6006464
50
270.0520945
51
359.9479055
0
ARC
8
DEFAULT_255_2_778
10
8.5102751
20
84.2178875
40
0.6006464
50
0.0520945
51
89.9479055
0
ARC
8
DEFAULT_255_2_778
10
105.2113807
20
45.2679911
40
0.2006429
50
90.1026448
51
116.2555295
0
ARC
8
DEFAULT_255_2_778
10
105.0110822
20
55.0690819
40
0.2006485
50
243.7447889
51
269.8969223
0
ARC
8
DEFAULT_255_2_778
10
44.01073
20
62.8686425
40
0.2000088
50
180.0025382
51
269.9974761
0
ARC
8
DEFAULT_255_2_778
10
44.0107301
20
56.8684248
40
0.2000088
50
90.0025484
51
179.9974719
0
LINE
8
DEFAULT_255_2_778
10
7.6109212
20
45.8684337
11
7.6109212
21
46.3684337
0
LINE
8
DEFAULT_255_2_778
10
6.4108212
20
46.3684337
11
6.4108212
21
45.8684337
0
LINE
8
DEFAULT_255_2_778
10
7.6109212
20
75.0686337
11
7.6109212
21
75.5686337
0
LINE
8
DEFAULT_255_2_778
10
6.4108212
20
75.5686337
11
6.4108212
21
75.0686337
0
LINE
8
DEFAULT_255_2_778
10
9.0108212
20
86.4684337
11
9.0108212
21
86.3184337
0
LINE
8
DEFAULT_255_2_778
10
5.6107212
20
86.4184337
11
5.6107212
21
86.4684337
0
LINE
8
DEFAULT_255_2_778
10
3.6107212
20
86.4184337
11
3.6107212
21
86.4684337
0
LINE
8
DEFAULT_255_2_778
10
9.0108212
20
84.5478337
11
9.0108212
21
83.8890337
0
LINE
8
DEFAULT_255_2_778
10
7.6107212
20
83.6186337
11
7.6107212
21
84.8185337
0
LINE
8
DEFAULT_255_2_778
10
6.4108212
20
84.8185337
11
6.4108212
21
83.6186337
0
LINE
8
DEFAULT_255_2_778
10
9.0108212
20
37.5477337
11
9.0108212
21
36.8889337
0
LINE
8
DEFAULT_255_2_778
10
7.6107212
20
36.6185337
11
7.6107212
21
37.8184337
0
LINE
8
DEFAULT_255_2_778
10
6.4108212
20
37.8184337
11
6.4108212
21
36.6185337
0
LINE
8
DEFAULT_255_2_778
10
9.0108212
20
46.0345337
11
9.0108212
21
75.4025337
0
LINE
8
DEFAULT_255_2_778
10
8.2107212
20
46.8682337
11
8.2107212
21
74.5685337
0
LINE
8
DEFAULT_255_2_778
10
9.7609212
20
35.1183337
11
3.1109212
21
35.1183337
0
LINE
8
DEFAULT_255_2_778
10
3.1109212
20
35.1183337
11
3.1109212
21
36.6183337
0
LINE
8
DEFAULT_255_2_778
10
3.1109212
20
36.6183337
11
8.5108212
21
36.6183337
0
LINE
8
DEFAULT_255_2_778
10
8.5108212
20
37.8184337
11
3.1109212
21
37.8184337
0
LINE
8
DEFAULT_255_2_778
10
3.1109212
20
37.8184337
11
3.1109212
21
45.8684337
0
LINE
8
DEFAULT_255_2_778
10
3.1109212
20
45.8684337
11
8.4608212
21
45.8684337
0
LINE
8
DEFAULT_255_2_778
10
9.4609212
20
46.8685337
11
9.4609212
21
74.5685337
0
LINE
8
DEFAULT_255_2_778
10
8.4608212
20
75.5686337
11
3.1109212
21
75.5686337
0
LINE
8
DEFAULT_255_2_778
10
3.1109212
20
75.5686337
11
3.1109212
21
83.6183337
0
LINE
8
DEFAULT_255_2_778
10
3.1109212
20
83.6183337
11
8.5108212
21
83.6183337
0
LINE
8
DEFAULT_255_2_778
10
8.5108212
20
84.8185337
11
3.1109212
21
84.8185337
0
LINE
8
DEFAULT_255_2_778
10
3.1109212
20
84.8185337
11
3.1109212
21
86.3184337
0
LINE
8
DEFAULT_255_2_778
10
3.1109212
20
86.3184337
11
9.7609212
21
86.3184337
0
LINE
8
DEFAULT_255_2_778
10
84.6108212
20
37.2186337
11
84.7108212
21
37.2186337
0
LINE
8
DEFAULT_255_2_778
10
84.7108212
20
35.7184337
11
84.6108212
21
35.7184337
0
LINE
8
DEFAULT_255_2_778
10
105.2110212
20
45.4686337
11
105.4110212
21
45.4686337
0
LINE
8
DEFAULT_255_2_778
10
105.4110212
20
45.4686337
11
106.2111212
21
44.6685337
0
LINE
8
DEFAULT_255_2_778
10
106.2108212
20
44.4687337
11
106.5109212
21
44.4687337
0
LINE
8
DEFAULT_255_2_778
10
106.5109212
20
44.4687337
11
106.5109212
21
45.6686337
0
LINE
8
DEFAULT_255_2_778
10
84.7108212
20
49.7186337
11
84.6108212
21
49.7186337
0
LINE
8
DEFAULT_255_2_778
10
84.6108212
20
48.2186337
11
84.7108212
21
48.2186337
0
LINE
8
DEFAULT_255_2_778
10
106.2108212
20
55.8685337
11
106.5109212
21
55.8685337
0
LINE
8
DEFAULT_255_2_778
10
106.5109212
20
55.8685337
11
106.5109212
21
54.6687337
0
LINE
8
DEFAULT_255_2_778
10
106.2108212
20
55.6685337
11
105.4107212
21
54.8684337
0
LINE
8
DEFAULT_255_2_778
10
105.4107212
20
54.8684337
11
105.0107212
21
54.8684337
0
LINE
8
DEFAULT_255_2_778
10
9.0108212
20
58.3186337
11
9.4609212
21
58.3186337
0
LINE
8
DEFAULT_255_2_778
10
9.0108212
20
57.9185337
11
9.4609212
21
57.9185337
0
LINE
8
DEFAULT_255_2_778
10
9.4609212
20
55.8685337
11
9.0108212
21
55.8685337
0
LINE
8
DEFAULT_255_2_778
10
84.6108212
20
62.2185337
11
84.7108212
21
62.2185337
0
LINE
8
DEFAULT_255_2_778
10
84.7108212
20
60.7186337
11
84.6108212
21
60.7186337
0
LINE
8
DEFAULT_255_2_778
10
44.0107212
20
62.6686337
11
45.8107212
21
62.6686337
0
LINE
8
DEFAULT_255_2_778
10
45.8107212
20
62.6686337
11
45.8107212
21
57.0687337
0
LINE
8
DEFAULT_255_2_778
10
45.5106212
20
57.3685337
11
45.5106212
21
62.3686337
0
LINE
8
DEFAULT_255_2_778
10
45.5106212
20
62.3686337
11
44.0107212
21
62.3686337
0
LINE
8
DEFAULT_255_2_778
10
44.0107212
20
62.3686337
11
44.0107212
21
57.3685337
0
LINE
8
DEFAULT_255_2_778
10
44.0107212
20
57.3685337
11
45.5106212
21
57.3685337
0
LINE
8
DEFAULT_255_2_778
10
45.5106212
20
57.3685337
11
45.8107212
21
57.0684337
0
LINE
8
DEFAULT_255_2_778
10
45.8107212
20
57.0684337
11
44.0107212
21
57.0684337
0
LINE
8
DEFAULT_255_2_778
10
48.5108212
20
65.5854337
11
48.5108212
21
54.1517337
0
ARC
8
DEFAULT_255_2_778
10
85.1107012
20
23.7185279
40
0.4998162
50
179.9966721
51
216.7812922
0
LINE
8
DEFAULT_255_2_778
10
43.810785
20
66.2095569
11
43.810785
21
53.5277569
0
LINE
8
DEFAULT_255_2_778
10
84.710885
20
74.7185569
11
84.610885
21
74.7185569
0
LINE
8
DEFAULT_255_2_778
10
84.610885
20
73.2186569
11
84.710885
21
73.2186569
0
LINE
8
DEFAULT_255_2_778
10
84.710885
20
104.4685569
11
84.610885
21
104.4685569
0
LINE
8
DEFAULT_255_2_778
10
84.710885
20
100.2185569
11
84.610885
21
100.2185569
0
LINE
8
DEFAULT_255_2_778
10
76.510885
20
5.1685569
11
76.510885
21
5.3686569
0
LINE
8
DEFAULT_255_2_778
10
76.510885
20
2.6089569
11
76.510885
21
1.5964569
0
LINE
8
DEFAULT_255_2_778
10
72.310885
20
5.1685569
11
72.310885
21
5.3686569
0
LINE
8
DEFAULT_255_2_778
10
72.010885
20
5.3686569
11
72.010885
21
5.1685569
0
LINE
8
DEFAULT_255_2_778
10
90.110985
20
12.4686569
11
90.110985
21
22.4686569
0
LINE
8
DEFAULT_255_2_778
10
90.110985
20
22.4686569
11
87.610985
21
22.4686569
0
LINE
8
DEFAULT_255_2_778
10
87.610985
20
22.4686569
11
87.610985
21
12.4686569
0
LINE
8
DEFAULT_255_2_778
10
87.610985
20
12.4686569
11
90.110985
21
12.4686569
0
LINE
8
DEFAULT_255_2_778
10
84.710885
20
21.4684569
11
82.610885
21
21.4684569
0
LINE
8
DEFAULT_255_2_778
10
82.610885
20
21.4684569
11
82.610885
21
13.4685569
0
LINE
8
DEFAULT_255_2_778
10
82.610885
20
13.4685569
11
84.710885
21
13.4685569
0
ARC
8
DEFAULT_255_2_778
10
44.0107204
20
62.8677412
40
0.4990601
50
246.382812
51
270.0074144
0
ARC
8
DEFAULT_255_2_778
10
44.0114346
20
56.866104
40
0.5024775
50
90.074067
51
113.5357067
0
ARC
8
DEFAULT_255_2_778
10
85.1104074
20
99.2184546
40
0.4995224
50
179.9969565
51
216.7925104
0
LINE
8
DEFAULT_255_2_778
10
87.610985
20
12.7184811
11
89.792985
21
12.7184811
0
LINE
8
DEFAULT_255_2_778
10
89.792985
20
12.7184811
11
89.792985
21
13.7186811
0
LINE
8
DEFAULT_255_2_778
10
89.792985
20
13.7186811
11
88.611085
21
13.7186811
0
LINE
8
DEFAULT_255_2_778
10
88.611085
20
13.7186811
11
88.611085
21
21.2184811
0
LINE
8
DEFAULT_255_2_778
10
88.611085
20
21.2184811
11
89.793285
21
21.2184811
0
LINE
8
DEFAULT_255_2_778
10
89.793285
20
21.2184811
11
89.793285
21
22.2186811
0
LINE
8
DEFAULT_255_2_778
10
89.793285
20
22.2186811
11
87.611185
21
22.2186811
0
LINE
8
DEFAULT_255_2_778
10
90.110985
20
87.9686811
11
90.110985
21
97.9685811
0
LINE
8
DEFAULT_255_2_778
10
90.110985
20
97.9685811
11
87.610985
21
97.9685811
0
LINE
8
DEFAULT_255_2_778
10
87.610985
20
97.9685811
11
87.610985
21
87.9686811
0
LINE
8
DEFAULT_255_2_778
10
87.610985
20
87.9686811
11
90.110985
21
87.9686811
0
LINE
8
DEFAULT_255_2_778
10
84.710885
20
96.9684811
11
82.610885
21
96.9684811
0
LINE
8
DEFAULT_255_2_778
10
82.610885
20
96.9684811
11
82.610885
21
88.9684811
0
LINE
8
DEFAULT_255_2_778
10
82.610885
20
88.9684811
11
84.710885
21
88.9684811
0
LINE
8
DEFAULT_255_2_778
10
87.6109584
20
88.2184645
11
89.7929584
21
88.2184645
0
LINE
8
DEFAULT_255_2_778
10
89.7929584
20
88.2184645
11
89.7929584
21
89.2185645
0
LINE
8
DEFAULT_255_2_778
10
89.7929584
20
89.2185645
11
88.6110584
21
89.2185645
0
LINE
8
DEFAULT_255_2_778
10
88.6110584
20
89.2185645
11
88.6110584
21
96.7184645
0
LINE
8
DEFAULT_255_2_778
10
88.6110584
20
96.7184645
11
89.7932584
21
96.7184645
0
LINE
8
DEFAULT_255_2_778
10
89.7932584
20
96.7184645
11
89.7932584
21
97.7185645
0
LINE
8
DEFAULT_255_2_778
10
89.7932584
20
97.7185645
11
87.6112584
21
97.7185645
0
ENDSEC
0
EOF