0
SECTION
2
HEADER
9
$MEASUREMENT
70
1
0
ENDSEC
0
SECTION
2
TABLES
0
TABLE
2
LTYPE
0
LTYPE
72
65
70
64
2
CONTINUOUS
3
______
73
0
40
0
0
ENDTAB
0
TABLE
2
LAYER
0
LAYER
2
DEFAULT_255_2_778
70
0
62
255
6
CONTINUOUS
0
ENDTAB
0
ENDSEC
0
SECTION
2
ENTITIES
0
ARC
8
DEFAULT_255_2_778
10
1.8047036
20
18.2187371
40
0.6994897
50
179.9957699
51
220.1948217
0
ARC
8
DEFAULT_255_2_778
10
1.8058601
20
18.2187814
40
0.700646
50
175.1766592
51
179.9994037
0
ARC
8
DEFAULT_255_2_778
10
1.805527
20
18.2188074
40
0.7003118
50
130.2010653
51
175.1764869
0
ARC
8
DEFAULT_255_2_778
10
1.801482
20
18.2211205
40
0.9959461
50
130.1130964
51
156.3441602
0
ARC
8
DEFAULT_255_2_778
10
1.8089349
20
18.2186732
40
1.0037551
50
156.3868992
51
180.012682
0
ARC
8
DEFAULT_255_2_778
10
1.8101053
20
18.2184525
40
1.0049255
50
180.0000835
51
181.108298
0
ARC
8
DEFAULT_255_2_778
10
1.8005822
20
18.2174367
40
0.995385
50
181.0604425
51
211.4167576
0
ARC
8
DEFAULT_255_2_778
10
1.8105366
20
18.224107
40
1.007357
50
211.4454027
51
220.2153548
0
ARC
8
DEFAULT_255_2_778
10
60.0921594
20
-56.1832904
40
60.0020847
50
81.0001528
51
89.9998701
0
LINE
8
DEFAULT_255_2_778
10
2.9552954
20
6.7757944
11
2.4551954
21
6.9828944
0
LINE
8
DEFAULT_255_2_778
10
2.4551954
20
6.9828944
11
2.4551954
21
13.5392944
0
LINE
8
DEFAULT_255_2_778
10
5.5552954
20
15.1394944
11
5.0552954
21
15.4188944
0
LINE
8
DEFAULT_255_2_778
10
5.0552954
20
15.4188944
11
5.0552954
21
24.8189944
0
LINE
8
DEFAULT_255_2_778
10
5.0552954
20
24.8189944
11
2.4551954
21
24.8189944
0
LINE
8
DEFAULT_255_2_778
10
2.4551954
20
24.8189944
11
2.4551954
21
28.1259944
0
LINE
8
DEFAULT_255_2_778
10
3.8704954
20
14.6899944
11
1.2703954
21
17.7672944
0
LINE
8
DEFAULT_255_2_778
10
1.3534954
20
18.7536944
11
2.1172954
21
19.3989944
0
LINE
8
DEFAULT_255_2_778
10
2.1172954
20
19.3989944
11
1.9235954
21
19.6281944
0
LINE
8
DEFAULT_255_2_778
10
1.9235954
20
19.6281944
11
1.1597954
21
18.9827944
0
LINE
8
DEFAULT_255_2_778
10
1.0412954
20
17.5736944
11
3.6119954
21
14.5309944
0
LINE
8
DEFAULT_255_2_778
10
19.3517954
20
4.3187944
11
19.6403954
21
3.8187944
0
LINE
8
DEFAULT_255_2_778
10
19.6403954
20
3.8187944
11
60.0922954
21
3.8187944
0
LINE
8
DEFAULT_255_2_778
10
69.4783954
20
3.0800944
11
84.6553954
21
0.6762944
0
LINE
8
DEFAULT_255_2_778
10
84.6553954
20
0.6762944
11
84.6553954
21
104.9612944
0
LINE
8
DEFAULT_255_2_778
10
84.6553954
20
104.9612944
11
19.3554954
21
94.6186944
0
ARC
8
DEFAULT_255_2_778
10
105.8551074
20
29.8188521
40
0.5000969
50
269.9996485
51
0.0003515
0
ARC
8
DEFAULT_255_2_778
10
96.8551012
20
29.8188521
40
0.5000969
50
179.9996485
51
270.0003515
0
ARC
8
DEFAULT_255_2_778
10
96.8551012
20
31.8187582
40
0.5000969
50
89.9996485
51
180.0003515
0
ARC
8
DEFAULT_255_2_778
10
105.8551074
20
31.8187582
40
0.5000969
50
359.9996485
51
90.0003515
0
LINE
8
DEFAULT_255_2_778
10
105.8551043
20
29.3187552
11
96.8551043
21
29.3187552
0
LINE
8
DEFAULT_255_2_778
10
96.3550043
20
29.8188552
11
96.3550043
21
31.8187552
0
LINE
8
DEFAULT_255_2_778
10
96.8551043
20
32.3188552
11
105.8551043
21
32.3188552
0
LINE
8
DEFAULT_255_2_778
10
106.3552043
20
31.8187552
11
106.3552043
21
29.8188552
0
ARC
8
DEFAULT_255_2_778
10
4.5062796
20
94.1681918
40
0.1511155
50
135.1934312
51
179.8508059
0
ARC
8
DEFAULT_255_2_778
10
4.5048594
20
94.1691586
40
0.149427
50
89.8829561
51
135.0726754
0
ARC
8
DEFAULT_255_2_778
10
8.9558684
20
98.9947636
40
0.3007041
50
131.8702512
51
179.9386896
0
LINE
8
DEFAULT_255_2_778
10
4.3551647
20
94.1185853
11
4.3551647
21
94.1685853
0
LINE
8
DEFAULT_255_2_778
10
4.5051647
20
94.3185853
11
8.6551647
21
94.3185853
0
LINE
8
DEFAULT_255_2_778
10
8.6551647
20
98.9950853
11
8.6551647
21
94.1185853
0
LINE
8
DEFAULT_255_2_778
10
8.6551647
20
94.1185853
11
9.1552647
21
93.6184853
0
ARC
8
DEFAULT_255_2_778
10
60.0910226
20
161.8320704
40
60.0132278
50
270.0009658
51
278.9990087
0
ARC
8
DEFAULT_255_2_778
10
9.2553311
20
101.3187457
40
0.5000969
50
89.9996485
51
180.0003515
0
LINE
8
DEFAULT_255_2_778
10
60.0920342
20
101.8188426
11
9.2553342
21
101.8188426
0
LINE
8
DEFAULT_255_2_778
10
8.7552342
20
101.3187426
11
8.7552342
21
99.2187426
0
LINE
8
DEFAULT_255_2_778
10
8.7552342
20
99.2187426
11
9.0317342
21
99.2187426
0
LINE
8
DEFAULT_255_2_778
10
9.0317342
20
99.2187426
11
9.0849342
21
99.2187426
0
LINE
8
DEFAULT_255_2_778
10
9.0849342
20
99.2187426
11
9.1404342
21
99.2187426
0
LINE
8
DEFAULT_255_2_778
10
9.1404342
20
99.2187426
11
9.1687342
21
99.2187426
0
LINE
8
DEFAULT_255_2_778
10
9.1687342
20
99.2187426
11
9.1973342
21
99.2187426
0
LINE
8
DEFAULT_255_2_778
10
9.1973342
20
99.2187426
11
9.2262342
21
99.2187426
0
LINE
8
DEFAULT_255_2_778
10
9.2262342
20
99.2187426
11
9.2553342
21
99.2187426
0
LINE
8
DEFAULT_255_2_778
10
19.3946342
20
94.1186426
11
19.3552342
21
94.6187426
0
LINE
8
DEFAULT_255_2_778
10
19.3552342
20
94.6187426
11
15.2552342
21
94.6187426
0
ARC
8
DEFAULT_255_2_778
10
27.4064926
20
104.7391432
40
0.3986863
50
359.898555
51
359.9797104
0
ARC
8
DEFAULT_255_2_778
10
27.5070204
20
104.7389175
40
0.2981584
50
0.0162551
51
30.0978309
0
ARC
8
DEFAULT_255_2_778
10
27.0546112
20
105.5188077
40
0.2999297
50
29.992235
51
90.006299
0
ARC
8
DEFAULT_255_2_778
10
22.5559152
20
105.5186867
40
0.3000507
50
90.0070639
51
149.9944286
0
ARC
8
DEFAULT_255_2_778
10
22.1071541
20
104.7377217
40
0.3018762
50
150.0925447
51
179.9211131
0
LINE
8
DEFAULT_255_2_778
10
14.7551782
20
94.1188373
11
15.2552782
21
94.6189373
0
LINE
8
DEFAULT_255_2_778
10
15.2552782
20
94.6189373
11
15.2552782
21
101.8187373
0
LINE
8
DEFAULT_255_2_778
10
15.2552782
20
101.8187373
11
14.7551782
21
101.3187373
0
LINE
8
DEFAULT_255_2_778
10
27.8051782
20
101.8187373
11
27.8051782
21
104.7384373
0
LINE
8
DEFAULT_255_2_778
10
27.7649782
20
104.8884373
11
27.3143782
21
105.6687373
0
LINE
8
DEFAULT_255_2_778
10
27.0545782
20
105.8187373
11
22.5558782
21
105.8187373
0
LINE
8
DEFAULT_255_2_778
10
22.2960782
20
105.6687373
11
21.8454782
21
104.8882373
0
LINE
8
DEFAULT_255_2_778
10
21.8052782
20
104.7381373
11
21.8052782
21
101.8185373
0
ARC
8
DEFAULT_255_2_778
10
105.8551074
20
73.8187521
40
0.5000969
50
269.9996485
51
0.0003515
0
ARC
8
DEFAULT_255_2_778
10
96.8551012
20
73.8187521
40
0.5000969
50
179.9996485
51
270.0003515
0
ARC
8
DEFAULT_255_2_778
10
96.8551012
20
75.8186582
40
0.5000969
50
89.9996485
51
180.0003515
0
ARC
8
DEFAULT_255_2_778
10
105.8551074
20
75.8186582
40
0.5000969
50
359.9996485
51
90.0003515
0
LINE
8
DEFAULT_255_2_778
10
105.8551043
20
73.3186552
11
96.8551043
21
73.3186552
0
LINE
8
DEFAULT_255_2_778
10
96.3550043
20
73.8187552
11
96.3550043
21
75.8186552
0
LINE
8
DEFAULT_255_2_778
10
96.8551043
20
76.3187552
11
105.8551043
21
76.3187552
0
LINE
8
DEFAULT_255_2_778
10
106.3552043
20
75.8186552
11
106.3552043
21
73.8187552
0
ARC
8
DEFAULT_255_2_778
10
1.3623959
20
93.6186882
40
0.4998604
50
89.9941468
51
134.9828634
0
ARC
8
DEFAULT_255_2_778
10
1.1556278
20
93.4112837
40
0.5003811
50
134.9931946
51
179.9582221
0
ARC
8
DEFAULT_255_2_778
10
1.155453
20
34.7260408
40
0.5002061
50
180.0334741
51
225.0150829
0
ARC
8
DEFAULT_255_2_778
10
2.8555375
20
28.4256928
40
0.5000906
50
179.9936065
51
224.9719389
0
ARC
8
DEFAULT_255_2_778
10
3.5553585
20
25.3186602
40
0.5000116
50
179.9898688
51
269.9986732
0
ARC
8
DEFAULT_255_2_778
10
1.2055481
20
4.3185951
40
1.0003119
50
135.0140784
51
180.0136584
0
ARC
8
DEFAULT_255_2_778
10
1.2046591
20
4.3183509
40
0.9994229
50
179.9996751
51
183.3035589
0
ARC
8
DEFAULT_255_2_778
10
1.204028
20
4.318374
40
0.9987942
50
183.3069635
51
202.5126332
0
ARC
8
DEFAULT_255_2_778
10
1.2053495
20
4.3188429
40
1.0001944
50
202.5084624
51
269.9998536
0
ARC
8
DEFAULT_255_2_778
10
6.4983987
20
3.8185079
40
0.4998593
50
269.9940647
51
314.9828922
0
ARC
8
DEFAULT_255_2_778
10
7.2050816
20
4.525665
40
0.5002653
50
315.0363508
51
359.9981137
0
ARC
8
DEFAULT_255_2_778
10
8.0047851
20
6.5187172
40
0.2994383
50
134.9468036
51
180.0514071
0
ARC
8
DEFAULT_255_2_778
10
8.0051541
20
6.5191687
40
0.29938
50
89.963082
51
135.0578149
0
ARC
8
DEFAULT_255_2_778
10
13.6502123
20
3.7186912
40
1.0001425
50
209.9981063
51
269.9847997
0
ARC
8
DEFAULT_255_2_778
10
18.716811
20
3.218589
40
0.5000404
50
269.9926657
51
329.9973272
0
LINE
8
DEFAULT_255_2_778
10
84.755147
20
92.8187486
11
82.655247
21
92.8187486
0
LINE
8
DEFAULT_255_2_778
10
82.655247
20
92.8187486
11
82.655247
21
84.8187486
0
LINE
8
DEFAULT_255_2_778
10
82.655247
20
84.8187486
11
84.755147
21
84.8187486
0
LINE
8
DEFAULT_255_2_778
10
8.655247
20
94.1185486
11
1.362447
21
94.1185486
0
LINE
8
DEFAULT_255_2_778
10
1.009047
20
93.9722486
11
0.801847
21
93.7651486
0
LINE
8
DEFAULT_255_2_778
10
0.655247
20
93.4116486
11
0.655247
21
34.7257486
0
LINE
8
DEFAULT_255_2_778
10
0.801847
20
34.3722486
11
2.355447
21
32.8186486
0
LINE
8
DEFAULT_255_2_778
10
2.355447
20
32.8186486
11
2.355447
21
28.4257486
0
LINE
8
DEFAULT_255_2_778
10
2.501747
20
28.0722486
11
3.055347
21
27.5187486
0
LINE
8
DEFAULT_255_2_778
10
3.055347
20
27.5187486
11
3.055347
21
25.3187486
0
LINE
8
DEFAULT_255_2_778
10
10.993847
20
7.3185486
11
10.705147
21
6.8185486
0
LINE
8
DEFAULT_255_2_778
10
101.876147
20
105.1186486
11
101.376047
21
105.1186486
0
LINE
8
DEFAULT_255_2_778
10
107.355347
20
86.6187486
11
107.355347
21
86.8187486
0
LINE
8
DEFAULT_255_2_778
10
5.055247
20
24.8186486
11
5.555347
21
25.3187486
0
LINE
8
DEFAULT_255_2_778
10
2.455247
20
6.9828486
11
0.498047
21
5.0257486
0
LINE
8
DEFAULT_255_2_778
10
1.205347
20
3.3186486
11
6.498347
21
3.3186486
0
LINE
8
DEFAULT_255_2_778
10
6.851747
20
3.4649486
11
7.559047
21
4.1721486
0
LINE
8
DEFAULT_255_2_778
10
7.705347
20
4.5256486
11
7.705347
21
6.5184486
0
LINE
8
DEFAULT_255_2_778
10
8.005347
20
6.8185486
11
10.705447
21
6.8185486
0
LINE
8
DEFAULT_255_2_778
10
10.705447
20
6.8185486
11
12.784047
21
3.2186486
0
LINE
8
DEFAULT_255_2_778
10
13.649947
20
2.7185486
11
18.716747
21
2.7185486
0
LINE
8
DEFAULT_255_2_778
10
19.149847
20
2.9685486
11
19.640647
21
3.8186486
0
ARC
8
DEFAULT_255_2_778
10
2.9553105
20
13.5395982
40
0.4998469
50
121.6180567
51
180.0056756
0
LINE
8
DEFAULT_255_2_778
10
5.0552636
20
15.4188487
11
2.6932636
21
13.9652487
0
LINE
8
DEFAULT_255_2_778
10
2.8552636
20
33.0258487
11
2.3551636
21
32.8186487
0
ARC
8
DEFAULT_255_2_778
10
103.8549711
20
87.1063411
40
0.2568042
50
298.0061254
51
311.0614593
0
ARC
8
DEFAULT_255_2_778
10
103.9622069
20
87.0147949
40
0.114524
50
330.677298
51
346.2681031
0
ARC
8
DEFAULT_255_2_778
10
103.971649
20
87.0119616
40
0.1046805
50
346.5478053
51
359.5403697
0
ARC
8
DEFAULT_255_2_778
10
103.9728388
20
87.0118266
40
0.10349
50
359.6098199
51
359.9999138
0
ARC
8
DEFAULT_255_2_778
10
103.9795005
20
87.0118672
40
0.0968283
50
359.9758879
51
4.2893729
0
ARC
8
DEFAULT_255_2_778
10
-389.4269236
20
52.8095151
40
494.6872635
50
3.9653962
51
6.0892385
0
ARC
8
DEFAULT_255_2_778
10
102.2021315
20
105.2550609
40
0.2687554
50
6.3121767
51
8.062841
0
ARC
8
DEFAULT_255_2_778
10
102.1740959
20
105.2504476
40
0.2971616
50
8.1853633
51
17.7839743
0
ARC
8
DEFAULT_255_2_778
10
102.1696971
20
105.2496749
40
0.3015868
50
17.6685088
51
28.571278
0
ARC
8
DEFAULT_255_2_778
10
101.8650582
20
105.0244996
40
0.6835452
50
42.4333313
51
51.68372
0
ARC
8
DEFAULT_255_2_778
10
101.726855
20
104.8461647
40
0.9091555
50
51.8181915
51
58.6646745
0
LINE
8
DEFAULT_255_2_778
10
3.5553576
20
27.7260093
11
3.0552576
21
27.5188093
0
LINE
8
DEFAULT_255_2_778
10
103.6990576
20
86.8188093
11
103.7559576
21
86.8209093
0
LINE
8
DEFAULT_255_2_778
10
103.7559576
20
86.8209093
11
103.8125576
21
86.8275093
0
LINE
8
DEFAULT_255_2_778
10
103.8125576
20
86.8275093
11
103.8683576
21
86.8389093
0
LINE
8
DEFAULT_255_2_778
10
103.8683576
20
86.8389093
11
103.9231576
21
86.8558093
0
LINE
8
DEFAULT_255_2_778
10
103.9231576
20
86.8558093
11
103.9755576
21
86.8796093
0
LINE
8
DEFAULT_255_2_778
10
104.0236576
20
86.9127093
11
104.0445576
21
86.9339093
0
LINE
8
DEFAULT_255_2_778
10
104.0445576
20
86.9339093
11
104.0620576
21
86.9587093
0
LINE
8
DEFAULT_255_2_778
10
102.4345576
20
105.3939093
11
102.4047576
21
105.4420093
0
LINE
8
DEFAULT_255_2_778
10
102.4047576
20
105.4420093
11
102.3695576
21
105.4857093
0
LINE
8
DEFAULT_255_2_778
10
102.1996576
20
105.6227093
11
102.1530576
21
105.6497093
0
LINE
8
DEFAULT_255_2_778
10
102.1530576
20
105.6497093
11
102.1054576
21
105.6743093
0
LINE
8
DEFAULT_255_2_778
10
102.1054576
20
105.6743093
11
102.0080576
21
105.7172093
0
LINE
8
DEFAULT_255_2_778
10
102.0080576
20
105.7172093
11
101.9083576
21
105.7529093
0
LINE
8
DEFAULT_255_2_778
10
101.9083576
20
105.7529093
11
101.8070576
21
105.7820093
0
ARC
8
DEFAULT_255_2_778
10
109.2836121
20
87.0185292
40
0.1997861
50
270.0241517
51
316.987337
0
ARC
8
DEFAULT_255_2_778
10
109.2823118
20
87.0193707
40
0.2013112
50
317.0646721
51
0.0158117
0
ARC
8
DEFAULT_255_2_778
10
109.2816637
20
87.0194232
40
0.2019592
50
0.0008604
51
3.7247191
0
ARC
8
DEFAULT_255_2_778
10
-389.5083393
20
52.803619
40
500.1641449
50
3.9241256
51
5.9989673
0
ARC
8
DEFAULT_255_2_778
10
107.4194291
20
105.0238276
40
0.5001006
50
5.9931773
51
87.0006942
0
ARC
8
DEFAULT_255_2_778
10
-389.4566862
20
52.8118829
40
494.1120189
50
3.9464555
51
6.1583708
0
ARC
8
DEFAULT_255_2_778
10
86.1540886
20
2.0200507
40
0.5987937
50
89.8748728
51
180.1251224
0
ARC
8
DEFAULT_255_2_778
10
86.1553629
20
2.0187097
40
0.6001334
50
0.0031879
51
89.9968121
0
ARC
8
DEFAULT_255_2_778
10
86.1553629
20
2.0187765
40
0.6001334
50
270.0031879
51
359.9968121
0
ARC
8
DEFAULT_255_2_778
10
86.1534471
20
2.0511324
40
0.6324923
50
270.0060923
51
270.1765788
0
ARC
8
DEFAULT_255_2_778
10
86.1534834
20
2.0173269
40
0.5986868
50
225.033619
51
270.0029639
0
ARC
8
DEFAULT_255_2_778
10
86.1535674
20
2.0166611
40
0.5982753
50
180.0162291
51
224.98286
0
ARC
8
DEFAULT_255_2_778
10
86.1314165
20
2.0165426
40
0.5761244
50
179.7811582
51
180.0050702
0
ARC
8
DEFAULT_255_2_778
10
84.9554184
20
10.0185369
40
0.3002221
50
131.8292521
51
179.9797308
0
LINE
8
DEFAULT_255_2_778
10
107.4455963
20
105.5232431
11
101.8038963
21
105.8187431
0
LINE
8
DEFAULT_255_2_778
10
103.4836963
20
86.8187431
11
109.2836963
21
86.8187431
0
LINE
8
DEFAULT_255_2_778
10
85.5552963
20
2.0187431
11
85.5552963
21
2.0187431
0
ARC
8
DEFAULT_255_2_778
10
-389.332773
20
52.8179615
40
499.9879764
50
353.9151626
51
357.7187518
0
ARC
8
DEFAULT_255_2_778
10
-389.3334243
20
52.8179973
40
499.9886287
50
357.7187507
51
9e-7
0
ARC
8
DEFAULT_255_2_778
10
-389.3312117
20
52.8179815
40
499.9864161
50
0.0000027
51
0.3598303
0
ARC
8
DEFAULT_255_2_778
10
-389.332481
20
52.8180132
40
499.9876854
50
0.3598257
51
3.0325081
0
ARC
8
DEFAULT_255_2_778
10
-389.3329424
20
52.817985
40
499.9881475
50
3.0325086
51
3.9238278
0
LINE
8
DEFAULT_255_2_778
10
84.6551865
20
7.5186717
11
84.7551865
21
7.5186717
0
LINE
8
DEFAULT_255_2_778
10
84.7551865
20
4.8188717
11
84.6551865
21
4.8188717
0
LINE
8
DEFAULT_255_2_778
10
84.7551865
20
1.8186717
11
84.6551865
21
1.8186717
0
LINE
8
DEFAULT_255_2_778
10
22.3873865
20
3.8186717
11
22.3873865
21
3.6186717
0
LINE
8
DEFAULT_255_2_778
10
21.5213865
20
3.8186717
11
21.5213865
21
3.6186717
0
LINE
8
DEFAULT_255_2_778
10
23.2032916
20
3.8187164
11
23.2032916
21
3.6187164
0
LINE
8
DEFAULT_255_2_778
10
23.2032916
20
3.6187164
11
20.6553916
21
3.6187164
0
LINE
8
DEFAULT_255_2_778
10
20.6553916
20
3.6187164
11
20.6553916
21
3.8187164
0
LINE
8
DEFAULT_255_2_778
10
88.7051916
20
13.8189164
11
88.7051916
21
19.8188164
0
LINE
8
DEFAULT_255_2_778
10
84.7551916
20
20.8187164
11
82.6551916
21
20.8187164
0
LINE
8
DEFAULT_255_2_778
10
82.6551916
20
20.8187164
11
82.6551916
21
12.8188164
0
LINE
8
DEFAULT_255_2_778
10
82.6551916
20
12.8188164
11
84.7551916
21
12.8188164
0
LINE
8
DEFAULT_255_2_778
10
90.6553916
20
13.5686164
11
90.6553916
21
20.0686164
0
LINE
8
DEFAULT_255_2_778
10
90.6553916
20
20.0686164
11
88.2553916
21
20.0686164
0
LINE
8
DEFAULT_255_2_778
10
88.2553916
20
20.0686164
11
88.2553916
21
13.5686164
0
LINE
8
DEFAULT_255_2_778
10
88.2553916
20
13.5686164
11
90.6553916
21
13.5686164
0
LINE
8
DEFAULT_255_2_778
10
88.2552774
20
19.818878
11
90.4372774
21
19.818878
0
LINE
8
DEFAULT_255_2_778
10
90.4372774
20
19.818878
11
90.4372774
21
18.818978
0
LINE
8
DEFAULT_255_2_778
10
90.4372774
20
18.818978
11
89.2551774
21
18.818978
0
LINE
8
DEFAULT_255_2_778
10
89.2551774
20
18.818978
11
89.2551774
21
14.819078
0
LINE
8
DEFAULT_255_2_778
10
89.2551774
20
14.819078
11
90.4372774
21
14.819078
0
LINE
8
DEFAULT_255_2_778
10
90.4372774
20
14.819078
11
90.4372774
21
13.818878
0
LINE
8
DEFAULT_255_2_778
10
90.4372774
20
13.818878
11
88.2552774
21
13.818878
0
LINE
8
DEFAULT_255_2_778
10
88.7052
20
85.818578
11
88.7052
21
91.818578
0
LINE
8
DEFAULT_255_2_778
10
90.6553823
20
85.5686093
11
90.6553823
21
92.0686093
0
LINE
8
DEFAULT_255_2_778
10
90.6553823
20
92.0686093
11
88.2553823
21
92.0686093
0
LINE
8
DEFAULT_255_2_778
10
88.2553823
20
92.0686093
11
88.2553823
21
85.5686093
0
LINE
8
DEFAULT_255_2_778
10
88.2553823
20
85.5686093
11
90.6553823
21
85.5686093
0
LINE
8
DEFAULT_255_2_778
10
88.2552774
20
91.818578
11
90.4372774
21
91.818578
0
LINE
8
DEFAULT_255_2_778
10
90.4372774
20
91.818578
11
90.4372774
21
90.818678
0
LINE
8
DEFAULT_255_2_778
10
90.4372774
20
90.818678
11
89.2551774
21
90.818678
0
LINE
8
DEFAULT_255_2_778
10
89.2551774
20
90.818678
11
89.2551774
21
86.818778
0
LINE
8
DEFAULT_255_2_778
10
89.2551774
20
86.818778
11
90.4372774
21
86.818778
0
LINE
8
DEFAULT_255_2_778
10
90.4372774
20
86.818778
11
90.4372774
21
85.818578
0
LINE
8
DEFAULT_255_2_778
10
90.4372774
20
85.818578
11
88.2552774
21
85.818578
0
LINE
8
DEFAULT_255_2_778
10
104.4552625
20
99.8185552
11
104.4552625
21
102.8186552
0
LINE
8
DEFAULT_255_2_778
10
103.8551625
20
99.8185552
11
103.8551625
21
102.8186552
0
LINE
8
DEFAULT_255_2_778
10
104.5550698
20
103.0186479
11
104.5550698
21
99.6187479
0
LINE
8
DEFAULT_255_2_778
10
104.5550698
20
99.6187479
11
103.5551698
21
99.6187479
0
LINE
8
DEFAULT_255_2_778
10
103.5551698
20
99.6187479
11
103.5551698
21
103.0186479
0
LINE
8
DEFAULT_255_2_778
10
103.5551698
20
103.0186479
11
104.5550698
21
103.0186479
0
LINE
8
DEFAULT_255_2_778
10
104.5552261
20
99.8185988
11
103.6551261
21
99.8185988
0
LINE
8
DEFAULT_255_2_778
10
103.6551261
20
99.8185988
11
103.6551261
21
102.8186988
0
LINE
8
DEFAULT_255_2_778
10
103.6551261
20
102.8186988
11
104.5552261
21
102.8186988
0
LINE
8
DEFAULT_255_2_778
10
105.2553261
20
89.8186988
11
105.2553261
21
92.8187988
0
LINE
8
DEFAULT_255_2_778
10
104.6552261
20
89.8186988
11
104.6552261
21
92.8187988
0
LINE
8
DEFAULT_255_2_778
10
105.3550261
20
93.0187988
11
105.3550261
21
89.6188988
0
LINE
8
DEFAULT_255_2_778
10
105.3550261
20
89.6188988
11
104.3552261
21
89.6188988
0
LINE
8
DEFAULT_255_2_778
10
104.3552261
20
89.6188988
11
104.3552261
21
93.0187988
0
LINE
8
DEFAULT_255_2_778
10
104.3552261
20
93.0187988
11
105.3550261
21
93.0187988
0
ARC
8
DEFAULT_255_2_778
10
105.8554193
20
53.818655
40
0.500054
50
0.0061838
51
89.9938162
0
ARC
8
DEFAULT_255_2_778
10
105.8553978
20
51.8186844
40
0.5000755
50
270.0086483
51
0.0028154
0
ARC
8
DEFAULT_255_2_778
10
96.8553702
20
51.8187059
40
0.5000969
50
179.9996485
51
270.0003515
0
ARC
8
DEFAULT_255_2_778
10
96.8553487
20
53.8186335
40
0.5000754
50
89.9971846
51
179.9913517
0
ARC
8
DEFAULT_255_2_778
10
94.7923848
20
59.8320361
40
60.0132272
50
261.0009913
51
269.9990343
0
ARC
8
DEFAULT_255_2_778
10
107.3553975
20
0.3188847
40
0.5000757
50
269.9972237
51
359.991324
0
ARC
8
DEFAULT_255_2_778
10
-389.1433074
20
52.8290253
40
493.2985015
50
3.9277012
51
6.1665712
0
ARC
8
DEFAULT_255_2_778
10
94.7923848
20
45.8055817
40
60.0132272
50
90.0009657
51
98.9990087
0
ARC
8
DEFAULT_255_2_778
10
84.9548004
20
97.218649
40
0.2996272
50
179.9694151
51
228.2215717
0
LINE
8
DEFAULT_255_2_778
10
105.3553732
20
89.8187089
11
104.4552732
21
89.8187089
0
LINE
8
DEFAULT_255_2_778
10
104.4552732
20
89.8187089
11
104.4552732
21
92.8188089
0
LINE
8
DEFAULT_255_2_778
10
104.4552732
20
92.8188089
11
105.3553732
21
92.8188089
0
LINE
8
DEFAULT_255_2_778
10
106.3554732
20
53.8187089
11
106.3554732
21
51.8187089
0
LINE
8
DEFAULT_255_2_778
10
105.8554732
20
51.3186089
11
96.8553732
21
51.3186089
0
LINE
8
DEFAULT_255_2_778
10
96.3552732
20
51.8187089
11
96.3552732
21
53.8187089
0
LINE
8
DEFAULT_255_2_778
10
96.8553732
20
54.3187089
11
105.8554732
21
54.3187089
0
LINE
8
DEFAULT_255_2_778
10
94.7913732
20
-0.1811911
11
107.3553732
21
-0.1811911
0
LINE
8
DEFAULT_255_2_778
10
107.8554732
20
0.3188089
11
107.8554732
21
86.6188089
0
LINE
8
DEFAULT_255_2_778
10
107.8554732
20
86.6188089
11
102.9965732
21
86.6188089
0
LINE
8
DEFAULT_255_2_778
10
101.3008732
20
105.8188089
11
94.7913732
21
105.8188089
0
LINE
8
DEFAULT_255_2_778
10
85.4052732
20
105.0801089
11
84.7551732
21
104.9772089
0
LINE
8
DEFAULT_255_2_778
10
84.7551732
20
104.9772089
11
84.7551732
21
0.6604089
0
LINE
8
DEFAULT_255_2_778
10
84.7551732
20
0.6604089
11
85.4052732
21
0.5575089
0
LINE
8
DEFAULT_255_2_778
10
84.755207
20
103.8187854
11
84.655207
21
103.8187854
0
LINE
8
DEFAULT_255_2_778
10
84.655207
20
100.8186854
11
84.755207
21
100.8186854
0
LINE
8
DEFAULT_255_2_778
10
84.755207
20
99.8187854
11
84.655207
21
99.8187854
0
ENDSEC
0
EOF