0
SECTION
2
HEADER
9
$MEASUREMENT
70
1
0
ENDSEC
0
SECTION
2
TABLES
0
TABLE
2
LTYPE
0
LTYPE
72
65
70
64
2
CONTINUOUS
3
______
73
0
40
0
0
ENDTAB
0
TABLE
2
LAYER
0
LAYER
2
DEFAULT_255_2_778
70
0
62
255
6
CONTINUOUS
0
LAYER
2
DEFAULT_255_1_234
70
0
62
255
6
CONTINUOUS
0
LAYER
2
DEFAULT_255_2_778_1
70
0
62
255
6
CONTINUOUS
0
ENDTAB
0
ENDSEC
0
SECTION
2
ENTITIES
0
ARC
8
DEFAULT_255_2_778
10
3.5700693
20
44.0552035
40
0.7914215
50
129.1312896
51
180.1450914
0
ARC
8
DEFAULT_255_2_778
10
3.5703345
20
44.0556906
40
0.7912112
50
89.854026
51
129.1684493
0
ARC
8
DEFAULT_255_2_778
10
25.7993937
20
44.0553771
40
0.7915249
50
39.4792447
51
90.147911
0
ARC
8
DEFAULT_255_2_778
10
25.7999935
20
44.0552238
40
0.7911595
50
359.8533901
51
39.5154338
0
ARC
8
DEFAULT_255_2_778
10
25.7996693
20
-1.9863488
40
0.7914836
50
309.4761667
51
0.1482649
0
ARC
8
DEFAULT_255_2_778
10
25.799398
20
-1.9867799
40
0.7913235
50
269.8517415
51
309.511178
0
ARC
8
DEFAULT_255_2_778
10
3.570342
20
-1.9867217
40
0.7913815
50
219.1282118
51
270.1454017
0
ARC
8
DEFAULT_255_2_778
10
3.5700247
20
-1.9863392
40
0.7913769
50
179.8524075
51
219.1641908
0
LINE
8
DEFAULT_255_2_778
10
3.5723503
20
44.8468993
11
25.7973503
21
44.8468993
0
LINE
8
DEFAULT_255_2_778
10
26.5911503
20
44.0531993
11
26.5911503
21
-1.9843007
0
LINE
8
DEFAULT_255_2_778
10
25.7973503
20
-2.7781007
11
3.5723503
21
-2.7781007
0
LINE
8
DEFAULT_255_2_778
10
2.7786503
20
-1.9843007
11
2.7786503
21
44.0531993
0
LINE
8
DEFAULT_255_1_234
10
7.9329341
20
-0.6513
11
7.6791312
21
-0.1782306
0
LINE
8
DEFAULT_255_1_234
10
7.6791312
20
-0.1782306
11
7.4044458
21
-0.1782306
0
LINE
8
DEFAULT_255_1_234
10
7.4044458
20
-0.1782306
11
7.4044458
21
-0.6513
0
LINE
8
DEFAULT_255_1_234
10
7.4044458
20
-0.6513
11
7.2494332
21
-0.6513
0
LINE
8
DEFAULT_255_1_234
10
7.2494332
20
-0.6513
11
7.2494332
21
0.5181211
0
LINE
8
DEFAULT_255_1_234
10
7.2494332
20
0.5181211
11
7.636563
21
0.5181211
0
LINE
8
DEFAULT_255_1_234
10
7.8237025
20
-0.1453005
11
8.0983879
21
-0.6416619
0
LINE
8
DEFAULT_255_1_234
10
8.0983879
20
-0.6416619
11
8.0983879
21
-0.6513
0
LINE
8
DEFAULT_255_1_234
10
8.0983879
20
-0.6513
11
7.9329341
21
-0.6513
0
LINE
8
DEFAULT_255_1_234
10
7.4044458
20
0.3912196
11
7.4044458
21
-0.0521323
0
LINE
8
DEFAULT_255_1_234
10
7.4044458
20
-0.0521323
11
7.641382
21
-0.0521323
0
LINE
8
DEFAULT_255_1_234
10
7.6405789
20
0.3912196
11
7.4044458
21
0.3912196
0
ARC
8
DEFAULT_255_1_234
10
7.6407269
20
-0.1780239
40
0.6961575
50
80.653586
51
90.3427061
0
ARC
8
DEFAULT_255_1_234
10
7.6826744
20
0.0682348
40
0.4463577
50
65.6987447
51
80.8329603
0
ARC
8
DEFAULT_255_1_234
10
7.7304385
20
0.1777322
40
0.3269094
50
50.0017161
51
65.4305835
0
ARC
8
DEFAULT_255_1_234
10
7.7522849
20
0.2072482
40
0.2902647
50
11.628416
51
49.5603263
0
ARC
8
DEFAULT_255_1_234
10
7.5987185
20
0.1697299
40
0.4482792
50
359.5655735
51
12.3691
0
ARC
8
DEFAULT_255_1_234
10
7.7064045
20
0.1634644
40
0.3405924
50
341.9983148
51
0.4822259
0
ARC
8
DEFAULT_255_1_234
10
7.7458885
20
0.1527471
40
0.2997359
50
323.8609373
51
341.61416
0
ARC
8
DEFAULT_255_1_234
10
7.7157129
20
0.1760484
40
0.3378487
50
296.7018614
51
323.6876402
0
ARC
8
DEFAULT_255_1_234
10
7.6716024
20
0.2549235
40
0.4281516
50
290.8086567
51
297.2323311
0
ARC
8
DEFAULT_255_1_234
10
7.6439554
20
0.3072351
40
0.3593766
50
269.589728
51
281.8058135
0
ARC
8
DEFAULT_255_1_234
10
7.6690453
20
0.1924743
40
0.2419125
50
281.5501019
51
303.9357432
0
ARC
8
DEFAULT_255_1_234
10
7.6827641
20
0.1686936
40
0.2145323
50
304.4415616
51
311.2106213
0
ARC
8
DEFAULT_255_1_234
10
7.6959746
20
0.1547632
40
0.1953505
50
310.9875673
51
356.2715578
0
ARC
8
DEFAULT_255_1_234
10
7.6203395
20
0.1660422
40
0.2716331
50
354.9348262
51
0.0609027
0
ARC
8
DEFAULT_255_1_234
10
7.6016269
20
0.1687435
40
0.2903554
50
359.5239371
51
12.8808918
0
ARC
8
DEFAULT_255_1_234
10
7.6993824
20
0.1926728
40
0.1897315
50
12.4173452
51
43.1022135
0
ARC
8
DEFAULT_255_1_234
10
7.7055429
20
0.1963724
40
0.1827118
50
43.5751728
51
48.203944
0
ARC
8
DEFAULT_255_1_234
10
7.6885921
20
0.1742302
40
0.2105272
50
48.7809703
51
72.6969569
0
ARC
8
DEFAULT_255_1_234
10
7.6531546
20
0.066682
40
0.3237537
50
72.3702241
51
84.8791103
0
ARC
8
DEFAULT_255_1_234
10
7.6384022
20
-0.0675231
40
0.4587478
50
84.5400526
51
89.7281406
0
LINE
8
DEFAULT_255_1_234
10
8.7810857
20
0.5189243
11
8.8075904
21
0.5189243
0
LINE
8
DEFAULT_255_1_234
10
8.8075904
20
0.5189243
11
8.8075904
21
0.392826
0
LINE
8
DEFAULT_255_1_234
10
8.8075904
20
0.392826
11
8.7802825
21
0.392826
0
LINE
8
DEFAULT_255_1_234
10
8.2333211
20
-0.2063417
11
8.2333211
21
-0.1493164
0
LINE
8
DEFAULT_255_1_234
10
8.3827115
20
-0.1685925
11
8.3827115
21
-0.2232083
0
ARC
8
DEFAULT_255_1_234
10
8.7855173
20
-0.1069545
40
0.4998079
50
90.6001036
51
104.514704
0
ARC
8
DEFAULT_255_1_234
10
8.7466689
20
0.0375131
40
0.3502176
50
104.2855254
51
133.862935
0
ARC
8
DEFAULT_255_1_234
10
8.7630446
20
0.026683
40
0.3693984
50
134.5302688
51
161.6210873
0
ARC
8
DEFAULT_255_1_234
10
8.9283635
20
-0.0316105
40
0.5446739
50
161.2849839
51
174.2076652
0
ARC
8
DEFAULT_255_1_234
10
9.0690572
20
-0.0510213
40
0.6866274
50
173.7810589
51
174.9254635
0
ARC
8
DEFAULT_255_1_234
10
8.6140404
20
-0.1893161
40
0.3033419
50
95.8330959
51
138.9954921
0
ARC
8
DEFAULT_255_1_234
10
8.636376
20
-0.3171625
40
0.4328947
50
89.8753725
51
97.0544009
0
ARC
8
DEFAULT_255_1_234
10
8.6411226
20
-0.2336252
40
0.3493769
50
71.6407809
51
90.6240094
0
ARC
8
DEFAULT_255_1_234
10
8.6561799
20
-0.1781918
40
0.2920396
50
39.6367836
51
71.019018
0
ARC
8
DEFAULT_255_1_234
10
8.5925272
20
-0.2332002
40
0.3761538
50
10.658731
51
39.9043955
0
ARC
8
DEFAULT_255_1_234
10
8.4377355
20
-0.2668314
40
0.5345136
50
359.682601
51
11.132623
0
ARC
8
DEFAULT_255_1_234
10
8.4337486
20
-0.273899
40
0.5385081
50
347.2486944
51
0.4369317
0
ARC
8
DEFAULT_255_1_234
10
8.6004963
20
-0.3140193
40
0.3670249
50
318.1409698
51
347.6118597
0
ARC
8
DEFAULT_255_1_234
10
8.6329956
20
-0.3407298
40
0.3250007
50
275.6342139
51
317.8248465
0
ARC
8
DEFAULT_255_1_234
10
8.6109067
20
-0.2107781
40
0.4565864
50
269.8874292
51
276.7917694
0
ARC
8
DEFAULT_255_1_234
10
8.6054138
20
-0.3133257
40
0.3540676
50
246.9140195
51
270.7437342
0
ARC
8
DEFAULT_255_1_234
10
8.6060528
20
-0.3275616
40
0.3412781
50
218.1665114
51
245.878116
0
ARC
8
DEFAULT_255_1_234
10
8.6939989
20
-0.2539721
40
0.455911
50
191.4115814
51
218.6077802
0
ARC
8
DEFAULT_255_1_234
10
8.8878078
20
-0.2105167
40
0.6545001
50
179.6345085
51
191.7836486
0
ARC
8
DEFAULT_255_1_234
10
9.4460415
20
-0.1426303
40
1.2127388
50
171.4525249
51
180.3158839
0
ARC
8
DEFAULT_255_1_234
10
9.0065291
20
-0.0742392
40
0.7679464
50
157.9802646
51
171.6246686
0
ARC
8
DEFAULT_255_1_234
10
8.7851312
20
0.0140421
40
0.5296008
50
141.4298019
51
157.854097
0
ARC
8
DEFAULT_255_1_234
10
8.7209632
20
0.0594381
40
0.4511509
50
102.8715806
51
140.8564722
0
ARC
8
DEFAULT_255_1_234
10
8.7857248
20
-0.1845448
40
0.7034845
50
90.3778349
51
103.5869322
0
ARC
8
DEFAULT_255_1_234
10
8.6119024
20
-0.245027
40
0.2370698
50
89.8751008
51
126.2071704
0
ARC
8
DEFAULT_255_1_234
10
8.6164814
20
-0.2604697
40
0.2522934
50
124.9745049
51
144.895901
0
ARC
8
DEFAULT_255_1_234
10
8.5989004
20
-0.246144
40
0.2296779
50
145.2974905
51
160.2660252
0
ARC
8
DEFAULT_255_1_234
10
8.9061543
20
-0.2263929
40
0.5234525
50
179.6514266
51
190.2855912
0
ARC
8
DEFAULT_255_1_234
10
8.736768
20
-0.2583214
40
0.3510893
50
190.0945431
51
207.5098196
0
ARC
8
DEFAULT_255_1_234
10
8.680195
20
-0.2852377
40
0.288489
50
207.9583163
51
216.3251085
0
ARC
8
DEFAULT_255_1_234
10
8.6462058
20
-0.3131895
40
0.2445587
50
215.7661442
51
232.5456785
0
ARC
8
DEFAULT_255_1_234
10
8.6079041
20
-0.3618518
40
0.1826382
50
232.8005391
51
270.6605633
0
ARC
8
DEFAULT_255_1_234
10
8.6124742
20
-0.3254388
40
0.2190529
50
269.35537
51
288.4744281
0
ARC
8
DEFAULT_255_1_234
10
8.6217639
20
-0.3603882
40
0.1829749
50
289.1833337
51
322.9683818
0
ARC
8
DEFAULT_255_1_234
10
8.5606161
20
-0.3121609
40
0.2608399
50
322.6007884
51
346.5182367
0
ARC
8
DEFAULT_255_1_234
10
8.4448757
20
-0.2826384
40
0.3802777
50
346.2582162
51
358.7741648
0
ARC
8
DEFAULT_255_1_234
10
8.3430426
20
-0.2771035
40
0.4822176
50
358.3755224
51
0.0098023
0
ARC
8
DEFAULT_255_1_234
10
8.4186613
20
-0.2743343
40
0.4066078
50
359.6214041
51
11.2839074
0
ARC
8
DEFAULT_255_1_234
10
8.546376
20
-0.2476934
40
0.2761514
50
11.0482309
51
31.8146458
0
ARC
8
DEFAULT_255_1_234
10
8.5772803
20
-0.2309416
40
0.2410679
50
32.3035391
51
38.082671
0
ARC
8
DEFAULT_255_1_234
10
8.6193463
20
-0.1928338
40
0.1844966
50
36.825067
51
85.7415724
0
ARC
8
DEFAULT_255_1_234
10
8.6126296
20
-0.2428699
40
0.2349122
50
85.0140713
51
90.0513278
0
LINE
8
DEFAULT_255_1_234
10
9.8814338
20
0.0402327
11
9.8814338
21
-0.1525291
0
LINE
8
DEFAULT_255_1_234
10
9.1433171
20
-0.1726084
11
9.1433171
21
0.0257755
0
LINE
8
DEFAULT_255_1_234
10
9.7328467
20
-0.1926877
11
9.7328467
21
0.0506739
0
LINE
8
DEFAULT_255_1_234
10
9.2919042
20
0.0619184
11
9.2919042
21
-0.1758211
0
ARC
8
DEFAULT_255_1_234
10
8.6567228
20
-0.1574195
40
1.2247208
50
353.8441951
51
0.2287902
0
ARC
8
DEFAULT_255_1_234
10
9.1206732
20
-0.2092194
40
0.7578929
50
344.4934747
51
353.9765454
0
ARC
8
DEFAULT_255_1_234
10
9.4199322
20
-0.2943019
40
0.4467846
50
329.2803592
51
344.7472793
0
ARC
8
DEFAULT_255_1_234
10
9.5192147
20
-0.3487982
40
0.3336173
50
324.9352394
51
328.6160465
0
ARC
8
DEFAULT_255_1_234
10
9.5569255
20
-0.3751573
40
0.2876076
50
280.580143
51
324.9173126
0
ARC
8
DEFAULT_255_1_234
10
9.5168048
20
-0.2080901
40
0.4592847
50
269.5977311
51
281.6734359
0
ARC
8
DEFAULT_255_1_234
10
9.5095954
20
-0.2200827
40
0.4472986
50
256.6228859
51
270.51044
0
ARC
8
DEFAULT_255_1_234
10
9.4693931
20
-0.3749123
40
0.2873874
50
215.8618325
51
257.2788573
0
ARC
8
DEFAULT_255_1_234
10
9.5714963
20
-0.3064023
40
0.4102928
50
197.9693508
51
215.2623606
0
ARC
8
DEFAULT_255_1_234
10
9.8200079
20
-0.2225291
40
0.6725652
50
187.8816417
51
198.2346507
0
ARC
8
DEFAULT_255_1_234
10
10.2158287
20
-0.1653921
40
1.0724845
50
180.8976217
51
188.0055519
0
ARC
8
DEFAULT_255_1_234
10
10.4958475
20
-0.1550223
40
1.3526448
50
180.7449369
51
181.1510016
0
ARC
8
DEFAULT_255_1_234
10
10.3381204
20
0.0306042
40
1.1948131
50
173.7675579
51
180.231553
0
ARC
8
DEFAULT_255_1_234
10
9.8863351
20
0.0816666
40
0.7401564
50
164.3058563
51
173.9002247
0
ARC
8
DEFAULT_255_1_234
10
9.595142
20
0.1655656
40
0.4371288
50
148.7922025
51
164.568378
0
ARC
8
DEFAULT_255_1_234
10
9.4999872
20
0.2186929
40
0.3282386
50
144.5883898
51
148.1176286
0
ARC
8
DEFAULT_255_1_234
10
9.465677
20
0.2426315
40
0.2864044
50
101.6440918
51
144.514236
0
ARC
8
DEFAULT_255_1_234
10
9.5081836
20
0.0737069
40
0.4604934
50
89.5284041
51
102.5819763
0
ARC
8
DEFAULT_255_1_234
10
9.5160924
20
0.0698018
40
0.464401
50
77.0437873
51
90.5081339
0
ARC
8
DEFAULT_255_1_234
10
9.5562926
20
0.2340615
40
0.2953195
50
48.2778575
51
77.4994676
0
ARC
8
DEFAULT_255_1_234
10
9.5635557
20
0.2469746
40
0.2808655
50
36.3142134
51
47.6305865
0
ARC
8
DEFAULT_255_1_234
10
9.4766864
20
0.1884515
40
0.3855453
50
18.2931786
51
35.6769206
0
ARC
8
DEFAULT_255_1_234
10
9.2223623
20
0.1011593
40
0.654423
50
8.024666
51
18.5605216
0
ARC
8
DEFAULT_255_1_234
10
8.8060543
20
0.0396792
40
1.0752407
50
1.1274072
51
8.1718305
0
ARC
8
DEFAULT_255_1_234
10
8.4824734
20
0.0269885
40
1.3990231
50
0.5424119
51
1.3863029
0
ARC
8
DEFAULT_255_1_234
10
8.6646111
20
0.0542342
40
1.0682415
50
359.8090433
51
4.9407866
0
ARC
8
DEFAULT_255_1_234
10
9.0856125
20
0.0918113
40
0.6455691
50
4.8362157
51
12.2904523
0
ARC
8
DEFAULT_255_1_234
10
9.361124
20
0.1531965
40
0.3633074
50
12.0805627
51
23.8173984
0
ARC
8
DEFAULT_255_1_234
10
9.4784946
20
0.2028919
40
0.2358723
50
24.2871213
51
31.3935614
0
ARC
8
DEFAULT_255_1_234
10
9.5309643
20
0.2372233
40
0.1732111
50
30.7407893
51
82.4657128
0
ARC
8
DEFAULT_255_1_234
10
9.5129777
20
0.1488691
40
0.263235
50
81.1060089
51
90.2184952
0
ARC
8
DEFAULT_255_1_234
10
9.5094076
20
0.1746924
40
0.2374236
50
89.3806855
51
105.6762551
0
ARC
8
DEFAULT_255_1_234
10
9.4910707
20
0.2413567
40
0.1682847
50
105.7981136
51
149.7388061
0
ARC
8
DEFAULT_255_1_234
10
9.5974785
20
0.177395
40
0.2924306
50
149.4208916
51
163.6286378
0
ARC
8
DEFAULT_255_1_234
10
9.8065673
20
0.113625
40
0.5110213
50
163.3763315
51
172.1410975
0
ARC
8
DEFAULT_255_1_234
10
10.1366392
20
0.0663518
40
0.8444586
50
172.0259487
51
178.0703232
0
ARC
8
DEFAULT_255_1_234
10
10.4396481
20
0.0519906
40
1.1477868
50
177.8631668
51
179.5044149
0
ARC
8
DEFAULT_255_1_234
10
10.3323886
20
-0.1794611
40
1.0404907
50
179.7995573
51
185.2460446
0
ARC
8
DEFAULT_255_1_234
10
9.9280925
20
-0.2177487
40
0.6343885
50
185.1411642
51
193.0079639
0
ARC
8
DEFAULT_255_1_234
10
9.6637398
20
-0.2802359
40
0.3627568
50
192.7897626
51
205.2507664
0
ARC
8
DEFAULT_255_1_234
10
9.5590945
20
-0.3269585
40
0.2481908
50
205.8005384
51
211.2537509
0
ARC
8
DEFAULT_255_1_234
10
9.5067385
20
-0.362042
40
0.1852521
50
210.3789793
51
238.4008143
0
ARC
8
DEFAULT_255_1_234
10
9.5047907
20
-0.3573624
40
0.1882621
50
239.6520629
51
265.9793761
0
ARC
8
DEFAULT_255_1_234
10
9.5133107
20
-0.2901573
40
0.2559272
50
265.1315437
51
270.060332
0
ARC
8
DEFAULT_255_1_234
10
9.5161886
20
-0.3225466
40
0.2235528
50
269.3314664
51
287.2178029
0
ARC
8
DEFAULT_255_1_234
10
9.5299738
20
-0.3728721
40
0.1714108
50
287.7958004
51
329.080874
0
ARC
8
DEFAULT_255_1_234
10
9.4342195
20
-0.313107
40
0.2842745
50
328.6634704
51
343.3325132
0
ARC
8
DEFAULT_255_1_234
10
9.2169215
20
-0.2454137
40
0.5118644
50
343.0499468
51
351.9393422
0
ARC
8
DEFAULT_255_1_234
10
8.8702515
20
-0.1943051
40
0.8622784
50
351.8069023
51
357.7959224
0
ARC
8
DEFAULT_255_1_234
10
8.5467071
20
-0.1775279
40
1.1862365
50
357.5871873
51
359.2677531
0
LINE
8
DEFAULT_255_1_234
10
10.9183313
20
0.5181211
11
10.9183313
21
0.3912196
0
LINE
8
DEFAULT_255_1_234
10
10.9183313
20
0.3912196
11
10.5424459
21
0.3912196
0
LINE
8
DEFAULT_255_1_234
10
10.5424459
20
0.3912196
11
10.5424459
21
-0.6513
0
LINE
8
DEFAULT_255_1_234
10
10.5424459
20
-0.6513
11
10.3890397
21
-0.6513
0
LINE
8
DEFAULT_255_1_234
10
10.3890397
20
-0.6513
11
10.3890397
21
0.3912196
0
LINE
8
DEFAULT_255_1_234
10
10.3890397
20
0.3912196
11
10.0139575
21
0.3912196
0
LINE
8
DEFAULT_255_1_234
10
10.0139575
20
0.3912196
11
10.0139575
21
0.5181211
0
LINE
8
DEFAULT_255_1_234
10
10.0139575
20
0.5181211
11
10.9183313
21
0.5181211
0
LINE
8
DEFAULT_255_1_234
10
11.7745146
20
-0.2802337
11
11.9295271
21
-0.2802337
0
LINE
8
DEFAULT_255_1_234
10
11.0291692
20
-0.1212053
11
11.0291692
21
-0.0087609
0
LINE
8
DEFAULT_255_1_234
10
11.9295271
20
0.1422357
11
11.7745146
21
0.1422357
0
LINE
8
DEFAULT_255_1_234
10
11.1841818
20
-0.0127768
11
11.1841818
21
-0.1260243
0
ARC
8
DEFAULT_255_1_234
10
11.3814658
20
-0.2205154
40
0.5513052
50
340.1774281
51
353.7814284
0
ARC
8
DEFAULT_255_1_234
10
11.538601
20
-0.2790418
40
0.3836379
50
311.4558989
51
340.4421614
0
ARC
8
DEFAULT_255_1_234
10
11.5352678
20
-0.2679472
40
0.3941894
50
282.4333181
51
310.7513653
0
ARC
8
DEFAULT_255_1_234
10
11.4913418
20
-0.0864321
40
0.5809175
50
269.9358511
51
282.809604
0
ARC
8
DEFAULT_255_1_234
10
11.4861484
20
0.0593212
40
0.7266847
50
270.0021091
51
270.3581957
0
ARC
8
DEFAULT_255_1_234
10
11.4808901
20
-0.2007415
40
0.4666519
50
250.7884749
51
270.6489167
0
ARC
8
DEFAULT_255_1_234
10
11.4640735
20
-0.2644681
40
0.4009729
50
219.3627325
51
250.0611886
0
ARC
8
DEFAULT_255_1_234
10
11.5469947
20
-0.1939958
40
0.5097822
50
193.5479632
51
219.5756669
0
ARC
8
DEFAULT_255_1_234
10
11.7841567
20
-0.1324081
40
0.7547848
50
181.1218675
51
193.87563
0
ARC
8
DEFAULT_255_1_234
10
11.9911748
20
-0.121342
40
0.9620055
50
179.9918545
51
181.5394234
0
ARC
8
DEFAULT_255_1_234
10
11.806085
20
-0.0050212
40
0.7769248
50
169.5837241
51
180.2757934
0
ARC
8
DEFAULT_255_1_234
10
11.6223789
20
0.0289229
40
0.590109
50
155.0365899
51
169.6003176
0
ARC
8
DEFAULT_255_1_234
10
11.5088253
20
0.0836677
40
0.4640625
50
136.783148
51
155.2472683
0
ARC
8
DEFAULT_255_1_234
10
11.4698729
20
0.1167562
40
0.4130255
50
121.7633186
51
136.428115
0
ARC
8
DEFAULT_255_1_234
10
11.4833692
20
0.0918227
40
0.4413323
50
95.6459699
51
121.5490577
0
ARC
8
DEFAULT_255_1_234
10
11.4990973
20
-0.0190051
40
0.55319
50
89.924208
51
96.1377933
0
ARC
8
DEFAULT_255_1_234
10
11.5041406
20
-0.0071458
40
0.5413475
50
76.6779277
51
90.4563316
0
ARC
8
DEFAULT_255_1_234
10
11.543503
20
0.1519114
40
0.3775041
50
47.485847
51
76.9287264
0
ARC
8
DEFAULT_255_1_234
10
11.5288002
20
0.1419159
40
0.3948286
50
16.5424086
51
46.8933463
0
ARC
8
DEFAULT_255_1_234
10
11.3680159
20
0.0890861
40
0.564021
50
5.4072051
51
17.0365086
0
ARC
8
DEFAULT_255_1_234
10
11.2241177
20
0.0659679
40
0.5556559
50
7.8891745
51
15.9239216
0
ARC
8
DEFAULT_255_1_234
10
11.422819
20
0.1236631
40
0.3487515
50
15.7653144
51
27.9410532
0
ARC
8
DEFAULT_255_1_234
10
11.5332408
20
0.182779
40
0.2235026
50
27.8166557
51
46.4008329
0
ARC
8
DEFAULT_255_1_234
10
11.5382051
20
0.1822082
40
0.2205286
50
47.4371857
51
75.0698205
0
ARC
8
DEFAULT_255_1_234
10
11.5073445
20
0.0747765
40
0.3322915
50
74.7008593
51
87.8124495
0
ARC
8
DEFAULT_255_1_234
10
11.5000133
20
-0.0308156
40
0.4380987
50
87.3814673
51
90.0240855
0
ARC
8
DEFAULT_255_1_234
10
11.4961676
20
0.0869291
40
0.3203749
50
89.3451631
51
108.5745436
0
ARC
8
DEFAULT_255_1_234
10
11.4824781
20
0.1382908
40
0.2673494
50
109.2998449
51
143.3037509
0
ARC
8
DEFAULT_255_1_234
10
11.5586854
20
0.0796881
40
0.3634757
50
143.0753173
51
163.1916937
0
ARC
8
DEFAULT_255_1_234
10
11.7538581
20
0.0180967
40
0.5681262
50
162.9373603
51
174.6208611
0
ARC
8
DEFAULT_255_1_234
10
12.0164624
20
-0.010699
40
0.8322832
50
174.3419979
51
180.1430411
0
ARC
8
DEFAULT_255_1_234
10
11.923378
20
-0.1301302
40
0.7392076
50
179.6817502
51
189.150529
0
ARC
8
DEFAULT_255_1_234
10
11.6733028
20
-0.171781
40
0.4856932
50
188.9910863
51
203.5773039
0
ARC
8
DEFAULT_255_1_234
10
11.5653361
20
-0.2165789
40
0.3688271
50
203.9077269
51
215.1312379
0
ARC
8
DEFAULT_255_1_234
10
11.4730454
20
-0.2881059
40
0.2522457
50
213.9071664
51
263.8849284
0
ARC
8
DEFAULT_255_1_234
10
11.4855784
20
-0.2096482
40
0.3316174
50
263.1758525
51
270.1031083
0
ARC
8
DEFAULT_255_1_234
10
11.4887875
20
-0.0849635
40
0.4563091
50
269.6719807
51
279.0609165
0
ARC
8
DEFAULT_255_1_234
10
11.5154643
20
-0.2462093
40
0.2928759
50
278.8750225
51
293.6346586
0
ARC
8
DEFAULT_255_1_234
10
11.5474852
20
-0.32141
40
0.2111472
50
293.8553404
51
310.0518804
0
ARC
8
DEFAULT_255_1_234
10
11.5479705
20
-0.3276484
40
0.2060917
50
311.0646779
51
332.0108348
0
ARC
8
DEFAULT_255_1_234
10
11.4287432
20
-0.2619022
40
0.3422352
50
331.6588543
51
343.2878891
0
ARC
8
DEFAULT_255_1_234
10
11.2224947
20
-0.1985202
40
0.5580003
50
343.1446044
51
351.010618
0
ARC
8
DEFAULT_255_1_234
10
11.0683593
20
-0.1704129
40
0.7146438
50
350.7157277
51
351.1602153
0
LINE
8
DEFAULT_255_1_234
10
12.9246595
20
0.5181211
11
12.9246595
21
0.3912196
0
LINE
8
DEFAULT_255_1_234
10
12.9246595
20
0.3912196
11
12.5487741
21
0.3912196
0
LINE
8
DEFAULT_255_1_234
10
12.5487741
20
0.3912196
11
12.5487741
21
-0.6513
0
LINE
8
DEFAULT_255_1_234
10
12.5487741
20
-0.6513
11
12.3953679
21
-0.6513
0
LINE
8
DEFAULT_255_1_234
10
12.3953679
20
-0.6513
11
12.3953679
21
0.3912196
0
LINE
8
DEFAULT_255_1_234
10
12.3953679
20
0.3912196
11
12.0202857
21
0.3912196
0
LINE
8
DEFAULT_255_1_234
10
12.0202857
20
0.3912196
11
12.0202857
21
0.5181211
0
LINE
8
DEFAULT_255_1_234
10
12.0202857
20
0.5181211
11
12.9246595
21
0.5181211
0
LINE
8
DEFAULT_255_1_234
10
13.7808428
20
-0.6513
11
13.5270398
21
-0.1782306
0
LINE
8
DEFAULT_255_1_234
10
13.5270398
20
-0.1782306
11
13.2523544
21
-0.1782306
0
LINE
8
DEFAULT_255_1_234
10
13.2523544
20
-0.1782306
11
13.2523544
21
-0.6513
0
LINE
8
DEFAULT_255_1_234
10
13.2523544
20
-0.6513
11
13.0973418
21
-0.6513
0
LINE
8
DEFAULT_255_1_234
10
13.0973418
20
-0.6513
11
13.0973418
21
0.5181211
0
LINE
8
DEFAULT_255_1_234
10
13.0973418
20
0.5181211
11
13.4844716
21
0.5181211
0
LINE
8
DEFAULT_255_1_234
10
13.6716111
20
-0.1453005
11
13.9462966
21
-0.6416619
0
LINE
8
DEFAULT_255_1_234
10
13.9462966
20
-0.6416619
11
13.9462966
21
-0.6513
0
LINE
8
DEFAULT_255_1_234
10
13.9462966
20
-0.6513
11
13.7808428
21
-0.6513
0
LINE
8
DEFAULT_255_1_234
10
13.2523544
20
0.3912196
11
13.2523544
21
-0.0521323
0
LINE
8
DEFAULT_255_1_234
10
13.2523544
20
-0.0521323
11
13.4892907
21
-0.0521323
0
LINE
8
DEFAULT_255_1_234
10
13.4884875
20
0.3912196
11
13.2523544
21
0.3912196
0
ARC
8
DEFAULT_255_1_234
10
13.4886356
20
-0.1780239
40
0.6961575
50
80.653586
51
90.3427061
0
ARC
8
DEFAULT_255_1_234
10
13.530583
20
0.0682348
40
0.4463577
50
65.6987447
51
80.8329603
0
ARC
8
DEFAULT_255_1_234
10
13.5783471
20
0.1777322
40
0.3269094
50
50.0017161
51
65.4305835
0
ARC
8
DEFAULT_255_1_234
10
13.6001936
20
0.2072482
40
0.2902647
50
11.628416
51
49.5603263
0
ARC
8
DEFAULT_255_1_234
10
13.4466272
20
0.1697299
40
0.4482792
50
359.5655735
51
12.3691
0
ARC
8
DEFAULT_255_1_234
10
13.5543131
20
0.1634644
40
0.3405924
50
341.9983148
51
0.4822259
0
ARC
8
DEFAULT_255_1_234
10
13.5937971
20
0.1527471
40
0.2997359
50
323.8609373
51
341.61416
0
ARC
8
DEFAULT_255_1_234
10
13.5636215
20
0.1760484
40
0.3378487
50
296.7018614
51
323.6876402
0
ARC
8
DEFAULT_255_1_234
10
13.5195111
20
0.2549235
40
0.4281516
50
290.8086567
51
297.2323311
0
ARC
8
DEFAULT_255_1_234
10
13.491864
20
0.3072351
40
0.3593766
50
269.589728
51
281.8058135
0
ARC
8
DEFAULT_255_1_234
10
13.5169539
20
0.1924743
40
0.2419125
50
281.5501019
51
303.9357432
0
ARC
8
DEFAULT_255_1_234
10
13.5306727
20
0.1686936
40
0.2145323
50
304.4415616
51
311.2106213
0
ARC
8
DEFAULT_255_1_234
10
13.5438832
20
0.1547632
40
0.1953505
50
310.9875673
51
356.2715578
0
ARC
8
DEFAULT_255_1_234
10
13.4682481
20
0.1660422
40
0.2716331
50
354.9348262
51
0.0609027
0
ARC
8
DEFAULT_255_1_234
10
13.4495355
20
0.1687435
40
0.2903554
50
359.5239371
51
12.8808918
0
ARC
8
DEFAULT_255_1_234
10
13.5472911
20
0.1926728
40
0.1897315
50
12.4173452
51
43.1022135
0
ARC
8
DEFAULT_255_1_234
10
13.5534515
20
0.1963724
40
0.1827118
50
43.5751728
51
48.203944
0
ARC
8
DEFAULT_255_1_234
10
13.5365007
20
0.1742302
40
0.2105272
50
48.7809703
51
72.6969569
0
ARC
8
DEFAULT_255_1_234
10
13.5010632
20
0.066682
40
0.3237537
50
72.3702241
51
84.8791103
0
ARC
8
DEFAULT_255_1_234
10
13.4863108
20
-0.0675231
40
0.4587478
50
84.5400526
51
89.7281406
0
LINE
8
DEFAULT_255_1_234
10
14.8546862
20
0.5181211
11
14.8546862
21
0.3912196
0
LINE
8
DEFAULT_255_1_234
10
14.8546862
20
0.3912196
11
14.4788008
21
0.3912196
0
LINE
8
DEFAULT_255_1_234
10
14.4788008
20
0.3912196
11
14.4788008
21
-0.6513
0
LINE
8
DEFAULT_255_1_234
10
14.4788008
20
-0.6513
11
14.3253946
21
-0.6513
0
LINE
8
DEFAULT_255_1_234
10
14.3253946
20
-0.6513
11
14.3253946
21
0.3912196
0
LINE
8
DEFAULT_255_1_234
10
14.3253946
20
0.3912196
11
13.9503125
21
0.3912196
0
LINE
8
DEFAULT_255_1_234
10
13.9503125
20
0.3912196
11
13.9503125
21
0.5181211
0
LINE
8
DEFAULT_255_1_234
10
13.9503125
20
0.5181211
11
14.8546862
21
0.5181211
0
LINE
8
DEFAULT_255_1_234
10
15.7558472
20
-0.5300208
11
15.7558472
21
-0.6513
0
LINE
8
DEFAULT_255_1_234
10
15.7558472
20
-0.6513
11
14.9896194
21
-0.6513
0
LINE
8
DEFAULT_255_1_234
10
14.9896194
20
-0.6513
11
14.9896194
21
-0.5444779
0
LINE
8
DEFAULT_255_1_234
10
14.9896194
20
-0.5444779
11
15.394419
21
-0.0947005
0
LINE
8
DEFAULT_255_1_234
10
15.1157177
20
0.1735595
11
14.9671305
21
0.1735595
0
LINE
8
DEFAULT_255_1_234
10
15.4819649
20
-0.1902782
11
15.1687271
21
-0.5300208
0
LINE
8
DEFAULT_255_1_234
10
15.1687271
20
-0.5300208
11
15.7558472
21
-0.5300208
0
ARC
8
DEFAULT_255_1_234
10
14.0454023
20
1.0982527
40
1.8008286
50
318.5132453
51
320.7828378
0
ARC
8
DEFAULT_255_1_234
10
14.5740998
20
0.6679426
40
1.1191493
50
320.7372736
51
323.9737074
0
ARC
8
DEFAULT_255_1_234
10
14.9660854
20
0.3839361
40
0.6350923
50
323.8961724
51
328.6421089
0
ARC
8
DEFAULT_255_1_234
10
15.170745
20
0.2577031
40
0.3946393
50
328.8299013
51
331.789948
0
ARC
8
DEFAULT_255_1_234
10
15.2704628
20
0.2062509
40
0.2824501
50
331.4255242
51
352.9364833
0
ARC
8
DEFAULT_255_1_234
10
15.2841129
20
0.2031976
40
0.2685315
50
353.2248685
51
0.0169286
0
ARC
8
DEFAULT_255_1_234
10
15.3051005
20
0.205495
40
0.2475536
50
359.4866256
51
15.9339782
0
ARC
8
DEFAULT_255_1_234
10
15.3557991
20
0.2191286
40
0.1950618
50
16.1714718
51
43.5284424
0
ARC
8
DEFAULT_255_1_234
10
15.3635299
20
0.2268573
40
0.184134
50
43.4415429
51
83.1661404
0
ARC
8
DEFAULT_255_1_234
10
15.3501217
20
0.1531771
40
0.258926
50
82.160215
51
90.1505798
0
ARC
8
DEFAULT_255_1_234
10
15.3469645
20
0.0994865
40
0.3126255
50
89.5460705
51
102.5418777
0
ARC
8
DEFAULT_255_1_234
10
15.3226731
20
0.2025665
40
0.2067346
50
102.1739365
51
129.2061916
0
ARC
8
DEFAULT_255_1_234
10
15.3147803
20
0.2150094
40
0.1921118
50
129.7279328
51
135.7542026
0
ARC
8
DEFAULT_255_1_234
10
15.326933
20
0.2053045
40
0.2075944
50
136.175737
51
166.3674722
0
ARC
8
DEFAULT_255_1_234
10
15.427625
20
0.1783182
40
0.3118201
50
165.9092917
51
178.8683903
0
ARC
8
DEFAULT_255_1_234
10
15.5141111
20
0.1736179
40
0.3983935
50
178.438168
51
180.0083905
0
ARC
8
DEFAULT_255_1_234
10
15.3739713
20
0.1775231
40
0.4068601
50
163.2878735
51
180.5581814
0
ARC
8
DEFAULT_255_1_234
10
15.2937974
20
0.199584
40
0.3237344
50
133.454115
51
162.9470031
0
ARC
8
DEFAULT_255_1_234
10
15.3116516
20
0.1806
40
0.349795
50
100.7869394
51
133.4384016
0
ARC
8
DEFAULT_255_1_234
10
15.3464287
20
0.0257319
40
0.5084616
50
89.6605301
51
101.3704185
0
ARC
8
DEFAULT_255_1_234
10
15.3530626
20
0.0318496
40
0.502348
50
78.2171172
51
90.4130393
0
ARC
8
DEFAULT_255_1_234
10
15.3885704
20
0.1942637
40
0.3361092
50
55.9268222
51
78.4888551
0
ARC
8
DEFAULT_255_1_234
10
15.4082144
20
0.2281324
40
0.2970617
50
47.9292255
51
55.4054003
0
ARC
8
DEFAULT_255_1_234
10
15.4183705
20
0.2384502
40
0.2825983
50
4.3347696
51
48.0560701
0
ARC
8
DEFAULT_255_1_234
10
15.3088099
20
0.2214601
40
0.393225
50
359.925209
51
5.5967654
0
ARC
8
DEFAULT_255_1_234
10
15.3516991
20
0.2270816
40
0.3503892
50
337.8914096
51
358.9967724
0
ARC
8
DEFAULT_255_1_234
10
15.0803403
20
0.3317706
40
0.6412172
50
326.9135351
51
338.3505194
0
ARC
8
DEFAULT_255_1_234
10
14.6817706
20
0.5872284
40
1.1146189
50
319.6472867
51
327.095818
0
ARC
8
DEFAULT_255_1_234
10
14.298471
20
0.9034
40
1.6114559
50
317.2586784
51
319.9046139
0
LINE
8
DEFAULT_255_1_234
10
16.7598145
20
0.5181211
11
16.7598145
21
0.3912196
0
LINE
8
DEFAULT_255_1_234
10
16.7598145
20
0.3912196
11
16.3839292
21
0.3912196
0
LINE
8
DEFAULT_255_1_234
10
16.3839292
20
0.3912196
11
16.3839292
21
-0.6513
0
LINE
8
DEFAULT_255_1_234
10
16.3839292
20
-0.6513
11
16.2305229
21
-0.6513
0
LINE
8
DEFAULT_255_1_234
10
16.2305229
20
-0.6513
11
16.2305229
21
0.3912196
0
LINE
8
DEFAULT_255_1_234
10
16.2305229
20
0.3912196
11
15.8554408
21
0.3912196
0
LINE
8
DEFAULT_255_1_234
10
15.8554408
20
0.3912196
11
15.8554408
21
0.5181211
0
LINE
8
DEFAULT_255_1_234
10
15.8554408
20
0.5181211
11
16.7598145
21
0.5181211
0
LINE
8
DEFAULT_255_1_234
10
17.7541437
20
0.5181211
11
17.7541437
21
0.3912196
0
LINE
8
DEFAULT_255_1_234
10
17.7541437
20
0.3912196
11
17.3782583
21
0.3912196
0
LINE
8
DEFAULT_255_1_234
10
17.3782583
20
0.3912196
11
17.3782583
21
-0.6513
0
LINE
8
DEFAULT_255_1_234
10
17.3782583
20
-0.6513
11
17.2248521
21
-0.6513
0
LINE
8
DEFAULT_255_1_234
10
17.2248521
20
-0.6513
11
17.2248521
21
0.3912196
0
LINE
8
DEFAULT_255_1_234
10
17.2248521
20
0.3912196
11
16.84977
21
0.3912196
0
LINE
8
DEFAULT_255_1_234
10
16.84977
20
0.3912196
11
16.84977
21
0.5181211
0
LINE
8
DEFAULT_255_1_234
10
16.84977
20
0.5181211
11
17.7541437
21
0.5181211
0
LINE
8
DEFAULT_255_1_234
10
18.6553047
20
-0.5300208
11
18.6553047
21
-0.6513
0
LINE
8
DEFAULT_255_1_234
10
18.6553047
20
-0.6513
11
17.8890769
21
-0.6513
0
LINE
8
DEFAULT_255_1_234
10
17.8890769
20
-0.6513
11
17.8890769
21
-0.5444779
0
LINE
8
DEFAULT_255_1_234
10
17.8890769
20
-0.5444779
11
18.2938765
21
-0.0947005
0
LINE
8
DEFAULT_255_1_234
10
18.0151752
20
0.1735595
11
17.866588
21
0.1735595
0
LINE
8
DEFAULT_255_1_234
10
18.3814225
20
-0.1902782
11
18.0681847
21
-0.5300208
0
LINE
8
DEFAULT_255_1_234
10
18.0681847
20
-0.5300208
11
18.6553047
21
-0.5300208
0
ARC
8
DEFAULT_255_1_234
10
16.9448598
20
1.0982527
40
1.8008286
50
318.5132453
51
320.7828378
0
ARC
8
DEFAULT_255_1_234
10
17.4735573
20
0.6679426
40
1.1191493
50
320.7372736
51
323.9737074
0
ARC
8
DEFAULT_255_1_234
10
17.8655429
20
0.3839361
40
0.6350923
50
323.8961724
51
328.6421089
0
ARC
8
DEFAULT_255_1_234
10
18.0702025
20
0.2577031
40
0.3946393
50
328.8299013
51
331.789948
0
ARC
8
DEFAULT_255_1_234
10
18.1699203
20
0.2062509
40
0.2824501
50
331.4255242
51
352.9364833
0
ARC
8
DEFAULT_255_1_234
10
18.1835704
20
0.2031976
40
0.2685315
50
353.2248685
51
0.0169286
0
ARC
8
DEFAULT_255_1_234
10
18.2045581
20
0.205495
40
0.2475536
50
359.4866256
51
15.9339782
0
ARC
8
DEFAULT_255_1_234
10
18.2552566
20
0.2191286
40
0.1950618
50
16.1714718
51
43.5284424
0
ARC
8
DEFAULT_255_1_234
10
18.2629874
20
0.2268573
40
0.184134
50
43.4415429
51
83.1661404
0
ARC
8
DEFAULT_255_1_234
10
18.2495793
20
0.1531771
40
0.258926
50
82.160215
51
90.1505798
0
ARC
8
DEFAULT_255_1_234
10
18.246422
20
0.0994865
40
0.3126255
50
89.5460705
51
102.5418777
0
ARC
8
DEFAULT_255_1_234
10
18.2221306
20
0.2025665
40
0.2067346
50
102.1739365
51
129.2061916
0
ARC
8
DEFAULT_255_1_234
10
18.2142378
20
0.2150094
40
0.1921118
50
129.7279328
51
135.7542026
0
ARC
8
DEFAULT_255_1_234
10
18.2263905
20
0.2053045
40
0.2075944
50
136.175737
51
166.3674722
0
ARC
8
DEFAULT_255_1_234
10
18.3270825
20
0.1783182
40
0.3118201
50
165.9092917
51
178.8683903
0
ARC
8
DEFAULT_255_1_234
10
18.4135686
20
0.1736179
40
0.3983935
50
178.438168
51
180.0083905
0
ARC
8
DEFAULT_255_1_234
10
18.2734288
20
0.1775231
40
0.4068601
50
163.2878735
51
180.5581814
0
ARC
8
DEFAULT_255_1_234
10
18.1932549
20
0.199584
40
0.3237344
50
133.454115
51
162.9470031
0
ARC
8
DEFAULT_255_1_234
10
18.2111091
20
0.1806
40
0.349795
50
100.7869394
51
133.4384016
0
ARC
8
DEFAULT_255_1_234
10
18.2458862
20
0.0257319
40
0.5084616
50
89.6605301
51
101.3704185
0
ARC
8
DEFAULT_255_1_234
10
18.2525201
20
0.0318496
40
0.502348
50
78.2171172
51
90.4130393
0
ARC
8
DEFAULT_255_1_234
10
18.2880279
20
0.1942637
40
0.3361092
50
55.9268222
51
78.4888551
0
ARC
8
DEFAULT_255_1_234
10
18.307672
20
0.2281324
40
0.2970617
50
47.9292255
51
55.4054003
0
ARC
8
DEFAULT_255_1_234
10
18.317828
20
0.2384502
40
0.2825983
50
4.3347696
51
48.0560701
0
ARC
8
DEFAULT_255_1_234
10
18.2082674
20
0.2214601
40
0.393225
50
359.925209
51
5.5967654
0
ARC
8
DEFAULT_255_1_234
10
18.2511566
20
0.2270816
40
0.3503892
50
337.8914096
51
358.9967724
0
ARC
8
DEFAULT_255_1_234
10
17.9797978
20
0.3317706
40
0.6412172
50
326.9135351
51
338.3505194
0
ARC
8
DEFAULT_255_1_234
10
17.5812282
20
0.5872284
40
1.1146189
50
319.6472867
51
327.095818
0
ARC
8
DEFAULT_255_1_234
10
17.1979285
20
0.9034
40
1.6114559
50
317.2586784
51
319.9046139
0
LINE
8
DEFAULT_255_1_234
10
19.2568819
20
-0.6513
11
18.8512792
21
-0.6513
0
LINE
8
DEFAULT_255_1_234
10
18.8512792
20
-0.6513
11
18.8512792
21
0.5181211
0
LINE
8
DEFAULT_255_1_234
10
18.8512792
20
0.5181211
11
19.2335899
21
0.5181211
0
LINE
8
DEFAULT_255_1_234
10
19.2625042
20
-0.1043386
11
19.0054885
21
-0.1043386
0
LINE
8
DEFAULT_255_1_234
10
19.0054885
20
-0.1043386
11
19.0054885
21
-0.5252017
0
LINE
8
DEFAULT_255_1_234
10
19.0054885
20
-0.5252017
11
19.2600946
21
-0.5252017
0
LINE
8
DEFAULT_255_1_234
10
19.0054885
20
0.3912196
11
19.0054885
21
0.0193501
0
LINE
8
DEFAULT_255_1_234
10
19.0054885
20
0.0193501
11
19.2384089
21
0.0193501
0
LINE
8
DEFAULT_255_1_234
10
19.2335899
20
0.3912196
11
19.0054885
21
0.3912196
0
ARC
8
DEFAULT_255_1_234
10
19.2373608
20
-0.2186099
40
0.7367406
50
82.1257326
51
90.2932599
0
ARC
8
DEFAULT_255_1_234
10
19.2762562
20
0.0532013
40
0.4621653
50
69.9044149
51
82.2857423
0
ARC
8
DEFAULT_255_1_234
10
19.333324
20
0.2074637
40
0.2976871
50
51.1838526
51
70.0181538
0
ARC
8
DEFAULT_255_1_234
10
19.3588206
20
0.244524
40
0.2528517
50
12.1017251
51
50.4214761
0
ARC
8
DEFAULT_255_1_234
10
19.220408
20
0.2097676
40
0.3955061
50
359.5251267
51
12.8211707
0
ARC
8
DEFAULT_255_1_234
10
19.3784007
20
0.2028344
40
0.2375281
50
323.4908128
51
0.8817314
0
ARC
8
DEFAULT_255_1_234
10
19.3365694
20
0.235155
40
0.2903817
50
298.6825083
51
323.2756573
0
ARC
8
DEFAULT_255_1_234
10
19.3004057
20
0.2952649
40
0.3604842
50
293.1999386
51
299.1396394
0
ARC
8
DEFAULT_255_1_234
10
19.367703
20
-0.3132874
40
0.2871098
50
54.0011765
51
74.9167975
0
ARC
8
DEFAULT_255_1_234
10
19.3793389
20
-0.2935668
40
0.2643248
50
36.3580696
51
53.5291921
0
ARC
8
DEFAULT_255_1_234
10
19.3666631
20
-0.3026002
40
0.2798884
50
4.8189881
51
36.3089977
0
ARC
8
DEFAULT_255_1_234
10
19.2887466
20
-0.313573
40
0.358478
50
359.9370252
51
5.5204067
0
ARC
8
DEFAULT_255_1_234
10
19.2562987
20
-0.3176333
40
0.3909429
50
344.7478609
51
0.5373281
0
ARC
8
DEFAULT_255_1_234
10
19.3553959
20
-0.3443456
40
0.2883093
50
311.1786488
51
344.6886812
0
ARC
8
DEFAULT_255_1_234
10
19.3262006
20
-0.3080013
40
0.3348923
50
286.0418249
51
310.8441291
0
ARC
8
DEFAULT_255_1_234
10
19.2754838
20
-0.1433193
40
0.5071869
50
274.1042341
51
286.4071509
0
ARC
8
DEFAULT_255_1_234
10
19.2578094
20
0.0450229
40
0.6963234
50
269.9236873
51
274.445647
0
ARC
8
DEFAULT_255_1_234
10
19.2624094
20
-0.1889463
40
0.3362634
50
269.6055768
51
281.3740047
0
ARC
8
DEFAULT_255_1_234
10
19.2854733
20
-0.2982647
40
0.224546
50
281.1055983
51
302.5132223
0
ARC
8
DEFAULT_255_1_234
10
19.3001632
20
-0.3246177
40
0.1944357
50
303.0368945
51
311.8811219
0
ARC
8
DEFAULT_255_1_234
10
19.3073038
20
-0.333111
40
0.1833454
50
311.9916004
51
351.7143462
0
ARC
8
DEFAULT_255_1_234
10
19.2256269
20
-0.316607
40
0.2665871
50
350.7339597
51
0.2221581
0
ARC
8
DEFAULT_255_1_234
10
19.2148714
20
-0.3109533
40
0.2773789
50
359.0456241
51
17.2296242
0
ARC
8
DEFAULT_255_1_234
10
19.3187832
20
-0.2800837
40
0.1689915
50
17.6685481
51
78.9940892
0
ARC
8
DEFAULT_255_1_234
10
19.2670995
20
-0.4655776
40
0.3612658
50
76.5635957
51
90.6980921
0
LINE
8
DEFAULT_255_1_234
10
19.262698
20
-0.1043387
11
19.2625042
21
-0.1043386
0
ARC
8
DEFAULT_255_1_234
10
19.2406656
20
0.3479036
40
0.3285612
50
269.6064736
51
281.4533503
0
ARC
8
DEFAULT_255_1_234
10
19.2629476
20
0.2427688
40
0.2210975
50
281.2041486
51
302.5148063
0
ARC
8
DEFAULT_255_1_234
10
19.2766325
20
0.2181241
40
0.1929674
50
303.021671
51
309.8369575
0
ARC
8
DEFAULT_255_1_234
10
19.2949787
20
0.1975488
40
0.1654181
50
309.5228395
51
356.9509836
0
ARC
8
DEFAULT_255_1_234
10
19.2286369
20
0.2070932
40
0.2322512
50
355.4701227
51
0.0492546
0
ARC
8
DEFAULT_255_1_234
10
19.2007461
20
0.2093094
40
0.2601498
50
359.5558597
51
11.2096359
0
ARC
8
DEFAULT_255_1_234
10
19.2964751
20
0.229123
40
0.1623975
50
10.9182341
51
31.3230275
0
ARC
8
DEFAULT_255_1_234
10
19.3250484
20
0.2450214
40
0.1297302
50
31.8852677
51
52.1412565
0
ARC
8
DEFAULT_255_1_234
10
19.2976217
20
0.206275
40
0.1771663
50
52.8285564
51
71.9850297
0
ARC
8
DEFAULT_255_1_234
10
19.2600393
20
0.0956664
40
0.2939794
50
71.6863486
51
82.8455995
0
ARC
8
DEFAULT_255_1_234
10
19.2360929
20
-0.0852851
40
0.476506
50
82.6984714
51
90.1729175
0
ARC
8
DEFAULT_255_1_234
10
19.2338564
20
0.0370623
40
0.3541573
50
89.8708275
51
90.0431131
0
LINE
8
DEFAULT_255_1_234
10
19.9427924
20
0.5181211
11
20.1275224
21
-0.2826432
0
LINE
8
DEFAULT_255_1_234
10
20.1275224
20
-0.2826432
11
20.1500112
21
-0.4368526
0
LINE
8
DEFAULT_255_1_234
10
20.1500112
20
-0.4368526
11
20.1829414
21
-0.2979035
0
LINE
8
DEFAULT_255_1_234
10
20.1829414
20
-0.2979035
11
20.4142554
21
0.5181211
0
LINE
8
DEFAULT_255_1_234
10
20.4142554
20
0.5181211
11
20.5443696
21
0.5181211
0
LINE
8
DEFAULT_255_1_234
10
20.5443696
20
0.5181211
11
20.7700614
21
-0.2979035
0
LINE
8
DEFAULT_255_1_234
10
20.7700614
20
-0.2979035
11
20.8021884
21
-0.4392621
0
LINE
8
DEFAULT_255_1_234
10
20.8021884
20
-0.4392621
11
20.8270868
21
-0.28184
0
LINE
8
DEFAULT_255_1_234
10
20.8270868
20
-0.28184
11
21.0086041
21
0.5181211
0
LINE
8
DEFAULT_255_1_234
10
21.0086041
20
0.5181211
11
21.1636166
21
0.5181211
0
LINE
8
DEFAULT_255_1_234
10
21.1636166
20
0.5181211
11
20.8800962
21
-0.6513
0
LINE
8
DEFAULT_255_1_234
10
20.8800962
20
-0.6513
11
20.7395408
21
-0.6513
0
LINE
8
DEFAULT_255_1_234
10
20.7395408
20
-0.6513
11
20.4985887
21
0.2008674
0
LINE
8
DEFAULT_255_1_234
10
20.4985887
20
0.2008674
11
20.4801157
21
0.2900197
0
LINE
8
DEFAULT_255_1_234
10
20.4801157
20
0.2900197
11
20.4616427
21
0.2008674
0
LINE
8
DEFAULT_255_1_234
10
20.4616427
20
0.2008674
11
20.2118556
21
-0.6513
0
LINE
8
DEFAULT_255_1_234
10
20.2118556
20
-0.6513
11
20.0713002
21
-0.6513
0
LINE
8
DEFAULT_255_1_234
10
20.0713002
20
-0.6513
11
19.788583
21
0.5181211
0
LINE
8
DEFAULT_255_1_234
10
19.788583
20
0.5181211
11
19.9427924
21
0.5181211
0
LINE
8
DEFAULT_255_2_778
10
10.5738396
20
40.8993073
11
9.3932396
21
40.8993073
0
LINE
8
DEFAULT_255_2_778
10
9.3932396
20
40.8993073
11
9.9837396
21
41.9219073
0
LINE
8
DEFAULT_255_2_778
10
9.9837396
20
41.9219073
11
11.1643396
21
41.9219073
0
LINE
8
DEFAULT_255_2_778
10
11.1643396
20
41.9219073
11
10.5738396
21
40.8993073
0
LINE
8
DEFAULT_255_2_778
10
10.5738396
20
40.8993073
11
10.5738396
21
40.8993073
0
LINE
8
DEFAULT_255_2_778
10
11.7546396
20
40.8993073
11
12.9354396
21
40.8993073
0
LINE
8
DEFAULT_255_2_778
10
12.9354396
20
40.8993073
11
12.3451396
21
41.9219073
0
LINE
8
DEFAULT_255_2_778
10
12.3451396
20
41.9219073
11
11.1643396
21
41.9219073
0
LINE
8
DEFAULT_255_2_778
10
11.1643396
20
41.9219073
11
11.7546396
21
40.8993073
0
LINE
8
DEFAULT_255_2_778
10
11.7546396
20
40.8993073
11
11.7546396
21
40.8993073
0
LINE
8
DEFAULT_255_2_778
10
11.7545823
20
42.9445146
11
11.1642823
21
43.9671146
0
LINE
8
DEFAULT_255_2_778
10
11.1642823
20
43.9671146
11
10.5737823
21
42.9445146
0
LINE
8
DEFAULT_255_2_778
10
10.5737823
20
42.9445146
11
11.1642823
21
41.9219146
0
LINE
8
DEFAULT_255_2_778
10
11.1642823
20
41.9219146
11
11.7545823
21
42.9445146
0
LINE
8
DEFAULT_255_2_778
10
11.7545823
20
42.9445146
11
11.7545823
21
42.9445146
0
ARC
8
DEFAULT_255_2_778
10
16.5183731
20
42.5907426
40
0.5650491
50
268.7543645
51
289.1417717
0
ARC
8
DEFAULT_255_2_778
10
16.606208
20
42.3355531
40
0.2951681
50
289.2776255
51
3.7648372
0
ARC
8
DEFAULT_255_2_778
10
16.3901618
20
42.3621085
40
0.5106278
50
359.1949826
51
0.0020862
0
ARC
8
DEFAULT_255_2_778
10
16.547449
20
42.3480832
40
0.1541914
50
280.2616216
51
358.5297855
0
ARC
8
DEFAULT_255_2_778
10
16.5080075
20
42.460655
40
0.2726346
50
269.5969454
51
284.2065679
0
ARC
8
DEFAULT_255_2_778
10
16.4981883
20
42.4448788
40
0.2569732
50
246.5218562
51
271.7619895
0
ARC
8
DEFAULT_255_2_778
10
16.4527498
20
42.3369164
40
0.1398527
50
188.0764216
51
245.9747848
0
ARC
8
DEFAULT_255_2_778
10
16.4833113
20
42.3439608
40
0.1711218
50
179.9443312
51
188.9740498
0
ARC
8
DEFAULT_255_2_778
10
16.4924507
20
42.3507849
40
0.3763411
50
178.2272621
51
205.8283807
0
ARC
8
DEFAULT_255_2_778
10
16.4132476
20
42.3330833
40
0.2979176
50
209.4028057
51
263.0375728
0
ARC
8
DEFAULT_255_2_778
10
16.5005111
20
42.7077629
40
0.6816586
50
259.5722942
51
270.4689037
0
ARC
8
DEFAULT_255_2_778
10
17.411252
20
42.7639767
40
0.1217154
50
2.0482843
51
87.015299
0
ARC
8
DEFAULT_255_2_778
10
17.4057913
20
42.7683868
40
0.1270984
50
353.0742102
51
359.9730821
0
ARC
8
DEFAULT_255_2_778
10
17.4111345
20
42.7651717
40
0.1214332
50
270.7420557
51
354.2761882
0
ARC
8
DEFAULT_255_2_778
10
17.4065072
20
42.8017509
40
0.1581238
50
269.9936646
51
272.2471507
0
ARC
8
DEFAULT_255_2_778
10
17.414084
20
42.3505295
40
0.1400686
50
358.2807293
51
95.6106825
0
ARC
8
DEFAULT_255_2_778
10
17.4103233
20
42.3466963
40
0.1437669
50
266.9962473
51
359.8528392
0
ARC
8
DEFAULT_255_2_778
10
17.4725249
20
42.3869988
40
0.3335288
50
268.2414507
51
302.0223478
0
ARC
8
DEFAULT_255_2_778
10
17.5091261
20
42.311683
40
0.2504234
50
304.0600275
51
2.0468005
0
ARC
8
DEFAULT_255_2_778
10
17.4832788
20
42.3183521
40
0.2761203
50
0.4720601
51
65.8403529
0
ARC
8
DEFAULT_255_2_778
10
17.5191655
20
42.3831061
40
0.2024466
50
67.606893
51
75.8693222
0
ARC
8
DEFAULT_255_2_778
10
17.5042026
20
42.790722
40
0.2208874
50
286.9473417
51
358.0074963
0
ARC
8
DEFAULT_255_2_778
10
17.4710866
20
42.7995045
40
0.2544031
50
356.2897886
51
0.0050857
0
ARC
8
DEFAULT_255_2_778
10
17.497262
20
42.8045946
40
0.2282839
50
358.7280137
51
81.8073164
0
ARC
8
DEFAULT_255_2_778
10
17.4216369
20
42.5531283
40
0.4895182
50
77.2355086
51
90.5088275
0
ARC
8
DEFAULT_255_2_778
10
17.5842747
20
41.5885989
40
0.1302704
50
89.9972707
51
92.6773048
0
ARC
8
DEFAULT_255_2_778
10
17.5844071
20
41.58937
40
0.1294993
50
45.0546048
51
90.0558451
0
ARC
8
DEFAULT_255_2_778
10
17.5844118
20
41.589219
40
0.1296029
50
0.001866
51
45.1031959
0
ARC
8
DEFAULT_255_2_778
10
17.5845123
20
41.5892202
40
0.1295026
50
357.4803735
51
0.0013544
0
ARC
8
DEFAULT_255_2_778
10
17.5901979
20
41.5853512
40
0.1237052
50
339.8672523
51
359.1550732
0
ARC
8
DEFAULT_255_2_778
10
17.5794513
20
41.5825079
40
0.1329691
50
272.0853006
51
342.6124646
0
ARC
8
DEFAULT_255_2_778
10
17.6596145
20
41.6207661
40
0.2575135
50
286.787355
51
290.6121696
0
ARC
8
DEFAULT_255_2_778
10
17.6689461
20
41.6064533
40
0.24086
50
289.7330405
51
342.3216972
0
ARC
8
DEFAULT_255_2_778
10
17.641261
20
41.6112954
40
0.268735
50
343.130572
51
0.3905272
0
ARC
8
DEFAULT_255_2_778
10
17.6578783
20
41.6286767
40
0.2525904
50
356.4706028
51
80.1788963
0
ARC
8
DEFAULT_255_2_778
10
17.5921649
20
41.4017163
40
0.4881286
50
77.1212301
51
90.4900821
0
ARC
8
DEFAULT_255_2_778
10
17.5166337
20
41.104036
40
0.1865405
50
50.1507009
51
92.9634648
0
ARC
8
DEFAULT_255_2_778
10
17.5301354
20
41.1323678
40
0.1563319
50
12.621233
51
47.2950617
0
ARC
8
DEFAULT_255_2_778
10
16.8485884
20
40.9994726
40
0.8506657
50
2.8173892
51
11.3253986
0
ARC
8
DEFAULT_255_2_778
10
-29.2295733
20
37.5031175
40
47.060992
50
4.3048394
51
4.3117143
0
ARC
8
DEFAULT_255_2_778
10
18.5500859
20
41.075584
40
0.8523717
50
182.6850102
51
191.2954256
0
ARC
8
DEFAULT_255_2_778
10
17.9656837
20
40.9692399
40
0.2586603
50
193.5512904
51
195.3825538
0
ARC
8
DEFAULT_255_2_778
10
19.3507425
20
41.2281408
40
1.4700994
50
182.6283124
51
192.8725697
0
ARC
8
DEFAULT_255_2_778
10
17.6207606
20
41.1552215
40
0.261487
50
1.2064311
51
30.4123358
0
ARC
8
DEFAULT_255_2_778
10
17.6663626
20
41.170276
40
0.2147766
50
33.1081154
51
71.7312197
0
LINE
8
DEFAULT_255_2_778
10
13.4657897
20
41.3348271
11
13.9385897
21
41.3348271
0
LINE
8
DEFAULT_255_2_778
10
13.9385897
20
41.3348271
11
13.9385897
21
41.5062271
0
LINE
8
DEFAULT_255_2_778
10
13.9385897
20
41.5062271
11
13.4657897
21
41.5062271
0
LINE
8
DEFAULT_255_2_778
10
13.4657897
20
41.5062271
11
13.4657897
21
41.7171271
0
LINE
8
DEFAULT_255_2_778
10
13.4657897
20
41.7171271
11
13.9977897
21
41.7171271
0
LINE
8
DEFAULT_255_2_778
10
13.9977897
20
41.7171271
11
13.9977897
21
41.8885271
0
LINE
8
DEFAULT_255_2_778
10
13.9977897
20
41.8885271
11
13.4657897
21
41.8885271
0
LINE
8
DEFAULT_255_2_778
10
13.4657897
20
41.8885271
11
13.2651897
21
41.8885271
0
LINE
8
DEFAULT_255_2_778
10
13.2651897
20
41.8885271
11
13.2651897
21
41.7171271
0
LINE
8
DEFAULT_255_2_778
10
13.2651897
20
41.7171271
11
13.2651897
21
41.0707271
0
LINE
8
DEFAULT_255_2_778
10
13.2651897
20
41.0707271
11
13.2651897
21
40.8992271
0
LINE
8
DEFAULT_255_2_778
10
13.2651897
20
40.8992271
11
13.4657897
21
40.8992271
0
LINE
8
DEFAULT_255_2_778
10
13.4657897
20
40.8992271
11
14.0118897
21
40.8992271
0
LINE
8
DEFAULT_255_2_778
10
14.0118897
20
40.8992271
11
14.0118897
21
41.0707271
0
LINE
8
DEFAULT_255_2_778
10
14.0118897
20
41.0707271
11
13.4657897
21
41.0707271
0
LINE
8
DEFAULT_255_2_778
10
13.4657897
20
41.0707271
11
13.4657897
21
41.3345271
0
LINE
8
DEFAULT_255_2_778
10
13.4657897
20
41.3345271
11
13.4657897
21
41.3348271
0
LINE
8
DEFAULT_255_2_778
10
13.4519897
20
42.7889271
11
13.6620897
21
42.0536271
0
LINE
8
DEFAULT_255_2_778
10
13.6620897
20
42.0536271
11
13.6704897
21
42.0536271
0
LINE
8
DEFAULT_255_2_778
10
13.6704897
20
42.0536271
11
13.8464897
21
42.0536271
0
LINE
8
DEFAULT_255_2_778
10
13.8464897
20
42.0536271
11
13.8546897
21
42.0536271
0
LINE
8
DEFAULT_255_2_778
10
13.8546897
20
42.0536271
11
14.0647897
21
42.7889271
0
LINE
8
DEFAULT_255_2_778
10
14.0647897
20
42.7889271
11
14.0647897
21
42.0536271
0
LINE
8
DEFAULT_255_2_778
10
14.0647897
20
42.0536271
11
14.2515897
21
42.0536271
0
LINE
8
DEFAULT_255_2_778
10
14.2515897
20
42.0536271
11
14.2515897
21
43.0429271
0
LINE
8
DEFAULT_255_2_778
10
14.2515897
20
43.0429271
11
14.1496897
21
43.0429271
0
LINE
8
DEFAULT_255_2_778
10
14.1496897
20
43.0429271
11
14.0615897
21
43.0429271
0
LINE
8
DEFAULT_255_2_778
10
14.0615897
20
43.0429271
11
13.9655897
21
43.0429271
0
LINE
8
DEFAULT_255_2_778
10
13.9655897
20
43.0429271
11
13.7583897
21
42.3486271
0
LINE
8
DEFAULT_255_2_778
10
13.7583897
20
42.3486271
11
13.5511897
21
43.0429271
0
LINE
8
DEFAULT_255_2_778
10
13.5511897
20
43.0429271
11
13.4551897
21
43.0429271
0
LINE
8
DEFAULT_255_2_778
10
13.4551897
20
43.0429271
11
13.3670897
21
43.0429271
0
LINE
8
DEFAULT_255_2_778
10
13.3670897
20
43.0429271
11
13.2651897
21
43.0429271
0
LINE
8
DEFAULT_255_2_778
10
13.2651897
20
43.0429271
11
13.2651897
21
42.0536271
0
LINE
8
DEFAULT_255_2_778
10
13.2651897
20
42.0536271
11
13.4519897
21
42.0536271
0
LINE
8
DEFAULT_255_2_778
10
13.4519897
20
42.0536271
11
13.4519897
21
42.7889271
0
LINE
8
DEFAULT_255_2_778
10
13.4519897
20
42.7889271
11
13.4519897
21
42.7889271
0
LINE
8
DEFAULT_255_2_778
10
18.0056897
20
43.0429271
11
17.8064897
21
43.0429271
0
LINE
8
DEFAULT_255_2_778
10
17.8064897
20
43.0429271
11
17.8064897
21
42.0536271
0
LINE
8
DEFAULT_255_2_778
10
17.8064897
20
42.0536271
11
18.0056897
21
42.0536271
0
LINE
8
DEFAULT_255_2_778
10
18.0056897
20
42.0536271
11
18.0056897
21
43.0429271
0
LINE
8
DEFAULT_255_2_778
10
18.0056897
20
43.0429271
11
18.0056897
21
43.0429271
0
LINE
8
DEFAULT_255_2_778
10
18.1681897
20
41.8888271
11
17.9689897
21
41.8888271
0
LINE
8
DEFAULT_255_2_778
10
17.9689897
20
41.8888271
11
17.9689897
21
40.8995271
0
LINE
8
DEFAULT_255_2_778
10
17.9689897
20
40.8995271
11
18.1681897
21
40.8995271
0
LINE
8
DEFAULT_255_2_778
10
18.1681897
20
40.8995271
11
18.1681897
21
41.8888271
0
LINE
8
DEFAULT_255_2_778
10
18.1681897
20
41.8888271
11
18.1681897
21
41.8888271
0
LINE
8
DEFAULT_255_2_778
10
19.9765897
20
43.0429271
11
19.7773897
21
43.0429271
0
LINE
8
DEFAULT_255_2_778
10
19.7773897
20
43.0429271
11
19.7773897
21
42.0536271
0
LINE
8
DEFAULT_255_2_778
10
19.7773897
20
42.0536271
11
19.9765897
21
42.0536271
0
LINE
8
DEFAULT_255_2_778
10
19.9765897
20
42.0536271
11
19.9765897
21
43.0429271
0
LINE
8
DEFAULT_255_2_778
10
19.9765897
20
43.0429271
11
19.9765897
21
43.0429271
0
LINE
8
DEFAULT_255_2_778
10
14.5298897
20
43.0429271
11
14.3306897
21
43.0429271
0
LINE
8
DEFAULT_255_2_778
10
14.3306897
20
43.0429271
11
14.3306897
21
42.0536271
0
LINE
8
DEFAULT_255_2_778
10
14.3306897
20
42.0536271
11
14.5298897
21
42.0536271
0
LINE
8
DEFAULT_255_2_778
10
14.5298897
20
42.0536271
11
14.5298897
21
43.0429271
0
LINE
8
DEFAULT_255_2_778
10
14.5298897
20
43.0429271
11
14.5298897
21
43.0429271
0
LINE
8
DEFAULT_255_2_778
10
19.4989897
20
42.6569271
11
19.1029897
21
42.6569271
0
LINE
8
DEFAULT_255_2_778
10
19.1029897
20
42.6569271
11
19.1029897
21
43.0426271
0
LINE
8
DEFAULT_255_2_778
10
19.1029897
20
43.0426271
11
18.9068897
21
43.0426271
0
LINE
8
DEFAULT_255_2_778
10
18.9068897
20
43.0426271
11
18.9068897
21
42.0536271
0
LINE
8
DEFAULT_255_2_778
10
18.9068897
20
42.0536271
11
19.1029897
21
42.0536271
0
LINE
8
DEFAULT_255_2_778
10
19.1029897
20
42.0536271
11
19.1029897
21
42.4854271
0
LINE
8
DEFAULT_255_2_778
10
19.1029897
20
42.4854271
11
19.4989897
21
42.4854271
0
LINE
8
DEFAULT_255_2_778
10
19.4989897
20
42.4854271
11
19.4989897
21
42.0536271
0
LINE
8
DEFAULT_255_2_778
10
19.4989897
20
42.0536271
11
19.6950897
21
42.0536271
0
LINE
8
DEFAULT_255_2_778
10
19.6950897
20
42.0536271
11
19.6950897
21
43.0426271
0
LINE
8
DEFAULT_255_2_778
10
19.6950897
20
43.0426271
11
19.4989897
21
43.0426271
0
LINE
8
DEFAULT_255_2_778
10
19.4989897
20
43.0426271
11
19.4989897
21
42.6569271
0
LINE
8
DEFAULT_255_2_778
10
19.4989897
20
42.6569271
11
19.4989897
21
42.6569271
0
LINE
8
DEFAULT_255_2_778
10
14.8246897
20
42.0536271
11
15.0280897
21
42.0536271
0
LINE
8
DEFAULT_255_2_778
10
15.0280897
20
42.0536271
11
15.0280897
21
42.8715271
0
LINE
8
DEFAULT_255_2_778
10
15.0280897
20
42.8715271
11
15.2696897
21
42.8715271
0
LINE
8
DEFAULT_255_2_778
10
15.2696897
20
42.8715271
11
15.2696897
21
43.0429271
0
LINE
8
DEFAULT_255_2_778
10
15.2696897
20
43.0429271
11
15.0280897
21
43.0429271
0
LINE
8
DEFAULT_255_2_778
10
15.0280897
20
43.0429271
11
14.8246897
21
43.0429271
0
LINE
8
DEFAULT_255_2_778
10
14.8246897
20
43.0429271
11
14.5830897
21
43.0429271
0
LINE
8
DEFAULT_255_2_778
10
14.5830897
20
43.0429271
11
14.5830897
21
42.8715271
0
LINE
8
DEFAULT_255_2_778
10
14.5830897
20
42.8715271
11
14.8246897
21
42.8715271
0
LINE
8
DEFAULT_255_2_778
10
14.8246897
20
42.8715271
11
14.8246897
21
42.0536271
0
LINE
8
DEFAULT_255_2_778
10
14.8246897
20
42.0536271
11
14.8246897
21
42.0536271
0
LINE
8
DEFAULT_255_2_778
10
16.6422897
20
40.8995271
11
16.8454897
21
40.8995271
0
LINE
8
DEFAULT_255_2_778
10
16.8454897
20
40.8995271
11
16.8454897
21
41.7173271
0
LINE
8
DEFAULT_255_2_778
10
16.8454897
20
41.7173271
11
17.0873897
21
41.7173271
0
LINE
8
DEFAULT_255_2_778
10
17.0873897
20
41.7173271
11
17.0873897
21
41.8891271
0
LINE
8
DEFAULT_255_2_778
10
17.0873897
20
41.8891271
11
16.8454897
21
41.8891271
0
LINE
8
DEFAULT_255_2_778
10
16.8454897
20
41.8891271
11
16.6422897
21
41.8891271
0
LINE
8
DEFAULT_255_2_778
10
16.6422897
20
41.8891271
11
16.4004897
21
41.8891271
0
LINE
8
DEFAULT_255_2_778
10
16.4004897
20
41.8891271
11
16.4004897
21
41.7173271
0
LINE
8
DEFAULT_255_2_778
10
16.4004897
20
41.7173271
11
16.6422897
21
41.7173271
0
LINE
8
DEFAULT_255_2_778
10
16.6422897
20
41.7173271
11
16.6422897
21
40.8995271
0
LINE
8
DEFAULT_255_2_778
10
16.6422897
20
40.8995271
11
16.6422897
21
40.8995271
0
LINE
8
DEFAULT_255_2_778
10
16.9007897
20
42.3621271
11
16.9007897
21
43.0426271
0
LINE
8
DEFAULT_255_2_778
10
16.9007897
20
43.0426271
11
16.7015897
21
43.0426271
0
LINE
8
DEFAULT_255_2_778
10
16.7015897
20
43.0426271
11
16.7015897
21
42.3441271
0
LINE
8
DEFAULT_255_2_778
10
16.3121897
20
42.3441271
11
16.3121897
21
43.0426271
0
LINE
8
DEFAULT_255_2_778
10
16.3121897
20
43.0426271
11
16.1162897
21
43.0426271
0
LINE
8
DEFAULT_255_2_778
10
16.1162897
20
43.0426271
11
16.1162897
21
42.3624271
0
LINE
8
DEFAULT_255_2_778
10
15.0000897
20
41.3348271
11
15.4730897
21
41.3348271
0
LINE
8
DEFAULT_255_2_778
10
15.4730897
20
41.3348271
11
15.4730897
21
41.5062271
0
LINE
8
DEFAULT_255_2_778
10
15.4730897
20
41.5062271
11
15.0000897
21
41.5062271
0
LINE
8
DEFAULT_255_2_778
10
15.0000897
20
41.5062271
11
15.0000897
21
41.7171271
0
LINE
8
DEFAULT_255_2_778
10
15.0000897
20
41.7171271
11
15.5321897
21
41.7171271
0
LINE
8
DEFAULT_255_2_778
10
15.5321897
20
41.7171271
11
15.5321897
21
41.8885271
0
LINE
8
DEFAULT_255_2_778
10
15.5321897
20
41.8885271
11
15.0000897
21
41.8885271
0
LINE
8
DEFAULT_255_2_778
10
15.0000897
20
41.8885271
11
14.7997897
21
41.8885271
0
LINE
8
DEFAULT_255_2_778
10
14.7997897
20
41.8885271
11
14.7997897
21
41.7171271
0
LINE
8
DEFAULT_255_2_778
10
14.7997897
20
41.7171271
11
14.7997897
21
41.0707271
0
LINE
8
DEFAULT_255_2_778
10
14.7997897
20
41.0707271
11
14.7997897
21
40.8992271
0
LINE
8
DEFAULT_255_2_778
10
14.7997897
20
40.8992271
11
15.0000897
21
40.8992271
0
LINE
8
DEFAULT_255_2_778
10
15.0000897
20
40.8992271
11
15.5461897
21
40.8992271
0
LINE
8
DEFAULT_255_2_778
10
15.5461897
20
40.8992271
11
15.5461897
21
41.0707271
0
LINE
8
DEFAULT_255_2_778
10
15.5461897
20
41.0707271
11
15.0000897
21
41.0707271
0
LINE
8
DEFAULT_255_2_778
10
15.0000897
20
41.0707271
11
15.0000897
21
41.3345271
0
LINE
8
DEFAULT_255_2_778
10
15.0000897
20
41.3345271
11
15.0000897
21
41.3348271
0
LINE
8
DEFAULT_255_2_778
10
17.4064897
20
42.6436271
11
17.1690897
21
42.6436271
0
LINE
8
DEFAULT_255_2_778
10
17.1690897
20
42.6436271
11
17.1690897
21
42.8852271
0
LINE
8
DEFAULT_255_2_778
10
17.1690897
20
42.8852271
11
17.4175897
21
42.8852271
0
LINE
8
DEFAULT_255_2_778
10
17.4175897
20
42.8852271
11
17.4175897
21
42.8855271
0
LINE
8
DEFAULT_255_2_778
10
17.4027897
20
42.2028271
11
17.1690897
21
42.2028271
0
LINE
8
DEFAULT_255_2_778
10
17.1690897
20
42.2028271
11
17.1690897
21
42.4899271
0
LINE
8
DEFAULT_255_2_778
10
17.1690897
20
42.4899271
11
17.4003897
21
42.4899271
0
LINE
8
DEFAULT_255_2_778
10
17.1767897
20
42.0536271
11
17.4622897
21
42.0536271
0
LINE
8
DEFAULT_255_2_778
10
17.4172897
20
43.0426271
11
17.1770897
21
43.0426271
0
LINE
8
DEFAULT_255_2_778
10
17.1770897
20
43.0426271
11
16.9722897
21
43.0426271
0
LINE
8
DEFAULT_255_2_778
10
16.9722897
20
43.0426271
11
16.9711897
21
43.0426271
0
LINE
8
DEFAULT_255_2_778
10
16.9711897
20
43.0426271
11
16.9711897
21
42.0536271
0
LINE
8
DEFAULT_255_2_778
10
16.9711897
20
42.0536271
11
16.9722897
21
42.0536271
0
LINE
8
DEFAULT_255_2_778
10
16.9722897
20
42.0536271
11
17.1770897
21
42.0536271
0
LINE
8
DEFAULT_255_2_778
10
17.1770897
20
42.0536271
11
17.1767897
21
42.0536271
0
LINE
8
DEFAULT_255_2_778
10
17.3368897
20
41.4493271
11
17.3368897
21
41.7187271
0
LINE
8
DEFAULT_255_2_778
10
17.3368897
20
41.7187271
11
17.5781897
21
41.7187271
0
LINE
8
DEFAULT_255_2_778
10
17.5842897
20
41.4496271
11
17.3370897
21
41.4496271
0
LINE
8
DEFAULT_255_2_778
10
17.3370897
20
41.4496271
11
17.3368897
21
41.4493271
0
LINE
8
DEFAULT_255_2_778
10
17.5879897
20
41.8898271
11
17.3368897
21
41.8898271
0
LINE
8
DEFAULT_255_2_778
10
17.3368897
20
41.8898271
11
17.1383897
21
41.8898271
0
LINE
8
DEFAULT_255_2_778
10
17.1383897
20
41.8898271
11
17.1362897
21
41.8898271
0
LINE
8
DEFAULT_255_2_778
10
17.1362897
20
41.8898271
11
17.1362897
21
40.9006271
0
LINE
8
DEFAULT_255_2_778
10
17.1362897
20
40.9006271
11
17.3368897
21
40.9006271
0
LINE
8
DEFAULT_255_2_778
10
17.3368897
20
40.9006271
11
17.3368897
21
41.2903271
0
LINE
8
DEFAULT_255_2_778
10
17.3368897
20
41.2903271
11
17.5069897
21
41.2903271
0
LINE
8
DEFAULT_255_2_778
10
17.7162897
20
40.9006271
11
17.9175897
21
40.9006271
0
LINE
8
DEFAULT_255_2_778
10
14.2763897
20
41.8888271
11
14.0760897
21
41.8888271
0
LINE
8
DEFAULT_255_2_778
10
14.0760897
20
41.8888271
11
14.0760897
21
41.0710271
0
LINE
8
DEFAULT_255_2_778
10
14.0760897
20
41.0710271
11
14.0760897
21
40.8995271
0
LINE
8
DEFAULT_255_2_778
10
14.0760897
20
40.8995271
11
14.2763897
21
40.8995271
0
LINE
8
DEFAULT_255_2_778
10
14.2763897
20
40.8995271
11
14.7428897
21
40.8995271
0
LINE
8
DEFAULT_255_2_778
10
14.7428897
20
40.8995271
11
14.7428897
21
41.0710271
0
LINE
8
DEFAULT_255_2_778
10
14.7428897
20
41.0710271
11
14.2763897
21
41.0710271
0
LINE
8
DEFAULT_255_2_778
10
14.2763897
20
41.0710271
11
14.2763897
21
41.8888271
0
LINE
8
DEFAULT_255_2_778
10
14.2763897
20
41.8888271
11
14.2763897
21
41.8888271
0
ARC
8
DEFAULT_255_2_778
10
15.4584271
20
41.5146969
40
0.9681224
50
72.4822103
51
81.3184214
0
ARC
8
DEFAULT_255_2_778
10
15.7160297
20
42.2913918
40
0.1503783
50
28.8883513
51
77.0092434
0
ARC
8
DEFAULT_255_2_778
10
15.7432379
20
42.3203196
40
0.113238
50
358.9917455
51
22.7117017
0
ARC
8
DEFAULT_255_2_778
10
15.7394861
20
42.3244918
40
0.1171346
50
289.2958104
51
356.9831562
0
ARC
8
DEFAULT_255_2_778
10
15.6668261
20
42.4819882
40
0.2902651
50
268.4665462
51
292.5613311
0
ARC
8
DEFAULT_255_2_778
10
15.6496856
20
42.4229179
40
0.2312808
50
236.4956947
51
272.3225735
0
ARC
8
DEFAULT_255_2_778
10
15.6106646
20
42.3546839
40
0.1529307
50
178.9722202
51
234.5742435
0
ARC
8
DEFAULT_255_2_778
10
15.5656113
20
42.3451079
40
0.3002058
50
177.6481608
51
245.5596397
0
ARC
8
DEFAULT_255_2_778
10
15.6409971
20
42.5173561
40
0.488217
50
245.8690375
51
267.169035
0
ARC
8
DEFAULT_255_2_778
10
15.6671503
20
42.7683916
40
0.7403648
50
266.1069867
51
270.0547972
0
ARC
8
DEFAULT_255_2_778
10
15.6772894
20
42.5996135
40
0.5716642
50
269.0547216
51
287.7147747
0
ARC
8
DEFAULT_255_2_778
10
15.7598889
20
42.3539091
40
0.3125017
50
286.995984
51
325.1221533
0
ARC
8
DEFAULT_255_2_778
10
15.7678294
20
42.337361
40
0.2966627
50
326.8673922
51
0.8625726
0
ARC
8
DEFAULT_255_2_778
10
15.7898286
20
42.3459409
40
0.2746606
50
359.1417932
51
76.9739731
0
ARC
8
DEFAULT_255_2_778
10
15.6705461
20
42.0650719
40
0.577616
50
71.7185727
51
79.1315439
0
ARC
8
DEFAULT_255_2_778
10
14.2492968
20
34.711467
40
8.0673056
50
79.0662148
51
79.6216572
0
ARC
8
DEFAULT_255_2_778
10
16.4356585
20
46.5891581
40
4.0099443
50
259.1227669
51
259.4665204
0
ARC
8
DEFAULT_255_2_778
10
15.7836732
20
43.2941142
40
0.6513291
50
249.9945768
51
260.7485895
0
ARC
8
DEFAULT_255_2_778
10
15.5880401
20
42.7830999
40
0.1046098
50
178.6705173
51
254.9333545
0
ARC
8
DEFAULT_255_2_778
10
15.6049957
20
42.7796688
40
0.1216785
50
93.288632
51
177.2403935
0
ARC
8
DEFAULT_255_2_778
10
15.6585677
20
42.5926752
40
0.3143588
50
89.6189463
51
101.1057977
0
ARC
8
DEFAULT_255_2_778
10
15.6722733
20
42.704516
40
0.2028439
50
53.5634072
51
93.2825843
0
ARC
8
DEFAULT_255_2_778
10
15.7018505
20
42.7627144
40
0.1388739
50
357.1985816
51
49.1152298
0
ARC
8
DEFAULT_255_2_778
10
15.7254907
20
42.7559274
40
0.3087677
50
359.9999335
51
2.3703878
0
ARC
8
DEFAULT_255_2_778
10
15.7353555
20
42.7574337
40
0.298851
50
2.1600756
51
60.1092229
0
ARC
8
DEFAULT_255_2_778
10
15.6766212
20
42.6508133
40
0.4205645
50
60.4106856
51
86.1444419
0
ARC
8
DEFAULT_255_2_778
10
15.6536151
20
42.4741228
40
0.5985046
50
85.0843314
51
90.0628677
0
ARC
8
DEFAULT_255_2_778
10
15.6529718
20
42.5975466
40
0.4750804
50
90.001616
51
92.2300394
0
ARC
8
DEFAULT_255_2_778
10
15.6281193
20
42.702687
40
0.3696351
50
89.0131319
51
149.6364996
0
ARC
8
DEFAULT_255_2_778
10
15.5505461
20
42.7749055
40
0.2671974
50
154.5962367
51
180.4885883
0
ARC
8
DEFAULT_255_2_778
10
15.5651524
20
42.773384
40
0.281795
50
180.1539064
51
255.1120325
0
ARC
8
DEFAULT_255_2_778
10
15.7094242
20
43.096232
40
0.6333958
50
249.9962237
51
260.4976723
0
ARC
8
DEFAULT_255_2_778
10
18.2470963
20
41.5158351
40
0.967002
50
72.4685023
51
81.3064395
0
ARC
8
DEFAULT_255_2_778
10
18.5045397
20
42.291427
40
0.1503535
50
28.8782248
51
76.9904304
0
ARC
8
DEFAULT_255_2_778
10
18.5317197
20
42.3203189
40
0.1132561
50
358.9922779
51
22.7082666
0
ARC
8
DEFAULT_255_2_778
10
18.5280402
20
42.3244088
40
0.1170763
50
289.2761556
51
357.0223042
0
ARC
8
DEFAULT_255_2_778
10
18.4553612
20
42.4822836
40
0.2905613
50
268.4611814
51
292.5289055
0
ARC
8
DEFAULT_255_2_778
10
18.4381801
20
42.4238175
40
0.2321799
50
236.6698634
51
272.3149402
0
ARC
8
DEFAULT_255_2_778
10
18.39878
20
42.3546762
40
0.1528464
50
178.9687581
51
234.7686008
0
ARC
8
DEFAULT_255_2_778
10
18.3540113
20
42.3451079
40
0.3002058
50
177.6481608
51
245.5596397
0
ARC
8
DEFAULT_255_2_778
10
18.4293971
20
42.5173561
40
0.488217
50
245.8690375
51
267.169035
0
ARC
8
DEFAULT_255_2_778
10
18.4555503
20
42.7683916
40
0.7403648
50
266.1069867
51
270.0547972
0
ARC
8
DEFAULT_255_2_778
10
18.4656836
20
42.6002451
40
0.5722957
50
269.0563423
51
287.7048702
0
ARC
8
DEFAULT_255_2_778
10
18.548344
20
42.3542682
40
0.312856
50
286.9832601
51
325.0871916
0
ARC
8
DEFAULT_255_2_778
10
18.5567708
20
42.3373856
40
0.2964208
50
326.8311942
51
0.8585267
0
ARC
8
DEFAULT_255_2_778
10
18.5785756
20
42.3460282
40
0.2746149
50
359.1234265
51
76.9343785
0
ARC
8
DEFAULT_255_2_778
10
18.4596421
20
42.0661965
40
0.5764934
50
71.6999697
51
79.1198353
0
ARC
8
DEFAULT_255_2_778
10
17.0173657
20
34.5894392
40
8.1910887
50
79.0843627
51
79.6321368
0
ARC
8
DEFAULT_255_2_778
10
19.2200266
20
46.5689177
40
3.9892176
50
259.1314419
51
259.4772924
0
ARC
8
DEFAULT_255_2_778
10
18.5723251
20
43.2935131
40
0.6507003
50
249.9919323
51
260.7592458
0
ARC
8
DEFAULT_255_2_778
10
18.376901
20
42.7830546
40
0.1045718
50
178.6452075
51
254.9151907
0
ARC
8
DEFAULT_255_2_778
10
18.3939581
20
42.7796016
40
0.121744
50
93.2745253
51
177.21023
0
ARC
8
DEFAULT_255_2_778
10
18.4475726
20
42.5925052
40
0.3145287
50
89.6200387
51
101.1027534
0
ARC
8
DEFAULT_255_2_778
10
18.4613489
20
42.7058453
40
0.2015212
50
53.1490002
51
93.3256649
0
ARC
8
DEFAULT_255_2_778
10
18.4902753
20
42.7626519
40
0.1391457
50
357.2298288
51
48.6469881
0
ARC
8
DEFAULT_255_2_778
10
18.5137232
20
42.7559226
40
0.3092351
50
0.0008291
51
2.3676985
0
ARC
8
DEFAULT_255_2_778
10
18.5240744
20
42.7574868
40
0.2988304
50
2.1500394
51
60.0956838
0
ARC
8
DEFAULT_255_2_778
10
18.4654399
20
42.6509909
40
0.4203859
50
60.40452
51
86.1455285
0
ARC
8
DEFAULT_255_2_778
10
18.4424157
20
42.4741686
40
0.5984588
50
85.0841409
51
90.0629301
0
ARC
8
DEFAULT_255_2_778
10
18.4417778
20
42.5971392
40
0.4754878
50
90.0023409
51
92.3231329
0
ARC
8
DEFAULT_255_2_778
10
18.4167555
20
42.7024604
40
0.3698206
50
89.1093915
51
149.6400816
0
ARC
8
DEFAULT_255_2_778
10
18.338761
20
42.7748917
40
0.2669122
50
154.6001925
51
180.486137
0
ARC
8
DEFAULT_255_2_778
10
18.3537607
20
42.7735152
40
0.2819037
50
180.1805176
51
255.132702
0
ARC
8
DEFAULT_255_2_778
10
18.4982264
20
43.0967784
40
0.6339516
50
250.0026216
51
260.4967164
0
ARC
8
DEFAULT_255_2_778
10
16.008917
20
41.3039283
40
0.2519711
50
190.2626864
51
267.3480013
0
ARC
8
DEFAULT_255_2_778
10
16.2443543
20
41.3952548
40
0.5022041
50
179.6723028
51
195.7380858
0
ARC
8
DEFAULT_255_2_778
10
16.1790511
20
41.4107671
40
0.4370755
50
148.7005643
51
181.6572045
0
ARC
8
DEFAULT_255_2_778
10
15.9957576
20
41.5208723
40
0.2232598
50
89.6148479
51
148.4074796
0
ARC
8
DEFAULT_255_2_778
10
16.0060936
20
41.542949
40
0.201372
50
41.9769772
51
92.5146611
0
ARC
8
DEFAULT_255_2_778
10
15.9522078
20
41.5052523
40
0.2667646
50
15.1848537
51
40.2549591
0
ARC
8
DEFAULT_255_2_778
10
16.028123
20
41.5155326
40
0.3935735
50
8.7091682
51
82.0550801
0
ARC
8
DEFAULT_255_2_778
10
15.9931241
20
41.3690871
40
0.543642
50
80.5350289
51
90.1544743
0
ARC
8
DEFAULT_255_2_778
10
15.9818804
20
41.4577192
40
0.4551129
50
88.7689246
51
119.6437418
0
ARC
8
DEFAULT_255_2_778
10
16.0077717
20
41.4614647
40
0.4653013
50
122.644121
51
173.3997839
0
ARC
8
DEFAULT_255_2_778
10
16.2711934
20
41.3971568
40
0.7351371
50
170.7798304
51
180.1348114
0
ARC
8
DEFAULT_255_2_778
10
16.1377257
20
41.3817615
40
0.6018225
50
178.6988735
51
210.5289552
0
ARC
8
DEFAULT_255_2_778
10
15.970325
20
41.2909953
40
0.4115783
50
211.4828222
51
265.8686737
0
ARC
8
DEFAULT_255_2_778
10
15.9909864
20
41.4157011
40
0.5375742
50
264.6297133
51
270.0503073
0
ARC
8
DEFAULT_255_2_778
10
16.0020995
20
41.3475749
40
0.4695684
50
268.7014824
51
300.1403067
0
ARC
8
DEFAULT_255_2_778
10
16.0350333
20
41.2691852
40
0.385394
50
301.7580058
51
353.77968
0
ARC
8
DEFAULT_255_2_778
10
16.0012256
20
41.2635219
40
0.2113379
50
268.8430278
51
350.1661143
0
ARC
8
DEFAULT_255_2_778
10
18.6896799
20
41.3038824
40
0.2519281
50
190.2538303
51
267.3332171
0
ARC
8
DEFAULT_255_2_778
10
18.9252249
20
41.3952581
40
0.5022746
50
179.672724
51
195.7362088
0
ARC
8
DEFAULT_255_2_778
10
18.8600432
20
41.4107917
40
0.4372682
50
148.7196987
51
181.6596982
0
ARC
8
DEFAULT_255_2_778
10
18.676443
20
41.5209906
40
0.2231415
50
89.6108896
51
148.4244661
0
ARC
8
DEFAULT_255_2_778
10
18.686876
20
41.542967
40
0.2013576
50
42.5913083
51
92.5383066
0
ARC
8
DEFAULT_255_2_778
10
18.6345542
20
41.5065973
40
0.2646316
50
15.0085433
51
40.7215892
0
ARC
8
DEFAULT_255_2_778
10
18.708623
20
41.5155326
40
0.3935735
50
8.7091682
51
82.0550801
0
ARC
8
DEFAULT_255_2_778
10
18.6736241
20
41.3690871
40
0.543642
50
80.5350289
51
90.1544743
0
ARC
8
DEFAULT_255_2_778
10
18.6623804
20
41.4577192
40
0.4551129
50
88.7689246
51
119.6437418
0
ARC
8
DEFAULT_255_2_778
10
18.6882717
20
41.4614647
40
0.4653013
50
122.644121
51
173.3997839
0
ARC
8
DEFAULT_255_2_778
10
18.9516934
20
41.3971568
40
0.7351371
50
170.7798304
51
180.1348114
0
ARC
8
DEFAULT_255_2_778
10
18.8177822
20
41.38182
40
0.6013778
50
178.7034849
51
210.5604279
0
ARC
8
DEFAULT_255_2_778
10
18.6511312
20
41.2913377
40
0.4119265
50
211.5090145
51
265.8592607
0
ARC
8
DEFAULT_255_2_778
10
18.6716883
20
41.4154521
40
0.5373252
50
264.628472
51
270.0501277
0
ARC
8
DEFAULT_255_2_778
10
18.682837
20
41.3473685
40
0.4693629
50
268.6963312
51
300.2191972
0
ARC
8
DEFAULT_255_2_778
10
18.7155684
20
41.2694124
40
0.3856821
50
301.8465101
51
353.7503927
0
ARC
8
DEFAULT_255_2_778
10
18.6820648
20
41.2633604
40
0.2111733
50
268.8857714
51
350.2028431
0
LINE
8
DEFAULT_255_2_778
10
15.4577584
20
42.3574271
11
15.2656584
21
42.3574271
0
LINE
8
DEFAULT_255_2_778
10
15.8405584
20
42.7559271
11
16.0342584
21
42.7559271
0
LINE
8
DEFAULT_255_2_778
10
18.2459584
20
42.3574271
11
18.0540584
21
42.3574271
0
LINE
8
DEFAULT_255_2_778
10
18.6292584
20
42.7559271
11
18.8229584
21
42.7559271
0
LINE
8
DEFAULT_255_2_778
10
16.2096584
20
41.5751271
11
16.4171584
21
41.5751271
0
LINE
8
DEFAULT_255_2_778
10
16.4181584
20
41.2274271
11
16.2094584
21
41.2274271
0
LINE
8
DEFAULT_255_2_778
10
18.8901584
20
41.5751271
11
19.0976584
21
41.5751271
0
LINE
8
DEFAULT_255_2_778
10
19.0989584
20
41.2274271
11
18.8901584
21
41.2274271
0
LINE
8
DEFAULT_255_1_234
10
10.4666823
20
39.2437341
11
10.4666823
21
38.3747
0
LINE
8
DEFAULT_255_1_234
10
10.4666823
20
38.3747
11
10.3180951
21
38.3747
0
LINE
8
DEFAULT_255_1_234
10
10.3180951
20
38.3747
11
10.3180951
21
39.2437341
0
LINE
8
DEFAULT_255_1_234
10
10.3180951
20
39.2437341
11
10.4666823
21
39.2437341
0
ARC
8
DEFAULT_255_1_234
10
10.40391
20
39.4751889
40
0.097867
50
161.415052
51
180.5526306
0
ARC
8
DEFAULT_255_1_234
10
10.3914878
20
39.4786077
40
0.0850062
50
138.1827368
51
160.9307106
0
ARC
8
DEFAULT_255_1_234
10
10.3804824
20
39.4881588
40
0.0704362
50
104.6368899
51
138.0039868
0
ARC
8
DEFAULT_255_1_234
10
10.3911978
20
39.4514963
40
0.1086221
50
92.0600725
51
105.2189128
0
ARC
8
DEFAULT_255_1_234
10
10.3935327
20
39.4172117
40
0.1429728
50
89.9756393
51
92.5012496
0
ARC
8
DEFAULT_255_1_234
10
10.3945346
20
39.4397731
40
0.1204151
50
78.0235316
51
90.4478182
0
ARC
8
DEFAULT_255_1_234
10
10.4037438
20
39.4811295
40
0.0780493
50
55.051506
51
78.3369085
0
ARC
8
DEFAULT_255_1_234
10
10.4087712
20
39.4895711
40
0.0682538
50
42.0501187
51
54.4513741
0
ARC
8
DEFAULT_255_1_234
10
10.395258
20
39.4771798
40
0.0865878
50
1.7497075
51
42.1496013
0
ARC
8
DEFAULT_255_1_234
10
10.3697912
20
39.4742738
40
0.1121515
50
359.9852656
51
2.8364544
0
ARC
8
DEFAULT_255_1_234
10
10.3863905
20
39.4733229
40
0.0955566
50
342.1070653
51
0.552888
0
ARC
8
DEFAULT_255_1_234
10
10.4006602
20
39.4693904
40
0.0807713
50
316.7107116
51
341.6516965
0
ARC
8
DEFAULT_255_1_234
10
10.4073639
20
39.4633823
40
0.0717724
50
285.4397031
51
316.5324284
0
ARC
8
DEFAULT_255_1_234
10
10.3963556
20
39.4999554
40
0.1099597
50
272.3547054
51
285.8953117
0
ARC
8
DEFAULT_255_1_234
10
10.3936714
20
39.5365048
40
0.1465932
50
269.9695369
51
272.8160237
0
ARC
8
DEFAULT_255_1_234
10
10.3926896
20
39.5145863
40
0.1246779
50
258.8431134
51
270.4153935
0
ARC
8
DEFAULT_255_1_234
10
10.3836938
20
39.4710414
40
0.0802162
50
238.5431189
51
259.1288175
0
ARC
8
DEFAULT_255_1_234
10
10.3768823
20
39.4586856
40
0.0661247
50
222.5062634
51
237.9906969
0
ARC
8
DEFAULT_255_1_234
10
10.389641
20
39.4702889
40
0.0833707
50
184.1069131
51
222.460413
0
ARC
8
DEFAULT_255_1_234
10
10.4165651
20
39.4741349
40
0.1105176
50
179.9429482
51
185.0960898
0
LINE
8
DEFAULT_255_1_234
10
11.6208431
20
38.9963565
11
11.6208431
21
38.9216614
0
LINE
8
DEFAULT_255_1_234
10
11.4160337
20
38.4381507
11
11.6248589
21
38.2743033
0
LINE
8
DEFAULT_255_1_234
10
11.6248589
20
38.2743033
11
11.5196432
21
38.1771192
0
LINE
8
DEFAULT_255_1_234
10
11.5196432
20
38.1771192
11
11.2730688
21
38.3730937
0
LINE
8
DEFAULT_255_1_234
10
10.6795233
20
38.9112201
11
10.6795233
21
38.9955534
0
LINE
8
DEFAULT_255_1_234
10
11.4666337
20
38.9104169
11
11.4666337
21
38.9971597
0
LINE
8
DEFAULT_255_1_234
10
10.8337327
20
39.007601
11
10.8337327
21
38.9216614
0
ARC
8
DEFAULT_255_1_234
10
10.7254682
20
38.9177707
40
0.8953833
50
351.453011
51
0.2489685
0
ARC
8
DEFAULT_255_1_234
10
10.9839483
20
38.8777933
40
0.6338333
50
338.6861641
51
351.5540711
0
ARC
8
DEFAULT_255_1_234
10
11.0773367
20
38.8447828
40
0.5348431
50
336.2887631
51
338.3442418
0
ARC
8
DEFAULT_255_1_234
10
11.1112989
20
38.8261698
40
0.4962747
50
321.1170344
51
336.6795229
0
ARC
8
DEFAULT_255_1_234
10
11.1744818
20
38.7775206
40
0.4165565
50
305.4419708
51
320.8705636
0
ARC
8
DEFAULT_255_1_234
10
11.1548288
20
38.8522707
40
0.4935497
50
271.6373023
51
283.8611969
0
ARC
8
DEFAULT_255_1_234
10
11.1510541
20
38.9178572
40
0.5592206
50
269.9930596
51
271.8318864
0
ARC
8
DEFAULT_255_1_234
10
11.1472984
20
38.8370681
40
0.4784458
50
252.5219675
51
270.4416499
0
ARC
8
DEFAULT_255_1_234
10
11.1329243
20
38.7831592
40
0.422716
50
237.5352116
51
252.1857531
0
ARC
8
DEFAULT_255_1_234
10
11.1418439
20
38.7945363
40
0.4371052
50
209.063312
51
237.3492538
0
ARC
8
DEFAULT_255_1_234
10
11.2288287
20
38.8491685
40
0.5397041
50
205.1183774
51
209.6470015
0
ARC
8
DEFAULT_255_1_234
10
11.3085324
20
38.882983
40
0.6262326
50
188.7215458
51
204.8240747
0
ARC
8
DEFAULT_255_1_234
10
11.5082852
20
38.9166067
40
0.8287794
50
180.3723947
51
188.9252049
0
ARC
8
DEFAULT_255_1_234
10
11.5055604
20
38.9995402
40
0.8260467
50
169.5253763
51
180.2765336
0
ARC
8
DEFAULT_255_1_234
10
11.3153053
20
39.0345309
40
0.6326007
50
155.8315255
51
169.5089989
0
ARC
8
DEFAULT_255_1_234
10
11.1872554
20
39.0939348
40
0.4914567
50
139.6258461
51
156.0379525
0
ARC
8
DEFAULT_255_1_234
10
11.1282887
20
39.1413799
40
0.4158054
50
122.6416387
51
139.3430715
0
ARC
8
DEFAULT_255_1_234
10
11.1383507
20
39.1230451
40
0.4366739
50
93.0223692
51
122.455762
0
ARC
8
DEFAULT_255_1_234
10
11.1491504
20
39.0265709
40
0.5336137
50
89.975342
51
93.6341897
0
ARC
8
DEFAULT_255_1_234
10
11.153039
20
39.0645375
40
0.4956606
50
73.9665422
51
90.4229648
0
ARC
8
DEFAULT_255_1_234
10
11.1714037
20
39.1360451
40
0.4218674
50
57.5178019
51
73.6813337
0
ARC
8
DEFAULT_255_1_234
10
11.166982
20
39.1324462
40
0.4272816
50
28.7261108
51
57.2767933
0
ARC
8
DEFAULT_255_1_234
10
11.0759152
20
39.0761688
40
0.534218
50
24.2448911
51
29.3248482
0
ARC
8
DEFAULT_255_1_234
10
10.9833253
20
39.0378819
40
0.6343711
50
9.064382
51
23.9639114
0
ARC
8
DEFAULT_255_1_234
10
10.7577581
20
38.9999925
40
0.8630926
50
359.7586264
51
9.1891435
0
ARC
8
DEFAULT_255_1_234
10
10.6323061
20
39.0013343
40
0.834338
50
359.7133237
51
7.96545
0
ARC
8
DEFAULT_255_1_234
10
10.9285278
20
39.0440681
40
0.5350538
50
7.8291991
51
20.0421623
0
ARC
8
DEFAULT_255_1_234
10
11.0909841
20
39.1031606
40
0.3621841
50
20.0677553
51
35.9161685
0
ARC
8
DEFAULT_255_1_234
10
11.1684879
20
39.160767
40
0.2656263
50
35.6594382
51
85.1578074
0
ARC
8
DEFAULT_255_1_234
10
11.1500135
20
39.0492378
40
0.3784238
50
83.7959068
51
90.095906
0
ARC
8
DEFAULT_255_1_234
10
11.1457069
20
39.1225601
40
0.3051229
50
89.3102392
51
109.9889877
0
ARC
8
DEFAULT_255_1_234
10
11.1374552
20
39.1581433
40
0.2688988
50
110.9285147
51
143.9411762
0
ARC
8
DEFAULT_255_1_234
10
11.2305498
20
39.0869236
40
0.3860887
50
143.5289163
51
163.2980757
0
ARC
8
DEFAULT_255_1_234
10
11.4213319
20
39.0269433
40
0.5860659
50
163.0418846
51
174.3140048
0
ARC
8
DEFAULT_255_1_234
10
11.6617431
20
38.9991854
40
0.8280531
50
174.0509143
51
179.4176892
0
ARC
8
DEFAULT_255_1_234
10
11.6103766
20
38.9173634
40
0.7766558
50
179.6829237
51
188.9631324
0
ARC
8
DEFAULT_255_1_234
10
11.3433327
20
38.8738752
40
0.5060992
50
188.8100743
51
202.9300012
0
ARC
8
DEFAULT_255_1_234
10
11.2216956
20
38.8243855
40
0.3747967
50
203.2069261
51
215.7876482
0
ARC
8
DEFAULT_255_1_234
10
11.1368353
20
38.7572671
40
0.2667526
50
214.7521006
51
264.2834488
0
ARC
8
DEFAULT_255_1_234
10
11.1504008
20
38.842778
40
0.3532247
50
263.4755397
51
270.0949833
0
ARC
8
DEFAULT_255_1_234
10
11.1546119
20
38.8166374
40
0.3271036
50
269.3649385
51
287.5152008
0
ARC
8
DEFAULT_255_1_234
10
11.1724277
20
38.7519238
40
0.2600406
50
288.0630309
51
323.8113348
0
ARC
8
DEFAULT_255_1_234
10
11.0853119
20
38.8169049
40
0.3687189
50
323.6547608
51
342.6590488
0
ARC
8
DEFAULT_255_1_234
10
10.8821734
20
38.8829952
40
0.5823286
50
342.4091907
51
353.6451149
0
ARC
8
DEFAULT_255_1_234
10
10.5990244
20
38.918219
40
0.8676442
50
353.4029884
51
359.4847795
0
LINE
8
DEFAULT_255_1_234
10
12.1445124
20
38.9321026
11
12.1445124
21
38.8108234
0
LINE
8
DEFAULT_255_1_234
10
12.1445124
20
38.8108234
11
11.7525636
21
38.8108234
0
LINE
8
DEFAULT_255_1_234
10
11.7525636
20
38.8108234
11
11.7525636
21
38.9321026
0
LINE
8
DEFAULT_255_1_234
10
11.7525636
20
38.9321026
11
12.1445124
21
38.9321026
0
LINE
8
DEFAULT_255_1_234
10
12.9950735
20
38.3747
11
12.7412706
21
38.8477694
0
LINE
8
DEFAULT_255_1_234
10
12.7412706
20
38.8477694
11
12.4665851
21
38.8477694
0
LINE
8
DEFAULT_255_1_234
10
12.4665851
20
38.8477694
11
12.4665851
21
38.3747
0
LINE
8
DEFAULT_255_1_234
10
12.4665851
20
38.3747
11
12.3115726
21
38.3747
0
LINE
8
DEFAULT_255_1_234
10
12.3115726
20
38.3747
11
12.3115726
21
39.5441211
0
LINE
8
DEFAULT_255_1_234
10
12.3115726
20
39.5441211
11
12.6987023
21
39.5441211
0
LINE
8
DEFAULT_255_1_234
10
12.8858418
20
38.8806995
11
13.1605273
21
38.3843381
0
LINE
8
DEFAULT_255_1_234
10
13.1605273
20
38.3843381
11
13.1605273
21
38.3747
0
LINE
8
DEFAULT_255_1_234
10
13.1605273
20
38.3747
11
12.9950735
21
38.3747
0
LINE
8
DEFAULT_255_1_234
10
12.4665851
20
39.4172196
11
12.4665851
21
38.9738677
0
LINE
8
DEFAULT_255_1_234
10
12.4665851
20
38.9738677
11
12.7035214
21
38.9738677
0
LINE
8
DEFAULT_255_1_234
10
12.7027182
20
39.4172196
11
12.4665851
21
39.4172196
0
ARC
8
DEFAULT_255_1_234
10
12.7028663
20
38.8479761
40
0.6961575
50
80.653586
51
90.3427061
0
ARC
8
DEFAULT_255_1_234
10
12.7448138
20
39.0942348
40
0.4463577
50
65.6987447
51
80.8329603
0
ARC
8
DEFAULT_255_1_234
10
12.7925778
20
39.2037322
40
0.3269094
50
50.0017161
51
65.4305835
0
ARC
8
DEFAULT_255_1_234
10
12.8144243
20
39.2332482
40
0.2902647
50
11.628416
51
49.5603263
0
ARC
8
DEFAULT_255_1_234
10
12.6608579
20
39.1957299
40
0.4482792
50
359.5655735
51
12.3691
0
ARC
8
DEFAULT_255_1_234
10
12.7685438
20
39.1894644
40
0.3405924
50
341.9983148
51
0.4822259
0
ARC
8
DEFAULT_255_1_234
10
12.8080278
20
39.1787471
40
0.2997359
50
323.8609373
51
341.61416
0
ARC
8
DEFAULT_255_1_234
10
12.7778522
20
39.2020484
40
0.3378487
50
296.7018614
51
323.6876402
0
ARC
8
DEFAULT_255_1_234
10
12.7337418
20
39.2809235
40
0.4281516
50
290.8086567
51
297.2323311
0
ARC
8
DEFAULT_255_1_234
10
12.7060947
20
39.3332351
40
0.3593766
50
269.589728
51
281.8058135
0
ARC
8
DEFAULT_255_1_234
10
12.7311846
20
39.2184743
40
0.2419125
50
281.5501019
51
303.9357432
0
ARC
8
DEFAULT_255_1_234
10
12.7449034
20
39.1946936
40
0.2145323
50
304.4415616
51
311.2106213
0
ARC
8
DEFAULT_255_1_234
10
12.758114
20
39.1807632
40
0.1953505
50
310.9875673
51
356.2715578
0
ARC
8
DEFAULT_255_1_234
10
12.6824788
20
39.1920422
40
0.2716331
50
354.9348262
51
0.0609027
0
ARC
8
DEFAULT_255_1_234
10
12.6637663
20
39.1947435
40
0.2903554
50
359.5239371
51
12.8808918
0
ARC
8
DEFAULT_255_1_234
10
12.7615218
20
39.2186728
40
0.1897315
50
12.4173452
51
43.1022135
0
ARC
8
DEFAULT_255_1_234
10
12.7676823
20
39.2223724
40
0.1827118
50
43.5751728
51
48.203944
0
ARC
8
DEFAULT_255_1_234
10
12.7507315
20
39.2002302
40
0.2105272
50
48.7809703
51
72.6969569
0
ARC
8
DEFAULT_255_1_234
10
12.7152939
20
39.092682
40
0.3237537
50
72.3702241
51
84.8791103
0
ARC
8
DEFAULT_255_1_234
10
12.7005415
20
38.9584769
40
0.4587478
50
84.5400526
51
89.7281406
0
LINE
8
DEFAULT_255_1_234
10
14.508253
20
39.2059849
11
14.3532404
21
39.2059849
0
LINE
8
DEFAULT_255_1_234
10
13.6609046
20
38.7136394
11
13.8159171
21
38.7136394
0
ARC
8
DEFAULT_255_1_234
10
14.4191217
20
40.1006768
40
1.252368
50
248.9199003
51
254.1439814
0
ARC
8
DEFAULT_255_1_234
10
14.2510712
20
39.6680234
40
0.788226
50
241.633709
51
249.0064503
0
ARC
8
DEFAULT_255_1_234
10
14.0982106
20
39.3879317
40
0.4691427
50
230.498225
51
241.8087113
0
ARC
8
DEFAULT_255_1_234
10
14.0197681
20
39.2879906
40
0.3421437
50
227.4064532
51
229.9881192
0
ARC
8
DEFAULT_255_1_234
10
13.9710201
20
39.2404088
40
0.2741476
50
200.6781896
51
228.1763934
0
ARC
8
DEFAULT_255_1_234
10
13.9782512
20
39.2389077
40
0.2804109
50
179.5061581
51
199.8694617
0
ARC
8
DEFAULT_255_1_234
10
13.9773264
20
39.246321
40
0.2795204
50
132.4834203
51
181.0242172
0
ARC
8
DEFAULT_255_1_234
10
14.0368846
20
39.1900704
40
0.3612768
50
129.2532479
51
133.4242687
0
ARC
8
DEFAULT_255_1_234
10
14.0515296
20
39.1680965
40
0.3875675
50
101.98776
51
128.8742646
0
ARC
8
DEFAULT_255_1_234
10
14.0913906
20
38.9959741
40
0.5642249
50
89.5906553
51
102.3169264
0
ARC
8
DEFAULT_255_1_234
10
14.0984398
20
39.0278148
40
0.5323783
50
77.2360837
51
90.3248275
0
ARC
8
DEFAULT_255_1_234
10
14.1191477
20
39.12454
40
0.4334697
50
63.837784
51
77.0809408
0
ARC
8
DEFAULT_255_1_234
10
14.1469239
20
39.1762911
40
0.3747796
50
45.9864267
51
64.1607727
0
ARC
8
DEFAULT_255_1_234
10
14.173012
20
39.2060866
40
0.3352302
50
32.2747395
51
45.6547121
0
ARC
8
DEFAULT_255_1_234
10
14.1796561
20
39.207988
40
0.328603
50
359.6507365
51
32.6130309
0
ARC
8
DEFAULT_255_1_234
10
14.0853656
20
39.208466
40
0.2678863
50
359.469343
51
14.9832209
0
ARC
8
DEFAULT_255_1_234
10
14.1558719
20
39.2273539
40
0.1948938
50
14.9781179
51
48.2004265
0
ARC
8
DEFAULT_255_1_234
10
14.1394363
20
39.2066983
40
0.2212521
50
48.5927837
51
74.1241538
0
ARC
8
DEFAULT_255_1_234
10
14.1060853
20
39.0966248
40
0.3362561
50
73.7888341
51
86.6652678
0
ARC
8
DEFAULT_255_1_234
10
14.0958418
20
38.9758881
40
0.4573953
50
86.2640471
51
90.0526343
0
ARC
8
DEFAULT_255_1_234
10
14.0930131
20
39.0154192
40
0.4178709
50
89.6697524
51
99.2309573
0
ARC
8
DEFAULT_255_1_234
10
14.0687582
20
39.1598964
40
0.2713749
50
99.069534
51
113.7658566
0
ARC
8
DEFAULT_255_1_234
10
14.0413773
20
39.2244677
40
0.2012469
50
114.0401004
51
127.9850673
0
ARC
8
DEFAULT_255_1_234
10
14.0173337
20
39.254073
40
0.1631167
50
127.7287463
51
176.7105154
0
ARC
8
DEFAULT_255_1_234
10
14.0852054
20
39.2439693
40
0.2315392
50
175.1779447
51
180.0581938
0
ARC
8
DEFAULT_255_1_234
10
14.0008901
20
39.2427428
40
0.1472271
50
179.6142195
51
228.1246017
0
ARC
8
DEFAULT_255_1_234
10
14.045057
20
39.2836308
40
0.2072299
50
226.5779593
51
230.8800004
0
ARC
8
DEFAULT_255_1_234
10
14.0921648
20
39.3461636
40
0.2854818
50
231.4635071
51
241.9260842
0
ARC
8
DEFAULT_255_1_234
10
14.2118826
20
39.56648
40
0.53622
50
241.7178533
51
248.3259551
0
ARC
8
DEFAULT_255_1_234
10
14.3504198
20
39.9097064
40
0.9063478
50
248.2007737
51
252.4528373
0
ARC
8
DEFAULT_255_1_234
10
14.4707923
20
40.2818441
40
1.2974635
50
252.3391078
51
254.3469452
0
ARC
8
DEFAULT_255_1_234
10
13.7165626
20
37.5841148
40
1.5037162
50
71.0197183
51
74.4087047
0
ARC
8
DEFAULT_255_1_234
10
13.8860311
20
38.0733111
40
0.9859993
50
66.1847285
51
71.086374
0
ARC
8
DEFAULT_255_1_234
10
14.0416623
20
38.42372
40
0.6025855
50
59.3536294
51
66.2691831
0
ARC
8
DEFAULT_255_1_234
10
14.1305276
20
38.5740609
40
0.4279449
50
49.1020879
51
59.3293958
0
ARC
8
DEFAULT_255_1_234
10
14.2124015
20
38.6673834
40
0.3038015
50
32.7919921
51
49.2505539
0
ARC
8
DEFAULT_255_1_234
10
14.2445105
20
38.6902191
40
0.264448
50
31.1181161
51
32.4005348
0
ARC
8
DEFAULT_255_1_234
10
14.2356643
20
38.6866779
40
0.2738556
50
8.1116974
51
30.7958831
0
ARC
8
DEFAULT_255_1_234
10
14.1546311
20
38.6728753
40
0.3560327
50
359.8389159
51
8.4706516
0
ARC
8
DEFAULT_255_1_234
10
14.2172103
20
38.6680137
40
0.2934776
50
337.4731098
51
0.7537279
0
ARC
8
DEFAULT_255_1_234
10
14.2350798
20
38.6660387
40
0.2762607
50
307.5917067
51
336.4315538
0
ARC
8
DEFAULT_255_1_234
10
14.1890626
20
38.7173102
40
0.3449979
50
307.6551545
51
308.4529766
0
ARC
8
DEFAULT_255_1_234
10
14.1660344
20
38.752825
40
0.3871988
50
284.3734338
51
307.1424381
0
ARC
8
DEFAULT_255_1_234
10
14.1165175
20
38.9349932
40
0.5759636
50
272.4382747
51
284.646547
0
ARC
8
DEFAULT_255_1_234
10
14.1038383
20
39.1149893
40
0.7563528
50
269.9708387
51
272.8178037
0
ARC
8
DEFAULT_255_1_234
10
14.0995423
20
38.9111716
40
0.5525489
50
248.2707594
51
270.4055579
0
ARC
8
DEFAULT_255_1_234
10
14.0941164
20
38.8921192
40
0.5328452
50
246.1383403
51
248.0542782
0
ARC
8
DEFAULT_255_1_234
10
14.0522543
20
38.8041843
40
0.4355005
50
233.1670131
51
246.4950969
0
ARC
8
DEFAULT_255_1_234
10
13.9968448
20
38.7293812
40
0.3424126
50
215.3403242
51
233.0843104
0
ARC
8
DEFAULT_255_1_234
10
13.9695879
20
38.7095549
40
0.3087104
50
179.2419209
51
215.2648451
0
ARC
8
DEFAULT_255_1_234
10
14.0463473
20
38.7109666
40
0.2304457
50
179.335461
51
199.1045811
0
ARC
8
DEFAULT_255_1_234
10
14.013115
20
38.7022766
40
0.1962176
50
199.8828939
51
232.7063202
0
ARC
8
DEFAULT_255_1_234
10
14.0603418
20
38.7616788
40
0.2720938
50
232.3738199
51
255.5136649
0
ARC
8
DEFAULT_255_1_234
10
14.0944285
20
38.8860835
40
0.4010747
50
255.2446292
51
267.5320849
0
ARC
8
DEFAULT_255_1_234
10
14.1031908
20
39.0093702
40
0.5246356
50
267.1557994
51
270.0286766
0
ARC
8
DEFAULT_255_1_234
10
14.105968
20
38.964995
40
0.4802668
50
269.7000017
51
278.1660162
0
ARC
8
DEFAULT_255_1_234
10
14.1315685
20
38.7919515
40
0.3053425
50
278.0231263
51
290.625471
0
ARC
8
DEFAULT_255_1_234
10
14.1663372
20
38.6992025
40
0.206291
50
290.6619762
51
307.0370976
0
ARC
8
DEFAULT_255_1_234
10
14.1963761
20
38.6623504
40
0.1587906
50
306.3943566
51
355.3030547
0
ARC
8
DEFAULT_255_1_234
10
14.1451693
20
38.6700113
40
0.2104809
50
354.3660432
51
0.0698737
0
ARC
8
DEFAULT_255_1_234
10
14.1594038
20
38.6722617
40
0.1962563
50
359.417946
51
16.1971788
0
ARC
8
DEFAULT_255_1_234
10
14.2049348
20
38.6847418
40
0.149053
50
16.4723299
51
52.6262157
0
ARC
8
DEFAULT_255_1_234
10
14.1228402
20
38.5763433
40
0.2850296
50
52.7386432
51
62.4979148
0
ARC
8
DEFAULT_255_1_234
10
13.9843479
20
38.3157283
40
0.5801521
50
62.2515216
51
68.1220564
0
ARC
8
DEFAULT_255_1_234
10
13.812339
20
37.8929872
40
1.0365451
50
68.0062803
51
71.8053402
0
ARC
8
DEFAULT_255_1_234
10
13.6327762
20
37.3544758
40
1.6042013
50
71.7183119
51
73.9258742
0
LINE
8
DEFAULT_255_1_234
10
14.6472021
20
38.7851218
11
14.6472021
21
38.8124297
0
LINE
8
DEFAULT_255_1_234
10
15.3845156
20
38.8284932
11
15.3845156
21
38.7666488
0
LINE
8
DEFAULT_255_1_234
10
15.3845156
20
38.7666488
11
14.7957892
21
38.7666488
0
LINE
8
DEFAULT_255_1_234
10
15.2825125
20
38.5971792
11
15.3732712
21
38.5264999
0
LINE
8
DEFAULT_255_1_234
10
14.8006083
20
38.8887313
11
15.2359285
21
38.8887313
0
LINE
8
DEFAULT_255_1_234
10
15.2359285
20
38.8887313
11
15.2359285
21
38.8999757
0
ARC
8
DEFAULT_255_1_234
10
15.0411386
20
38.7962332
40
0.4376191
50
252.3266134
51
270.5810217
0
ARC
8
DEFAULT_255_1_234
10
15.0206475
20
38.7221644
40
0.3608374
50
223.3000567
51
251.8561855
0
ARC
8
DEFAULT_255_1_234
10
15.0417835
20
38.7426937
40
0.3902993
50
190.9374509
51
223.3654032
0
ARC
8
DEFAULT_255_1_234
10
15.2142808
20
38.7816885
40
0.5670891
50
179.6531105
51
191.4989439
0
ARC
8
DEFAULT_255_1_234
10
15.226482
20
38.8156417
40
0.5792888
50
167.4007466
51
180.3176909
0
ARC
8
DEFAULT_255_1_234
10
15.1212881
20
38.8378885
40
0.471777
50
154.1835823
51
167.250763
0
ARC
8
DEFAULT_255_1_234
10
15.0581349
20
38.8711417
40
0.4004528
50
134.3149965
51
154.5315275
0
ARC
8
DEFAULT_255_1_234
10
15.0363844
20
38.8902228
40
0.371612
50
122.8616532
51
133.9707695
0
ARC
8
DEFAULT_255_1_234
10
15.0260418
20
38.9124703
40
0.3473289
50
89.8249009
51
123.4199222
0
ARC
8
DEFAULT_255_1_234
10
15.0310459
20
38.8477967
40
0.4120197
50
74.7876118
51
90.5482747
0
ARC
8
DEFAULT_255_1_234
10
15.0604202
20
38.956303
40
0.2996077
50
39.8178249
51
74.7633718
0
ARC
8
DEFAULT_255_1_234
10
15.0091523
20
38.9163351
40
0.3645855
50
16.8990863
51
39.4829761
0
ARC
8
DEFAULT_255_1_234
10
14.8196819
20
38.8556526
40
0.5635218
50
4.9636328
51
17.2026414
0
ARC
8
DEFAULT_255_1_234
10
14.5778889
20
38.830134
40
0.8066286
50
359.8834553
51
5.2834307
0
ARC
8
DEFAULT_255_1_234
10
15.1816414
20
38.7732803
40
0.3859091
50
180.9846213
51
194.9401313
0
ARC
8
DEFAULT_255_1_234
10
15.0766691
20
38.7445849
40
0.2770883
50
194.80314
51
222.0412631
0
ARC
8
DEFAULT_255_1_234
10
15.0462573
20
38.7144116
40
0.2343055
50
221.5417084
51
268.8614402
0
ARC
8
DEFAULT_255_1_234
10
15.0535568
20
38.7820686
40
0.3021528
50
267.732405
51
270.0097136
0
ARC
8
DEFAULT_255_1_234
10
15.0553378
20
38.8022105
40
0.3222994
50
269.6924892
51
280.4117579
0
ARC
8
DEFAULT_255_1_234
10
15.0729785
20
38.7103193
40
0.2287344
50
280.2255091
51
298.6338936
0
ARC
8
DEFAULT_255_1_234
10
15.0846577
20
38.6859223
40
0.2017294
50
299.0430333
51
300.4643464
0
ARC
8
DEFAULT_255_1_234
10
15.0166582
20
38.7993038
40
0.3339357
50
300.6577328
51
322.0378878
0
ARC
8
DEFAULT_255_1_234
10
14.9816121
20
38.8297021
40
0.3802736
50
321.6750233
51
322.3046845
0
ARC
8
DEFAULT_255_1_234
10
15.0747083
20
38.713037
40
0.3520454
50
276.9728461
51
328.0035423
0
ARC
8
DEFAULT_255_1_234
10
15.0470135
20
38.8610841
40
0.5024498
50
269.8361028
51
278.0581756
0
ARC
8
DEFAULT_255_1_234
10
15.0242873
20
38.9355757
40
0.202159
50
89.2018686
51
117.2851756
0
ARC
8
DEFAULT_255_1_234
10
15.0296042
20
38.9313752
40
0.2083484
50
118.0551165
51
137.4540413
0
ARC
8
DEFAULT_255_1_234
10
15.0670782
20
38.8973304
40
0.2589774
50
137.5109581
51
158.8516286
0
ARC
8
DEFAULT_255_1_234
10
15.1808617
20
38.8514074
40
0.38167
50
158.5845963
51
170.1721436
0
ARC
8
DEFAULT_255_1_234
10
15.2978007
20
38.8281823
40
0.5008657
50
169.8376422
51
173.0566086
0
ARC
8
DEFAULT_255_1_234
10
14.8281081
20
38.8792509
40
0.4083467
50
2.9091802
51
12.8847116
0
ARC
8
DEFAULT_255_1_234
10
14.9651757
20
38.9115101
40
0.2675383
50
12.6957781
51
28.6404489
0
ARC
8
DEFAULT_255_1_234
10
15.0193428
20
38.9395458
40
0.2065654
50
29.0169854
51
41.1487595
0
ARC
8
DEFAULT_255_1_234
10
15.0396213
20
38.9572003
40
0.1796786
50
41.1646065
51
85.0013516
0
ARC
8
DEFAULT_255_1_234
10
15.027531
20
38.8837431
40
0.2539726
50
83.7280015
51
90.0964893
0
LINE
8
DEFAULT_255_1_234
10
15.9764547
20
39.2485531
11
15.9764547
21
39.1104072
0
LINE
8
DEFAULT_255_1_234
10
15.704982
20
38.9915375
11
15.704982
21
38.3747
0
LINE
8
DEFAULT_255_1_234
10
15.704982
20
38.3747
11
15.5563948
21
38.3747
0
LINE
8
DEFAULT_255_1_234
10
15.5563948
20
38.3747
11
15.5563948
21
39.2437341
0
LINE
8
DEFAULT_255_1_234
10
15.5563948
20
39.2437341
11
15.7009661
21
39.2437341
0
LINE
8
DEFAULT_255_1_234
10
15.7009661
20
39.2437341
11
15.7033756
21
39.1433374
0
ARC
8
DEFAULT_255_1_234
10
15.9097953
20
38.7044342
40
0.4114092
50
80.6754243
51
86.8932892
0
ARC
8
DEFAULT_255_1_234
10
15.9037487
20
38.60767
40
0.5083596
50
86.8038578
51
90.0431435
0
ARC
8
DEFAULT_255_1_234
10
15.9000468
20
38.8533866
40
0.2626638
50
89.2759698
51
106.6213787
0
ARC
8
DEFAULT_255_1_234
10
15.8796032
20
38.927683
40
0.1856317
50
107.1346045
51
157.6458115
0
ARC
8
DEFAULT_255_1_234
10
15.9487633
20
38.8893311
40
0.2643398
50
155.6586782
51
157.2539184
0
ARC
8
DEFAULT_255_1_234
10
15.9282836
20
39.0062157
40
0.2634121
50
127.8165941
51
148.6302098
0
ARC
8
DEFAULT_255_1_234
10
15.9029305
20
39.0322218
40
0.2273596
50
91.3329982
51
126.7875809
0
ARC
8
DEFAULT_255_1_234
10
15.9105245
20
38.9607195
40
0.299078
50
89.986594
51
92.4688449
0
ARC
8
DEFAULT_255_1_234
10
15.911364
20
38.9882078
40
0.2715908
50
85.3589899
51
90.1623399
0
ARC
8
DEFAULT_255_1_234
10
15.9198156
20
39.0886164
40
0.1708278
50
78.401942
51
85.4594656
0
ARC
8
DEFAULT_255_1_234
10
15.934304
20
39.1577236
40
0.1002194
50
67.7858312
51
78.5728455
0
ARC
8
DEFAULT_255_1_234
10
15.9450892
20
39.1856887
40
0.0702548
50
63.4835954
51
67.3062642
0
LINE
8
DEFAULT_255_1_234
10
16.2744322
20
39.2437341
11
16.2744322
21
38.3747
0
LINE
8
DEFAULT_255_1_234
10
16.2744322
20
38.3747
11
16.1258451
21
38.3747
0
LINE
8
DEFAULT_255_1_234
10
16.1258451
20
38.3747
11
16.1258451
21
39.2437341
0
LINE
8
DEFAULT_255_1_234
10
16.1258451
20
39.2437341
11
16.2744322
21
39.2437341
0
ARC
8
DEFAULT_255_1_234
10
16.2116599
20
39.4751889
40
0.097867
50
161.415052
51
180.5526306
0
ARC
8
DEFAULT_255_1_234
10
16.1992378
20
39.4786077
40
0.0850062
50
138.1827368
51
160.9307106
0
ARC
8
DEFAULT_255_1_234
10
16.1882323
20
39.4881588
40
0.0704362
50
104.6368899
51
138.0039868
0
ARC
8
DEFAULT_255_1_234
10
16.1989478
20
39.4514963
40
0.1086221
50
92.0600725
51
105.2189128
0
ARC
8
DEFAULT_255_1_234
10
16.2012826
20
39.4172117
40
0.1429728
50
89.9756393
51
92.5012496
0
ARC
8
DEFAULT_255_1_234
10
16.2022846
20
39.4397731
40
0.1204151
50
78.0235316
51
90.4478182
0
ARC
8
DEFAULT_255_1_234
10
16.2114937
20
39.4811295
40
0.0780493
50
55.051506
51
78.3369085
0
ARC
8
DEFAULT_255_1_234
10
16.2165212
20
39.4895711
40
0.0682538
50
42.0501187
51
54.4513741
0
ARC
8
DEFAULT_255_1_234
10
16.2030079
20
39.4771798
40
0.0865878
50
1.7497075
51
42.1496013
0
ARC
8
DEFAULT_255_1_234
10
16.1775412
20
39.4742738
40
0.1121515
50
359.9852656
51
2.8364544
0
ARC
8
DEFAULT_255_1_234
10
16.1941404
20
39.4733229
40
0.0955566
50
342.1070653
51
0.552888
0
ARC
8
DEFAULT_255_1_234
10
16.2084101
20
39.4693904
40
0.0807713
50
316.7107116
51
341.6516965
0
ARC
8
DEFAULT_255_1_234
10
16.2151138
20
39.4633823
40
0.0717724
50
285.4397031
51
316.5324284
0
ARC
8
DEFAULT_255_1_234
10
16.2041056
20
39.4999554
40
0.1099597
50
272.3547054
51
285.8953117
0
ARC
8
DEFAULT_255_1_234
10
16.2014213
20
39.5365048
40
0.1465932
50
269.9695369
51
272.8160237
0
ARC
8
DEFAULT_255_1_234
10
16.2004395
20
39.5145863
40
0.1246779
50
258.8431134
51
270.4153935
0
ARC
8
DEFAULT_255_1_234
10
16.1914437
20
39.4710414
40
0.0802162
50
238.5431189
51
259.1288175
0
ARC
8
DEFAULT_255_1_234
10
16.1846322
20
39.4586856
40
0.0661247
50
222.5062634
51
237.9906969
0
ARC
8
DEFAULT_255_1_234
10
16.197391
20
39.4702889
40
0.0833707
50
184.1069131
51
222.460413
0
ARC
8
DEFAULT_255_1_234
10
16.224315
20
39.4741349
40
0.1105176
50
179.9429482
51
185.0960898
0
LINE
8
DEFAULT_255_1_234
10
16.4744225
20
38.7851218
11
16.4744225
21
38.8124297
0
LINE
8
DEFAULT_255_1_234
10
17.2117361
20
38.8284932
11
17.2117361
21
38.7666488
0
LINE
8
DEFAULT_255_1_234
10
17.2117361
20
38.7666488
11
16.6230097
21
38.7666488
0
LINE
8
DEFAULT_255_1_234
10
17.109733
20
38.5971792
11
17.2004917
21
38.5264999
0
LINE
8
DEFAULT_255_1_234
10
16.6278287
20
38.8887313
11
17.0631489
21
38.8887313
0
LINE
8
DEFAULT_255_1_234
10
17.0631489
20
38.8887313
11
17.0631489
21
38.8999757
0
ARC
8
DEFAULT_255_1_234
10
16.868359
20
38.7962332
40
0.4376191
50
252.3266134
51
270.5810217
0
ARC
8
DEFAULT_255_1_234
10
16.8478679
20
38.7221644
40
0.3608374
50
223.3000567
51
251.8561855
0
ARC
8
DEFAULT_255_1_234
10
16.869004
20
38.7426937
40
0.3902993
50
190.9374509
51
223.3654032
0
ARC
8
DEFAULT_255_1_234
10
17.0415012
20
38.7816885
40
0.5670891
50
179.6531105
51
191.4989439
0
ARC
8
DEFAULT_255_1_234
10
17.0537024
20
38.8156417
40
0.5792888
50
167.4007466
51
180.3176909
0
ARC
8
DEFAULT_255_1_234
10
16.9485086
20
38.8378885
40
0.471777
50
154.1835823
51
167.250763
0
ARC
8
DEFAULT_255_1_234
10
16.8853553
20
38.8711417
40
0.4004528
50
134.3149965
51
154.5315275
0
ARC
8
DEFAULT_255_1_234
10
16.8636048
20
38.8902228
40
0.371612
50
122.8616532
51
133.9707695
0
ARC
8
DEFAULT_255_1_234
10
16.8532623
20
38.9124703
40
0.3473289
50
89.8249009
51
123.4199222
0
ARC
8
DEFAULT_255_1_234
10
16.8582664
20
38.8477967
40
0.4120197
50
74.7876118
51
90.5482747
0
ARC
8
DEFAULT_255_1_234
10
16.8876407
20
38.956303
40
0.2996077
50
39.8178249
51
74.7633718
0
ARC
8
DEFAULT_255_1_234
10
16.8363727
20
38.9163351
40
0.3645855
50
16.8990863
51
39.4829761
0
ARC
8
DEFAULT_255_1_234
10
16.6469024
20
38.8556526
40
0.5635218
50
4.9636328
51
17.2026414
0
ARC
8
DEFAULT_255_1_234
10
16.4051094
20
38.830134
40
0.8066286
50
359.8834553
51
5.2834307
0
ARC
8
DEFAULT_255_1_234
10
17.0088618
20
38.7732803
40
0.3859091
50
180.9846213
51
194.9401313
0
ARC
8
DEFAULT_255_1_234
10
16.9038896
20
38.7445849
40
0.2770883
50
194.80314
51
222.0412631
0
ARC
8
DEFAULT_255_1_234
10
16.8734778
20
38.7144116
40
0.2343055
50
221.5417084
51
268.8614402
0
ARC
8
DEFAULT_255_1_234
10
16.8807772
20
38.7820686
40
0.3021528
50
267.732405
51
270.0097136
0
ARC
8
DEFAULT_255_1_234
10
16.8825583
20
38.8022105
40
0.3222994
50
269.6924892
51
280.4117579
0
ARC
8
DEFAULT_255_1_234
10
16.9001989
20
38.7103193
40
0.2287344
50
280.2255091
51
298.6338936
0
ARC
8
DEFAULT_255_1_234
10
16.9118781
20
38.6859223
40
0.2017294
50
299.0430333
51
300.4643464
0
ARC
8
DEFAULT_255_1_234
10
16.8438787
20
38.7993038
40
0.3339357
50
300.6577328
51
322.0378878
0
ARC
8
DEFAULT_255_1_234
10
16.8088326
20
38.8297021
40
0.3802736
50
321.6750233
51
322.3046845
0
ARC
8
DEFAULT_255_1_234
10
16.9019287
20
38.713037
40
0.3520454
50
276.9728461
51
328.0035423
0
ARC
8
DEFAULT_255_1_234
10
16.874234
20
38.8610841
40
0.5024498
50
269.8361028
51
278.0581756
0
ARC
8
DEFAULT_255_1_234
10
16.8515077
20
38.9355757
40
0.202159
50
89.2018686
51
117.2851756
0
ARC
8
DEFAULT_255_1_234
10
16.8568246
20
38.9313752
40
0.2083484
50
118.0551165
51
137.4540413
0
ARC
8
DEFAULT_255_1_234
10
16.8942986
20
38.8973304
40
0.2589774
50
137.5109581
51
158.8516286
0
ARC
8
DEFAULT_255_1_234
10
17.0080822
20
38.8514074
40
0.38167
50
158.5845963
51
170.1721436
0
ARC
8
DEFAULT_255_1_234
10
17.1250211
20
38.8281823
40
0.5008657
50
169.8376422
51
173.0566086
0
ARC
8
DEFAULT_255_1_234
10
16.6553285
20
38.8792509
40
0.4083467
50
2.9091802
51
12.8847116
0
ARC
8
DEFAULT_255_1_234
10
16.7923962
20
38.9115101
40
0.2675383
50
12.6957781
51
28.6404489
0
ARC
8
DEFAULT_255_1_234
10
16.8465632
20
38.9395458
40
0.2065654
50
29.0169854
51
41.1487595
0
ARC
8
DEFAULT_255_1_234
10
16.8668418
20
38.9572003
40
0.1796786
50
41.1646065
51
85.0013516
0
ARC
8
DEFAULT_255_1_234
10
16.8547514
20
38.8837431
40
0.2539726
50
83.7280015
51
90.0964893
0
LINE
8
DEFAULT_255_1_234
10
18.0301702
20
38.9883248
11
17.8807799
21
38.9883248
0
LINE
8
DEFAULT_255_1_234
10
17.3474725
20
38.6421569
11
17.4960596
21
38.6421569
0
ARC
8
DEFAULT_255_1_234
10
17.7619617
20
38.6066959
40
0.1276617
50
359.3334982
51
18.5871358
0
ARC
8
DEFAULT_255_1_234
10
17.7828255
20
38.6122133
40
0.1061371
50
19.3540742
51
54.6485071
0
ARC
8
DEFAULT_255_1_234
10
17.7324157
20
38.5426919
40
0.1920087
50
54.3827097
51
65.0622807
0
ARC
8
DEFAULT_255_1_234
10
17.6555553
20
38.38099
40
0.3710447
50
64.8282493
51
71.4200025
0
ARC
8
DEFAULT_255_1_234
10
17.5653428
20
38.1163107
40
0.6506741
50
71.3164301
51
75.8006402
0
ARC
8
DEFAULT_255_1_234
10
17.4812248
20
37.7922561
40
0.9854641
50
75.6809531
51
78.0061883
0
ARC
8
DEFAULT_255_1_234
10
17.9260782
20
39.890177
40
1.1591028
50
254.6901892
51
258.0466452
0
ARC
8
DEFAULT_255_1_234
10
17.822269
20
39.5142781
40
0.7691345
50
249.9010773
51
254.755261
0
ARC
8
DEFAULT_255_1_234
10
17.7219032
20
39.2416982
40
0.478665
50
243.3097214
51
249.9709442
0
ARC
8
DEFAULT_255_1_234
10
17.6590053
20
39.1162778
40
0.3383568
50
234.4047477
51
243.2862168
0
ARC
8
DEFAULT_255_1_234
10
17.5967577
20
39.0303232
40
0.2322322
50
220.8667099
51
234.5493881
0
ARC
8
DEFAULT_255_1_234
10
17.5625518
20
38.9991817
40
0.1859923
50
214.3062465
51
220.5065136
0
ARC
8
DEFAULT_255_1_234
10
17.5599597
20
38.996088
40
0.1821108
50
186.912965
51
213.9618616
0
ARC
8
DEFAULT_255_1_234
10
17.6131692
20
39.0047009
40
0.2359799
50
179.8808832
51
187.4339886
0
ARC
8
DEFAULT_255_1_234
10
17.5976825
20
39.0067088
40
0.2204978
50
132.005434
51
180.3942919
0
ARC
8
DEFAULT_255_1_234
10
17.6633439
20
38.9461083
40
0.3095791
50
129.2319861
51
133.5302299
0
ARC
8
DEFAULT_255_1_234
10
17.6686947
20
38.9366928
40
0.3202615
50
100.4410011
51
128.9081242
0
ARC
8
DEFAULT_255_1_234
10
17.696083
20
38.8081455
40
0.4516583
50
89.6985377
51
100.9026564
0
ARC
8
DEFAULT_255_1_234
10
17.7017872
20
38.7921166
40
0.4676928
50
77.6965325
51
90.4076836
0
ARC
8
DEFAULT_255_1_234
10
17.7348857
20
38.9348413
40
0.3211988
50
50.7276602
51
78.0399361
0
ARC
8
DEFAULT_255_1_234
10
17.7793315
20
38.9866296
40
0.2529778
50
25.7545084
51
51.0957453
0
ARC
8
DEFAULT_255_1_234
10
17.779454
20
38.9916206
40
0.250738
50
359.2468627
51
24.7394243
0
ARC
8
DEFAULT_255_1_234
10
17.7509992
20
38.9887664
40
0.1297815
50
359.8050318
51
45.1544908
0
ARC
8
DEFAULT_255_1_234
10
17.7103133
20
38.9539794
40
0.1831883
50
43.8047702
51
49.6271585
0
ARC
8
DEFAULT_255_1_234
10
17.7111035
20
38.9540678
40
0.18261
50
49.7980766
51
82.1218353
0
ARC
8
DEFAULT_255_1_234
10
17.6992007
20
38.8893998
40
0.2483163
50
81.4465357
51
90.1710293
0
ARC
8
DEFAULT_255_1_234
10
17.696761
20
38.836788
40
0.300932
50
89.6766211
51
99.1264602
0
ARC
8
DEFAULT_255_1_234
10
17.6796071
20
38.9401537
40
0.1961547
50
98.968313
51
113.4570237
0
ARC
8
DEFAULT_255_1_234
10
17.6600156
20
38.9869965
40
0.1453859
50
113.722589
51
127.4763106
0
ARC
8
DEFAULT_255_1_234
10
17.6431803
20
39.0070124
40
0.1192639
50
126.9083309
51
150.3165862
0
ARC
8
DEFAULT_255_1_234
10
17.6384135
20
39.0120981
40
0.112623
50
151.3635175
51
180.0701457
0
ARC
8
DEFAULT_255_1_234
10
17.669292
20
39.009999
40
0.1435149
50
179.2169974
51
179.9954013
0
ARC
8
DEFAULT_255_1_234
10
17.6331977
20
39.0087056
40
0.1074286
50
179.3040112
51
198.4225446
0
ARC
8
DEFAULT_255_1_234
10
17.6140111
20
39.0037127
40
0.0876573
50
199.2895851
51
238.6034594
0
ARC
8
DEFAULT_255_1_234
10
17.6742957
20
39.098345
40
0.1998512
50
237.9846301
51
246.8744712
0
ARC
8
DEFAULT_255_1_234
10
17.7600902
20
39.2946205
40
0.4140547
50
246.6234531
51
251.8168941
0
ARC
8
DEFAULT_255_1_234
10
17.8631446
20
39.6040905
40
0.7402308
50
251.713434
51
255.0778414
0
ARC
8
DEFAULT_255_1_234
10
17.9830709
20
40.0507563
40
1.2027155
50
255.0367487
51
257.4705983
0
ARC
8
DEFAULT_255_1_234
10
17.4722718
20
37.7493863
40
1.1546601
50
73.6837552
51
77.5016755
0
ARC
8
DEFAULT_255_1_234
10
17.5811493
20
38.1193581
40
0.7690009
50
68.7044154
51
73.7249639
0
ARC
8
DEFAULT_255_1_234
10
17.6714514
20
38.3520654
40
0.5193873
50
63.590599
51
68.6626804
0
ARC
8
DEFAULT_255_1_234
10
17.7485533
20
38.5058123
40
0.3473927
50
54.7106439
51
63.7013633
0
ARC
8
DEFAULT_255_1_234
10
17.8109987
20
38.59304
40
0.2401192
50
41.0622434
51
54.8487496
0
ARC
8
DEFAULT_255_1_234
10
17.8451374
20
38.6243592
40
0.1938094
50
34.4950568
51
40.7105546
0
ARC
8
DEFAULT_255_1_234
10
17.8498181
20
38.6292078
40
0.1872106
50
9.3763373
51
34.0833615
0
ARC
8
DEFAULT_255_1_234
10
17.7845052
20
38.6166728
40
0.2536988
50
359.7694872
51
9.7663171
0
ARC
8
DEFAULT_255_1_234
10
17.8042552
20
38.6123764
40
0.2339696
50
335.8654732
51
0.8022045
0
ARC
8
DEFAULT_255_1_234
10
17.8117597
20
38.6137197
40
0.2277108
50
307.7357725
51
334.7849066
0
ARC
8
DEFAULT_255_1_234
10
17.7716773
20
38.6587645
40
0.2878951
50
307.0241536
51
308.5578354
0
ARC
8
DEFAULT_255_1_234
10
17.7459104
20
38.6973801
40
0.3342515
50
282.9362969
51
306.5646424
0
ARC
8
DEFAULT_255_1_234
10
17.7097401
20
38.8441108
40
0.4853615
50
271.1026298
51
283.2200835
0
ARC
8
DEFAULT_255_1_234
10
17.7033645
20
38.9682418
40
0.6096052
50
269.9919117
51
271.4772449
0
ARC
8
DEFAULT_255_1_234
10
17.70074
20
38.8604436
40
0.5018135
50
259.0723564
51
270.289833
0
ARC
8
DEFAULT_255_1_234
10
17.6795133
20
38.7487271
40
0.388099
50
245.4963068
51
259.0227342
0
ARC
8
DEFAULT_255_1_234
10
17.6517089
20
38.6905615
40
0.3236422
50
228.9684658
51
245.7044727
0
ARC
8
DEFAULT_255_1_234
10
17.6251533
20
38.6578575
40
0.2815426
50
214.4011705
51
228.6759915
0
ARC
8
DEFAULT_255_1_234
10
17.5962273
20
38.642029
40
0.2487548
50
179.9705531
51
215.1572795
0
ARC
8
DEFAULT_255_1_234
10
17.6662873
20
38.6493806
40
0.1703809
50
182.4299387
51
203.0329699
0
ARC
8
DEFAULT_255_1_234
10
17.6478531
20
38.6437396
40
0.1512226
50
203.798802
51
232.548466
0
ARC
8
DEFAULT_255_1_234
10
17.6755052
20
38.6788826
40
0.1959374
50
232.3782728
51
256.3934612
0
ARC
8
DEFAULT_255_1_234
10
17.6985414
20
38.7678842
40
0.2878639
50
256.104506
51
268.4626716
0
ARC
8
DEFAULT_255_1_234
10
17.7031898
20
38.8475487
40
0.3676329
50
268.0715632
51
270.0138206
0
ARC
8
DEFAULT_255_1_234
10
17.7050423
20
38.8203083
40
0.3403971
50
269.7031147
51
278.8341955
0
ARC
8
DEFAULT_255_1_234
10
17.7232516
20
38.7072876
40
0.2259217
50
278.6728789
51
292.8232582
0
ARC
8
DEFAULT_255_1_234
10
17.7433054
20
38.6571449
40
0.171929
50
293.1452328
51
303.6655899
0
ARC
8
DEFAULT_255_1_234
10
17.7697933
20
38.6195204
40
0.1259367
50
303.1248165
51
321.742847
0
ARC
8
DEFAULT_255_1_234
10
17.7883813
20
38.6032156
40
0.1012531
50
322.4748573
51
1.1291126
0
LINE
8
DEFAULT_255_2_778
10
9.3932417
20
28.9719082
11
10.7161417
21
28.9719082
0
LINE
8
DEFAULT_255_2_778
10
10.7161417
20
28.9719082
11
10.7161417
21
19.7115082
0
LINE
8
DEFAULT_255_2_778
10
9.3932834
20
19.7114333
11
12.0390834
21
19.7114333
0
LINE
8
DEFAULT_255_2_778
10
12.0390834
20
19.7114333
11
12.0390834
21
14.4197333
0
LINE
8
DEFAULT_255_2_778
10
12.0390834
20
14.4197333
11
9.3932834
21
14.4197333
0
LINE
8
DEFAULT_255_2_778
10
9.3932834
20
14.4197333
11
9.3932834
21
19.7114333
0
ARC
8
DEFAULT_255_2_778_1
10
13.1928591
20
14.522177
40
4.816461
50
120.9442904
51
122.351755
0
ARC
8
DEFAULT_255_2_778_1
10
12.7462523
20
15.2258039
40
3.9830657
50
122.3407904
51
124.1946752
0
ARC
8
DEFAULT_255_2_778_1
10
12.3063464
20
15.8723306
40
3.2010724
50
124.1855758
51
126.4338849
0
ARC
8
DEFAULT_255_2_778_1
10
11.9204129
20
16.3950611
40
2.5513094
50
126.4326926
51
128.8877368
0
ARC
8
DEFAULT_255_2_778_1
10
11.5855968
20
16.8094658
40
2.0185498
50
128.8749205
51
131.8726567
0
ARC
8
DEFAULT_255_2_778_1
10
11.2884677
20
17.1404854
40
1.5737356
50
131.8616166
51
135.4168838
0
ARC
8
DEFAULT_255_2_778_1
10
11.025668
20
17.3986765
40
1.2053256
50
135.3893975
51
139.9687014
0
ARC
8
DEFAULT_255_2_778_1
10
10.7927889
20
17.5935102
40
0.9016937
50
139.9301659
51
145.9260426
0
ARC
8
DEFAULT_255_2_778_1
10
10.596654
20
17.7255104
40
0.6652776
50
145.8787362
51
153.8146208
0
ARC
8
DEFAULT_255_2_778_1
10
10.4445553
20
17.7998797
40
0.4959714
50
153.770634
51
164.3484794
0
ARC
8
DEFAULT_255_2_778_1
10
10.3432387
20
17.8280786
40
0.3908039
50
164.3220276
51
179.8083066
0
ARC
8
DEFAULT_255_2_778_1
10
10.3642789
20
17.836215
40
0.4118985
50
180.9499449
51
213.8111542
0
ARC
8
DEFAULT_255_2_778_1
10
10.6401828
20
18.0057896
40
0.73561
50
212.8271214
51
224.258472
0
ARC
8
DEFAULT_255_2_778_1
10
11.0230335
20
18.3751236
40
1.267567
50
224.1376218
51
231.4508261
0
ARC
8
DEFAULT_255_2_778_1
10
11.6657195
20
19.1781168
40
2.2960809
50
231.3955893
51
236.1256478
0
ARC
8
DEFAULT_255_2_778_1
10
13.4980223
20
21.9246293
40
5.5976905
50
236.2233172
51
239.1314682
0
ARC
8
DEFAULT_255_2_778_1
10
25.447927
20
41.6523568
40
28.6623793
50
238.8606853
51
239.0711101
0
ARC
8
DEFAULT_255_2_778_1
10
6.2757281
20
9.5552653
40
8.7248518
50
57.2420924
51
59.4062964
0
ARC
8
DEFAULT_255_2_778_1
10
9.5034241
20
14.5862102
40
2.747542
50
52.8289294
51
57.079028
0
ARC
8
DEFAULT_255_2_778_1
10
10.2780783
20
15.6065488
40
1.466457
50
46.3041868
51
52.8596521
0
ARC
8
DEFAULT_255_2_778_1
10
10.7103073
20
16.0566842
40
0.8424061
50
36.2174211
51
46.4090895
0
ARC
8
DEFAULT_255_2_778_1
10
10.9948088
20
16.2615128
40
0.4918609
50
17.400375
51
36.5489745
0
ARC
8
DEFAULT_255_2_778_1
10
11.1088994
20
16.3013754
40
0.3710912
50
0.0676858
51
16.7951297
0
ARC
8
DEFAULT_255_2_778_1
10
11.0878613
20
16.3032428
40
0.3921317
50
343.8035191
51
359.7912046
0
ARC
8
DEFAULT_255_2_778_1
10
10.9815912
20
16.3337167
40
0.5026844
50
333.2506233
51
343.8465691
0
ARC
8
DEFAULT_255_2_778_1
10
10.8277757
20
16.4104313
40
0.6745679
50
325.6600948
51
333.3122657
0
ARC
8
DEFAULT_255_2_778_1
10
10.6323344
20
16.5432296
40
0.9108568
50
319.7560915
51
325.6976089
0
ARC
8
DEFAULT_255_2_778_1
10
10.404199
20
16.7350002
40
1.2088854
50
315.4577584
51
319.8037947
0
ARC
8
DEFAULT_255_2_778_1
10
10.1408127
20
16.9938507
40
1.5781764
50
311.7298824
51
315.4670864
0
ARC
8
DEFAULT_255_2_778_1
10
9.8317879
20
17.3394074
40
2.0417554
50
308.723055
51
311.7470879
0
ARC
8
DEFAULT_255_2_778_1
10
9.477589
20
17.7806492
40
2.6075745
50
306.1165163
51
308.7300151
0
ARC
8
DEFAULT_255_2_778_1
10
9.0746091
20
18.3319523
40
3.2904564
50
303.9559446
51
306.1266333
0
ARC
8
DEFAULT_255_2_778_1
10
8.6630432
20
18.941215
40
4.0257023
50
302.3733397
51
303.9712246
0
ARC
8
DEFAULT_255_2_778_1
10
8.2434347
20
19.6027058
40
4.8090549
50
300.9434827
51
302.3758078
0
LINE
8
DEFAULT_255_2_778
10
10.7161417
20
14.4198082
11
10.7161417
21
5.1594082
0
LINE
8
DEFAULT_255_2_778
10
10.7161417
20
5.1594082
11
9.3932417
21
5.1594082
0
LINE
8
DEFAULT_255_1_234
10
4.2999522
20
37.5598211
11
4.6324662
21
36.5952093
0
LINE
8
DEFAULT_255_1_234
10
4.6324662
20
36.5952093
11
4.9665865
21
37.5598211
0
LINE
8
DEFAULT_255_1_234
10
4.9665865
20
37.5598211
11
5.135253
21
37.5598211
0
LINE
8
DEFAULT_255_1_234
10
5.135253
20
37.5598211
11
4.7015391
21
36.3904
0
LINE
8
DEFAULT_255_1_234
10
4.7015391
20
36.3904
11
4.5649996
21
36.3904
0
LINE
8
DEFAULT_255_1_234
10
4.5649996
20
36.3904
11
4.1320889
21
37.5598211
0
LINE
8
DEFAULT_255_1_234
10
4.1320889
20
37.5598211
11
4.2999522
21
37.5598211
0
LINE
8
DEFAULT_255_1_234
10
5.4573257
20
37.5598211
11
5.4573257
21
36.3904
0
LINE
8
DEFAULT_255_1_234
10
5.4573257
20
36.3904
11
5.3031163
21
36.3904
0
LINE
8
DEFAULT_255_1_234
10
5.3031163
20
36.3904
11
5.3031163
21
37.5598211
0
LINE
8
DEFAULT_255_1_234
10
5.3031163
20
37.5598211
11
5.4573257
21
37.5598211
0
LINE
8
DEFAULT_255_1_234
10
6.6379912
20
37.5598211
11
6.6379912
21
36.3904
0
LINE
8
DEFAULT_255_1_234
10
6.6379912
20
36.3904
11
6.4829787
21
36.3904
0
LINE
8
DEFAULT_255_1_234
10
6.4829787
20
36.3904
11
5.8942522
21
37.291561
0
LINE
8
DEFAULT_255_1_234
10
5.8942522
20
37.291561
11
5.8942522
21
36.3904
0
LINE
8
DEFAULT_255_1_234
10
5.8942522
20
36.3904
11
5.7392397
21
36.3904
0
LINE
8
DEFAULT_255_1_234
10
5.7392397
20
36.3904
11
5.7392397
21
37.5598211
0
LINE
8
DEFAULT_255_1_234
10
5.7392397
20
37.5598211
11
5.8942522
21
37.5598211
0
LINE
8
DEFAULT_255_1_234
10
5.8942522
20
37.5598211
11
6.484585
21
36.6546442
0
LINE
8
DEFAULT_255_1_234
10
6.484585
20
36.6546442
11
6.484585
21
37.5598211
0
LINE
8
DEFAULT_255_1_234
10
6.484585
20
37.5598211
11
6.6379912
21
37.5598211
0
LINE
8
DEFAULT_255_1_234
10
4.4124902
20
5.8098211
11
4.4124902
21
4.6404
0
LINE
8
DEFAULT_255_1_234
10
4.4124902
20
4.6404
11
4.2582808
21
4.6404
0
LINE
8
DEFAULT_255_1_234
10
4.2582808
20
4.6404
11
4.2582808
21
5.8098211
0
LINE
8
DEFAULT_255_1_234
10
4.2582808
20
5.8098211
11
4.4124902
21
5.8098211
0
LINE
8
DEFAULT_255_1_234
10
5.5931557
20
5.8098211
11
5.5931557
21
4.6404
0
LINE
8
DEFAULT_255_1_234
10
5.5931557
20
4.6404
11
5.4381432
21
4.6404
0
LINE
8
DEFAULT_255_1_234
10
5.4381432
20
4.6404
11
4.8494167
21
5.541561
0
LINE
8
DEFAULT_255_1_234
10
4.8494167
20
5.541561
11
4.8494167
21
4.6404
0
LINE
8
DEFAULT_255_1_234
10
4.8494167
20
4.6404
11
4.6944042
21
4.6404
0
LINE
8
DEFAULT_255_1_234
10
4.6944042
20
4.6404
11
4.6944042
21
5.8098211
0
LINE
8
DEFAULT_255_1_234
10
4.6944042
20
5.8098211
11
4.8494167
21
5.8098211
0
LINE
8
DEFAULT_255_1_234
10
4.8494167
20
5.8098211
11
5.4397495
21
4.9046442
0
LINE
8
DEFAULT_255_1_234
10
5.4397495
20
4.9046442
11
5.4397495
21
5.8098211
0
LINE
8
DEFAULT_255_1_234
10
5.4397495
20
5.8098211
11
5.5931557
21
5.8098211
0
LINE
8
DEFAULT_255_1_234
10
6.4557644
20
5.8098211
11
6.4557644
21
5.033152
0
LINE
8
DEFAULT_255_1_234
10
6.4557644
20
5.033152
11
6.6180055
21
5.033152
0
LINE
8
DEFAULT_255_1_234
10
6.6180055
20
5.033152
11
6.6180055
21
4.9118728
0
LINE
8
DEFAULT_255_1_234
10
6.6180055
20
4.9118728
11
6.4557644
21
4.9118728
0
LINE
8
DEFAULT_255_1_234
10
6.4557644
20
4.9118728
11
6.4557644
21
4.6404
0
LINE
8
DEFAULT_255_1_234
10
6.4557644
20
4.6404
11
6.3063741
21
4.6404
0
LINE
8
DEFAULT_255_1_234
10
6.3063741
20
4.6404
11
6.3063741
21
4.9118728
0
LINE
8
DEFAULT_255_1_234
10
6.3063741
20
4.9118728
11
5.7738698
21
4.9118728
0
LINE
8
DEFAULT_255_1_234
10
5.7738698
20
4.9118728
11
5.7738698
21
4.9994187
0
LINE
8
DEFAULT_255_1_234
10
5.7738698
20
4.9994187
11
6.2975392
21
5.8098211
0
LINE
8
DEFAULT_255_1_234
10
6.2975392
20
5.8098211
11
6.4557644
21
5.8098211
0
LINE
8
DEFAULT_255_1_234
10
6.2887042
20
5.5744912
11
5.9425363
21
5.033152
0
LINE
8
DEFAULT_255_1_234
10
5.9425363
20
5.033152
11
6.3063741
21
5.033152
0
LINE
8
DEFAULT_255_1_234
10
6.3063741
20
5.033152
11
6.3063741
21
5.6066181
0
LINE
8
DEFAULT_255_1_234
10
6.3063741
20
5.6066181
11
6.2887042
21
5.5744912
0
LINE
8
DEFAULT_255_1_234
10
4.3066902
20
13.7473211
11
4.3066902
21
12.5779
0
LINE
8
DEFAULT_255_1_234
10
4.3066902
20
12.5779
11
4.1524808
21
12.5779
0
LINE
8
DEFAULT_255_1_234
10
4.1524808
20
12.5779
11
4.1524808
21
13.7473211
0
LINE
8
DEFAULT_255_1_234
10
4.1524808
20
13.7473211
11
4.3066902
21
13.7473211
0
LINE
8
DEFAULT_255_1_234
10
5.4873557
20
13.7473211
11
5.4873557
21
12.5779
0
LINE
8
DEFAULT_255_1_234
10
5.4873557
20
12.5779
11
5.3323432
21
12.5779
0
LINE
8
DEFAULT_255_1_234
10
5.3323432
20
12.5779
11
4.7436167
21
13.479061
0
LINE
8
DEFAULT_255_1_234
10
4.7436167
20
13.479061
11
4.7436167
21
12.5779
0
LINE
8
DEFAULT_255_1_234
10
4.7436167
20
12.5779
11
4.5886042
21
12.5779
0
LINE
8
DEFAULT_255_1_234
10
4.5886042
20
12.5779
11
4.5886042
21
13.7473211
0
LINE
8
DEFAULT_255_1_234
10
4.5886042
20
13.7473211
11
4.7436167
21
13.7473211
0
LINE
8
DEFAULT_255_1_234
10
4.7436167
20
13.7473211
11
5.3339495
21
12.8421442
0
LINE
8
DEFAULT_255_1_234
10
5.3339495
20
12.8421442
11
5.3339495
21
13.7473211
0
LINE
8
DEFAULT_255_1_234
10
5.3339495
20
13.7473211
11
5.4873557
21
13.7473211
0
LINE
8
DEFAULT_255_1_234
10
5.9387394
20
13.1136169
11
5.9387394
21
13.2348962
0
LINE
8
DEFAULT_255_1_234
10
5.9387394
20
13.2348962
11
6.0503806
21
13.2348962
0
LINE
8
DEFAULT_255_1_234
10
5.8600284
20
13.4405087
11
5.7114412
21
13.4405087
0
LINE
8
DEFAULT_255_1_234
10
5.701
20
12.8863188
11
5.8503903
21
12.8863188
0
LINE
8
DEFAULT_255_1_234
10
6.0503806
20
13.1136169
11
5.9387394
21
13.1136169
0
ARC
8
DEFAULT_255_1_234
10
6.0474672
20
13.5741713
40
0.3392876
50
270.4919872
51
281.8951556
0
ARC
8
DEFAULT_255_1_234
10
6.0715934
20
13.4639702
40
0.2264817
50
281.6691735
51
301.2943132
0
ARC
8
DEFAULT_255_1_234
10
6.0886144
20
13.4328304
40
0.1910381
50
301.7833094
51
311.7545298
0
ARC
8
DEFAULT_255_1_234
10
6.097772
20
13.4226748
40
0.1773635
50
311.7323931
51
354.2802411
0
ARC
8
DEFAULT_255_1_234
10
6.0251345
20
13.4351722
40
0.2509385
50
353.0937916
51
0.1181479
0
ARC
8
DEFAULT_255_1_234
10
5.979013
20
13.4399386
40
0.2970898
50
359.1805295
51
15.0453146
0
ARC
8
DEFAULT_255_1_234
10
6.1135967
20
13.4791992
40
0.1569564
50
13.9577229
51
77.6713066
0
ARC
8
DEFAULT_255_1_234
10
6.0749496
20
13.3406949
40
0.3006298
50
76.1116566
51
90.7026153
0
ARC
8
DEFAULT_255_1_234
10
6.0690334
20
13.3680545
40
0.2732568
50
89.5324876
51
103.531937
0
ARC
8
DEFAULT_255_1_234
10
6.0489779
20
13.4479884
40
0.1908508
50
103.2931773
51
133.5619022
0
ARC
8
DEFAULT_255_1_234
10
6.0445267
20
13.4539375
40
0.1834746
50
133.8349307
51
173.5344437
0
ARC
8
DEFAULT_255_1_234
10
6.116831
20
13.4411213
40
0.2568033
50
172.5096846
51
180.1366907
0
ARC
8
DEFAULT_255_1_234
10
6.0217204
20
13.4445622
40
0.3103056
50
155.3484492
51
180.7484736
0
ARC
8
DEFAULT_255_1_234
10
6.0168293
20
13.4416846
40
0.3070957
50
131.5744599
51
154.4798489
0
ARC
8
DEFAULT_255_1_234
10
6.048144
20
13.410031
40
0.3515643
50
96.9875458
51
131.9690667
0
ARC
8
DEFAULT_255_1_234
10
6.070092
20
13.2854636
40
0.4779224
50
89.8596053
51
97.7825159
0
ARC
8
DEFAULT_255_1_234
10
6.0748983
20
13.2592616
40
0.5041361
50
78.3655447
51
90.4131539
0
ARC
8
DEFAULT_255_1_234
10
6.1106901
20
13.4251887
40
0.3344039
50
56.6229102
51
78.638727
0
ARC
8
DEFAULT_255_1_234
10
6.1321845
20
13.4627805
40
0.2912001
50
47.0253525
51
56.0854072
0
ARC
8
DEFAULT_255_1_234
10
6.1341625
20
13.4667223
40
0.2869704
50
10.9208013
51
46.7778124
0
ARC
8
DEFAULT_255_1_234
10
5.9977691
20
13.4351857
40
0.426899
50
359.6364486
51
11.6087304
0
ARC
8
DEFAULT_255_1_234
10
6.1812536
20
13.4336752
40
0.243409
50
332.3549906
51
359.7179418
0
ARC
8
DEFAULT_255_1_234
10
6.1162137
20
13.4645142
40
0.3153459
50
325.2333722
51
332.8745602
0
ARC
8
DEFAULT_255_1_234
10
6.1314761
20
13.4538828
40
0.2967456
50
292.9802137
51
325.2392345
0
ARC
8
DEFAULT_255_1_234
10
6.1040135
20
13.5072863
40
0.3566604
50
292.5402179
51
293.6924929
0
ARC
8
DEFAULT_255_1_234
10
6.143273
20
12.8618091
40
0.3307468
50
57.6435486
51
72.8625112
0
ARC
8
DEFAULT_255_1_234
10
6.178723
20
12.9192549
40
0.2632492
50
36.7248896
51
57.4697979
0
ARC
8
DEFAULT_255_1_234
10
6.1775863
20
12.920522
40
0.2634081
50
8.0545065
51
36.356114
0
ARC
8
DEFAULT_255_1_234
10
6.0913048
20
12.9050174
40
0.3510261
50
359.8320645
51
8.5869982
0
ARC
8
DEFAULT_255_1_234
10
6.0537824
20
12.9002101
40
0.3885653
50
343.9829931
51
0.5571613
0
ARC
8
DEFAULT_255_1_234
10
6.1424022
20
12.8759438
40
0.2966924
50
311.6359546
51
343.7651759
0
ARC
8
DEFAULT_255_1_234
10
6.1045591
20
12.9186102
40
0.3537231
50
279.7829875
51
311.6255694
0
ARC
8
DEFAULT_255_1_234
10
6.0744367
20
13.062328
40
0.5004971
50
269.7286406
51
280.3856417
0
ARC
8
DEFAULT_255_1_234
10
6.0682439
20
13.0581996
40
0.4963778
50
256.6828919
51
270.4412052
0
ARC
8
DEFAULT_255_1_234
10
6.0343735
20
12.9197394
40
0.3538406
50
229.4223008
51
256.8556159
0
ARC
8
DEFAULT_255_1_234
10
5.9929128
20
12.8730736
40
0.2914296
50
181.818294
51
229.6455059
0
ARC
8
DEFAULT_255_1_234
10
6.0969084
20
12.8861496
40
0.3959084
50
179.9755256
51
183.2323064
0
ARC
8
DEFAULT_255_1_234
10
6.079683
20
12.8841037
40
0.2293034
50
179.4465117
51
196.2869258
0
ARC
8
DEFAULT_255_1_234
10
6.0309238
20
12.8707651
40
0.1787621
50
196.5661473
51
227.705904
0
ARC
8
DEFAULT_255_1_234
10
6.0473333
20
12.8891155
40
0.2033784
50
227.7652068
51
257.8762805
0
ARC
8
DEFAULT_255_1_234
10
6.0698303
20
12.9834156
40
0.3003081
50
257.4584385
51
270.426602
0
ARC
8
DEFAULT_255_1_234
10
6.0743869
20
13.0123996
40
0.329292
50
269.5962073
51
280.8789248
0
ARC
8
DEFAULT_255_1_234
10
6.0973398
20
12.8977685
40
0.2123908
50
280.6346389
51
299.8595945
0
ARC
8
DEFAULT_255_1_234
10
6.1164305
20
12.8615212
40
0.171457
50
300.3576302
51
314.5517981
0
ARC
8
DEFAULT_255_1_234
10
6.1081365
20
12.8675919
40
0.1816095
50
315.0728369
51
345.0431014
0
ARC
8
DEFAULT_255_1_234
10
6.0158179
20
12.8944841
40
0.2777492
50
344.5986631
51
357.9269593
0
ARC
8
DEFAULT_255_1_234
10
5.9262506
20
12.9006276
40
0.3674917
50
357.4748886
51
0.0231117
0
ARC
8
DEFAULT_255_1_234
10
6.0285615
20
12.9030679
40
0.2651907
50
359.5047933
51
13.4239635
0
ARC
8
DEFAULT_255_1_234
10
6.1152259
20
12.9252478
40
0.1757509
50
12.9498199
51
48.7551375
0
ARC
8
DEFAULT_255_1_234
10
6.0969993
20
12.90034
40
0.2065134
50
49.5088623
51
72.1836453
0
ARC
8
DEFAULT_255_1_234
10
6.0612145
20
12.7941291
40
0.3185836
50
71.9010081
51
84.3554254
0
ARC
8
DEFAULT_255_1_234
10
6.0450777
20
12.6580326
40
0.4556151
50
84.0193428
51
89.333121
0
LINE
8
DEFAULT_255_1_234
10
4.3066902
20
21.6848211
11
4.3066902
21
20.5154
0
LINE
8
DEFAULT_255_1_234
10
4.3066902
20
20.5154
11
4.1524808
21
20.5154
0
LINE
8
DEFAULT_255_1_234
10
4.1524808
20
20.5154
11
4.1524808
21
21.6848211
0
LINE
8
DEFAULT_255_1_234
10
4.1524808
20
21.6848211
11
4.3066902
21
21.6848211
0
LINE
8
DEFAULT_255_1_234
10
5.4873557
20
21.6848211
11
5.4873557
21
20.5154
0
LINE
8
DEFAULT_255_1_234
10
5.4873557
20
20.5154
11
5.3323432
21
20.5154
0
LINE
8
DEFAULT_255_1_234
10
5.3323432
20
20.5154
11
4.7436167
21
21.416561
0
LINE
8
DEFAULT_255_1_234
10
4.7436167
20
21.416561
11
4.7436167
21
20.5154
0
LINE
8
DEFAULT_255_1_234
10
4.7436167
20
20.5154
11
4.5886042
21
20.5154
0
LINE
8
DEFAULT_255_1_234
10
4.5886042
20
20.5154
11
4.5886042
21
21.6848211
0
LINE
8
DEFAULT_255_1_234
10
4.5886042
20
21.6848211
11
4.7436167
21
21.6848211
0
LINE
8
DEFAULT_255_1_234
10
4.7436167
20
21.6848211
11
5.3339495
21
20.7796442
0
LINE
8
DEFAULT_255_1_234
10
5.3339495
20
20.7796442
11
5.3339495
21
21.6848211
0
LINE
8
DEFAULT_255_1_234
10
5.3339495
20
21.6848211
11
5.4873557
21
21.6848211
0
LINE
8
DEFAULT_255_1_234
10
6.4889135
20
20.6366792
11
6.4889135
21
20.5154
0
LINE
8
DEFAULT_255_1_234
10
6.4889135
20
20.5154
11
5.7226856
21
20.5154
0
LINE
8
DEFAULT_255_1_234
10
5.7226856
20
20.5154
11
5.7226856
21
20.6222221
0
LINE
8
DEFAULT_255_1_234
10
5.7226856
20
20.6222221
11
6.1274853
21
21.0719995
0
LINE
8
DEFAULT_255_1_234
10
5.8487839
20
21.3402595
11
5.7001968
21
21.3402595
0
LINE
8
DEFAULT_255_1_234
10
6.2150312
20
20.9764218
11
5.9017934
21
20.6366792
0
LINE
8
DEFAULT_255_1_234
10
5.9017934
20
20.6366792
11
6.4889135
21
20.6366792
0
ARC
8
DEFAULT_255_1_234
10
4.7784686
20
22.2649527
40
1.8008286
50
318.5132453
51
320.7828378
0
ARC
8
DEFAULT_255_1_234
10
5.307166
20
21.8346426
40
1.1191493
50
320.7372736
51
323.9737074
0
ARC
8
DEFAULT_255_1_234
10
5.6991517
20
21.5506361
40
0.6350923
50
323.8961724
51
328.6421089
0
ARC
8
DEFAULT_255_1_234
10
5.9038112
20
21.4244031
40
0.3946393
50
328.8299013
51
331.789948
0
ARC
8
DEFAULT_255_1_234
10
6.0035291
20
21.3729509
40
0.2824501
50
331.4255242
51
352.9364833
0
ARC
8
DEFAULT_255_1_234
10
6.0171791
20
21.3698976
40
0.2685315
50
353.2248685
51
0.0169286
0
ARC
8
DEFAULT_255_1_234
10
6.0381668
20
21.372195
40
0.2475536
50
359.4866256
51
15.9339782
0
ARC
8
DEFAULT_255_1_234
10
6.0888653
20
21.3858286
40
0.1950618
50
16.1714718
51
43.5284424
0
ARC
8
DEFAULT_255_1_234
10
6.0965962
20
21.3935573
40
0.184134
50
43.4415429
51
83.1661404
0
ARC
8
DEFAULT_255_1_234
10
6.083188
20
21.3198771
40
0.258926
50
82.160215
51
90.1505798
0
ARC
8
DEFAULT_255_1_234
10
6.0800308
20
21.2661865
40
0.3126255
50
89.5460705
51
102.5418777
0
ARC
8
DEFAULT_255_1_234
10
6.0557394
20
21.3692665
40
0.2067346
50
102.1739365
51
129.2061916
0
ARC
8
DEFAULT_255_1_234
10
6.0478465
20
21.3817094
40
0.1921118
50
129.7279328
51
135.7542026
0
ARC
8
DEFAULT_255_1_234
10
6.0599993
20
21.3720045
40
0.2075944
50
136.175737
51
166.3674722
0
ARC
8
DEFAULT_255_1_234
10
6.1606912
20
21.3450182
40
0.3118201
50
165.9092917
51
178.8683903
0
ARC
8
DEFAULT_255_1_234
10
6.2471774
20
21.3403179
40
0.3983935
50
178.438168
51
180.0083905
0
ARC
8
DEFAULT_255_1_234
10
6.1070376
20
21.3442231
40
0.4068601
50
163.2878735
51
180.5581814
0
ARC
8
DEFAULT_255_1_234
10
6.0268637
20
21.366284
40
0.3237344
50
133.454115
51
162.9470031
0
ARC
8
DEFAULT_255_1_234
10
6.0447178
20
21.3473
40
0.349795
50
100.7869394
51
133.4384016
0
ARC
8
DEFAULT_255_1_234
10
6.079495
20
21.1924319
40
0.5084616
50
89.6605301
51
101.3704185
0
ARC
8
DEFAULT_255_1_234
10
6.0861289
20
21.1985496
40
0.502348
50
78.2171172
51
90.4130393
0
ARC
8
DEFAULT_255_1_234
10
6.1216367
20
21.3609637
40
0.3361092
50
55.9268222
51
78.4888551
0
ARC
8
DEFAULT_255_1_234
10
6.1412807
20
21.3948324
40
0.2970617
50
47.9292255
51
55.4054003
0
ARC
8
DEFAULT_255_1_234
10
6.1514368
20
21.4051502
40
0.2825983
50
4.3347696
51
48.0560701
0
ARC
8
DEFAULT_255_1_234
10
6.0418761
20
21.3881601
40
0.393225
50
359.925209
51
5.5967654
0
ARC
8
DEFAULT_255_1_234
10
6.0847653
20
21.3937816
40
0.3503892
50
337.8914096
51
358.9967724
0
ARC
8
DEFAULT_255_1_234
10
5.8134065
20
21.4984706
40
0.6412172
50
326.9135351
51
338.3505194
0
ARC
8
DEFAULT_255_1_234
10
5.4148369
20
21.7539284
40
1.1146189
50
319.6472867
51
327.095818
0
ARC
8
DEFAULT_255_1_234
10
5.0315372
20
22.0701
40
1.6114559
50
317.2586784
51
319.9046139
0
LINE
8
DEFAULT_255_1_234
10
4.2974902
20
29.6223211
11
4.2974902
21
28.4529
0
LINE
8
DEFAULT_255_1_234
10
4.2974902
20
28.4529
11
4.1432808
21
28.4529
0
LINE
8
DEFAULT_255_1_234
10
4.1432808
20
28.4529
11
4.1432808
21
29.6223211
0
LINE
8
DEFAULT_255_1_234
10
4.1432808
20
29.6223211
11
4.2974902
21
29.6223211
0
LINE
8
DEFAULT_255_1_234
10
5.4781557
20
29.6223211
11
5.4781557
21
28.4529
0
LINE
8
DEFAULT_255_1_234
10
5.4781557
20
28.4529
11
5.3231432
21
28.4529
0
LINE
8
DEFAULT_255_1_234
10
5.3231432
20
28.4529
11
4.7344167
21
29.354061
0
LINE
8
DEFAULT_255_1_234
10
4.7344167
20
29.354061
11
4.7344167
21
28.4529
0
LINE
8
DEFAULT_255_1_234
10
4.7344167
20
28.4529
11
4.5794042
21
28.4529
0
LINE
8
DEFAULT_255_1_234
10
4.5794042
20
28.4529
11
4.5794042
21
29.6223211
0
LINE
8
DEFAULT_255_1_234
10
4.5794042
20
29.6223211
11
4.7344167
21
29.6223211
0
LINE
8
DEFAULT_255_1_234
10
4.7344167
20
29.6223211
11
5.3247495
21
28.7171442
0
LINE
8
DEFAULT_255_1_234
10
5.3247495
20
28.7171442
11
5.3247495
21
29.6223211
0
LINE
8
DEFAULT_255_1_234
10
5.3247495
20
29.6223211
11
5.4781557
21
29.6223211
0
LINE
8
DEFAULT_255_1_234
10
6.2018153
20
29.6279433
11
6.2018153
21
28.4529
0
LINE
8
DEFAULT_255_1_234
10
6.2018153
20
28.4529
11
6.052425
21
28.4529
0
LINE
8
DEFAULT_255_1_234
10
6.052425
20
28.4529
11
6.052425
21
29.4432133
0
LINE
8
DEFAULT_255_1_234
10
6.052425
20
29.4432133
11
5.7528412
21
29.3331785
0
LINE
8
DEFAULT_255_1_234
10
5.7528412
20
29.3331785
11
5.7528412
21
29.4681117
0
LINE
8
DEFAULT_255_1_234
10
5.7528412
20
29.4681117
11
6.1785233
21
29.6279433
0
LINE
8
DEFAULT_255_1_234
10
6.1785233
20
29.6279433
11
6.2018153
21
29.6279433
0
LINE
8
DEFAULT_255_1_234
10
19.9970522
20
37.5598211
11
20.3295662
21
36.5952093
0
LINE
8
DEFAULT_255_1_234
10
20.3295662
20
36.5952093
11
20.6636865
21
37.5598211
0
LINE
8
DEFAULT_255_1_234
10
20.6636865
20
37.5598211
11
20.832353
21
37.5598211
0
LINE
8
DEFAULT_255_1_234
10
20.832353
20
37.5598211
11
20.3986391
21
36.3904
0
LINE
8
DEFAULT_255_1_234
10
20.3986391
20
36.3904
11
20.2620996
21
36.3904
0
LINE
8
DEFAULT_255_1_234
10
20.2620996
20
36.3904
11
19.8291889
21
37.5598211
0
LINE
8
DEFAULT_255_1_234
10
19.8291889
20
37.5598211
11
19.9970522
21
37.5598211
0
LINE
8
DEFAULT_255_1_234
10
21.8780853
20
37.0112534
11
21.8780853
21
36.9373614
0
LINE
8
DEFAULT_255_1_234
10
20.9375688
20
36.9269201
11
20.9375688
21
37.0112534
0
LINE
8
DEFAULT_255_1_234
10
21.7246791
20
36.9261169
11
21.7246791
21
37.0128597
0
LINE
8
DEFAULT_255_1_234
10
21.090975
20
37.023301
11
21.090975
21
36.9373614
0
ARC
8
DEFAULT_255_1_234
10
21.013888
20
36.9334015
40
0.8642064
50
350.487711
51
0.2625388
0
ARC
8
DEFAULT_255_1_234
10
21.2432121
20
36.8939578
40
0.631518
50
336.0277639
51
350.5787438
0
ARC
8
DEFAULT_255_1_234
10
21.3776944
20
36.8331892
40
0.4839466
50
319.8877444
51
336.1328423
0
ARC
8
DEFAULT_255_1_234
10
21.4379585
20
36.784958
40
0.4067874
50
302.4806467
51
319.6143626
0
ARC
8
DEFAULT_255_1_234
10
21.4264595
20
36.8071202
40
0.4316636
50
275.8195682
51
302.1884709
0
ARC
8
DEFAULT_255_1_234
10
21.4098229
20
36.9213665
40
0.5470306
50
269.9171439
51
276.3397983
0
ARC
8
DEFAULT_255_1_234
10
21.4053438
20
36.8527681
40
0.4784458
50
252.5219675
51
270.4416499
0
ARC
8
DEFAULT_255_1_234
10
21.3909697
20
36.7988592
40
0.422716
50
237.5352116
51
252.1857531
0
ARC
8
DEFAULT_255_1_234
10
21.3998893
20
36.8102363
40
0.4371052
50
209.063312
51
237.3492538
0
ARC
8
DEFAULT_255_1_234
10
21.4868741
20
36.8648685
40
0.5397041
50
205.1183774
51
209.6470015
0
ARC
8
DEFAULT_255_1_234
10
21.5665778
20
36.898683
40
0.6262326
50
188.7215458
51
204.8240747
0
ARC
8
DEFAULT_255_1_234
10
21.7663306
20
36.9323067
40
0.8287794
50
180.3723947
51
188.9252049
0
ARC
8
DEFAULT_255_1_234
10
21.7636058
20
37.0152402
40
0.8260467
50
169.5253763
51
180.2765336
0
ARC
8
DEFAULT_255_1_234
10
21.5733507
20
37.0502309
40
0.6326007
50
155.8315255
51
169.5089989
0
ARC
8
DEFAULT_255_1_234
10
21.4453008
20
37.1096348
40
0.4914567
50
139.6258461
51
156.0379525
0
ARC
8
DEFAULT_255_1_234
10
21.3863341
20
37.1570799
40
0.4158054
50
122.6416387
51
139.3430715
0
ARC
8
DEFAULT_255_1_234
10
21.3963961
20
37.1387451
40
0.4366739
50
93.0223692
51
122.455762
0
ARC
8
DEFAULT_255_1_234
10
21.4071958
20
37.0422709
40
0.5336137
50
89.975342
51
93.6341897
0
ARC
8
DEFAULT_255_1_234
10
21.4110737
20
37.0821242
40
0.4937738
50
73.746375
51
90.4233405
0
ARC
8
DEFAULT_255_1_234
10
21.4286316
20
37.1501287
40
0.4235786
50
57.662753
51
73.4518111
0
ARC
8
DEFAULT_255_1_234
10
21.4278322
20
37.1522832
40
0.4221899
50
29.1440151
51
57.414694
0
ARC
8
DEFAULT_255_1_234
10
21.3343517
20
37.0939005
40
0.5322966
50
24.0982783
51
29.7323517
0
ARC
8
DEFAULT_255_1_234
10
21.2309792
20
37.0510399
40
0.6441673
50
8.6655297
51
23.8241346
0
ARC
8
DEFAULT_255_1_234
10
21.007553
20
37.0145854
40
0.8705386
50
359.7806941
51
8.8218784
0
ARC
8
DEFAULT_255_1_234
10
20.8928528
20
37.0171345
40
0.8318373
50
359.7055579
51
8.036044
0
ARC
8
DEFAULT_255_1_234
10
21.1928534
20
37.0608239
40
0.5286768
50
7.8928306
51
20.2962107
0
ARC
8
DEFAULT_255_1_234
10
21.3556105
20
37.1208395
40
0.3552073
50
20.3231126
51
36.4992797
0
ARC
8
DEFAULT_255_1_234
10
21.4241651
20
37.1736402
40
0.2686974
50
36.1437156
51
85.6627023
0
ARC
8
DEFAULT_255_1_234
10
21.4079197
20
37.0696221
40
0.373739
50
84.3852322
51
90.0757696
0
ARC
8
DEFAULT_255_1_234
10
21.4036869
20
37.1356839
40
0.3076997
50
89.3038458
51
109.9045693
0
ARC
8
DEFAULT_255_1_234
10
21.394426
20
37.1739062
40
0.2686424
50
110.8228367
51
143.9179474
0
ARC
8
DEFAULT_255_1_234
10
21.487792
20
37.1026236
40
0.3860887
50
143.5289163
51
163.2980757
0
ARC
8
DEFAULT_255_1_234
10
21.6785741
20
37.0426433
40
0.5860659
50
163.0418846
51
174.3140048
0
ARC
8
DEFAULT_255_1_234
10
21.9189853
20
37.0148854
40
0.8280531
50
174.0509143
51
179.4176892
0
ARC
8
DEFAULT_255_1_234
10
21.8685592
20
36.9331954
40
0.7775954
50
179.6930361
51
188.7906598
0
ARC
8
DEFAULT_255_1_234
10
21.6022071
20
36.8905935
40
0.5078633
50
188.6331305
51
202.5629587
0
ARC
8
DEFAULT_255_1_234
10
21.4767663
20
36.8401996
40
0.3726913
50
202.8081362
51
216.1193925
0
ARC
8
DEFAULT_255_1_234
10
21.3958233
20
36.7750676
40
0.2689577
50
215.0755913
51
264.6379694
0
ARC
8
DEFAULT_255_1_234
10
21.4085183
20
36.8581513
40
0.3528978
50
263.846392
51
270.0833719
0
ARC
8
DEFAULT_255_1_234
10
21.4126573
20
36.8323374
40
0.3271036
50
269.3649385
51
287.5152008
0
ARC
8
DEFAULT_255_1_234
10
21.4304731
20
36.7676238
40
0.2600406
50
288.0630309
51
323.8113348
0
ARC
8
DEFAULT_255_1_234
10
21.3433573
20
36.8326049
40
0.3687189
50
323.6547608
51
342.6590488
0
ARC
8
DEFAULT_255_1_234
10
21.1402188
20
36.8986952
40
0.5823286
50
342.4091907
51
353.6451149
0
ARC
8
DEFAULT_255_1_234
10
20.8570699
20
36.933919
40
0.8676442
50
353.4029884
51
359.4847795
0
LINE
8
DEFAULT_255_1_234
10
22.77764
20
37.5598211
11
22.9326525
21
37.5598211
0
LINE
8
DEFAULT_255_1_234
10
22.9326525
20
37.5598211
11
22.9326525
21
36.764679
0
LINE
8
DEFAULT_255_1_234
10
22.5487354
20
36.3759429
11
22.5077736
21
36.3743365
0
LINE
8
DEFAULT_255_1_234
10
22.0861073
20
36.7630727
11
22.0861073
21
37.5598211
0
LINE
8
DEFAULT_255_1_234
10
22.0861073
20
37.5598211
11
22.2387104
21
37.5598211
0
LINE
8
DEFAULT_255_1_234
10
22.2387104
20
37.5598211
11
22.2387104
21
36.7678917
0
LINE
8
DEFAULT_255_1_234
10
22.77764
20
36.7670885
11
22.77764
21
37.5598211
0
ARC
8
DEFAULT_255_1_234
10
22.4973424
20
36.7626928
40
0.4353147
50
343.0898354
51
0.2614217
0
ARC
8
DEFAULT_255_1_234
10
22.5801825
20
36.7395837
40
0.3493402
50
315.3345598
51
342.7641223
0
ARC
8
DEFAULT_255_1_234
10
22.5578274
20
36.7627682
40
0.3815385
50
284.6606969
51
315.2182466
0
ARC
8
DEFAULT_255_1_234
10
22.5122987
20
36.9173755
40
0.5426573
50
273.8500273
51
285.1797701
0
ARC
8
DEFAULT_255_1_234
10
22.5035037
20
36.9515475
40
0.5772268
50
257.6317484
51
270.4238298
0
ARC
8
DEFAULT_255_1_234
10
22.4610235
20
36.7694198
40
0.3902347
50
230.6087562
51
257.9964012
0
ARC
8
DEFAULT_255_1_234
10
22.4478238
20
36.7487802
40
0.3659186
50
227.7440991
51
230.1551448
0
ARC
8
DEFAULT_255_1_234
10
22.4344069
20
36.7326471
40
0.3449568
50
189.2524587
51
227.5916061
0
ARC
8
DEFAULT_255_1_234
10
22.5865756
20
36.7654013
40
0.5004737
50
180.2665968
51
190.1525252
0
ARC
8
DEFAULT_255_1_234
10
22.6087775
20
36.7650918
40
0.3700778
50
179.5665184
51
191.9952995
0
ARC
8
DEFAULT_255_1_234
10
22.4859882
20
36.7377043
40
0.2442808
50
191.6974072
51
215.1404042
0
ARC
8
DEFAULT_255_1_234
10
22.4621797
20
36.7235108
40
0.2166522
50
215.6950207
51
224.8513522
0
ARC
8
DEFAULT_255_1_234
10
22.467754
20
36.7314697
40
0.2262237
50
225.2846858
51
255.0111758
0
ARC
8
DEFAULT_255_1_234
10
22.50015
20
36.8428455
40
0.3421979
50
254.5944985
51
267.9129803
0
ARC
8
DEFAULT_255_1_234
10
22.5075981
20
36.9512903
40
0.4508556
50
267.4689655
51
270.0223026
0
ARC
8
DEFAULT_255_1_234
10
22.5106126
20
36.8923849
40
0.3919604
50
269.5849941
51
281.1843768
0
ARC
8
DEFAULT_255_1_234
10
22.5384891
20
36.7571059
40
0.2538457
50
280.9344262
51
300.9743589
0
ARC
8
DEFAULT_255_1_234
10
22.5597496
20
36.7179688
40
0.2093566
50
301.4980046
51
315.1466847
0
ARC
8
DEFAULT_255_1_234
10
22.5453035
20
36.7298236
40
0.2279656
50
315.5952539
51
345.6678731
0
ARC
8
DEFAULT_255_1_234
10
22.4333551
20
36.7610009
40
0.3441564
50
345.2524969
51
358.6304371
0
ARC
8
DEFAULT_255_1_234
10
22.3315905
20
36.7669916
40
0.4460494
50
358.1735671
51
0.0124524
0
LINE
8
DEFAULT_255_1_234
10
23.9840071
20
37.5598211
11
23.9840071
21
37.4329196
0
LINE
8
DEFAULT_255_1_234
10
23.9840071
20
37.4329196
11
23.6081217
21
37.4329196
0
LINE
8
DEFAULT_255_1_234
10
23.6081217
20
37.4329196
11
23.6081217
21
36.3904
0
LINE
8
DEFAULT_255_1_234
10
23.6081217
20
36.3904
11
23.4547155
21
36.3904
0
LINE
8
DEFAULT_255_1_234
10
23.4547155
20
36.3904
11
23.4547155
21
37.4329196
0
LINE
8
DEFAULT_255_1_234
10
23.4547155
20
37.4329196
11
23.0796333
21
37.4329196
0
LINE
8
DEFAULT_255_1_234
10
23.0796333
20
37.4329196
11
23.0796333
21
37.5598211
0
LINE
8
DEFAULT_255_1_234
10
23.0796333
20
37.5598211
11
23.9840071
21
37.5598211
0
ENDSEC
0
EOF