0
SECTION
2
HEADER
9
$MEASUREMENT
70
1
0
ENDSEC
0
SECTION
2
TABLES
0
TABLE
2
LTYPE
0
LTYPE
72
65
70
64
2
CONTINUOUS
3
______
73
0
40
0
0
ENDTAB
0
TABLE
2
LAYER
0
LAYER
2
DEFAULT_255_2_778
70
0
62
255
6
CONTINUOUS
0
LAYER
2
DEFAULT_255_1_234
70
0
62
255
6
CONTINUOUS
0
LAYER
2
DEFAULT_255_2_778_1
70
0
62
255
6
CONTINUOUS
0
ENDTAB
0
ENDSEC
0
SECTION
2
ENTITIES
0
ARC
8
DEFAULT_255_2_778
10
3.5700693
20
139.3052021
40
0.7914215
50
129.1312896
51
180.1450914
0
ARC
8
DEFAULT_255_2_778
10
3.5703345
20
139.3056893
40
0.7912112
50
89.854026
51
129.1684493
0
ARC
8
DEFAULT_255_2_778
10
25.7993937
20
139.3053758
40
0.7915249
50
39.4792447
51
90.147911
0
ARC
8
DEFAULT_255_2_778
10
25.7999935
20
139.3052224
40
0.7911595
50
359.8533901
51
39.5154338
0
ARC
8
DEFAULT_255_2_778
10
25.7996693
20
-1.9863501
40
0.7914836
50
309.4761667
51
0.1482649
0
ARC
8
DEFAULT_255_2_778
10
25.799398
20
-1.9867812
40
0.7913235
50
269.8517415
51
309.511178
0
ARC
8
DEFAULT_255_2_778
10
3.570342
20
-1.986723
40
0.7913815
50
219.1282118
51
270.1454017
0
ARC
8
DEFAULT_255_2_778
10
3.5700247
20
-1.9863406
40
0.7913769
50
179.8524075
51
219.1641908
0
LINE
8
DEFAULT_255_2_778
10
3.5723503
20
140.096898
11
25.7973503
21
140.096898
0
LINE
8
DEFAULT_255_2_778
10
26.5911503
20
139.303198
11
26.5911503
21
-1.984302
0
LINE
8
DEFAULT_255_2_778
10
25.7973503
20
-2.778102
11
3.5723503
21
-2.778102
0
LINE
8
DEFAULT_255_2_778
10
2.7786503
20
-1.984302
11
2.7786503
21
139.303198
0
LINE
8
DEFAULT_255_1_234
10
11.2672341
20
-0.6513
11
11.0134312
21
-0.1782306
0
LINE
8
DEFAULT_255_1_234
10
11.0134312
20
-0.1782306
11
10.7387458
21
-0.1782306
0
LINE
8
DEFAULT_255_1_234
10
10.7387458
20
-0.1782306
11
10.7387458
21
-0.6513
0
LINE
8
DEFAULT_255_1_234
10
10.7387458
20
-0.6513
11
10.5837332
21
-0.6513
0
LINE
8
DEFAULT_255_1_234
10
10.5837332
20
-0.6513
11
10.5837332
21
0.5181211
0
LINE
8
DEFAULT_255_1_234
10
10.5837332
20
0.5181211
11
10.970863
21
0.5181211
0
LINE
8
DEFAULT_255_1_234
10
11.1580025
20
-0.1453005
11
11.4326879
21
-0.6416619
0
LINE
8
DEFAULT_255_1_234
10
11.4326879
20
-0.6416619
11
11.4326879
21
-0.6513
0
LINE
8
DEFAULT_255_1_234
10
11.4326879
20
-0.6513
11
11.2672341
21
-0.6513
0
LINE
8
DEFAULT_255_1_234
10
10.7387458
20
0.3912196
11
10.7387458
21
-0.0521323
0
LINE
8
DEFAULT_255_1_234
10
10.7387458
20
-0.0521323
11
10.975682
21
-0.0521323
0
LINE
8
DEFAULT_255_1_234
10
10.9748789
20
0.3912196
11
10.7387458
21
0.3912196
0
ARC
8
DEFAULT_255_1_234
10
10.9750269
20
-0.1780239
40
0.6961575
50
80.653586
51
90.3427061
0
ARC
8
DEFAULT_255_1_234
10
11.0169744
20
0.0682348
40
0.4463577
50
65.6987447
51
80.8329603
0
ARC
8
DEFAULT_255_1_234
10
11.0647385
20
0.1777322
40
0.3269094
50
50.0017161
51
65.4305835
0
ARC
8
DEFAULT_255_1_234
10
11.0865849
20
0.2072482
40
0.2902647
50
11.628416
51
49.5603263
0
ARC
8
DEFAULT_255_1_234
10
10.9330185
20
0.1697299
40
0.4482792
50
359.5655735
51
12.3691
0
ARC
8
DEFAULT_255_1_234
10
11.0407045
20
0.1634644
40
0.3405924
50
341.9983148
51
0.4822259
0
ARC
8
DEFAULT_255_1_234
10
11.0801885
20
0.1527471
40
0.2997359
50
323.8609373
51
341.61416
0
ARC
8
DEFAULT_255_1_234
10
11.0500129
20
0.1760484
40
0.3378487
50
296.7018614
51
323.6876402
0
ARC
8
DEFAULT_255_1_234
10
11.0059024
20
0.2549235
40
0.4281516
50
290.8086567
51
297.2323311
0
ARC
8
DEFAULT_255_1_234
10
10.9782554
20
0.3072351
40
0.3593766
50
269.589728
51
281.8058135
0
ARC
8
DEFAULT_255_1_234
10
11.0033453
20
0.1924743
40
0.2419125
50
281.5501019
51
303.9357432
0
ARC
8
DEFAULT_255_1_234
10
11.0170641
20
0.1686936
40
0.2145323
50
304.4415616
51
311.2106213
0
ARC
8
DEFAULT_255_1_234
10
11.0302746
20
0.1547632
40
0.1953505
50
310.9875673
51
356.2715578
0
ARC
8
DEFAULT_255_1_234
10
10.9546395
20
0.1660422
40
0.2716331
50
354.9348262
51
0.0609027
0
ARC
8
DEFAULT_255_1_234
10
10.9359269
20
0.1687435
40
0.2903554
50
359.5239371
51
12.8808918
0
ARC
8
DEFAULT_255_1_234
10
11.0336824
20
0.1926728
40
0.1897315
50
12.4173452
51
43.1022135
0
ARC
8
DEFAULT_255_1_234
10
11.0398429
20
0.1963724
40
0.1827118
50
43.5751728
51
48.203944
0
ARC
8
DEFAULT_255_1_234
10
11.0228921
20
0.1742302
40
0.2105272
50
48.7809703
51
72.6969569
0
ARC
8
DEFAULT_255_1_234
10
10.9874546
20
0.066682
40
0.3237537
50
72.3702241
51
84.8791103
0
ARC
8
DEFAULT_255_1_234
10
10.9727022
20
-0.0675231
40
0.4587478
50
84.5400526
51
89.7281406
0
LINE
8
DEFAULT_255_1_234
10
12.1153857
20
0.5189243
11
12.1418904
21
0.5189243
0
LINE
8
DEFAULT_255_1_234
10
12.1418904
20
0.5189243
11
12.1418904
21
0.392826
0
LINE
8
DEFAULT_255_1_234
10
12.1418904
20
0.392826
11
12.1145825
21
0.392826
0
LINE
8
DEFAULT_255_1_234
10
11.5676211
20
-0.2063417
11
11.5676211
21
-0.1493164
0
LINE
8
DEFAULT_255_1_234
10
11.7170115
20
-0.1685925
11
11.7170115
21
-0.2232083
0
ARC
8
DEFAULT_255_1_234
10
12.1198173
20
-0.1069545
40
0.4998079
50
90.6001036
51
104.514704
0
ARC
8
DEFAULT_255_1_234
10
12.0809689
20
0.0375131
40
0.3502176
50
104.2855254
51
133.862935
0
ARC
8
DEFAULT_255_1_234
10
12.0973446
20
0.026683
40
0.3693984
50
134.5302688
51
161.6210873
0
ARC
8
DEFAULT_255_1_234
10
12.2626635
20
-0.0316105
40
0.5446739
50
161.2849839
51
174.2076652
0
ARC
8
DEFAULT_255_1_234
10
12.4033572
20
-0.0510213
40
0.6866274
50
173.7810589
51
174.9254635
0
ARC
8
DEFAULT_255_1_234
10
11.9483404
20
-0.1893161
40
0.3033419
50
95.8330959
51
138.9954921
0
ARC
8
DEFAULT_255_1_234
10
11.970676
20
-0.3171625
40
0.4328947
50
89.8753725
51
97.0544009
0
ARC
8
DEFAULT_255_1_234
10
11.9754226
20
-0.2336252
40
0.3493769
50
71.6407809
51
90.6240094
0
ARC
8
DEFAULT_255_1_234
10
11.9904799
20
-0.1781918
40
0.2920396
50
39.6367836
51
71.019018
0
ARC
8
DEFAULT_255_1_234
10
11.9268272
20
-0.2332002
40
0.3761538
50
10.658731
51
39.9043955
0
ARC
8
DEFAULT_255_1_234
10
11.7720355
20
-0.2668314
40
0.5345136
50
359.682601
51
11.132623
0
ARC
8
DEFAULT_255_1_234
10
11.7680486
20
-0.273899
40
0.5385081
50
347.2486944
51
0.4369317
0
ARC
8
DEFAULT_255_1_234
10
11.9347963
20
-0.3140193
40
0.3670249
50
318.1409698
51
347.6118597
0
ARC
8
DEFAULT_255_1_234
10
11.9672956
20
-0.3407298
40
0.3250007
50
275.6342139
51
317.8248465
0
ARC
8
DEFAULT_255_1_234
10
11.9452067
20
-0.2107781
40
0.4565864
50
269.8874292
51
276.7917694
0
ARC
8
DEFAULT_255_1_234
10
11.9397138
20
-0.3133257
40
0.3540676
50
246.9140195
51
270.7437342
0
ARC
8
DEFAULT_255_1_234
10
11.9403528
20
-0.3275616
40
0.3412781
50
218.1665114
51
245.878116
0
ARC
8
DEFAULT_255_1_234
10
12.0282989
20
-0.2539721
40
0.455911
50
191.4115814
51
218.6077802
0
ARC
8
DEFAULT_255_1_234
10
12.2221078
20
-0.2105167
40
0.6545001
50
179.6345085
51
191.7836486
0
ARC
8
DEFAULT_255_1_234
10
12.7803415
20
-0.1426303
40
1.2127388
50
171.4525249
51
180.3158839
0
ARC
8
DEFAULT_255_1_234
10
12.3408291
20
-0.0742392
40
0.7679464
50
157.9802646
51
171.6246686
0
ARC
8
DEFAULT_255_1_234
10
12.1194312
20
0.0140421
40
0.5296008
50
141.4298019
51
157.854097
0
ARC
8
DEFAULT_255_1_234
10
12.0552632
20
0.0594381
40
0.4511509
50
102.8715806
51
140.8564722
0
ARC
8
DEFAULT_255_1_234
10
12.1200248
20
-0.1845448
40
0.7034845
50
90.3778349
51
103.5869322
0
ARC
8
DEFAULT_255_1_234
10
11.9462024
20
-0.245027
40
0.2370698
50
89.8751008
51
126.2071704
0
ARC
8
DEFAULT_255_1_234
10
11.9507814
20
-0.2604697
40
0.2522934
50
124.9745049
51
144.895901
0
ARC
8
DEFAULT_255_1_234
10
11.9332004
20
-0.246144
40
0.2296779
50
145.2974905
51
160.2660252
0
ARC
8
DEFAULT_255_1_234
10
12.2404543
20
-0.2263929
40
0.5234525
50
179.6514266
51
190.2855912
0
ARC
8
DEFAULT_255_1_234
10
12.071068
20
-0.2583214
40
0.3510893
50
190.0945431
51
207.5098196
0
ARC
8
DEFAULT_255_1_234
10
12.014495
20
-0.2852377
40
0.288489
50
207.9583163
51
216.3251085
0
ARC
8
DEFAULT_255_1_234
10
11.9805058
20
-0.3131895
40
0.2445587
50
215.7661442
51
232.5456785
0
ARC
8
DEFAULT_255_1_234
10
11.9422041
20
-0.3618518
40
0.1826382
50
232.8005391
51
270.6605633
0
ARC
8
DEFAULT_255_1_234
10
11.9467742
20
-0.3254388
40
0.2190529
50
269.35537
51
288.4744281
0
ARC
8
DEFAULT_255_1_234
10
11.9560639
20
-0.3603882
40
0.1829749
50
289.1833337
51
322.9683818
0
ARC
8
DEFAULT_255_1_234
10
11.8949161
20
-0.3121609
40
0.2608399
50
322.6007884
51
346.5182367
0
ARC
8
DEFAULT_255_1_234
10
11.7791757
20
-0.2826384
40
0.3802777
50
346.2582162
51
358.7741648
0
ARC
8
DEFAULT_255_1_234
10
11.6773426
20
-0.2771035
40
0.4822176
50
358.3755224
51
0.0098023
0
ARC
8
DEFAULT_255_1_234
10
11.7529613
20
-0.2743343
40
0.4066078
50
359.6214041
51
11.2839074
0
ARC
8
DEFAULT_255_1_234
10
11.880676
20
-0.2476934
40
0.2761514
50
11.0482309
51
31.8146458
0
ARC
8
DEFAULT_255_1_234
10
11.9115803
20
-0.2309416
40
0.2410679
50
32.3035391
51
38.082671
0
ARC
8
DEFAULT_255_1_234
10
11.9536463
20
-0.1928338
40
0.1844966
50
36.825067
51
85.7415724
0
ARC
8
DEFAULT_255_1_234
10
11.9469296
20
-0.2428699
40
0.2349122
50
85.0140713
51
90.0513278
0
LINE
8
DEFAULT_255_1_234
10
13.2157338
20
0.0402327
11
13.2157338
21
-0.1525291
0
LINE
8
DEFAULT_255_1_234
10
12.4776171
20
-0.1726084
11
12.4776171
21
0.0257755
0
LINE
8
DEFAULT_255_1_234
10
13.0671467
20
-0.1926877
11
13.0671467
21
0.0506739
0
LINE
8
DEFAULT_255_1_234
10
12.6262042
20
0.0619184
11
12.6262042
21
-0.1758211
0
ARC
8
DEFAULT_255_1_234
10
11.9910228
20
-0.1574195
40
1.2247208
50
353.8441951
51
0.2287902
0
ARC
8
DEFAULT_255_1_234
10
12.4549732
20
-0.2092194
40
0.7578929
50
344.4934747
51
353.9765454
0
ARC
8
DEFAULT_255_1_234
10
12.7542322
20
-0.2943019
40
0.4467846
50
329.2803592
51
344.7472793
0
ARC
8
DEFAULT_255_1_234
10
12.8535147
20
-0.3487982
40
0.3336173
50
324.9352394
51
328.6160465
0
ARC
8
DEFAULT_255_1_234
10
12.8912255
20
-0.3751573
40
0.2876076
50
280.580143
51
324.9173126
0
ARC
8
DEFAULT_255_1_234
10
12.8511048
20
-0.2080901
40
0.4592847
50
269.5977311
51
281.6734359
0
ARC
8
DEFAULT_255_1_234
10
12.8438954
20
-0.2200827
40
0.4472986
50
256.6228859
51
270.51044
0
ARC
8
DEFAULT_255_1_234
10
12.8036931
20
-0.3749123
40
0.2873874
50
215.8618325
51
257.2788573
0
ARC
8
DEFAULT_255_1_234
10
12.9057963
20
-0.3064023
40
0.4102928
50
197.9693508
51
215.2623606
0
ARC
8
DEFAULT_255_1_234
10
13.1543079
20
-0.2225291
40
0.6725652
50
187.8816417
51
198.2346507
0
ARC
8
DEFAULT_255_1_234
10
13.5501287
20
-0.1653921
40
1.0724845
50
180.8976217
51
188.0055519
0
ARC
8
DEFAULT_255_1_234
10
13.8301475
20
-0.1550223
40
1.3526448
50
180.7449369
51
181.1510016
0
ARC
8
DEFAULT_255_1_234
10
13.6724204
20
0.0306042
40
1.1948131
50
173.7675579
51
180.231553
0
ARC
8
DEFAULT_255_1_234
10
13.2206351
20
0.0816666
40
0.7401564
50
164.3058563
51
173.9002247
0
ARC
8
DEFAULT_255_1_234
10
12.929442
20
0.1655656
40
0.4371288
50
148.7922025
51
164.568378
0
ARC
8
DEFAULT_255_1_234
10
12.8342872
20
0.2186929
40
0.3282386
50
144.5883898
51
148.1176286
0
ARC
8
DEFAULT_255_1_234
10
12.799977
20
0.2426315
40
0.2864044
50
101.6440918
51
144.514236
0
ARC
8
DEFAULT_255_1_234
10
12.8424836
20
0.0737069
40
0.4604934
50
89.5284041
51
102.5819763
0
ARC
8
DEFAULT_255_1_234
10
12.8503924
20
0.0698018
40
0.464401
50
77.0437873
51
90.5081339
0
ARC
8
DEFAULT_255_1_234
10
12.8905926
20
0.2340615
40
0.2953195
50
48.2778575
51
77.4994676
0
ARC
8
DEFAULT_255_1_234
10
12.8978557
20
0.2469746
40
0.2808655
50
36.3142134
51
47.6305865
0
ARC
8
DEFAULT_255_1_234
10
12.8109864
20
0.1884515
40
0.3855453
50
18.2931786
51
35.6769206
0
ARC
8
DEFAULT_255_1_234
10
12.5566623
20
0.1011593
40
0.654423
50
8.024666
51
18.5605216
0
ARC
8
DEFAULT_255_1_234
10
12.1403543
20
0.0396792
40
1.0752407
50
1.1274072
51
8.1718305
0
ARC
8
DEFAULT_255_1_234
10
11.8167734
20
0.0269885
40
1.3990231
50
0.5424119
51
1.3863029
0
ARC
8
DEFAULT_255_1_234
10
11.9989111
20
0.0542342
40
1.0682415
50
359.8090433
51
4.9407866
0
ARC
8
DEFAULT_255_1_234
10
12.4199125
20
0.0918113
40
0.6455691
50
4.8362157
51
12.2904523
0
ARC
8
DEFAULT_255_1_234
10
12.695424
20
0.1531965
40
0.3633074
50
12.0805627
51
23.8173984
0
ARC
8
DEFAULT_255_1_234
10
12.8127946
20
0.2028919
40
0.2358723
50
24.2871213
51
31.3935614
0
ARC
8
DEFAULT_255_1_234
10
12.8652643
20
0.2372233
40
0.1732111
50
30.7407893
51
82.4657128
0
ARC
8
DEFAULT_255_1_234
10
12.8472777
20
0.1488691
40
0.263235
50
81.1060089
51
90.2184952
0
ARC
8
DEFAULT_255_1_234
10
12.8437076
20
0.1746924
40
0.2374236
50
89.3806855
51
105.6762551
0
ARC
8
DEFAULT_255_1_234
10
12.8253707
20
0.2413567
40
0.1682847
50
105.7981136
51
149.7388061
0
ARC
8
DEFAULT_255_1_234
10
12.9317785
20
0.177395
40
0.2924306
50
149.4208916
51
163.6286378
0
ARC
8
DEFAULT_255_1_234
10
13.1408673
20
0.113625
40
0.5110213
50
163.3763315
51
172.1410975
0
ARC
8
DEFAULT_255_1_234
10
13.4709392
20
0.0663518
40
0.8444586
50
172.0259487
51
178.0703232
0
ARC
8
DEFAULT_255_1_234
10
13.7739481
20
0.0519906
40
1.1477868
50
177.8631668
51
179.5044149
0
ARC
8
DEFAULT_255_1_234
10
13.6666886
20
-0.1794611
40
1.0404907
50
179.7995573
51
185.2460446
0
ARC
8
DEFAULT_255_1_234
10
13.2623925
20
-0.2177487
40
0.6343885
50
185.1411642
51
193.0079639
0
ARC
8
DEFAULT_255_1_234
10
12.9980398
20
-0.2802359
40
0.3627568
50
192.7897626
51
205.2507664
0
ARC
8
DEFAULT_255_1_234
10
12.8933945
20
-0.3269585
40
0.2481908
50
205.8005384
51
211.2537509
0
ARC
8
DEFAULT_255_1_234
10
12.8410385
20
-0.362042
40
0.1852521
50
210.3789793
51
238.4008143
0
ARC
8
DEFAULT_255_1_234
10
12.8390907
20
-0.3573624
40
0.1882621
50
239.6520629
51
265.9793761
0
ARC
8
DEFAULT_255_1_234
10
12.8476107
20
-0.2901573
40
0.2559272
50
265.1315437
51
270.060332
0
ARC
8
DEFAULT_255_1_234
10
12.8504886
20
-0.3225466
40
0.2235528
50
269.3314664
51
287.2178029
0
ARC
8
DEFAULT_255_1_234
10
12.8642738
20
-0.3728721
40
0.1714108
50
287.7958004
51
329.080874
0
ARC
8
DEFAULT_255_1_234
10
12.7685195
20
-0.313107
40
0.2842745
50
328.6634704
51
343.3325132
0
ARC
8
DEFAULT_255_1_234
10
12.5512215
20
-0.2454137
40
0.5118644
50
343.0499468
51
351.9393422
0
ARC
8
DEFAULT_255_1_234
10
12.2045515
20
-0.1943051
40
0.8622784
50
351.8069023
51
357.7959224
0
ARC
8
DEFAULT_255_1_234
10
11.8810071
20
-0.1775279
40
1.1862365
50
357.5871873
51
359.2677531
0
LINE
8
DEFAULT_255_1_234
10
14.2526313
20
0.5181211
11
14.2526313
21
0.3912196
0
LINE
8
DEFAULT_255_1_234
10
14.2526313
20
0.3912196
11
13.8767459
21
0.3912196
0
LINE
8
DEFAULT_255_1_234
10
13.8767459
20
0.3912196
11
13.8767459
21
-0.6513
0
LINE
8
DEFAULT_255_1_234
10
13.8767459
20
-0.6513
11
13.7233397
21
-0.6513
0
LINE
8
DEFAULT_255_1_234
10
13.7233397
20
-0.6513
11
13.7233397
21
0.3912196
0
LINE
8
DEFAULT_255_1_234
10
13.7233397
20
0.3912196
11
13.3482575
21
0.3912196
0
LINE
8
DEFAULT_255_1_234
10
13.3482575
20
0.3912196
11
13.3482575
21
0.5181211
0
LINE
8
DEFAULT_255_1_234
10
13.3482575
20
0.5181211
11
14.2526313
21
0.5181211
0
LINE
8
DEFAULT_255_1_234
10
14.7497958
20
-0.6513
11
14.4261168
21
-0.6513
0
LINE
8
DEFAULT_255_1_234
10
14.4261168
20
-0.6513
11
14.4261168
21
0.5181211
0
LINE
8
DEFAULT_255_1_234
10
14.4261168
20
0.5181211
11
14.7562212
21
0.5181211
0
LINE
8
DEFAULT_255_1_234
10
15.2718588
20
-0.0272339
11
15.2718588
21
-0.1019291
0
LINE
8
DEFAULT_255_1_234
10
14.7602371
20
0.3912196
11
14.5803262
21
0.3912196
0
LINE
8
DEFAULT_255_1_234
10
14.5803262
20
0.3912196
11
14.5803262
21
-0.5252017
0
LINE
8
DEFAULT_255_1_234
10
14.5803262
20
-0.5252017
11
14.7425673
21
-0.5252017
0
LINE
8
DEFAULT_255_1_234
10
15.1192558
20
-0.0987164
11
15.1192558
21
-0.0304466
0
ARC
8
DEFAULT_255_1_234
10
14.7601155
20
-0.0684106
40
0.5865446
50
75.4101064
51
90.3804066
0
ARC
8
DEFAULT_255_1_234
10
14.7830669
20
0.0272492
40
0.4881916
50
60.145586
51
75.1888407
0
ARC
8
DEFAULT_255_1_234
10
14.7989444
20
0.0549199
40
0.4562893
50
26.5253612
51
60.1450928
0
ARC
8
DEFAULT_255_1_234
10
14.6869193
20
-0.0044842
40
0.5830602
50
7.4030428
51
26.8320788
0
ARC
8
DEFAULT_255_1_234
10
14.527495
20
-0.0293196
40
0.7443669
50
0.1605367
51
7.7176192
0
ARC
8
DEFAULT_255_1_234
10
14.5438854
20
-0.1057566
40
0.7279835
50
348.7289388
51
0.3012466
0
ARC
8
DEFAULT_255_1_234
10
14.7095285
20
-0.1386614
40
0.559104
50
333.0706509
51
348.7181832
0
ARC
8
DEFAULT_255_1_234
10
14.8062042
20
-0.1911681
40
0.4491417
50
299.2531685
51
333.4571258
0
ARC
8
DEFAULT_255_1_234
10
14.7701182
20
-0.1226172
40
0.5265881
50
278.107187
51
299.0339503
0
ARC
8
DEFAULT_255_1_234
10
14.7445261
20
0.0281216
40
0.679442
50
270.4443897
51
278.4511052
0
ARC
8
DEFAULT_255_1_234
10
14.7466091
20
-0.0647787
40
0.4604407
50
269.4970433
51
284.0205042
0
ARC
8
DEFAULT_255_1_234
10
14.7821392
20
-0.2013022
40
0.3193797
50
283.7700273
51
318.1555492
0
ARC
8
DEFAULT_255_1_234
10
14.748415
20
-0.1760633
40
0.3613588
50
318.7415601
51
343.6873628
0
ARC
8
DEFAULT_255_1_234
10
14.5680174
20
-0.1197168
40
0.5503313
50
343.3325091
51
355.8548958
0
ARC
8
DEFAULT_255_1_234
10
14.3581858
20
-0.0997681
40
0.7610708
50
355.4988528
51
0.0791727
0
ARC
8
DEFAULT_255_1_234
10
14.4364481
20
-0.026222
40
0.6828208
50
359.6455037
51
9.8607896
0
ARC
8
DEFAULT_255_1_234
10
14.6725178
20
0.0164099
40
0.4429406
50
9.6571907
51
26.1932807
0
ARC
8
DEFAULT_255_1_234
10
14.7653167
20
0.0595118
40
0.3406537
50
26.5777228
51
40.1532208
0
ARC
8
DEFAULT_255_1_234
10
14.7908893
20
0.0794619
40
0.308246
50
40.3840491
51
80.1431104
0
ARC
8
DEFAULT_255_1_234
10
14.7582011
20
-0.0654667
40
0.4566909
50
79.2152159
51
89.7445637
0
ARC
8
DEFAULT_255_1_234
10
15.8932052
20
0.2103703
40
0.2822356
50
338.8763615
51
0.5166041
0
ARC
8
DEFAULT_255_1_234
10
15.9100707
20
0.2058208
40
0.2648703
50
325.8412414
51
338.4795939
0
ARC
8
DEFAULT_255_1_234
10
15.8710075
20
0.2329042
40
0.3124019
50
296.7586019
51
325.753654
0
ARC
8
DEFAULT_255_1_234
10
15.8422183
20
0.2813789
40
0.368668
50
296.0902311
51
297.3618122
0
ARC
8
DEFAULT_255_1_234
10
15.8679641
20
-0.3740959
40
0.3518806
50
47.9009248
51
67.1946869
0
ARC
8
DEFAULT_255_1_234
10
15.8875883
20
-0.3494605
40
0.320451
50
35.236241
51
47.551371
0
ARC
8
DEFAULT_255_1_234
10
15.91375
20
-0.3320007
40
0.2890103
50
359.2759738
51
35.4014081
0
ARC
8
DEFAULT_255_1_234
10
15.8392532
20
-0.3393174
40
0.3635026
50
343.1294516
51
0.5776525
0
ARC
8
DEFAULT_255_1_234
10
15.9117076
20
-0.359267
40
0.2883832
50
310.8497458
51
342.744803
0
ARC
8
DEFAULT_255_1_234
10
15.869919
20
-0.3115706
40
0.3517954
50
281.5473923
51
310.9169905
0
ARC
8
DEFAULT_255_1_234
10
15.8342639
20
-0.1562916
40
0.5110832
50
269.6192722
51
281.9789957
0
ARC
8
DEFAULT_255_1_234
10
15.8270428
20
-0.1562172
40
0.5111606
50
257.4584469
51
270.4287458
0
ARC
8
DEFAULT_255_1_234
10
15.7889571
20
-0.3165656
40
0.3463762
50
228.7553743
51
257.8484423
0
ARC
8
DEFAULT_255_1_234
10
15.757977
20
-0.3538558
40
0.297916
50
184.0104442
51
228.5071787
0
ARC
8
DEFAULT_255_1_234
10
15.8742714
20
-0.3361488
40
0.4152734
50
179.9315461
51
185.3254504
0
ARC
8
DEFAULT_255_1_234
10
15.7566359
20
-0.3324008
40
0.2976554
50
145.6795913
51
180.6259649
0
ARC
8
DEFAULT_255_1_234
10
15.7729709
20
-0.3438071
40
0.3175776
50
115.5537925
51
145.6416199
0
ARC
8
DEFAULT_255_1_234
10
15.8070639
20
-0.4048972
40
0.3874232
50
113.2437915
51
116.2054627
0
ARC
8
DEFAULT_255_1_234
10
15.7917851
20
0.234958
40
0.3154751
50
222.9548379
51
244.1372485
0
ARC
8
DEFAULT_255_1_234
10
15.7795927
20
0.2212834
40
0.2972382
50
213.3439227
51
222.6271327
0
ARC
8
DEFAULT_255_1_234
10
15.7603861
20
0.2082308
40
0.274019
50
180.4316517
51
213.2713999
0
ARC
8
DEFAULT_255_1_234
10
15.8178863
20
0.212911
40
0.33158
50
179.9992944
51
181.1655061
0
ARC
8
DEFAULT_255_1_234
10
15.858828
20
0.2163561
40
0.3725376
50
164.6186108
51
180.5292368
0
ARC
8
DEFAULT_255_1_234
10
15.7690142
20
0.2405101
40
0.2795349
50
132.2454369
51
164.5092287
0
ARC
8
DEFAULT_255_1_234
10
15.7977246
20
0.2080028
40
0.3229019
50
100.7052766
51
132.1387266
0
ARC
8
DEFAULT_255_1_234
10
15.8282219
20
0.0702086
40
0.4639835
50
89.6732617
51
101.2449487
0
ARC
8
DEFAULT_255_1_234
10
15.8344417
20
0.087699
40
0.4464999
50
76.2876631
51
90.4586123
0
ARC
8
DEFAULT_255_1_234
10
15.8650649
20
0.209922
40
0.3205023
50
47.8240157
51
76.4266918
0
ARC
8
DEFAULT_255_1_234
10
15.8873198
20
0.235959
40
0.2862661
50
6.9168658
51
47.6261438
0
ARC
8
DEFAULT_255_1_234
10
15.7686601
20
0.214037
40
0.4067708
50
359.8419705
51
7.9694496
0
ARC
8
DEFAULT_255_1_234
10
15.8028498
20
-0.3300075
40
0.2513121
50
359.4454068
51
16.9256425
0
ARC
8
DEFAULT_255_1_234
10
15.8497309
20
-0.3170967
40
0.2027071
50
17.292259
51
45.462717
0
ARC
8
DEFAULT_255_1_234
10
15.8443246
20
-0.3217566
40
0.2098212
50
45.3028762
51
83.1921472
0
ARC
8
DEFAULT_255_1_234
10
15.829993
20
-0.4019105
40
0.2911472
50
82.2614531
51
90.143954
0
ARC
8
DEFAULT_255_1_234
10
15.826905
20
-0.378605
40
0.2678513
50
89.4959189
51
104.8579811
0
ARC
8
DEFAULT_255_1_234
10
15.8092308
20
-0.311611
40
0.1985654
50
104.8855873
51
135.2448349
0
ARC
8
DEFAULT_255_1_234
10
15.8142081
20
-0.3160664
40
0.2052373
50
135.3398955
51
172.104394
0
ARC
8
DEFAULT_255_1_234
10
15.8949139
20
-0.3315075
40
0.2873299
50
171.2651929
51
180.1859362
0
ARC
8
DEFAULT_255_1_234
10
15.8779841
20
-0.3347267
40
0.2704083
50
179.515471
51
193.6466734
0
ARC
8
DEFAULT_255_1_234
10
15.796361
20
-0.3555223
40
0.1861855
50
193.3540587
51
225.8256931
0
ARC
8
DEFAULT_255_1_234
10
15.8004367
20
-0.3484476
40
0.1941102
50
226.418029
51
255.8553723
0
ARC
8
DEFAULT_255_1_234
10
15.8260799
20
-0.2548002
40
0.2911917
50
255.4655572
51
268.7985967
0
ARC
8
DEFAULT_255_1_234
10
15.8307992
20
-0.1709509
40
0.3751331
50
268.3464808
51
270.0104874
0
ARC
8
DEFAULT_255_1_234
10
15.8331379
20
-0.2393862
40
0.3067064
50
269.575914
51
282.0823146
0
ARC
8
DEFAULT_255_1_234
10
15.8556289
20
-0.3388197
40
0.2047712
50
281.7522535
51
306.6056425
0
ARC
8
DEFAULT_255_1_234
10
15.8654715
20
-0.3549513
40
0.1859604
50
307.1350025
51
314.0277951
0
ARC
8
DEFAULT_255_1_234
10
15.8618799
20
-0.3523234
40
0.1903475
50
314.2553419
51
350.169324
0
ARC
8
DEFAULT_255_1_234
10
15.7767267
20
-0.3338591
40
0.2774269
50
349.4145679
51
0.2930737
0
ARC
8
DEFAULT_255_1_234
10
15.8287701
20
0.1820353
40
0.2300764
50
89.477591
51
105.729794
0
ARC
8
DEFAULT_255_1_234
10
15.8151614
20
0.2325637
40
0.1777519
50
105.922966
51
135.1662921
0
ARC
8
DEFAULT_255_1_234
10
15.8172117
20
0.2311419
40
0.1802087
50
135.3053131
51
168.9882338
0
ARC
8
DEFAULT_255_1_234
10
15.8999689
20
0.2121721
40
0.2650806
50
168.3802067
51
180.3602358
0
ARC
8
DEFAULT_255_1_234
10
15.8771268
20
0.2084041
40
0.2422425
50
179.5029707
51
194.9126783
0
ARC
8
DEFAULT_255_1_234
10
15.8185929
20
0.193011
40
0.1817188
50
194.9722181
51
224.1943972
0
ARC
8
DEFAULT_255_1_234
10
15.8157797
20
0.1907169
40
0.1781027
50
224.2961434
51
262.0157375
0
ARC
8
DEFAULT_255_1_234
10
15.830004
20
0.2638661
40
0.2525492
50
261.1250369
51
270.1959853
0
ARC
8
DEFAULT_255_1_234
10
15.8329795
20
0.2451339
40
0.233825
50
269.4825617
51
285.0988277
0
ARC
8
DEFAULT_255_1_234
10
15.8483954
20
0.187299
40
0.1739712
50
285.1585659
51
315.9484648
0
ARC
8
DEFAULT_255_1_234
10
15.8394966
20
0.1954886
40
0.1860616
50
316.0412958
51
351.9162715
0
ARC
8
DEFAULT_255_1_234
10
15.766192
20
0.2096245
40
0.2606517
50
351.1056823
51
0.1936567
0
ARC
8
DEFAULT_255_1_234
10
15.7924749
20
0.2126369
40
0.234377
50
359.4789506
51
16.0679113
0
ARC
8
DEFAULT_255_1_234
10
15.8400708
20
0.225481
40
0.1850875
50
16.3251951
51
44.791304
0
ARC
8
DEFAULT_255_1_234
10
15.838299
20
0.2255339
40
0.186312
50
44.3958661
51
88.2498933
0
ARC
8
DEFAULT_255_1_234
10
15.8309543
20
0.1644154
40
0.2476868
50
86.9833827
51
90.0200148
0
LINE
8
DEFAULT_255_1_234
10
16.714359
20
-0.0938974
11
16.714359
21
-0.2151766
0
LINE
8
DEFAULT_255_1_234
10
16.714359
20
-0.2151766
11
16.3224102
21
-0.2151766
0
LINE
8
DEFAULT_255_1_234
10
16.3224102
20
-0.2151766
11
16.3224102
21
-0.0938974
0
LINE
8
DEFAULT_255_1_234
10
16.3224102
20
-0.0938974
11
16.714359
21
-0.0938974
0
LINE
8
DEFAULT_255_1_234
10
17.7456342
20
-0.068999
11
17.7456342
21
-0.4978938
0
LINE
8
DEFAULT_255_1_234
10
16.8444732
20
-0.1228116
11
16.8444732
21
-0.0208085
0
LINE
8
DEFAULT_255_1_234
10
17.7456342
20
0.1751659
11
17.5914249
21
0.1751659
0
LINE
8
DEFAULT_255_1_234
10
16.9994857
20
-0.0167927
11
16.9994857
21
-0.1123704
0
LINE
8
DEFAULT_255_1_234
10
17.592228
20
-0.4569319
11
17.592228
21
-0.1942941
0
LINE
8
DEFAULT_255_1_234
10
17.592228
20
-0.1942941
11
17.3215584
21
-0.1942941
0
LINE
8
DEFAULT_255_1_234
10
17.3215584
20
-0.1942941
11
17.3215584
21
-0.068999
0
LINE
8
DEFAULT_255_1_234
10
17.3215584
20
-0.068999
11
17.7456342
21
-0.068999
0
ARC
8
DEFAULT_255_1_234
10
17.4624848
20
-0.2985604
40
0.3462765
50
295.8437914
51
324.8549609
0
ARC
8
DEFAULT_255_1_234
10
17.4208816
20
-0.2232433
40
0.4322211
50
291.5695085
51
296.4549398
0
ARC
8
DEFAULT_255_1_234
10
17.3698067
20
-0.0867725
40
0.5779178
50
278.6622409
51
291.3045483
0
ARC
8
DEFAULT_255_1_234
10
17.3358558
20
0.1280408
40
0.7953952
50
270.020006
51
278.7494541
0
ARC
8
DEFAULT_255_1_234
10
17.3320483
20
0.2597036
40
0.927067
50
269.9969998
51
270.2524872
0
ARC
8
DEFAULT_255_1_234
10
17.3282196
20
-0.1486411
40
0.5187361
50
253.5786322
51
270.4175299
0
ARC
8
DEFAULT_255_1_234
10
17.3108852
20
-0.2157764
40
0.4494451
50
238.8203306
51
253.2788235
0
ARC
8
DEFAULT_255_1_234
10
17.3089225
20
-0.2208769
40
0.4440665
50
206.7883783
51
238.6962764
0
ARC
8
DEFAULT_255_1_234
10
17.3863135
20
-0.1744595
40
0.5341121
50
206.1129412
51
207.4916643
0
ARC
8
DEFAULT_255_1_234
10
17.446005
20
-0.1490512
40
0.5989041
50
188.6921119
51
205.7821245
0
ARC
8
DEFAULT_255_1_234
10
17.6316412
20
-0.117477
40
0.7871862
50
180.3882829
51
188.9219216
0
ARC
8
DEFAULT_255_1_234
10
17.7544226
20
-0.0151536
40
0.909967
50
170.2024264
51
180.3560651
0
ARC
8
DEFAULT_255_1_234
10
17.4380744
20
0.0414237
40
0.5886083
50
154.2857445
51
170.3893044
0
ARC
8
DEFAULT_255_1_234
10
17.3098947
20
0.100095
40
0.4476743
50
139.8401567
51
153.9332699
0
ARC
8
DEFAULT_255_1_234
10
17.2739683
20
0.1288577
40
0.4016697
50
98.4190291
51
139.6707122
0
ARC
8
DEFAULT_255_1_234
10
17.3119201
20
-0.0556672
40
0.5898566
50
89.7659205
51
99.4415478
0
ARC
8
DEFAULT_255_1_234
10
17.318445
20
-0.0491156
40
0.5833147
50
78.0551672
51
90.4042112
0
ARC
8
DEFAULT_255_1_234
10
17.358896
20
0.1327644
40
0.3970055
50
54.6380464
51
78.3339173
0
ARC
8
DEFAULT_255_1_234
10
17.3779016
20
0.1647795
40
0.3599102
50
50.031736
51
54.1558201
0
ARC
8
DEFAULT_255_1_234
10
17.3671804
20
0.1551766
40
0.3741624
50
18.1092409
51
49.7180913
0
ARC
8
DEFAULT_255_1_234
10
17.2215003
20
0.1018089
40
0.5292424
50
7.9672797
51
18.6984571
0
ARC
8
DEFAULT_255_1_234
10
17.2365482
20
0.1141504
40
0.3600838
50
9.7557294
51
27.3215714
0
ARC
8
DEFAULT_255_1_234
10
17.3492953
20
0.1704912
40
0.2340608
50
27.7361077
51
84.5257964
0
ARC
8
DEFAULT_255_1_234
10
17.316534
20
0.006164
40
0.4011215
50
82.106034
51
90.2001166
0
ARC
8
DEFAULT_255_1_234
10
17.3115558
20
0.0569215
40
0.3503799
50
89.4150119
51
105.5823402
0
ARC
8
DEFAULT_255_1_234
10
17.2858555
20
0.1504867
40
0.2533503
50
105.6678618
51
144.2648758
0
ARC
8
DEFAULT_255_1_234
10
17.3751811
20
0.0869289
40
0.3629787
50
144.3561283
51
162.8564086
0
ARC
8
DEFAULT_255_1_234
10
17.583572
20
0.0200017
40
0.5818441
50
162.6076014
51
173.6780284
0
ARC
8
DEFAULT_255_1_234
10
17.8896863
20
-0.017211
40
0.8902007
50
173.4670142
51
179.9730753
0
ARC
8
DEFAULT_255_1_234
10
17.6988535
20
-0.116574
40
0.6993804
50
179.6556203
51
190.0080463
0
ARC
8
DEFAULT_255_1_234
10
17.4672364
20
-0.1590625
40
0.4639066
50
189.8116607
51
206.6796816
0
ARC
8
DEFAULT_255_1_234
10
17.3827516
20
-0.1984497
40
0.3707421
50
207.1031645
51
217.7074368
0
ARC
8
DEFAULT_255_1_234
10
17.3193205
20
-0.2536441
40
0.2868417
50
216.7345547
51
265.6812148
0
ARC
8
DEFAULT_255_1_234
10
17.3323996
20
-0.1632145
40
0.3780509
50
264.7366618
51
270.0611241
0
ARC
8
DEFAULT_255_1_234
10
17.3347259
20
0.1208111
40
0.662079
50
269.8335834
51
276.0539546
0
ARC
8
DEFAULT_255_1_234
10
17.3554263
20
-0.069344
40
0.4708016
50
275.9894168
51
284.4615085
0
ARC
8
DEFAULT_255_1_234
10
17.375227
20
-0.1526337
40
0.3852094
50
284.7034461
51
286.4953897
0
ARC
8
DEFAULT_255_1_234
10
17.4159284
20
-0.2837035
40
0.2479842
50
286.0770838
51
304.2625829
0
ARC
8
DEFAULT_255_1_234
10
17.4292698
20
-0.3055406
40
0.2224291
50
304.5891602
51
317.1073298
0
LINE
8
DEFAULT_255_2_778
10
10.5738396
20
136.1493073
11
9.3932396
21
136.1493073
0
LINE
8
DEFAULT_255_2_778
10
9.3932396
20
136.1493073
11
9.9837396
21
137.1719073
0
LINE
8
DEFAULT_255_2_778
10
9.9837396
20
137.1719073
11
11.1643396
21
137.1719073
0
LINE
8
DEFAULT_255_2_778
10
11.1643396
20
137.1719073
11
10.5738396
21
136.1493073
0
LINE
8
DEFAULT_255_2_778
10
10.5738396
20
136.1493073
11
10.5738396
21
136.1493073
0
LINE
8
DEFAULT_255_2_778
10
11.7546396
20
136.1493073
11
12.9354396
21
136.1493073
0
LINE
8
DEFAULT_255_2_778
10
12.9354396
20
136.1493073
11
12.3451396
21
137.1719073
0
LINE
8
DEFAULT_255_2_778
10
12.3451396
20
137.1719073
11
11.1643396
21
137.1719073
0
LINE
8
DEFAULT_255_2_778
10
11.1643396
20
137.1719073
11
11.7546396
21
136.1493073
0
LINE
8
DEFAULT_255_2_778
10
11.7546396
20
136.1493073
11
11.7546396
21
136.1493073
0
LINE
8
DEFAULT_255_2_778
10
11.7545823
20
138.1945146
11
11.1642823
21
139.2171146
0
LINE
8
DEFAULT_255_2_778
10
11.1642823
20
139.2171146
11
10.5737823
21
138.1945146
0
LINE
8
DEFAULT_255_2_778
10
10.5737823
20
138.1945146
11
11.1642823
21
137.1719146
0
LINE
8
DEFAULT_255_2_778
10
11.1642823
20
137.1719146
11
11.7545823
21
138.1945146
0
LINE
8
DEFAULT_255_2_778
10
11.7545823
20
138.1945146
11
11.7545823
21
138.1945146
0
ARC
8
DEFAULT_255_2_778
10
16.5183731
20
137.8407426
40
0.5650491
50
268.7543645
51
289.1417717
0
ARC
8
DEFAULT_255_2_778
10
16.606208
20
137.5855531
40
0.2951681
50
289.2776255
51
3.7648372
0
ARC
8
DEFAULT_255_2_778
10
16.3901618
20
137.6121085
40
0.5106278
50
359.1949826
51
0.0020862
0
ARC
8
DEFAULT_255_2_778
10
16.547449
20
137.5980832
40
0.1541914
50
280.2616216
51
358.5297855
0
ARC
8
DEFAULT_255_2_778
10
16.5080075
20
137.710655
40
0.2726346
50
269.5969454
51
284.2065679
0
ARC
8
DEFAULT_255_2_778
10
16.4981967
20
137.6950316
40
0.2571258
50
246.5290903
51
271.7590909
0
ARC
8
DEFAULT_255_2_778
10
16.4527148
20
137.5870009
40
0.1399248
50
188.1071678
51
245.9934684
0
ARC
8
DEFAULT_255_2_778
10
16.4829007
20
137.5939617
40
0.1708111
50
179.9445314
51
188.990814
0
ARC
8
DEFAULT_255_2_778
10
16.4924507
20
137.6007849
40
0.3763411
50
178.2272621
51
205.8283807
0
ARC
8
DEFAULT_255_2_778
10
16.4132476
20
137.5830833
40
0.2979176
50
209.4028057
51
263.0375728
0
ARC
8
DEFAULT_255_2_778
10
16.5005111
20
137.9577629
40
0.6816586
50
259.5722942
51
270.4689037
0
ARC
8
DEFAULT_255_2_778
10
17.411252
20
138.0139767
40
0.1217154
50
2.0482843
51
87.015299
0
ARC
8
DEFAULT_255_2_778
10
17.4060617
20
138.0183852
40
0.126828
50
353.0600847
51
359.9737428
0
ARC
8
DEFAULT_255_2_778
10
17.4110442
20
138.0152555
40
0.1215295
50
270.5739762
51
354.2410513
0
ARC
8
DEFAULT_255_2_778
10
17.4065059
20
138.0514297
40
0.1578027
50
269.9941256
51
272.0902921
0
ARC
8
DEFAULT_255_2_778
10
17.414084
20
137.6005295
40
0.1400686
50
358.2807293
51
95.6106825
0
ARC
8
DEFAULT_255_2_778
10
17.4103233
20
137.5966963
40
0.1437669
50
266.9962473
51
359.8528392
0
ARC
8
DEFAULT_255_2_778
10
17.4725249
20
137.6369988
40
0.3335288
50
268.2414507
51
302.0223478
0
ARC
8
DEFAULT_255_2_778
10
17.5091261
20
137.561683
40
0.2504234
50
304.0600275
51
2.0468005
0
ARC
8
DEFAULT_255_2_778
10
17.4832788
20
137.5683521
40
0.2761203
50
0.4720601
51
65.8403529
0
ARC
8
DEFAULT_255_2_778
10
17.5191655
20
137.6331061
40
0.2024466
50
67.606893
51
75.8693222
0
ARC
8
DEFAULT_255_2_778
10
17.5042026
20
138.040722
40
0.2208874
50
286.9473417
51
358.0074963
0
ARC
8
DEFAULT_255_2_778
10
17.4710866
20
138.0495045
40
0.2544031
50
356.2897886
51
0.0050857
0
ARC
8
DEFAULT_255_2_778
10
17.497262
20
138.0545946
40
0.2282839
50
358.7280137
51
81.8073164
0
ARC
8
DEFAULT_255_2_778
10
17.4216369
20
137.8031283
40
0.4895182
50
77.2355086
51
90.5088275
0
ARC
8
DEFAULT_255_2_778
10
17.5842742
20
136.8386263
40
0.130243
50
89.9974494
51
92.6776592
0
ARC
8
DEFAULT_255_2_778
10
17.5843316
20
136.8391872
40
0.129682
50
45.0880141
51
90.022782
0
ARC
8
DEFAULT_255_2_778
10
17.5844118
20
136.839219
40
0.1296029
50
0.001866
51
45.1031959
0
ARC
8
DEFAULT_255_2_778
10
17.5845123
20
136.8392202
40
0.1295026
50
357.4803735
51
0.0013544
0
ARC
8
DEFAULT_255_2_778
10
17.5901979
20
136.8353512
40
0.1237052
50
339.8672523
51
359.1550732
0
ARC
8
DEFAULT_255_2_778
10
17.5794513
20
136.8325079
40
0.1329691
50
272.0853006
51
342.6124646
0
ARC
8
DEFAULT_255_2_778
10
17.6596145
20
136.8707661
40
0.2575135
50
286.787355
51
290.6121696
0
ARC
8
DEFAULT_255_2_778
10
17.6689461
20
136.8564533
40
0.24086
50
289.7330405
51
342.3216972
0
ARC
8
DEFAULT_255_2_778
10
17.641261
20
136.8612954
40
0.268735
50
343.130572
51
0.3905272
0
ARC
8
DEFAULT_255_2_778
10
17.6578783
20
136.8786767
40
0.2525904
50
356.4706028
51
80.1788963
0
ARC
8
DEFAULT_255_2_778
10
17.5921649
20
136.6517163
40
0.4881286
50
77.1212301
51
90.4900821
0
ARC
8
DEFAULT_255_2_778
10
17.5166337
20
136.354036
40
0.1865405
50
50.1507009
51
92.9634648
0
ARC
8
DEFAULT_255_2_778
10
17.5301354
20
136.3823678
40
0.1563319
50
12.621233
51
47.2950617
0
ARC
8
DEFAULT_255_2_778
10
16.8485884
20
136.2494726
40
0.8506657
50
2.8173892
51
11.3253986
0
ARC
8
DEFAULT_255_2_778
10
-29.2295733
20
132.7531175
40
47.060992
50
4.3048394
51
4.3117143
0
ARC
8
DEFAULT_255_2_778
10
18.5500859
20
136.325584
40
0.8523717
50
182.6850102
51
191.2954256
0
ARC
8
DEFAULT_255_2_778
10
17.9656837
20
136.2192399
40
0.2586603
50
193.5512904
51
195.3825538
0
ARC
8
DEFAULT_255_2_778
10
19.3415679
20
136.4768916
40
1.4608773
50
182.5958701
51
192.9049706
0
ARC
8
DEFAULT_255_2_778
10
17.6207606
20
136.4052215
40
0.261487
50
1.2064311
51
30.4123358
0
ARC
8
DEFAULT_255_2_778
10
17.6663626
20
136.420276
40
0.2147766
50
33.1081154
51
71.7312197
0
LINE
8
DEFAULT_255_2_778
10
13.4657897
20
136.5848271
11
13.9385897
21
136.5848271
0
LINE
8
DEFAULT_255_2_778
10
13.9385897
20
136.5848271
11
13.9385897
21
136.7562271
0
LINE
8
DEFAULT_255_2_778
10
13.9385897
20
136.7562271
11
13.4657897
21
136.7562271
0
LINE
8
DEFAULT_255_2_778
10
13.4657897
20
136.7562271
11
13.4657897
21
136.9671271
0
LINE
8
DEFAULT_255_2_778
10
13.4657897
20
136.9671271
11
13.9977897
21
136.9671271
0
LINE
8
DEFAULT_255_2_778
10
13.9977897
20
136.9671271
11
13.9977897
21
137.1385271
0
LINE
8
DEFAULT_255_2_778
10
13.9977897
20
137.1385271
11
13.4657897
21
137.1385271
0
LINE
8
DEFAULT_255_2_778
10
13.4657897
20
137.1385271
11
13.2651897
21
137.1385271
0
LINE
8
DEFAULT_255_2_778
10
13.2651897
20
137.1385271
11
13.2651897
21
136.9671271
0
LINE
8
DEFAULT_255_2_778
10
13.2651897
20
136.9671271
11
13.2651897
21
136.3207271
0
LINE
8
DEFAULT_255_2_778
10
13.2651897
20
136.3207271
11
13.2651897
21
136.1492271
0
LINE
8
DEFAULT_255_2_778
10
13.2651897
20
136.1492271
11
13.4657897
21
136.1492271
0
LINE
8
DEFAULT_255_2_778
10
13.4657897
20
136.1492271
11
14.0118897
21
136.1492271
0
LINE
8
DEFAULT_255_2_778
10
14.0118897
20
136.1492271
11
14.0118897
21
136.3207271
0
LINE
8
DEFAULT_255_2_778
10
14.0118897
20
136.3207271
11
13.4657897
21
136.3207271
0
LINE
8
DEFAULT_255_2_778
10
13.4657897
20
136.3207271
11
13.4657897
21
136.5845271
0
LINE
8
DEFAULT_255_2_778
10
13.4657897
20
136.5845271
11
13.4657897
21
136.5848271
0
LINE
8
DEFAULT_255_2_778
10
13.4519897
20
138.0389271
11
13.6620897
21
137.3036271
0
LINE
8
DEFAULT_255_2_778
10
13.6620897
20
137.3036271
11
13.6704897
21
137.3036271
0
LINE
8
DEFAULT_255_2_778
10
13.6704897
20
137.3036271
11
13.8464897
21
137.3036271
0
LINE
8
DEFAULT_255_2_778
10
13.8464897
20
137.3036271
11
13.8546897
21
137.3036271
0
LINE
8
DEFAULT_255_2_778
10
13.8546897
20
137.3036271
11
14.0647897
21
138.0389271
0
LINE
8
DEFAULT_255_2_778
10
14.0647897
20
138.0389271
11
14.0647897
21
137.3036271
0
LINE
8
DEFAULT_255_2_778
10
14.0647897
20
137.3036271
11
14.2515897
21
137.3036271
0
LINE
8
DEFAULT_255_2_778
10
14.2515897
20
137.3036271
11
14.2515897
21
138.2929271
0
LINE
8
DEFAULT_255_2_778
10
14.2515897
20
138.2929271
11
14.1496897
21
138.2929271
0
LINE
8
DEFAULT_255_2_778
10
14.1496897
20
138.2929271
11
14.0615897
21
138.2929271
0
LINE
8
DEFAULT_255_2_778
10
14.0615897
20
138.2929271
11
13.9655897
21
138.2929271
0
LINE
8
DEFAULT_255_2_778
10
13.9655897
20
138.2929271
11
13.7583897
21
137.5986271
0
LINE
8
DEFAULT_255_2_778
10
13.7583897
20
137.5986271
11
13.5511897
21
138.2929271
0
LINE
8
DEFAULT_255_2_778
10
13.5511897
20
138.2929271
11
13.4551897
21
138.2929271
0
LINE
8
DEFAULT_255_2_778
10
13.4551897
20
138.2929271
11
13.3669897
21
138.2929271
0
LINE
8
DEFAULT_255_2_778
10
13.3669897
20
138.2929271
11
13.2651897
21
138.2929271
0
LINE
8
DEFAULT_255_2_778
10
13.2651897
20
138.2929271
11
13.2651897
21
137.3036271
0
LINE
8
DEFAULT_255_2_778
10
13.2651897
20
137.3036271
11
13.4519897
21
137.3036271
0
LINE
8
DEFAULT_255_2_778
10
13.4519897
20
137.3036271
11
13.4519897
21
138.0389271
0
LINE
8
DEFAULT_255_2_778
10
13.4519897
20
138.0389271
11
13.4519897
21
138.0389271
0
LINE
8
DEFAULT_255_2_778
10
18.0056897
20
138.2929271
11
17.8064897
21
138.2929271
0
LINE
8
DEFAULT_255_2_778
10
17.8064897
20
138.2929271
11
17.8064897
21
137.3036271
0
LINE
8
DEFAULT_255_2_778
10
17.8064897
20
137.3036271
11
18.0056897
21
137.3036271
0
LINE
8
DEFAULT_255_2_778
10
18.0056897
20
137.3036271
11
18.0056897
21
138.2929271
0
LINE
8
DEFAULT_255_2_778
10
18.0056897
20
138.2929271
11
18.0056897
21
138.2929271
0
LINE
8
DEFAULT_255_2_778
10
18.1681897
20
137.1388271
11
17.9689897
21
137.1388271
0
LINE
8
DEFAULT_255_2_778
10
17.9689897
20
137.1388271
11
17.9689897
21
136.1495271
0
LINE
8
DEFAULT_255_2_778
10
17.9689897
20
136.1495271
11
18.1681897
21
136.1495271
0
LINE
8
DEFAULT_255_2_778
10
18.1681897
20
136.1495271
11
18.1681897
21
137.1388271
0
LINE
8
DEFAULT_255_2_778
10
18.1681897
20
137.1388271
11
18.1681897
21
137.1388271
0
LINE
8
DEFAULT_255_2_778
10
19.9765897
20
138.2929271
11
19.7773897
21
138.2929271
0
LINE
8
DEFAULT_255_2_778
10
19.7773897
20
138.2929271
11
19.7773897
21
137.3036271
0
LINE
8
DEFAULT_255_2_778
10
19.7773897
20
137.3036271
11
19.9765897
21
137.3036271
0
LINE
8
DEFAULT_255_2_778
10
19.9765897
20
137.3036271
11
19.9765897
21
138.2929271
0
LINE
8
DEFAULT_255_2_778
10
19.9765897
20
138.2929271
11
19.9765897
21
138.2929271
0
LINE
8
DEFAULT_255_2_778
10
14.5298897
20
138.2929271
11
14.3306897
21
138.2929271
0
LINE
8
DEFAULT_255_2_778
10
14.3306897
20
138.2929271
11
14.3306897
21
137.3036271
0
LINE
8
DEFAULT_255_2_778
10
14.3306897
20
137.3036271
11
14.5298897
21
137.3036271
0
LINE
8
DEFAULT_255_2_778
10
14.5298897
20
137.3036271
11
14.5298897
21
138.2929271
0
LINE
8
DEFAULT_255_2_778
10
14.5298897
20
138.2929271
11
14.5298897
21
138.2929271
0
LINE
8
DEFAULT_255_2_778
10
19.4989897
20
137.9069271
11
19.1029897
21
137.9069271
0
LINE
8
DEFAULT_255_2_778
10
19.1029897
20
137.9069271
11
19.1029897
21
138.2926271
0
LINE
8
DEFAULT_255_2_778
10
19.1029897
20
138.2926271
11
18.9068897
21
138.2926271
0
LINE
8
DEFAULT_255_2_778
10
18.9068897
20
138.2926271
11
18.9068897
21
137.3036271
0
LINE
8
DEFAULT_255_2_778
10
18.9068897
20
137.3036271
11
19.1029897
21
137.3036271
0
LINE
8
DEFAULT_255_2_778
10
19.1029897
20
137.3036271
11
19.1029897
21
137.7354271
0
LINE
8
DEFAULT_255_2_778
10
19.1029897
20
137.7354271
11
19.4989897
21
137.7354271
0
LINE
8
DEFAULT_255_2_778
10
19.4989897
20
137.7354271
11
19.4989897
21
137.3036271
0
LINE
8
DEFAULT_255_2_778
10
19.4989897
20
137.3036271
11
19.6950897
21
137.3036271
0
LINE
8
DEFAULT_255_2_778
10
19.6950897
20
137.3036271
11
19.6950897
21
138.2926271
0
LINE
8
DEFAULT_255_2_778
10
19.6950897
20
138.2926271
11
19.4989897
21
138.2926271
0
LINE
8
DEFAULT_255_2_778
10
19.4989897
20
138.2926271
11
19.4989897
21
137.9069271
0
LINE
8
DEFAULT_255_2_778
10
19.4989897
20
137.9069271
11
19.4989897
21
137.9069271
0
LINE
8
DEFAULT_255_2_778
10
14.8246897
20
137.3036271
11
15.0280897
21
137.3036271
0
LINE
8
DEFAULT_255_2_778
10
15.0280897
20
137.3036271
11
15.0280897
21
138.1215271
0
LINE
8
DEFAULT_255_2_778
10
15.0280897
20
138.1215271
11
15.2696897
21
138.1215271
0
LINE
8
DEFAULT_255_2_778
10
15.2696897
20
138.1215271
11
15.2696897
21
138.2929271
0
LINE
8
DEFAULT_255_2_778
10
15.2696897
20
138.2929271
11
15.0280897
21
138.2929271
0
LINE
8
DEFAULT_255_2_778
10
15.0280897
20
138.2929271
11
14.8246897
21
138.2929271
0
LINE
8
DEFAULT_255_2_778
10
14.8246897
20
138.2929271
11
14.5830897
21
138.2929271
0
LINE
8
DEFAULT_255_2_778
10
14.5830897
20
138.2929271
11
14.5830897
21
138.1215271
0
LINE
8
DEFAULT_255_2_778
10
14.5830897
20
138.1215271
11
14.8246897
21
138.1215271
0
LINE
8
DEFAULT_255_2_778
10
14.8246897
20
138.1215271
11
14.8246897
21
137.3036271
0
LINE
8
DEFAULT_255_2_778
10
14.8246897
20
137.3036271
11
14.8246897
21
137.3036271
0
LINE
8
DEFAULT_255_2_778
10
16.6422897
20
136.1495271
11
16.8454897
21
136.1495271
0
LINE
8
DEFAULT_255_2_778
10
16.8454897
20
136.1495271
11
16.8454897
21
136.9673271
0
LINE
8
DEFAULT_255_2_778
10
16.8454897
20
136.9673271
11
17.0873897
21
136.9673271
0
LINE
8
DEFAULT_255_2_778
10
17.0873897
20
136.9673271
11
17.0873897
21
137.1391271
0
LINE
8
DEFAULT_255_2_778
10
17.0873897
20
137.1391271
11
16.8454897
21
137.1391271
0
LINE
8
DEFAULT_255_2_778
10
16.8454897
20
137.1391271
11
16.6422897
21
137.1391271
0
LINE
8
DEFAULT_255_2_778
10
16.6422897
20
137.1391271
11
16.4004897
21
137.1391271
0
LINE
8
DEFAULT_255_2_778
10
16.4004897
20
137.1391271
11
16.4004897
21
136.9673271
0
LINE
8
DEFAULT_255_2_778
10
16.4004897
20
136.9673271
11
16.6422897
21
136.9673271
0
LINE
8
DEFAULT_255_2_778
10
16.6422897
20
136.9673271
11
16.6422897
21
136.1495271
0
LINE
8
DEFAULT_255_2_778
10
16.6422897
20
136.1495271
11
16.6422897
21
136.1495271
0
LINE
8
DEFAULT_255_2_778
10
16.9007897
20
137.6121271
11
16.9007897
21
138.2926271
0
LINE
8
DEFAULT_255_2_778
10
16.9007897
20
138.2926271
11
16.7015897
21
138.2926271
0
LINE
8
DEFAULT_255_2_778
10
16.7015897
20
138.2926271
11
16.7015897
21
137.5941271
0
LINE
8
DEFAULT_255_2_778
10
16.3120897
20
137.5941271
11
16.3120897
21
138.2926271
0
LINE
8
DEFAULT_255_2_778
10
16.3120897
20
138.2926271
11
16.1162897
21
138.2926271
0
LINE
8
DEFAULT_255_2_778
10
16.1162897
20
138.2926271
11
16.1162897
21
137.6124271
0
LINE
8
DEFAULT_255_2_778
10
15.0000897
20
136.5848271
11
15.4730897
21
136.5848271
0
LINE
8
DEFAULT_255_2_778
10
15.4730897
20
136.5848271
11
15.4730897
21
136.7562271
0
LINE
8
DEFAULT_255_2_778
10
15.4730897
20
136.7562271
11
15.0000897
21
136.7562271
0
LINE
8
DEFAULT_255_2_778
10
15.0000897
20
136.7562271
11
15.0000897
21
136.9671271
0
LINE
8
DEFAULT_255_2_778
10
15.0000897
20
136.9671271
11
15.5320897
21
136.9671271
0
LINE
8
DEFAULT_255_2_778
10
15.5320897
20
136.9671271
11
15.5320897
21
137.1385271
0
LINE
8
DEFAULT_255_2_778
10
15.5320897
20
137.1385271
11
15.0000897
21
137.1385271
0
LINE
8
DEFAULT_255_2_778
10
15.0000897
20
137.1385271
11
14.7997897
21
137.1385271
0
LINE
8
DEFAULT_255_2_778
10
14.7997897
20
137.1385271
11
14.7997897
21
136.9671271
0
LINE
8
DEFAULT_255_2_778
10
14.7997897
20
136.9671271
11
14.7997897
21
136.3207271
0
LINE
8
DEFAULT_255_2_778
10
14.7997897
20
136.3207271
11
14.7997897
21
136.1492271
0
LINE
8
DEFAULT_255_2_778
10
14.7997897
20
136.1492271
11
15.0000897
21
136.1492271
0
LINE
8
DEFAULT_255_2_778
10
15.0000897
20
136.1492271
11
15.5461897
21
136.1492271
0
LINE
8
DEFAULT_255_2_778
10
15.5461897
20
136.1492271
11
15.5461897
21
136.3207271
0
LINE
8
DEFAULT_255_2_778
10
15.5461897
20
136.3207271
11
15.0000897
21
136.3207271
0
LINE
8
DEFAULT_255_2_778
10
15.0000897
20
136.3207271
11
15.0000897
21
136.5845271
0
LINE
8
DEFAULT_255_2_778
10
15.0000897
20
136.5845271
11
15.0000897
21
136.5848271
0
LINE
8
DEFAULT_255_2_778
10
17.4064897
20
137.8936271
11
17.1690897
21
137.8936271
0
LINE
8
DEFAULT_255_2_778
10
17.1690897
20
137.8936271
11
17.1690897
21
138.1352271
0
LINE
8
DEFAULT_255_2_778
10
17.1690897
20
138.1352271
11
17.4175897
21
138.1352271
0
LINE
8
DEFAULT_255_2_778
10
17.4175897
20
138.1352271
11
17.4175897
21
138.1355271
0
LINE
8
DEFAULT_255_2_778
10
17.4027897
20
137.4528271
11
17.1690897
21
137.4528271
0
LINE
8
DEFAULT_255_2_778
10
17.1690897
20
137.4528271
11
17.1690897
21
137.7399271
0
LINE
8
DEFAULT_255_2_778
10
17.1690897
20
137.7399271
11
17.4003897
21
137.7399271
0
LINE
8
DEFAULT_255_2_778
10
17.1767897
20
137.3036271
11
17.4622897
21
137.3036271
0
LINE
8
DEFAULT_255_2_778
10
17.4172897
20
138.2926271
11
17.1770897
21
138.2926271
0
LINE
8
DEFAULT_255_2_778
10
17.1770897
20
138.2926271
11
16.9722897
21
138.2926271
0
LINE
8
DEFAULT_255_2_778
10
16.9722897
20
138.2926271
11
16.9711897
21
138.2926271
0
LINE
8
DEFAULT_255_2_778
10
16.9711897
20
138.2926271
11
16.9711897
21
137.3036271
0
LINE
8
DEFAULT_255_2_778
10
16.9711897
20
137.3036271
11
16.9722897
21
137.3036271
0
LINE
8
DEFAULT_255_2_778
10
16.9722897
20
137.3036271
11
17.1770897
21
137.3036271
0
LINE
8
DEFAULT_255_2_778
10
17.1770897
20
137.3036271
11
17.1767897
21
137.3036271
0
LINE
8
DEFAULT_255_2_778
10
17.3368897
20
136.6993271
11
17.3368897
21
136.9687271
0
LINE
8
DEFAULT_255_2_778
10
17.3368897
20
136.9687271
11
17.5781897
21
136.9687271
0
LINE
8
DEFAULT_255_2_778
10
17.5842897
20
136.6996271
11
17.3370897
21
136.6996271
0
LINE
8
DEFAULT_255_2_778
10
17.3370897
20
136.6996271
11
17.3368897
21
136.6993271
0
LINE
8
DEFAULT_255_2_778
10
17.5879897
20
137.1398271
11
17.3368897
21
137.1398271
0
LINE
8
DEFAULT_255_2_778
10
17.3368897
20
137.1398271
11
17.1383897
21
137.1398271
0
LINE
8
DEFAULT_255_2_778
10
17.1383897
20
137.1398271
11
17.1362897
21
137.1398271
0
LINE
8
DEFAULT_255_2_778
10
17.1362897
20
137.1398271
11
17.1362897
21
136.1506271
0
LINE
8
DEFAULT_255_2_778
10
17.1362897
20
136.1506271
11
17.3368897
21
136.1506271
0
LINE
8
DEFAULT_255_2_778
10
17.3368897
20
136.1506271
11
17.3368897
21
136.5403271
0
LINE
8
DEFAULT_255_2_778
10
17.3368897
20
136.5403271
11
17.5069897
21
136.5403271
0
LINE
8
DEFAULT_255_2_778
10
17.7162897
20
136.1506271
11
17.9175897
21
136.1506271
0
LINE
8
DEFAULT_255_2_778
10
14.2763897
20
137.1388271
11
14.0760897
21
137.1388271
0
LINE
8
DEFAULT_255_2_778
10
14.0760897
20
137.1388271
11
14.0760897
21
136.3210271
0
LINE
8
DEFAULT_255_2_778
10
14.0760897
20
136.3210271
11
14.0760897
21
136.1495271
0
LINE
8
DEFAULT_255_2_778
10
14.0760897
20
136.1495271
11
14.2763897
21
136.1495271
0
LINE
8
DEFAULT_255_2_778
10
14.2763897
20
136.1495271
11
14.7428897
21
136.1495271
0
LINE
8
DEFAULT_255_2_778
10
14.7428897
20
136.1495271
11
14.7428897
21
136.3210271
0
LINE
8
DEFAULT_255_2_778
10
14.7428897
20
136.3210271
11
14.2763897
21
136.3210271
0
LINE
8
DEFAULT_255_2_778
10
14.2763897
20
136.3210271
11
14.2763897
21
137.1388271
0
LINE
8
DEFAULT_255_2_778
10
14.2763897
20
137.1388271
11
14.2763897
21
137.1388271
0
ARC
8
DEFAULT_255_2_778
10
15.4584271
20
136.7646969
40
0.9681224
50
72.4822103
51
81.3184214
0
ARC
8
DEFAULT_255_2_778
10
15.7160297
20
137.5413918
40
0.1503783
50
28.8883513
51
77.0092434
0
ARC
8
DEFAULT_255_2_778
10
15.7432379
20
137.5703196
40
0.113238
50
358.9917455
51
22.7117017
0
ARC
8
DEFAULT_255_2_778
10
15.7394861
20
137.5744918
40
0.1171346
50
289.2958104
51
356.9831562
0
ARC
8
DEFAULT_255_2_778
10
15.6668261
20
137.7319882
40
0.2902651
50
268.4665462
51
292.5613311
0
ARC
8
DEFAULT_255_2_778
10
15.6496856
20
137.6729179
40
0.2312808
50
236.4956947
51
272.3225735
0
ARC
8
DEFAULT_255_2_778
10
15.6106646
20
137.6046839
40
0.1529307
50
178.9722202
51
234.5742435
0
ARC
8
DEFAULT_255_2_778
10
15.5656113
20
137.5951079
40
0.3002058
50
177.6481608
51
245.5596397
0
ARC
8
DEFAULT_255_2_778
10
15.6409971
20
137.7673561
40
0.488217
50
245.8690375
51
267.169035
0
ARC
8
DEFAULT_255_2_778
10
15.6671503
20
138.0183916
40
0.7403648
50
266.1069867
51
270.0547972
0
ARC
8
DEFAULT_255_2_778
10
15.6772894
20
137.8496135
40
0.5716642
50
269.0547216
51
287.7147747
0
ARC
8
DEFAULT_255_2_778
10
15.7598889
20
137.6039091
40
0.3125017
50
286.995984
51
325.1221533
0
ARC
8
DEFAULT_255_2_778
10
15.7678294
20
137.587361
40
0.2966627
50
326.8673922
51
0.8625726
0
ARC
8
DEFAULT_255_2_778
10
15.7898286
20
137.5959409
40
0.2746606
50
359.1417932
51
76.9739731
0
ARC
8
DEFAULT_255_2_778
10
15.6705461
20
137.3150719
40
0.577616
50
71.7185727
51
79.1315439
0
ARC
8
DEFAULT_255_2_778
10
14.2492968
20
129.961467
40
8.0673056
50
79.0662148
51
79.6216572
0
ARC
8
DEFAULT_255_2_778
10
16.4356585
20
141.8391581
40
4.0099443
50
259.1227669
51
259.4665204
0
ARC
8
DEFAULT_255_2_778
10
15.7836732
20
138.5441142
40
0.6513291
50
249.9945768
51
260.7485895
0
ARC
8
DEFAULT_255_2_778
10
15.5880401
20
138.0330999
40
0.1046098
50
178.6705173
51
254.9333545
0
ARC
8
DEFAULT_255_2_778
10
15.6049957
20
138.0296688
40
0.1216785
50
93.288632
51
177.2403935
0
ARC
8
DEFAULT_255_2_778
10
15.6585677
20
137.8426752
40
0.3143588
50
89.6189463
51
101.1057977
0
ARC
8
DEFAULT_255_2_778
10
15.6722733
20
137.954516
40
0.2028439
50
53.5634072
51
93.2825843
0
ARC
8
DEFAULT_255_2_778
10
15.7018505
20
138.0127144
40
0.1388739
50
357.1985816
51
49.1152298
0
ARC
8
DEFAULT_255_2_778
10
15.7254907
20
138.0059274
40
0.3087677
50
359.9999335
51
2.3703878
0
ARC
8
DEFAULT_255_2_778
10
15.7353555
20
138.0074337
40
0.298851
50
2.1600756
51
60.1092229
0
ARC
8
DEFAULT_255_2_778
10
15.6766212
20
137.9008133
40
0.4205645
50
60.4106856
51
86.1444419
0
ARC
8
DEFAULT_255_2_778
10
15.6536151
20
137.7241228
40
0.5985046
50
85.0843314
51
90.0628677
0
ARC
8
DEFAULT_255_2_778
10
15.6529718
20
137.8475466
40
0.4750804
50
90.001616
51
92.2300394
0
ARC
8
DEFAULT_255_2_778
10
15.6281193
20
137.952687
40
0.3696351
50
89.0131319
51
149.6364996
0
ARC
8
DEFAULT_255_2_778
10
15.5505461
20
138.0249055
40
0.2671974
50
154.5962367
51
180.4885883
0
ARC
8
DEFAULT_255_2_778
10
15.5651524
20
138.023384
40
0.281795
50
180.1539064
51
255.1120325
0
ARC
8
DEFAULT_255_2_778
10
15.7094242
20
138.346232
40
0.6333958
50
249.9962237
51
260.4976723
0
ARC
8
DEFAULT_255_2_778
10
18.2470963
20
136.7658351
40
0.967002
50
72.4685023
51
81.3064395
0
ARC
8
DEFAULT_255_2_778
10
18.5045397
20
137.541427
40
0.1503535
50
28.8782248
51
76.9904304
0
ARC
8
DEFAULT_255_2_778
10
18.5317197
20
137.5703189
40
0.1132561
50
358.9922779
51
22.7082666
0
ARC
8
DEFAULT_255_2_778
10
18.5280402
20
137.5744088
40
0.1170763
50
289.2761556
51
357.0223042
0
ARC
8
DEFAULT_255_2_778
10
18.4553612
20
137.7322836
40
0.2905613
50
268.4611814
51
292.5289055
0
ARC
8
DEFAULT_255_2_778
10
18.4381801
20
137.6738175
40
0.2321799
50
236.6698634
51
272.3149402
0
ARC
8
DEFAULT_255_2_778
10
18.39878
20
137.6046762
40
0.1528464
50
178.9687581
51
234.7686008
0
ARC
8
DEFAULT_255_2_778
10
18.3540113
20
137.5951079
40
0.3002058
50
177.6481608
51
245.5596397
0
ARC
8
DEFAULT_255_2_778
10
18.4293971
20
137.7673561
40
0.488217
50
245.8690375
51
267.169035
0
ARC
8
DEFAULT_255_2_778
10
18.4555503
20
138.0183916
40
0.7403648
50
266.1069867
51
270.0547972
0
ARC
8
DEFAULT_255_2_778
10
18.4656836
20
137.8502451
40
0.5722957
50
269.0563423
51
287.7048702
0
ARC
8
DEFAULT_255_2_778
10
18.548344
20
137.6042682
40
0.312856
50
286.9832601
51
325.0871916
0
ARC
8
DEFAULT_255_2_778
10
18.5567708
20
137.5873856
40
0.2964208
50
326.8311942
51
0.8585267
0
ARC
8
DEFAULT_255_2_778
10
18.5785756
20
137.5960282
40
0.2746149
50
359.1234265
51
76.9343785
0
ARC
8
DEFAULT_255_2_778
10
18.4596421
20
137.3161965
40
0.5764934
50
71.6999697
51
79.1198353
0
ARC
8
DEFAULT_255_2_778
10
17.0173657
20
129.8394392
40
8.1910887
50
79.0843627
51
79.6321368
0
ARC
8
DEFAULT_255_2_778
10
19.2200266
20
141.8189177
40
3.9892176
50
259.1314419
51
259.4772924
0
ARC
8
DEFAULT_255_2_778
10
18.5723251
20
138.5435131
40
0.6507003
50
249.9919323
51
260.7592458
0
ARC
8
DEFAULT_255_2_778
10
18.376901
20
138.0330546
40
0.1045718
50
178.6452075
51
254.9151907
0
ARC
8
DEFAULT_255_2_778
10
18.3939581
20
138.0296016
40
0.121744
50
93.2745253
51
177.21023
0
ARC
8
DEFAULT_255_2_778
10
18.4475726
20
137.8425052
40
0.3145287
50
89.6200387
51
101.1027534
0
ARC
8
DEFAULT_255_2_778
10
18.4613489
20
137.9558453
40
0.2015212
50
53.1490002
51
93.3256649
0
ARC
8
DEFAULT_255_2_778
10
18.4902753
20
138.0126519
40
0.1391457
50
357.2298288
51
48.6469881
0
ARC
8
DEFAULT_255_2_778
10
18.5137232
20
138.0059226
40
0.3092351
50
0.0008291
51
2.3676985
0
ARC
8
DEFAULT_255_2_778
10
18.5240744
20
138.0074868
40
0.2988304
50
2.1500394
51
60.0956838
0
ARC
8
DEFAULT_255_2_778
10
18.4654399
20
137.9009909
40
0.4203859
50
60.40452
51
86.1455285
0
ARC
8
DEFAULT_255_2_778
10
18.4424157
20
137.7241686
40
0.5984588
50
85.0841409
51
90.0629301
0
ARC
8
DEFAULT_255_2_778
10
18.4417778
20
137.8471392
40
0.4754878
50
90.0023409
51
92.3231329
0
ARC
8
DEFAULT_255_2_778
10
18.4167555
20
137.9524604
40
0.3698206
50
89.1093915
51
149.6400816
0
ARC
8
DEFAULT_255_2_778
10
18.338761
20
138.0248917
40
0.2669122
50
154.6001925
51
180.486137
0
ARC
8
DEFAULT_255_2_778
10
18.3537607
20
138.0235152
40
0.2819037
50
180.1805176
51
255.132702
0
ARC
8
DEFAULT_255_2_778
10
18.4982264
20
138.3467784
40
0.6339516
50
250.0026216
51
260.4967164
0
ARC
8
DEFAULT_255_2_778
10
16.008917
20
136.5539283
40
0.2519711
50
190.2626864
51
267.3480013
0
ARC
8
DEFAULT_255_2_778
10
16.2443543
20
136.6452548
40
0.5022041
50
179.6723028
51
195.7380858
0
ARC
8
DEFAULT_255_2_778
10
16.1790511
20
136.6607671
40
0.4370755
50
148.7005643
51
181.6572045
0
ARC
8
DEFAULT_255_2_778
10
15.9957576
20
136.7708723
40
0.2232598
50
89.6148479
51
148.4074796
0
ARC
8
DEFAULT_255_2_778
10
16.0060936
20
136.792949
40
0.201372
50
41.9769772
51
92.5146611
0
ARC
8
DEFAULT_255_2_778
10
15.9522078
20
136.7552523
40
0.2667646
50
15.1848537
51
40.2549591
0
ARC
8
DEFAULT_255_2_778
10
16.028123
20
136.7655326
40
0.3935735
50
8.7091682
51
82.0550801
0
ARC
8
DEFAULT_255_2_778
10
15.9931241
20
136.6190871
40
0.543642
50
80.5350289
51
90.1544743
0
ARC
8
DEFAULT_255_2_778
10
15.9818804
20
136.7077192
40
0.4551129
50
88.7689246
51
119.6437418
0
ARC
8
DEFAULT_255_2_778
10
16.0077717
20
136.7114647
40
0.4653013
50
122.644121
51
173.3997839
0
ARC
8
DEFAULT_255_2_778
10
16.2711934
20
136.6471568
40
0.7351371
50
170.7798304
51
180.1348114
0
ARC
8
DEFAULT_255_2_778
10
16.1377257
20
136.6317615
40
0.6018225
50
178.6988735
51
210.5289552
0
ARC
8
DEFAULT_255_2_778
10
15.970325
20
136.5409953
40
0.4115783
50
211.4828222
51
265.8686737
0
ARC
8
DEFAULT_255_2_778
10
15.9909864
20
136.6657011
40
0.5375742
50
264.6297133
51
270.0503073
0
ARC
8
DEFAULT_255_2_778
10
16.0020995
20
136.5975749
40
0.4695684
50
268.7014824
51
300.1403067
0
ARC
8
DEFAULT_255_2_778
10
16.0350333
20
136.5191852
40
0.385394
50
301.7580058
51
353.77968
0
ARC
8
DEFAULT_255_2_778
10
16.0012256
20
136.5135219
40
0.2113379
50
268.8430278
51
350.1661143
0
ARC
8
DEFAULT_255_2_778
10
18.6896799
20
136.5538824
40
0.2519281
50
190.2538303
51
267.3332171
0
ARC
8
DEFAULT_255_2_778
10
18.9252249
20
136.6452581
40
0.5022746
50
179.672724
51
195.7362088
0
ARC
8
DEFAULT_255_2_778
10
18.8600432
20
136.6607917
40
0.4372682
50
148.7196987
51
181.6596982
0
ARC
8
DEFAULT_255_2_778
10
18.676443
20
136.7709906
40
0.2231415
50
89.6108896
51
148.4244661
0
ARC
8
DEFAULT_255_2_778
10
18.686876
20
136.792967
40
0.2013576
50
42.5913083
51
92.5383066
0
ARC
8
DEFAULT_255_2_778
10
18.6345542
20
136.7565973
40
0.2646316
50
15.0085433
51
40.7215892
0
ARC
8
DEFAULT_255_2_778
10
18.708623
20
136.7655326
40
0.3935735
50
8.7091682
51
82.0550801
0
ARC
8
DEFAULT_255_2_778
10
18.6736241
20
136.6190871
40
0.543642
50
80.5350289
51
90.1544743
0
ARC
8
DEFAULT_255_2_778
10
18.6623804
20
136.7077192
40
0.4551129
50
88.7689246
51
119.6437418
0
ARC
8
DEFAULT_255_2_778
10
18.6882717
20
136.7114647
40
0.4653013
50
122.644121
51
173.3997839
0
ARC
8
DEFAULT_255_2_778
10
18.9516934
20
136.6471568
40
0.7351371
50
170.7798304
51
180.1348114
0
ARC
8
DEFAULT_255_2_778
10
18.8177822
20
136.63182
40
0.6013778
50
178.7034849
51
210.5604279
0
ARC
8
DEFAULT_255_2_778
10
18.6511312
20
136.5413377
40
0.4119265
50
211.5090145
51
265.8592607
0
ARC
8
DEFAULT_255_2_778
10
18.6716883
20
136.6654521
40
0.5373252
50
264.628472
51
270.0501277
0
ARC
8
DEFAULT_255_2_778
10
18.682837
20
136.5973685
40
0.4693629
50
268.6963312
51
300.2191972
0
ARC
8
DEFAULT_255_2_778
10
18.7155684
20
136.5194124
40
0.3856821
50
301.8465101
51
353.7503927
0
ARC
8
DEFAULT_255_2_778
10
18.6820648
20
136.5133604
40
0.2111733
50
268.8857714
51
350.2028431
0
LINE
8
DEFAULT_255_2_778
10
15.4577584
20
137.6074271
11
15.2656584
21
137.6074271
0
LINE
8
DEFAULT_255_2_778
10
15.8405584
20
138.0059271
11
16.0342584
21
138.0059271
0
LINE
8
DEFAULT_255_2_778
10
18.2459584
20
137.6074271
11
18.0540584
21
137.6074271
0
LINE
8
DEFAULT_255_2_778
10
18.6292584
20
138.0059271
11
18.8229584
21
138.0059271
0
LINE
8
DEFAULT_255_2_778
10
16.2096584
20
136.8251271
11
16.4171584
21
136.8251271
0
LINE
8
DEFAULT_255_2_778
10
16.4181584
20
136.4774271
11
16.2094584
21
136.4774271
0
LINE
8
DEFAULT_255_2_778
10
18.8901584
20
136.8251271
11
19.0976584
21
136.8251271
0
LINE
8
DEFAULT_255_2_778
10
19.0989584
20
136.4774271
11
18.8901584
21
136.4774271
0
LINE
8
DEFAULT_255_1_234
10
10.4663823
20
134.4937341
11
10.4663823
21
133.6247
0
LINE
8
DEFAULT_255_1_234
10
10.4663823
20
133.6247
11
10.3177951
21
133.6247
0
LINE
8
DEFAULT_255_1_234
10
10.3177951
20
133.6247
11
10.3177951
21
134.4937341
0
LINE
8
DEFAULT_255_1_234
10
10.3177951
20
134.4937341
11
10.4663823
21
134.4937341
0
ARC
8
DEFAULT_255_1_234
10
10.40361
20
134.7251889
40
0.097867
50
161.415052
51
180.5526306
0
ARC
8
DEFAULT_255_1_234
10
10.3911878
20
134.7286077
40
0.0850062
50
138.1827368
51
160.9307106
0
ARC
8
DEFAULT_255_1_234
10
10.3801824
20
134.7381588
40
0.0704362
50
104.6368899
51
138.0039868
0
ARC
8
DEFAULT_255_1_234
10
10.3908978
20
134.7014963
40
0.1086221
50
92.0600725
51
105.2189128
0
ARC
8
DEFAULT_255_1_234
10
10.3932327
20
134.6672117
40
0.1429728
50
89.9756393
51
92.5012496
0
ARC
8
DEFAULT_255_1_234
10
10.3942346
20
134.6897731
40
0.1204151
50
78.0235316
51
90.4478182
0
ARC
8
DEFAULT_255_1_234
10
10.4034438
20
134.7311295
40
0.0780493
50
55.051506
51
78.3369085
0
ARC
8
DEFAULT_255_1_234
10
10.4084712
20
134.7395711
40
0.0682538
50
42.0501187
51
54.4513741
0
ARC
8
DEFAULT_255_1_234
10
10.394958
20
134.7271798
40
0.0865878
50
1.7497075
51
42.1496013
0
ARC
8
DEFAULT_255_1_234
10
10.3694912
20
134.7242738
40
0.1121515
50
359.9852656
51
2.8364544
0
ARC
8
DEFAULT_255_1_234
10
10.3860905
20
134.7233229
40
0.0955566
50
342.1070653
51
0.552888
0
ARC
8
DEFAULT_255_1_234
10
10.4003602
20
134.7193904
40
0.0807713
50
316.7107116
51
341.6516965
0
ARC
8
DEFAULT_255_1_234
10
10.4070639
20
134.7133823
40
0.0717724
50
285.4397031
51
316.5324284
0
ARC
8
DEFAULT_255_1_234
10
10.3960556
20
134.7499554
40
0.1099597
50
272.3547054
51
285.8953117
0
ARC
8
DEFAULT_255_1_234
10
10.3933714
20
134.7865048
40
0.1465932
50
269.9695369
51
272.8160237
0
ARC
8
DEFAULT_255_1_234
10
10.3923896
20
134.7645863
40
0.1246779
50
258.8431134
51
270.4153935
0
ARC
8
DEFAULT_255_1_234
10
10.3833938
20
134.7210414
40
0.0802162
50
238.5431189
51
259.1288175
0
ARC
8
DEFAULT_255_1_234
10
10.3765823
20
134.7086856
40
0.0661247
50
222.5062634
51
237.9906969
0
ARC
8
DEFAULT_255_1_234
10
10.389341
20
134.7202889
40
0.0833707
50
184.1069131
51
222.460413
0
ARC
8
DEFAULT_255_1_234
10
10.4162651
20
134.7241349
40
0.1105176
50
179.9429482
51
185.0960898
0
LINE
8
DEFAULT_255_1_234
10
11.6205431
20
134.2463565
11
11.6205431
21
134.1716614
0
LINE
8
DEFAULT_255_1_234
10
11.4157337
20
133.6881507
11
11.6245589
21
133.5243033
0
LINE
8
DEFAULT_255_1_234
10
11.6245589
20
133.5243033
11
11.5193432
21
133.4271192
0
LINE
8
DEFAULT_255_1_234
10
11.5193432
20
133.4271192
11
11.2727688
21
133.6230937
0
LINE
8
DEFAULT_255_1_234
10
10.6792233
20
134.1612201
11
10.6792233
21
134.2455534
0
LINE
8
DEFAULT_255_1_234
10
11.4663337
20
134.1604169
11
11.4663337
21
134.2471597
0
LINE
8
DEFAULT_255_1_234
10
10.8334327
20
134.257601
11
10.8334327
21
134.1716614
0
ARC
8
DEFAULT_255_1_234
10
10.7251682
20
134.1677707
40
0.8953833
50
351.453011
51
0.2489685
0
ARC
8
DEFAULT_255_1_234
10
10.9836483
20
134.1277933
40
0.6338333
50
338.6861641
51
351.5540711
0
ARC
8
DEFAULT_255_1_234
10
11.0770367
20
134.0947828
40
0.5348431
50
336.2887631
51
338.3442418
0
ARC
8
DEFAULT_255_1_234
10
11.1109989
20
134.0761698
40
0.4962747
50
321.1170344
51
336.6795229
0
ARC
8
DEFAULT_255_1_234
10
11.1741818
20
134.0275206
40
0.4165565
50
305.4419708
51
320.8705636
0
ARC
8
DEFAULT_255_1_234
10
11.1545288
20
134.1022707
40
0.4935497
50
271.6373023
51
283.8611969
0
ARC
8
DEFAULT_255_1_234
10
11.1507541
20
134.1678572
40
0.5592206
50
269.9930596
51
271.8318864
0
ARC
8
DEFAULT_255_1_234
10
11.1469984
20
134.0870681
40
0.4784458
50
252.5219675
51
270.4416499
0
ARC
8
DEFAULT_255_1_234
10
11.1326243
20
134.0331592
40
0.422716
50
237.5352116
51
252.1857531
0
ARC
8
DEFAULT_255_1_234
10
11.1415439
20
134.0445363
40
0.4371052
50
209.063312
51
237.3492538
0
ARC
8
DEFAULT_255_1_234
10
11.2285287
20
134.0991685
40
0.5397041
50
205.1183774
51
209.6470015
0
ARC
8
DEFAULT_255_1_234
10
11.3082324
20
134.132983
40
0.6262326
50
188.7215458
51
204.8240747
0
ARC
8
DEFAULT_255_1_234
10
11.5079852
20
134.1666067
40
0.8287794
50
180.3723947
51
188.9252049
0
ARC
8
DEFAULT_255_1_234
10
11.5052604
20
134.2495402
40
0.8260467
50
169.5253763
51
180.2765336
0
ARC
8
DEFAULT_255_1_234
10
11.3150053
20
134.2845309
40
0.6326007
50
155.8315255
51
169.5089989
0
ARC
8
DEFAULT_255_1_234
10
11.1869554
20
134.3439348
40
0.4914567
50
139.6258461
51
156.0379525
0
ARC
8
DEFAULT_255_1_234
10
11.1279887
20
134.3913799
40
0.4158054
50
122.6416387
51
139.3430715
0
ARC
8
DEFAULT_255_1_234
10
11.1380507
20
134.3730451
40
0.4366739
50
93.0223692
51
122.455762
0
ARC
8
DEFAULT_255_1_234
10
11.1488504
20
134.2765709
40
0.5336137
50
89.975342
51
93.6341897
0
ARC
8
DEFAULT_255_1_234
10
11.152739
20
134.3145375
40
0.4956606
50
73.9665422
51
90.4229648
0
ARC
8
DEFAULT_255_1_234
10
11.1711037
20
134.3860451
40
0.4218674
50
57.5178019
51
73.6813337
0
ARC
8
DEFAULT_255_1_234
10
11.166682
20
134.3824462
40
0.4272816
50
28.7261108
51
57.2767933
0
ARC
8
DEFAULT_255_1_234
10
11.0756152
20
134.3261688
40
0.534218
50
24.2448911
51
29.3248482
0
ARC
8
DEFAULT_255_1_234
10
10.9830253
20
134.2878819
40
0.6343711
50
9.064382
51
23.9639114
0
ARC
8
DEFAULT_255_1_234
10
10.7574581
20
134.2499925
40
0.8630926
50
359.7586264
51
9.1891435
0
ARC
8
DEFAULT_255_1_234
10
10.6320061
20
134.2513343
40
0.834338
50
359.7133237
51
7.96545
0
ARC
8
DEFAULT_255_1_234
10
10.9282278
20
134.2940681
40
0.5350538
50
7.8291991
51
20.0421623
0
ARC
8
DEFAULT_255_1_234
10
11.0906841
20
134.3531606
40
0.3621841
50
20.0677553
51
35.9161685
0
ARC
8
DEFAULT_255_1_234
10
11.1681879
20
134.410767
40
0.2656263
50
35.6594382
51
85.1578074
0
ARC
8
DEFAULT_255_1_234
10
11.1497135
20
134.2992378
40
0.3784238
50
83.7959068
51
90.095906
0
ARC
8
DEFAULT_255_1_234
10
11.1454069
20
134.3725601
40
0.3051229
50
89.3102392
51
109.9889877
0
ARC
8
DEFAULT_255_1_234
10
11.1371552
20
134.4081433
40
0.2688988
50
110.9285147
51
143.9411762
0
ARC
8
DEFAULT_255_1_234
10
11.2302498
20
134.3369236
40
0.3860887
50
143.5289163
51
163.2980757
0
ARC
8
DEFAULT_255_1_234
10
11.4210319
20
134.2769433
40
0.5860659
50
163.0418846
51
174.3140048
0
ARC
8
DEFAULT_255_1_234
10
11.6614431
20
134.2491854
40
0.8280531
50
174.0509143
51
179.4176892
0
ARC
8
DEFAULT_255_1_234
10
11.6100766
20
134.1673634
40
0.7766558
50
179.6829237
51
188.9631324
0
ARC
8
DEFAULT_255_1_234
10
11.3430327
20
134.1238752
40
0.5060992
50
188.8100743
51
202.9300012
0
ARC
8
DEFAULT_255_1_234
10
11.2213956
20
134.0743855
40
0.3747967
50
203.2069261
51
215.7876482
0
ARC
8
DEFAULT_255_1_234
10
11.1365353
20
134.0072671
40
0.2667526
50
214.7521006
51
264.2834488
0
ARC
8
DEFAULT_255_1_234
10
11.1501008
20
134.092778
40
0.3532247
50
263.4755397
51
270.0949833
0
ARC
8
DEFAULT_255_1_234
10
11.1543119
20
134.0666374
40
0.3271036
50
269.3649385
51
287.5152008
0
ARC
8
DEFAULT_255_1_234
10
11.1721277
20
134.0019238
40
0.2600406
50
288.0630309
51
323.8113348
0
ARC
8
DEFAULT_255_1_234
10
11.0850119
20
134.0669049
40
0.3687189
50
323.6547608
51
342.6590488
0
ARC
8
DEFAULT_255_1_234
10
10.8818734
20
134.1329952
40
0.5823286
50
342.4091907
51
353.6451149
0
ARC
8
DEFAULT_255_1_234
10
10.5987244
20
134.168219
40
0.8676442
50
353.4029884
51
359.4847795
0
LINE
8
DEFAULT_255_1_234
10
12.1442124
20
134.1821026
11
12.1442124
21
134.0608234
0
LINE
8
DEFAULT_255_1_234
10
12.1442124
20
134.0608234
11
11.7522636
21
134.0608234
0
LINE
8
DEFAULT_255_1_234
10
11.7522636
20
134.0608234
11
11.7522636
21
134.1821026
0
LINE
8
DEFAULT_255_1_234
10
11.7522636
20
134.1821026
11
12.1442124
21
134.1821026
0
LINE
8
DEFAULT_255_1_234
10
12.9947735
20
133.6247
11
12.7409706
21
134.0977694
0
LINE
8
DEFAULT_255_1_234
10
12.7409706
20
134.0977694
11
12.4662851
21
134.0977694
0
LINE
8
DEFAULT_255_1_234
10
12.4662851
20
134.0977694
11
12.4662851
21
133.6247
0
LINE
8
DEFAULT_255_1_234
10
12.4662851
20
133.6247
11
12.3112726
21
133.6247
0
LINE
8
DEFAULT_255_1_234
10
12.3112726
20
133.6247
11
12.3112726
21
134.7941211
0
LINE
8
DEFAULT_255_1_234
10
12.3112726
20
134.7941211
11
12.6984023
21
134.7941211
0
LINE
8
DEFAULT_255_1_234
10
12.8855418
20
134.1306995
11
13.1602273
21
133.6343381
0
LINE
8
DEFAULT_255_1_234
10
13.1602273
20
133.6343381
11
13.1602273
21
133.6247
0
LINE
8
DEFAULT_255_1_234
10
13.1602273
20
133.6247
11
12.9947735
21
133.6247
0
LINE
8
DEFAULT_255_1_234
10
12.4662851
20
134.6672196
11
12.4662851
21
134.2238677
0
LINE
8
DEFAULT_255_1_234
10
12.4662851
20
134.2238677
11
12.7032214
21
134.2238677
0
LINE
8
DEFAULT_255_1_234
10
12.7024182
20
134.6672196
11
12.4662851
21
134.6672196
0
ARC
8
DEFAULT_255_1_234
10
12.7025663
20
134.0979761
40
0.6961575
50
80.653586
51
90.3427061
0
ARC
8
DEFAULT_255_1_234
10
12.7445138
20
134.3442348
40
0.4463577
50
65.6987447
51
80.8329603
0
ARC
8
DEFAULT_255_1_234
10
12.7922778
20
134.4537322
40
0.3269094
50
50.0017161
51
65.4305835
0
ARC
8
DEFAULT_255_1_234
10
12.8141243
20
134.4832482
40
0.2902647
50
11.628416
51
49.5603263
0
ARC
8
DEFAULT_255_1_234
10
12.6605579
20
134.4457299
40
0.4482792
50
359.5655735
51
12.3691
0
ARC
8
DEFAULT_255_1_234
10
12.7682438
20
134.4394644
40
0.3405924
50
341.9983148
51
0.4822259
0
ARC
8
DEFAULT_255_1_234
10
12.8077278
20
134.4287471
40
0.2997359
50
323.8609373
51
341.61416
0
ARC
8
DEFAULT_255_1_234
10
12.7775522
20
134.4520484
40
0.3378487
50
296.7018614
51
323.6876402
0
ARC
8
DEFAULT_255_1_234
10
12.7334418
20
134.5309235
40
0.4281516
50
290.8086567
51
297.2323311
0
ARC
8
DEFAULT_255_1_234
10
12.7057947
20
134.5832351
40
0.3593766
50
269.589728
51
281.8058135
0
ARC
8
DEFAULT_255_1_234
10
12.7308846
20
134.4684743
40
0.2419125
50
281.5501019
51
303.9357432
0
ARC
8
DEFAULT_255_1_234
10
12.7446034
20
134.4446936
40
0.2145323
50
304.4415616
51
311.2106213
0
ARC
8
DEFAULT_255_1_234
10
12.757814
20
134.4307632
40
0.1953505
50
310.9875673
51
356.2715578
0
ARC
8
DEFAULT_255_1_234
10
12.6821788
20
134.4420422
40
0.2716331
50
354.9348262
51
0.0609027
0
ARC
8
DEFAULT_255_1_234
10
12.6634663
20
134.4447435
40
0.2903554
50
359.5239371
51
12.8808918
0
ARC
8
DEFAULT_255_1_234
10
12.7612218
20
134.4686728
40
0.1897315
50
12.4173452
51
43.1022135
0
ARC
8
DEFAULT_255_1_234
10
12.7673823
20
134.4723724
40
0.1827118
50
43.5751728
51
48.203944
0
ARC
8
DEFAULT_255_1_234
10
12.7504315
20
134.4502302
40
0.2105272
50
48.7809703
51
72.6969569
0
ARC
8
DEFAULT_255_1_234
10
12.7149939
20
134.342682
40
0.3237537
50
72.3702241
51
84.8791103
0
ARC
8
DEFAULT_255_1_234
10
12.7002415
20
134.2084769
40
0.4587478
50
84.5400526
51
89.7281406
0
LINE
8
DEFAULT_255_1_234
10
14.507953
20
134.4559849
11
14.3529404
21
134.4559849
0
LINE
8
DEFAULT_255_1_234
10
13.6606046
20
133.9636394
11
13.8156171
21
133.9636394
0
ARC
8
DEFAULT_255_1_234
10
14.4188217
20
135.3506768
40
1.252368
50
248.9199003
51
254.1439814
0
ARC
8
DEFAULT_255_1_234
10
14.2507712
20
134.9180234
40
0.788226
50
241.633709
51
249.0064503
0
ARC
8
DEFAULT_255_1_234
10
14.0979106
20
134.6379317
40
0.4691427
50
230.498225
51
241.8087113
0
ARC
8
DEFAULT_255_1_234
10
14.0194681
20
134.5379906
40
0.3421437
50
227.4064532
51
229.9881192
0
ARC
8
DEFAULT_255_1_234
10
13.9707201
20
134.4904088
40
0.2741476
50
200.6781896
51
228.1763934
0
ARC
8
DEFAULT_255_1_234
10
13.9779512
20
134.4889077
40
0.2804109
50
179.5061581
51
199.8694617
0
ARC
8
DEFAULT_255_1_234
10
13.9770264
20
134.496321
40
0.2795204
50
132.4834203
51
181.0242172
0
ARC
8
DEFAULT_255_1_234
10
14.0365846
20
134.4400704
40
0.3612768
50
129.2532479
51
133.4242687
0
ARC
8
DEFAULT_255_1_234
10
14.0512296
20
134.4180965
40
0.3875675
50
101.98776
51
128.8742646
0
ARC
8
DEFAULT_255_1_234
10
14.0910906
20
134.2459741
40
0.5642249
50
89.5906553
51
102.3169264
0
ARC
8
DEFAULT_255_1_234
10
14.0981398
20
134.2778148
40
0.5323783
50
77.2360837
51
90.3248275
0
ARC
8
DEFAULT_255_1_234
10
14.1188477
20
134.37454
40
0.4334697
50
63.837784
51
77.0809408
0
ARC
8
DEFAULT_255_1_234
10
14.1466239
20
134.4262911
40
0.3747796
50
45.9864267
51
64.1607727
0
ARC
8
DEFAULT_255_1_234
10
14.172712
20
134.4560866
40
0.3352302
50
32.2747395
51
45.6547121
0
ARC
8
DEFAULT_255_1_234
10
14.1793561
20
134.457988
40
0.328603
50
359.6507365
51
32.6130309
0
ARC
8
DEFAULT_255_1_234
10
14.0850656
20
134.458466
40
0.2678863
50
359.469343
51
14.9832209
0
ARC
8
DEFAULT_255_1_234
10
14.1555719
20
134.4773539
40
0.1948938
50
14.9781179
51
48.2004265
0
ARC
8
DEFAULT_255_1_234
10
14.1391363
20
134.4566983
40
0.2212521
50
48.5927837
51
74.1241538
0
ARC
8
DEFAULT_255_1_234
10
14.1057853
20
134.3466248
40
0.3362561
50
73.7888341
51
86.6652678
0
ARC
8
DEFAULT_255_1_234
10
14.0955418
20
134.2258881
40
0.4573953
50
86.2640471
51
90.0526343
0
ARC
8
DEFAULT_255_1_234
10
14.0927131
20
134.2654192
40
0.4178709
50
89.6697524
51
99.2309573
0
ARC
8
DEFAULT_255_1_234
10
14.0684582
20
134.4098964
40
0.2713749
50
99.069534
51
113.7658566
0
ARC
8
DEFAULT_255_1_234
10
14.0410773
20
134.4744677
40
0.2012469
50
114.0401004
51
127.9850673
0
ARC
8
DEFAULT_255_1_234
10
14.0170337
20
134.504073
40
0.1631167
50
127.7287463
51
176.7105154
0
ARC
8
DEFAULT_255_1_234
10
14.0849054
20
134.4939693
40
0.2315392
50
175.1779447
51
180.0581938
0
ARC
8
DEFAULT_255_1_234
10
14.0005901
20
134.4927428
40
0.1472271
50
179.6142195
51
228.1246017
0
ARC
8
DEFAULT_255_1_234
10
14.044757
20
134.5336308
40
0.2072299
50
226.5779593
51
230.8800004
0
ARC
8
DEFAULT_255_1_234
10
14.0918648
20
134.5961636
40
0.2854818
50
231.4635071
51
241.9260842
0
ARC
8
DEFAULT_255_1_234
10
14.2115826
20
134.81648
40
0.53622
50
241.7178533
51
248.3259551
0
ARC
8
DEFAULT_255_1_234
10
14.3501198
20
135.1597064
40
0.9063478
50
248.2007737
51
252.4528373
0
ARC
8
DEFAULT_255_1_234
10
14.4704923
20
135.5318441
40
1.2974635
50
252.3391078
51
254.3469452
0
ARC
8
DEFAULT_255_1_234
10
13.7162626
20
132.8341148
40
1.5037162
50
71.0197183
51
74.4087047
0
ARC
8
DEFAULT_255_1_234
10
13.8857311
20
133.3233111
40
0.9859993
50
66.1847285
51
71.086374
0
ARC
8
DEFAULT_255_1_234
10
14.0413623
20
133.67372
40
0.6025855
50
59.3536294
51
66.2691831
0
ARC
8
DEFAULT_255_1_234
10
14.1302276
20
133.8240609
40
0.4279449
50
49.1020879
51
59.3293958
0
ARC
8
DEFAULT_255_1_234
10
14.2121015
20
133.9173834
40
0.3038015
50
32.7919921
51
49.2505539
0
ARC
8
DEFAULT_255_1_234
10
14.2442105
20
133.9402191
40
0.264448
50
31.1181161
51
32.4005348
0
ARC
8
DEFAULT_255_1_234
10
14.2353643
20
133.9366779
40
0.2738556
50
8.1116974
51
30.7958831
0
ARC
8
DEFAULT_255_1_234
10
14.1543311
20
133.9228753
40
0.3560327
50
359.8389159
51
8.4706516
0
ARC
8
DEFAULT_255_1_234
10
14.2169103
20
133.9180137
40
0.2934776
50
337.4731098
51
0.7537279
0
ARC
8
DEFAULT_255_1_234
10
14.2347798
20
133.9160387
40
0.2762607
50
307.5917067
51
336.4315538
0
ARC
8
DEFAULT_255_1_234
10
14.1887626
20
133.9673102
40
0.3449979
50
307.6551545
51
308.4529766
0
ARC
8
DEFAULT_255_1_234
10
14.1657344
20
134.002825
40
0.3871988
50
284.3734338
51
307.1424381
0
ARC
8
DEFAULT_255_1_234
10
14.1162175
20
134.1849932
40
0.5759636
50
272.4382747
51
284.646547
0
ARC
8
DEFAULT_255_1_234
10
14.1035383
20
134.3649893
40
0.7563528
50
269.9708387
51
272.8178037
0
ARC
8
DEFAULT_255_1_234
10
14.0992423
20
134.1611716
40
0.5525489
50
248.2707594
51
270.4055579
0
ARC
8
DEFAULT_255_1_234
10
14.0938164
20
134.1421192
40
0.5328452
50
246.1383403
51
248.0542782
0
ARC
8
DEFAULT_255_1_234
10
14.0519543
20
134.0541843
40
0.4355005
50
233.1670131
51
246.4950969
0
ARC
8
DEFAULT_255_1_234
10
13.9965448
20
133.9793812
40
0.3424126
50
215.3403242
51
233.0843104
0
ARC
8
DEFAULT_255_1_234
10
13.9692879
20
133.9595549
40
0.3087104
50
179.2419209
51
215.2648451
0
ARC
8
DEFAULT_255_1_234
10
14.0460473
20
133.9609666
40
0.2304457
50
179.335461
51
199.1045811
0
ARC
8
DEFAULT_255_1_234
10
14.012815
20
133.9522766
40
0.1962176
50
199.8828939
51
232.7063202
0
ARC
8
DEFAULT_255_1_234
10
14.0600418
20
134.0116788
40
0.2720938
50
232.3738199
51
255.5136649
0
ARC
8
DEFAULT_255_1_234
10
14.0941285
20
134.1360835
40
0.4010747
50
255.2446292
51
267.5320849
0
ARC
8
DEFAULT_255_1_234
10
14.1028908
20
134.2593702
40
0.5246356
50
267.1557994
51
270.0286766
0
ARC
8
DEFAULT_255_1_234
10
14.105668
20
134.214995
40
0.4802668
50
269.7000017
51
278.1660162
0
ARC
8
DEFAULT_255_1_234
10
14.1312685
20
134.0419515
40
0.3053425
50
278.0231263
51
290.625471
0
ARC
8
DEFAULT_255_1_234
10
14.1660372
20
133.9492025
40
0.206291
50
290.6619762
51
307.0370976
0
ARC
8
DEFAULT_255_1_234
10
14.1960761
20
133.9123504
40
0.1587906
50
306.3943566
51
355.3030547
0
ARC
8
DEFAULT_255_1_234
10
14.1448693
20
133.9200113
40
0.2104809
50
354.3660432
51
0.0698737
0
ARC
8
DEFAULT_255_1_234
10
14.1591038
20
133.9222617
40
0.1962563
50
359.417946
51
16.1971788
0
ARC
8
DEFAULT_255_1_234
10
14.2046348
20
133.9347418
40
0.149053
50
16.4723299
51
52.6262157
0
ARC
8
DEFAULT_255_1_234
10
14.1225402
20
133.8263433
40
0.2850296
50
52.7386432
51
62.4979148
0
ARC
8
DEFAULT_255_1_234
10
13.9840479
20
133.5657283
40
0.5801521
50
62.2515216
51
68.1220564
0
ARC
8
DEFAULT_255_1_234
10
13.812039
20
133.1429872
40
1.0365451
50
68.0062803
51
71.8053402
0
ARC
8
DEFAULT_255_1_234
10
13.6324762
20
132.6044758
40
1.6042013
50
71.7183119
51
73.9258742
0
LINE
8
DEFAULT_255_1_234
10
14.6469021
20
134.0351218
11
14.6469021
21
134.0624297
0
LINE
8
DEFAULT_255_1_234
10
15.3842156
20
134.0784932
11
15.3842156
21
134.0166488
0
LINE
8
DEFAULT_255_1_234
10
15.3842156
20
134.0166488
11
14.7954892
21
134.0166488
0
LINE
8
DEFAULT_255_1_234
10
15.2822125
20
133.8471792
11
15.3729712
21
133.7764999
0
LINE
8
DEFAULT_255_1_234
10
14.8003083
20
134.1387313
11
15.2356285
21
134.1387313
0
LINE
8
DEFAULT_255_1_234
10
15.2356285
20
134.1387313
11
15.2356285
21
134.1499757
0
ARC
8
DEFAULT_255_1_234
10
15.0408386
20
134.0462332
40
0.4376191
50
252.3266134
51
270.5810217
0
ARC
8
DEFAULT_255_1_234
10
15.0203475
20
133.9721644
40
0.3608374
50
223.3000567
51
251.8561855
0
ARC
8
DEFAULT_255_1_234
10
15.0414835
20
133.9926937
40
0.3902993
50
190.9374509
51
223.3654032
0
ARC
8
DEFAULT_255_1_234
10
15.2139808
20
134.0316885
40
0.5670891
50
179.6531105
51
191.4989439
0
ARC
8
DEFAULT_255_1_234
10
15.226182
20
134.0656417
40
0.5792888
50
167.4007466
51
180.3176909
0
ARC
8
DEFAULT_255_1_234
10
15.1209881
20
134.0878885
40
0.471777
50
154.1835823
51
167.250763
0
ARC
8
DEFAULT_255_1_234
10
15.0578349
20
134.1211417
40
0.4004528
50
134.3149965
51
154.5315275
0
ARC
8
DEFAULT_255_1_234
10
15.0360844
20
134.1402228
40
0.371612
50
122.8616532
51
133.9707695
0
ARC
8
DEFAULT_255_1_234
10
15.0257418
20
134.1624703
40
0.3473289
50
89.8249009
51
123.4199222
0
ARC
8
DEFAULT_255_1_234
10
15.0307459
20
134.0977967
40
0.4120197
50
74.7876118
51
90.5482747
0
ARC
8
DEFAULT_255_1_234
10
15.0601202
20
134.206303
40
0.2996077
50
39.8178249
51
74.7633718
0
ARC
8
DEFAULT_255_1_234
10
15.0088523
20
134.1663351
40
0.3645855
50
16.8990863
51
39.4829761
0
ARC
8
DEFAULT_255_1_234
10
14.8193819
20
134.1056526
40
0.5635218
50
4.9636328
51
17.2026414
0
ARC
8
DEFAULT_255_1_234
10
14.5775889
20
134.080134
40
0.8066286
50
359.8834553
51
5.2834307
0
ARC
8
DEFAULT_255_1_234
10
15.1813414
20
134.0232803
40
0.3859091
50
180.9846213
51
194.9401313
0
ARC
8
DEFAULT_255_1_234
10
15.0763691
20
133.9945849
40
0.2770883
50
194.80314
51
222.0412631
0
ARC
8
DEFAULT_255_1_234
10
15.0459573
20
133.9644116
40
0.2343055
50
221.5417084
51
268.8614402
0
ARC
8
DEFAULT_255_1_234
10
15.0532568
20
134.0320686
40
0.3021528
50
267.732405
51
270.0097136
0
ARC
8
DEFAULT_255_1_234
10
15.0550378
20
134.0522105
40
0.3222994
50
269.6924892
51
280.4117579
0
ARC
8
DEFAULT_255_1_234
10
15.0726785
20
133.9603193
40
0.2287344
50
280.2255091
51
298.6338936
0
ARC
8
DEFAULT_255_1_234
10
15.0843577
20
133.9359223
40
0.2017294
50
299.0430333
51
300.4643464
0
ARC
8
DEFAULT_255_1_234
10
15.0163582
20
134.0493038
40
0.3339357
50
300.6577328
51
322.0378878
0
ARC
8
DEFAULT_255_1_234
10
14.9813121
20
134.0797021
40
0.3802736
50
321.6750233
51
322.3046845
0
ARC
8
DEFAULT_255_1_234
10
15.0744083
20
133.963037
40
0.3520454
50
276.9728461
51
328.0035423
0
ARC
8
DEFAULT_255_1_234
10
15.0467135
20
134.1110841
40
0.5024498
50
269.8361028
51
278.0581756
0
ARC
8
DEFAULT_255_1_234
10
15.0239873
20
134.1855757
40
0.202159
50
89.2018686
51
117.2851756
0
ARC
8
DEFAULT_255_1_234
10
15.0293042
20
134.1813752
40
0.2083484
50
118.0551165
51
137.4540413
0
ARC
8
DEFAULT_255_1_234
10
15.0667782
20
134.1473304
40
0.2589774
50
137.5109581
51
158.8516286
0
ARC
8
DEFAULT_255_1_234
10
15.1805617
20
134.1014074
40
0.38167
50
158.5845963
51
170.1721436
0
ARC
8
DEFAULT_255_1_234
10
15.2975007
20
134.0781823
40
0.5008657
50
169.8376422
51
173.0566086
0
ARC
8
DEFAULT_255_1_234
10
14.8278081
20
134.1292509
40
0.4083467
50
2.9091802
51
12.8847116
0
ARC
8
DEFAULT_255_1_234
10
14.9648757
20
134.1615101
40
0.2675383
50
12.6957781
51
28.6404489
0
ARC
8
DEFAULT_255_1_234
10
15.0190428
20
134.1895458
40
0.2065654
50
29.0169854
51
41.1487595
0
ARC
8
DEFAULT_255_1_234
10
15.0393213
20
134.2072003
40
0.1796786
50
41.1646065
51
85.0013516
0
ARC
8
DEFAULT_255_1_234
10
15.027231
20
134.1337431
40
0.2539726
50
83.7280015
51
90.0964893
0
LINE
8
DEFAULT_255_1_234
10
15.9761547
20
134.4985531
11
15.9761547
21
134.3604072
0
LINE
8
DEFAULT_255_1_234
10
15.704682
20
134.2415375
11
15.704682
21
133.6247
0
LINE
8
DEFAULT_255_1_234
10
15.704682
20
133.6247
11
15.5560948
21
133.6247
0
LINE
8
DEFAULT_255_1_234
10
15.5560948
20
133.6247
11
15.5560948
21
134.4937341
0
LINE
8
DEFAULT_255_1_234
10
15.5560948
20
134.4937341
11
15.7006661
21
134.4937341
0
LINE
8
DEFAULT_255_1_234
10
15.7006661
20
134.4937341
11
15.7030756
21
134.3933374
0
ARC
8
DEFAULT_255_1_234
10
15.9094953
20
133.9544342
40
0.4114092
50
80.6754243
51
86.8932892
0
ARC
8
DEFAULT_255_1_234
10
15.9034487
20
133.85767
40
0.5083596
50
86.8038578
51
90.0431435
0
ARC
8
DEFAULT_255_1_234
10
15.8997468
20
134.1033866
40
0.2626638
50
89.2759698
51
106.6213787
0
ARC
8
DEFAULT_255_1_234
10
15.8793032
20
134.177683
40
0.1856317
50
107.1346045
51
157.6458115
0
ARC
8
DEFAULT_255_1_234
10
15.9484633
20
134.1393311
40
0.2643398
50
155.6586782
51
157.2539184
0
ARC
8
DEFAULT_255_1_234
10
15.9279836
20
134.2562157
40
0.2634121
50
127.8165941
51
148.6302098
0
ARC
8
DEFAULT_255_1_234
10
15.9026305
20
134.2822218
40
0.2273596
50
91.3329982
51
126.7875809
0
ARC
8
DEFAULT_255_1_234
10
15.9102245
20
134.2107195
40
0.299078
50
89.986594
51
92.4688449
0
ARC
8
DEFAULT_255_1_234
10
15.911064
20
134.2382078
40
0.2715908
50
85.3589899
51
90.1623399
0
ARC
8
DEFAULT_255_1_234
10
15.9195156
20
134.3386164
40
0.1708278
50
78.401942
51
85.4594656
0
ARC
8
DEFAULT_255_1_234
10
15.934004
20
134.4077236
40
0.1002194
50
67.7858312
51
78.5728455
0
ARC
8
DEFAULT_255_1_234
10
15.9447892
20
134.4356887
40
0.0702548
50
63.4835954
51
67.3062642
0
LINE
8
DEFAULT_255_1_234
10
16.2741322
20
134.4937341
11
16.2741322
21
133.6247
0
LINE
8
DEFAULT_255_1_234
10
16.2741322
20
133.6247
11
16.1255451
21
133.6247
0
LINE
8
DEFAULT_255_1_234
10
16.1255451
20
133.6247
11
16.1255451
21
134.4937341
0
LINE
8
DEFAULT_255_1_234
10
16.1255451
20
134.4937341
11
16.2741322
21
134.4937341
0
ARC
8
DEFAULT_255_1_234
10
16.2113599
20
134.7251889
40
0.097867
50
161.415052
51
180.5526306
0
ARC
8
DEFAULT_255_1_234
10
16.1989378
20
134.7286077
40
0.0850062
50
138.1827368
51
160.9307106
0
ARC
8
DEFAULT_255_1_234
10
16.1879323
20
134.7381588
40
0.0704362
50
104.6368899
51
138.0039868
0
ARC
8
DEFAULT_255_1_234
10
16.1986478
20
134.7014963
40
0.1086221
50
92.0600725
51
105.2189128
0
ARC
8
DEFAULT_255_1_234
10
16.2009826
20
134.6672117
40
0.1429728
50
89.9756393
51
92.5012496
0
ARC
8
DEFAULT_255_1_234
10
16.2019846
20
134.6897731
40
0.1204151
50
78.0235316
51
90.4478182
0
ARC
8
DEFAULT_255_1_234
10
16.2111937
20
134.7311295
40
0.0780493
50
55.051506
51
78.3369085
0
ARC
8
DEFAULT_255_1_234
10
16.2162212
20
134.7395711
40
0.0682538
50
42.0501187
51
54.4513741
0
ARC
8
DEFAULT_255_1_234
10
16.2027079
20
134.7271798
40
0.0865878
50
1.7497075
51
42.1496013
0
ARC
8
DEFAULT_255_1_234
10
16.1772412
20
134.7242738
40
0.1121515
50
359.9852656
51
2.8364544
0
ARC
8
DEFAULT_255_1_234
10
16.1938404
20
134.7233229
40
0.0955566
50
342.1070653
51
0.552888
0
ARC
8
DEFAULT_255_1_234
10
16.2081101
20
134.7193904
40
0.0807713
50
316.7107116
51
341.6516965
0
ARC
8
DEFAULT_255_1_234
10
16.2148138
20
134.7133823
40
0.0717724
50
285.4397031
51
316.5324284
0
ARC
8
DEFAULT_255_1_234
10
16.2038056
20
134.7499554
40
0.1099597
50
272.3547054
51
285.8953117
0
ARC
8
DEFAULT_255_1_234
10
16.2011213
20
134.7865048
40
0.1465932
50
269.9695369
51
272.8160237
0
ARC
8
DEFAULT_255_1_234
10
16.2001395
20
134.7645863
40
0.1246779
50
258.8431134
51
270.4153935
0
ARC
8
DEFAULT_255_1_234
10
16.1911437
20
134.7210414
40
0.0802162
50
238.5431189
51
259.1288175
0
ARC
8
DEFAULT_255_1_234
10
16.1843322
20
134.7086856
40
0.0661247
50
222.5062634
51
237.9906969
0
ARC
8
DEFAULT_255_1_234
10
16.197091
20
134.7202889
40
0.0833707
50
184.1069131
51
222.460413
0
ARC
8
DEFAULT_255_1_234
10
16.224015
20
134.7241349
40
0.1105176
50
179.9429482
51
185.0960898
0
LINE
8
DEFAULT_255_1_234
10
16.4741225
20
134.0351218
11
16.4741225
21
134.0624297
0
LINE
8
DEFAULT_255_1_234
10
17.2114361
20
134.0784932
11
17.2114361
21
134.0166488
0
LINE
8
DEFAULT_255_1_234
10
17.2114361
20
134.0166488
11
16.6227097
21
134.0166488
0
LINE
8
DEFAULT_255_1_234
10
17.109433
20
133.8471792
11
17.2001917
21
133.7764999
0
LINE
8
DEFAULT_255_1_234
10
16.6275287
20
134.1387313
11
17.0628489
21
134.1387313
0
LINE
8
DEFAULT_255_1_234
10
17.0628489
20
134.1387313
11
17.0628489
21
134.1499757
0
ARC
8
DEFAULT_255_1_234
10
16.868059
20
134.0462332
40
0.4376191
50
252.3266134
51
270.5810217
0
ARC
8
DEFAULT_255_1_234
10
16.8475679
20
133.9721644
40
0.3608374
50
223.3000567
51
251.8561855
0
ARC
8
DEFAULT_255_1_234
10
16.868704
20
133.9926937
40
0.3902993
50
190.9374509
51
223.3654032
0
ARC
8
DEFAULT_255_1_234
10
17.0412012
20
134.0316885
40
0.5670891
50
179.6531105
51
191.4989439
0
ARC
8
DEFAULT_255_1_234
10
17.0534024
20
134.0656417
40
0.5792888
50
167.4007466
51
180.3176909
0
ARC
8
DEFAULT_255_1_234
10
16.9482086
20
134.0878885
40
0.471777
50
154.1835823
51
167.250763
0
ARC
8
DEFAULT_255_1_234
10
16.8850553
20
134.1211417
40
0.4004528
50
134.3149965
51
154.5315275
0
ARC
8
DEFAULT_255_1_234
10
16.8633048
20
134.1402228
40
0.371612
50
122.8616532
51
133.9707695
0
ARC
8
DEFAULT_255_1_234
10
16.8529623
20
134.1624703
40
0.3473289
50
89.8249009
51
123.4199222
0
ARC
8
DEFAULT_255_1_234
10
16.8579664
20
134.0977967
40
0.4120197
50
74.7876118
51
90.5482747
0
ARC
8
DEFAULT_255_1_234
10
16.8873407
20
134.206303
40
0.2996077
50
39.8178249
51
74.7633718
0
ARC
8
DEFAULT_255_1_234
10
16.8360727
20
134.1663351
40
0.3645855
50
16.8990863
51
39.4829761
0
ARC
8
DEFAULT_255_1_234
10
16.6466024
20
134.1056526
40
0.5635218
50
4.9636328
51
17.2026414
0
ARC
8
DEFAULT_255_1_234
10
16.4048094
20
134.080134
40
0.8066286
50
359.8834553
51
5.2834307
0
ARC
8
DEFAULT_255_1_234
10
17.0085618
20
134.0232803
40
0.3859091
50
180.9846213
51
194.9401313
0
ARC
8
DEFAULT_255_1_234
10
16.9035896
20
133.9945849
40
0.2770883
50
194.80314
51
222.0412631
0
ARC
8
DEFAULT_255_1_234
10
16.8731778
20
133.9644116
40
0.2343055
50
221.5417084
51
268.8614402
0
ARC
8
DEFAULT_255_1_234
10
16.8804772
20
134.0320686
40
0.3021528
50
267.732405
51
270.0097136
0
ARC
8
DEFAULT_255_1_234
10
16.8822583
20
134.0522105
40
0.3222994
50
269.6924892
51
280.4117579
0
ARC
8
DEFAULT_255_1_234
10
16.8998989
20
133.9603193
40
0.2287344
50
280.2255091
51
298.6338936
0
ARC
8
DEFAULT_255_1_234
10
16.9115781
20
133.9359223
40
0.2017294
50
299.0430333
51
300.4643464
0
ARC
8
DEFAULT_255_1_234
10
16.8435787
20
134.0493038
40
0.3339357
50
300.6577328
51
322.0378878
0
ARC
8
DEFAULT_255_1_234
10
16.8085326
20
134.0797021
40
0.3802736
50
321.6750233
51
322.3046845
0
ARC
8
DEFAULT_255_1_234
10
16.9016287
20
133.963037
40
0.3520454
50
276.9728461
51
328.0035423
0
ARC
8
DEFAULT_255_1_234
10
16.873934
20
134.1110841
40
0.5024498
50
269.8361028
51
278.0581756
0
ARC
8
DEFAULT_255_1_234
10
16.8512077
20
134.1855757
40
0.202159
50
89.2018686
51
117.2851756
0
ARC
8
DEFAULT_255_1_234
10
16.8565246
20
134.1813752
40
0.2083484
50
118.0551165
51
137.4540413
0
ARC
8
DEFAULT_255_1_234
10
16.8939986
20
134.1473304
40
0.2589774
50
137.5109581
51
158.8516286
0
ARC
8
DEFAULT_255_1_234
10
17.0077822
20
134.1014074
40
0.38167
50
158.5845963
51
170.1721436
0
ARC
8
DEFAULT_255_1_234
10
17.1247211
20
134.0781823
40
0.5008657
50
169.8376422
51
173.0566086
0
ARC
8
DEFAULT_255_1_234
10
16.6550285
20
134.1292509
40
0.4083467
50
2.9091802
51
12.8847116
0
ARC
8
DEFAULT_255_1_234
10
16.7920962
20
134.1615101
40
0.2675383
50
12.6957781
51
28.6404489
0
ARC
8
DEFAULT_255_1_234
10
16.8462632
20
134.1895458
40
0.2065654
50
29.0169854
51
41.1487595
0
ARC
8
DEFAULT_255_1_234
10
16.8665418
20
134.2072003
40
0.1796786
50
41.1646065
51
85.0013516
0
ARC
8
DEFAULT_255_1_234
10
16.8544514
20
134.1337431
40
0.2539726
50
83.7280015
51
90.0964893
0
LINE
8
DEFAULT_255_1_234
10
18.0298702
20
134.2383248
11
17.8804799
21
134.2383248
0
LINE
8
DEFAULT_255_1_234
10
17.3471725
20
133.8921569
11
17.4957596
21
133.8921569
0
ARC
8
DEFAULT_255_1_234
10
17.7616617
20
133.8566959
40
0.1276617
50
359.3334982
51
18.5871358
0
ARC
8
DEFAULT_255_1_234
10
17.7825255
20
133.8622133
40
0.1061371
50
19.3540742
51
54.6485071
0
ARC
8
DEFAULT_255_1_234
10
17.7321157
20
133.7926919
40
0.1920087
50
54.3827097
51
65.0622807
0
ARC
8
DEFAULT_255_1_234
10
17.6552553
20
133.63099
40
0.3710447
50
64.8282493
51
71.4200025
0
ARC
8
DEFAULT_255_1_234
10
17.5650428
20
133.3663107
40
0.6506741
50
71.3164301
51
75.8006402
0
ARC
8
DEFAULT_255_1_234
10
17.4809248
20
133.0422561
40
0.9854641
50
75.6809531
51
78.0061883
0
ARC
8
DEFAULT_255_1_234
10
17.9257782
20
135.140177
40
1.1591028
50
254.6901892
51
258.0466452
0
ARC
8
DEFAULT_255_1_234
10
17.821969
20
134.7642781
40
0.7691345
50
249.9010773
51
254.755261
0
ARC
8
DEFAULT_255_1_234
10
17.7216032
20
134.4916982
40
0.478665
50
243.3097214
51
249.9709442
0
ARC
8
DEFAULT_255_1_234
10
17.6587053
20
134.3662778
40
0.3383568
50
234.4047477
51
243.2862168
0
ARC
8
DEFAULT_255_1_234
10
17.5964577
20
134.2803232
40
0.2322322
50
220.8667099
51
234.5493881
0
ARC
8
DEFAULT_255_1_234
10
17.5622518
20
134.2491817
40
0.1859923
50
214.3062465
51
220.5065136
0
ARC
8
DEFAULT_255_1_234
10
17.5596597
20
134.246088
40
0.1821108
50
186.912965
51
213.9618616
0
ARC
8
DEFAULT_255_1_234
10
17.6128692
20
134.2547009
40
0.2359799
50
179.8808832
51
187.4339886
0
ARC
8
DEFAULT_255_1_234
10
17.5973825
20
134.2567088
40
0.2204978
50
132.005434
51
180.3942919
0
ARC
8
DEFAULT_255_1_234
10
17.6630439
20
134.1961083
40
0.3095791
50
129.2319861
51
133.5302299
0
ARC
8
DEFAULT_255_1_234
10
17.6683947
20
134.1866928
40
0.3202615
50
100.4410011
51
128.9081242
0
ARC
8
DEFAULT_255_1_234
10
17.695783
20
134.0581455
40
0.4516583
50
89.6985377
51
100.9026564
0
ARC
8
DEFAULT_255_1_234
10
17.7014872
20
134.0421166
40
0.4676928
50
77.6965325
51
90.4076836
0
ARC
8
DEFAULT_255_1_234
10
17.7345857
20
134.1848413
40
0.3211988
50
50.7276602
51
78.0399361
0
ARC
8
DEFAULT_255_1_234
10
17.7790315
20
134.2366296
40
0.2529778
50
25.7545084
51
51.0957453
0
ARC
8
DEFAULT_255_1_234
10
17.779154
20
134.2416206
40
0.250738
50
359.2468627
51
24.7394243
0
ARC
8
DEFAULT_255_1_234
10
17.7506992
20
134.2387664
40
0.1297815
50
359.8050318
51
45.1544908
0
ARC
8
DEFAULT_255_1_234
10
17.7100133
20
134.2039794
40
0.1831883
50
43.8047702
51
49.6271585
0
ARC
8
DEFAULT_255_1_234
10
17.7108035
20
134.2040678
40
0.18261
50
49.7980766
51
82.1218353
0
ARC
8
DEFAULT_255_1_234
10
17.6989007
20
134.1393998
40
0.2483163
50
81.4465357
51
90.1710293
0
ARC
8
DEFAULT_255_1_234
10
17.696461
20
134.086788
40
0.300932
50
89.6766211
51
99.1264602
0
ARC
8
DEFAULT_255_1_234
10
17.6793071
20
134.1901537
40
0.1961547
50
98.968313
51
113.4570237
0
ARC
8
DEFAULT_255_1_234
10
17.6597156
20
134.2369965
40
0.1453859
50
113.722589
51
127.4763106
0
ARC
8
DEFAULT_255_1_234
10
17.6428803
20
134.2570124
40
0.1192639
50
126.9083309
51
150.3165862
0
ARC
8
DEFAULT_255_1_234
10
17.6381135
20
134.2620981
40
0.112623
50
151.3635175
51
180.0701457
0
ARC
8
DEFAULT_255_1_234
10
17.668992
20
134.259999
40
0.1435149
50
179.2169974
51
179.9954013
0
ARC
8
DEFAULT_255_1_234
10
17.6328977
20
134.2587056
40
0.1074286
50
179.3040112
51
198.4225446
0
ARC
8
DEFAULT_255_1_234
10
17.6137111
20
134.2537127
40
0.0876573
50
199.2895851
51
238.6034594
0
ARC
8
DEFAULT_255_1_234
10
17.6739957
20
134.348345
40
0.1998512
50
237.9846301
51
246.8744712
0
ARC
8
DEFAULT_255_1_234
10
17.7597902
20
134.5446205
40
0.4140547
50
246.6234531
51
251.8168941
0
ARC
8
DEFAULT_255_1_234
10
17.8628446
20
134.8540905
40
0.7402308
50
251.713434
51
255.0778414
0
ARC
8
DEFAULT_255_1_234
10
17.9827709
20
135.3007563
40
1.2027155
50
255.0367487
51
257.4705983
0
ARC
8
DEFAULT_255_1_234
10
17.4719718
20
132.9993863
40
1.1546601
50
73.6837552
51
77.5016755
0
ARC
8
DEFAULT_255_1_234
10
17.5808493
20
133.3693581
40
0.7690009
50
68.7044154
51
73.7249639
0
ARC
8
DEFAULT_255_1_234
10
17.6711514
20
133.6020654
40
0.5193873
50
63.590599
51
68.6626804
0
ARC
8
DEFAULT_255_1_234
10
17.7482533
20
133.7558123
40
0.3473927
50
54.7106439
51
63.7013633
0
ARC
8
DEFAULT_255_1_234
10
17.8106987
20
133.84304
40
0.2401192
50
41.0622434
51
54.8487496
0
ARC
8
DEFAULT_255_1_234
10
17.8448374
20
133.8743592
40
0.1938094
50
34.4950568
51
40.7105546
0
ARC
8
DEFAULT_255_1_234
10
17.8495181
20
133.8792078
40
0.1872106
50
9.3763373
51
34.0833615
0
ARC
8
DEFAULT_255_1_234
10
17.7842052
20
133.8666728
40
0.2536988
50
359.7694872
51
9.7663171
0
ARC
8
DEFAULT_255_1_234
10
17.8039552
20
133.8623764
40
0.2339696
50
335.8654732
51
0.8022045
0
ARC
8
DEFAULT_255_1_234
10
17.8114597
20
133.8637197
40
0.2277108
50
307.7357725
51
334.7849066
0
ARC
8
DEFAULT_255_1_234
10
17.7713773
20
133.9087645
40
0.2878951
50
307.0241536
51
308.5578354
0
ARC
8
DEFAULT_255_1_234
10
17.7456104
20
133.9473801
40
0.3342515
50
282.9362969
51
306.5646424
0
ARC
8
DEFAULT_255_1_234
10
17.7094401
20
134.0941108
40
0.4853615
50
271.1026298
51
283.2200835
0
ARC
8
DEFAULT_255_1_234
10
17.7030645
20
134.2182418
40
0.6096052
50
269.9919117
51
271.4772449
0
ARC
8
DEFAULT_255_1_234
10
17.70044
20
134.1104436
40
0.5018135
50
259.0723564
51
270.289833
0
ARC
8
DEFAULT_255_1_234
10
17.6792133
20
133.9987271
40
0.388099
50
245.4963068
51
259.0227342
0
ARC
8
DEFAULT_255_1_234
10
17.6514089
20
133.9405615
40
0.3236422
50
228.9684658
51
245.7044727
0
ARC
8
DEFAULT_255_1_234
10
17.6248533
20
133.9078575
40
0.2815426
50
214.4011705
51
228.6759915
0
ARC
8
DEFAULT_255_1_234
10
17.5959273
20
133.892029
40
0.2487548
50
179.9705531
51
215.1572795
0
ARC
8
DEFAULT_255_1_234
10
17.6659873
20
133.8993806
40
0.1703809
50
182.4299387
51
203.0329699
0
ARC
8
DEFAULT_255_1_234
10
17.6475531
20
133.8937396
40
0.1512226
50
203.798802
51
232.548466
0
ARC
8
DEFAULT_255_1_234
10
17.6752052
20
133.9288826
40
0.1959374
50
232.3782728
51
256.3934612
0
ARC
8
DEFAULT_255_1_234
10
17.6982414
20
134.0178842
40
0.2878639
50
256.104506
51
268.4626716
0
ARC
8
DEFAULT_255_1_234
10
17.7028898
20
134.0975487
40
0.3676329
50
268.0715632
51
270.0138206
0
ARC
8
DEFAULT_255_1_234
10
17.7047423
20
134.0703083
40
0.3403971
50
269.7031147
51
278.8341955
0
ARC
8
DEFAULT_255_1_234
10
17.7229516
20
133.9572876
40
0.2259217
50
278.6728789
51
292.8232582
0
ARC
8
DEFAULT_255_1_234
10
17.7430054
20
133.9071449
40
0.171929
50
293.1452328
51
303.6655899
0
ARC
8
DEFAULT_255_1_234
10
17.7694933
20
133.8695204
40
0.1259367
50
303.1248165
51
321.742847
0
ARC
8
DEFAULT_255_1_234
10
17.7880813
20
133.8532156
40
0.1012531
50
322.4748573
51
1.1291126
0
LINE
8
DEFAULT_255_2_778
10
10.7161417
20
62.0448075
11
10.7161417
21
5.1594075
0
LINE
8
DEFAULT_255_2_778
10
10.7161417
20
5.1594075
11
9.3932417
21
5.1594075
0
LINE
8
DEFAULT_255_2_778
10
9.3932834
20
67.3364333
11
12.0390834
21
67.3364333
0
LINE
8
DEFAULT_255_2_778
10
12.0390834
20
67.3364333
11
12.0390834
21
62.0447333
0
LINE
8
DEFAULT_255_2_778
10
12.0390834
20
62.0447333
11
9.3932834
21
62.0447333
0
LINE
8
DEFAULT_255_2_778
10
9.3932834
20
62.0447333
11
9.3932834
21
67.3364333
0
ARC
8
DEFAULT_255_2_778_1
10
13.1928591
20
62.147177
40
4.816461
50
120.9442904
51
122.351755
0
ARC
8
DEFAULT_255_2_778_1
10
12.7462523
20
62.8508039
40
3.9830657
50
122.3407904
51
124.1946752
0
ARC
8
DEFAULT_255_2_778_1
10
12.3063464
20
63.4973306
40
3.2010724
50
124.1855758
51
126.4338849
0
ARC
8
DEFAULT_255_2_778_1
10
11.9204129
20
64.0200611
40
2.5513094
50
126.4326926
51
128.8877368
0
ARC
8
DEFAULT_255_2_778_1
10
11.5855968
20
64.4344658
40
2.0185498
50
128.8749205
51
131.8726567
0
ARC
8
DEFAULT_255_2_778_1
10
11.2884677
20
64.7654854
40
1.5737356
50
131.8616166
51
135.4168838
0
ARC
8
DEFAULT_255_2_778_1
10
11.025668
20
65.0236765
40
1.2053256
50
135.3893975
51
139.9687014
0
ARC
8
DEFAULT_255_2_778_1
10
10.7927889
20
65.2185102
40
0.9016937
50
139.9301659
51
145.9260426
0
ARC
8
DEFAULT_255_2_778_1
10
10.596654
20
65.3505104
40
0.6652776
50
145.8787362
51
153.8146208
0
ARC
8
DEFAULT_255_2_778_1
10
10.4445553
20
65.4248797
40
0.4959714
50
153.770634
51
164.3484794
0
ARC
8
DEFAULT_255_2_778_1
10
10.3432387
20
65.4530786
40
0.3908039
50
164.3220276
51
179.8083066
0
ARC
8
DEFAULT_255_2_778_1
10
10.3642789
20
65.461215
40
0.4118985
50
180.9499449
51
213.8111542
0
ARC
8
DEFAULT_255_2_778_1
10
10.6401828
20
65.6307896
40
0.73561
50
212.8271214
51
224.258472
0
ARC
8
DEFAULT_255_2_778_1
10
11.0230335
20
66.0001236
40
1.267567
50
224.1376218
51
231.4508261
0
ARC
8
DEFAULT_255_2_778_1
10
11.6657195
20
66.8031168
40
2.2960809
50
231.3955893
51
236.1256478
0
ARC
8
DEFAULT_255_2_778_1
10
13.4980223
20
69.5496293
40
5.5976905
50
236.2233172
51
239.1314682
0
ARC
8
DEFAULT_255_2_778_1
10
25.447927
20
89.2773568
40
28.6623793
50
238.8606853
51
239.0711101
0
ARC
8
DEFAULT_255_2_778_1
10
6.2757281
20
57.1802653
40
8.7248518
50
57.2420924
51
59.4062964
0
ARC
8
DEFAULT_255_2_778_1
10
9.5034241
20
62.2112102
40
2.747542
50
52.8289294
51
57.079028
0
ARC
8
DEFAULT_255_2_778_1
10
10.2780783
20
63.2315488
40
1.466457
50
46.3041868
51
52.8596521
0
ARC
8
DEFAULT_255_2_778_1
10
10.7103073
20
63.6816842
40
0.8424061
50
36.2174211
51
46.4090895
0
ARC
8
DEFAULT_255_2_778_1
10
10.9948088
20
63.8865128
40
0.4918609
50
17.400375
51
36.5489745
0
ARC
8
DEFAULT_255_2_778_1
10
11.1088994
20
63.9263754
40
0.3710912
50
0.0676858
51
16.7951297
0
ARC
8
DEFAULT_255_2_778_1
10
11.0878613
20
63.9282428
40
0.3921317
50
343.8035191
51
359.7912046
0
ARC
8
DEFAULT_255_2_778_1
10
10.9815912
20
63.9587167
40
0.5026844
50
333.2506233
51
343.8465691
0
ARC
8
DEFAULT_255_2_778_1
10
10.8277757
20
64.0354313
40
0.6745679
50
325.6600948
51
333.3122657
0
ARC
8
DEFAULT_255_2_778_1
10
10.6323344
20
64.1682296
40
0.9108568
50
319.7560915
51
325.6976089
0
ARC
8
DEFAULT_255_2_778_1
10
10.404199
20
64.3600002
40
1.2088854
50
315.4577584
51
319.8037947
0
ARC
8
DEFAULT_255_2_778_1
10
10.1408127
20
64.6188507
40
1.5781764
50
311.7298824
51
315.4670864
0
ARC
8
DEFAULT_255_2_778_1
10
9.8317879
20
64.9644074
40
2.0417554
50
308.723055
51
311.7470879
0
ARC
8
DEFAULT_255_2_778_1
10
9.477589
20
65.4056492
40
2.6075745
50
306.1165163
51
308.7300151
0
ARC
8
DEFAULT_255_2_778_1
10
9.0746091
20
65.9569523
40
3.2904564
50
303.9559446
51
306.1266333
0
ARC
8
DEFAULT_255_2_778_1
10
8.6630432
20
66.566215
40
4.0257023
50
302.3733397
51
303.9712246
0
ARC
8
DEFAULT_255_2_778_1
10
8.2434347
20
67.2277058
40
4.8090549
50
300.9434827
51
302.3758078
0
LINE
8
DEFAULT_255_2_778
10
9.3932417
20
124.2219075
11
10.7161417
21
124.2219075
0
LINE
8
DEFAULT_255_2_778
10
10.7161417
20
124.2219075
11
10.7161417
21
67.3365075
0
LINE
8
DEFAULT_255_1_234
10
4.2996522
20
132.8098211
11
4.6321662
21
131.8452093
0
LINE
8
DEFAULT_255_1_234
10
4.6321662
20
131.8452093
11
4.9662865
21
132.8098211
0
LINE
8
DEFAULT_255_1_234
10
4.9662865
20
132.8098211
11
5.134953
21
132.8098211
0
LINE
8
DEFAULT_255_1_234
10
5.134953
20
132.8098211
11
4.7012391
21
131.6404
0
LINE
8
DEFAULT_255_1_234
10
4.7012391
20
131.6404
11
4.5646996
21
131.6404
0
LINE
8
DEFAULT_255_1_234
10
4.5646996
20
131.6404
11
4.1317889
21
132.8098211
0
LINE
8
DEFAULT_255_1_234
10
4.1317889
20
132.8098211
11
4.2996522
21
132.8098211
0
LINE
8
DEFAULT_255_1_234
10
5.4570257
20
132.8098211
11
5.4570257
21
131.6404
0
LINE
8
DEFAULT_255_1_234
10
5.4570257
20
131.6404
11
5.3028163
21
131.6404
0
LINE
8
DEFAULT_255_1_234
10
5.3028163
20
131.6404
11
5.3028163
21
132.8098211
0
LINE
8
DEFAULT_255_1_234
10
5.3028163
20
132.8098211
11
5.4570257
21
132.8098211
0
LINE
8
DEFAULT_255_1_234
10
6.6376912
20
132.8098211
11
6.6376912
21
131.6404
0
LINE
8
DEFAULT_255_1_234
10
6.6376912
20
131.6404
11
6.4826787
21
131.6404
0
LINE
8
DEFAULT_255_1_234
10
6.4826787
20
131.6404
11
5.8939522
21
132.541561
0
LINE
8
DEFAULT_255_1_234
10
5.8939522
20
132.541561
11
5.8939522
21
131.6404
0
LINE
8
DEFAULT_255_1_234
10
5.8939522
20
131.6404
11
5.7389397
21
131.6404
0
LINE
8
DEFAULT_255_1_234
10
5.7389397
20
131.6404
11
5.7389397
21
132.8098211
0
LINE
8
DEFAULT_255_1_234
10
5.7389397
20
132.8098211
11
5.8939522
21
132.8098211
0
LINE
8
DEFAULT_255_1_234
10
5.8939522
20
132.8098211
11
6.484285
21
131.9046442
0
LINE
8
DEFAULT_255_1_234
10
6.484285
20
131.9046442
11
6.484285
21
132.8098211
0
LINE
8
DEFAULT_255_1_234
10
6.484285
20
132.8098211
11
6.6376912
21
132.8098211
0
LINE
8
DEFAULT_255_1_234
10
4.966523
20
5.0114663
11
5.1215355
21
5.0114663
0
LINE
8
DEFAULT_255_1_234
10
4.2211777
20
5.1704947
11
4.2211777
21
5.2829391
0
LINE
8
DEFAULT_255_1_234
10
5.1215355
20
5.4339357
11
4.966523
21
5.4339357
0
LINE
8
DEFAULT_255_1_234
10
4.3761902
20
5.2789232
11
4.3761902
21
5.1656757
0
ARC
8
DEFAULT_255_1_234
10
4.5734742
20
5.0711846
40
0.5513052
50
340.1774281
51
353.7814284
0
ARC
8
DEFAULT_255_1_234
10
4.7306095
20
5.0126582
40
0.3836379
50
311.4558989
51
340.4421614
0
ARC
8
DEFAULT_255_1_234
10
4.7272763
20
5.0237528
40
0.3941894
50
282.4333181
51
310.7513653
0
ARC
8
DEFAULT_255_1_234
10
4.6833502
20
5.2052679
40
0.5809175
50
269.9358511
51
282.809604
0
ARC
8
DEFAULT_255_1_234
10
4.6781568
20
5.3510212
40
0.7266847
50
270.0021091
51
270.3581957
0
ARC
8
DEFAULT_255_1_234
10
4.6728985
20
5.0909585
40
0.4666519
50
250.7884749
51
270.6489167
0
ARC
8
DEFAULT_255_1_234
10
4.656082
20
5.0272319
40
0.4009729
50
219.3627325
51
250.0611886
0
ARC
8
DEFAULT_255_1_234
10
4.7390031
20
5.0977042
40
0.5097822
50
193.5479632
51
219.5756669
0
ARC
8
DEFAULT_255_1_234
10
4.9761652
20
5.1592919
40
0.7547848
50
181.1218675
51
193.87563
0
ARC
8
DEFAULT_255_1_234
10
5.1831833
20
5.170358
40
0.9620055
50
179.9918545
51
181.5394234
0
ARC
8
DEFAULT_255_1_234
10
4.9980935
20
5.2866788
40
0.7769248
50
169.5837241
51
180.2757934
0
ARC
8
DEFAULT_255_1_234
10
4.8143873
20
5.3206229
40
0.590109
50
155.0365899
51
169.6003176
0
ARC
8
DEFAULT_255_1_234
10
4.7008337
20
5.3753677
40
0.4640625
50
136.783148
51
155.2472683
0
ARC
8
DEFAULT_255_1_234
10
4.6618814
20
5.4084562
40
0.4130255
50
121.7633186
51
136.428115
0
ARC
8
DEFAULT_255_1_234
10
4.6753776
20
5.3835227
40
0.4413323
50
95.6459699
51
121.5490577
0
ARC
8
DEFAULT_255_1_234
10
4.6911058
20
5.2726949
40
0.55319
50
89.924208
51
96.1377933
0
ARC
8
DEFAULT_255_1_234
10
4.6961491
20
5.2845542
40
0.5413475
50
76.6779277
51
90.4563316
0
ARC
8
DEFAULT_255_1_234
10
4.7355114
20
5.4436114
40
0.3775041
50
47.485847
51
76.9287264
0
ARC
8
DEFAULT_255_1_234
10
4.7208087
20
5.4336159
40
0.3948286
50
16.5424086
51
46.8933463
0
ARC
8
DEFAULT_255_1_234
10
4.5600244
20
5.3807861
40
0.564021
50
5.4072051
51
17.0365086
0
ARC
8
DEFAULT_255_1_234
10
4.4161261
20
5.3576679
40
0.5556559
50
7.8891745
51
15.9239216
0
ARC
8
DEFAULT_255_1_234
10
4.6148274
20
5.4153631
40
0.3487515
50
15.7653144
51
27.9410532
0
ARC
8
DEFAULT_255_1_234
10
4.7252492
20
5.474479
40
0.2235026
50
27.8166557
51
46.4008329
0
ARC
8
DEFAULT_255_1_234
10
4.7302135
20
5.4739082
40
0.2205286
50
47.4371857
51
75.0698205
0
ARC
8
DEFAULT_255_1_234
10
4.6993529
20
5.3664765
40
0.3322915
50
74.7008593
51
87.8124495
0
ARC
8
DEFAULT_255_1_234
10
4.6920217
20
5.2608844
40
0.4380987
50
87.3814673
51
90.0240855
0
ARC
8
DEFAULT_255_1_234
10
4.688176
20
5.3786291
40
0.3203749
50
89.3451631
51
108.5745436
0
ARC
8
DEFAULT_255_1_234
10
4.6744865
20
5.4299908
40
0.2673494
50
109.2998449
51
143.3037509
0
ARC
8
DEFAULT_255_1_234
10
4.7506938
20
5.3713881
40
0.3634757
50
143.0753173
51
163.1916937
0
ARC
8
DEFAULT_255_1_234
10
4.9458666
20
5.3097967
40
0.5681262
50
162.9373603
51
174.6208611
0
ARC
8
DEFAULT_255_1_234
10
5.2084708
20
5.281001
40
0.8322832
50
174.3419979
51
180.1430411
0
ARC
8
DEFAULT_255_1_234
10
5.1153864
20
5.1615698
40
0.7392076
50
179.6817502
51
189.150529
0
ARC
8
DEFAULT_255_1_234
10
4.8653112
20
5.119919
40
0.4856932
50
188.9910863
51
203.5773039
0
ARC
8
DEFAULT_255_1_234
10
4.7573445
20
5.0751211
40
0.3688271
50
203.9077269
51
215.1312379
0
ARC
8
DEFAULT_255_1_234
10
4.6650539
20
5.0035941
40
0.2522457
50
213.9071664
51
263.8849284
0
ARC
8
DEFAULT_255_1_234
10
4.6775868
20
5.0820518
40
0.3316174
50
263.1758525
51
270.1031083
0
ARC
8
DEFAULT_255_1_234
10
4.680796
20
5.2067365
40
0.4563091
50
269.6719807
51
279.0609165
0
ARC
8
DEFAULT_255_1_234
10
4.7074728
20
5.0454907
40
0.2928759
50
278.8750225
51
293.6346586
0
ARC
8
DEFAULT_255_1_234
10
4.7394936
20
4.97029
40
0.2111472
50
293.8553404
51
310.0518804
0
ARC
8
DEFAULT_255_1_234
10
4.739979
20
4.9640516
40
0.2060917
50
311.0646779
51
332.0108348
0
ARC
8
DEFAULT_255_1_234
10
4.6207517
20
5.0297978
40
0.3422352
50
331.6588543
51
343.2878891
0
ARC
8
DEFAULT_255_1_234
10
4.4145032
20
5.0931798
40
0.5580003
50
343.1446044
51
351.010618
0
ARC
8
DEFAULT_255_1_234
10
4.2603678
20
5.1212871
40
0.7146438
50
350.7157277
51
351.1602153
0
LINE
8
DEFAULT_255_1_234
10
6.2307186
20
5.8098211
11
6.2307186
21
4.6404
0
LINE
8
DEFAULT_255_1_234
10
6.2307186
20
4.6404
11
6.0757061
21
4.6404
0
LINE
8
DEFAULT_255_1_234
10
6.0757061
20
4.6404
11
6.0757061
21
5.180936
0
LINE
8
DEFAULT_255_1_234
10
6.0757061
20
5.180936
11
5.4861765
21
5.180936
0
LINE
8
DEFAULT_255_1_234
10
5.4861765
20
5.180936
11
5.4861765
21
4.6404
0
LINE
8
DEFAULT_255_1_234
10
5.4861765
20
4.6404
11
5.3319671
21
4.6404
0
LINE
8
DEFAULT_255_1_234
10
5.3319671
20
4.6404
11
5.3319671
21
5.8098211
0
LINE
8
DEFAULT_255_1_234
10
5.3319671
20
5.8098211
11
5.4861765
21
5.8098211
0
LINE
8
DEFAULT_255_1_234
10
5.4861765
20
5.8098211
11
5.4861765
21
5.3070343
0
LINE
8
DEFAULT_255_1_234
10
5.4861765
20
5.3070343
11
6.0757061
21
5.3070343
0
LINE
8
DEFAULT_255_1_234
10
6.0757061
20
5.3070343
11
6.0757061
21
5.8098211
0
LINE
8
DEFAULT_255_1_234
10
6.0757061
20
5.8098211
11
6.2307186
21
5.8098211
0
ARC
8
DEFAULT_255_1_234
10
6.8930269
20
5.5020703
40
0.2822356
50
338.8763615
51
0.5166041
0
ARC
8
DEFAULT_255_1_234
10
6.9098923
20
5.4975208
40
0.2648703
50
325.8412414
51
338.4795939
0
ARC
8
DEFAULT_255_1_234
10
6.8708291
20
5.5246042
40
0.3124019
50
296.7586019
51
325.753654
0
ARC
8
DEFAULT_255_1_234
10
6.8420399
20
5.5730789
40
0.368668
50
296.0902311
51
297.3618122
0
ARC
8
DEFAULT_255_1_234
10
6.8677857
20
4.9176041
40
0.3518806
50
47.9009248
51
67.1946869
0
ARC
8
DEFAULT_255_1_234
10
6.8874099
20
4.9422395
40
0.320451
50
35.236241
51
47.551371
0
ARC
8
DEFAULT_255_1_234
10
6.9135717
20
4.9596993
40
0.2890103
50
359.2759738
51
35.4014081
0
ARC
8
DEFAULT_255_1_234
10
6.8390748
20
4.9523826
40
0.3635026
50
343.1294516
51
0.5776525
0
ARC
8
DEFAULT_255_1_234
10
6.9115293
20
4.932433
40
0.2883832
50
310.8497458
51
342.744803
0
ARC
8
DEFAULT_255_1_234
10
6.8697406
20
4.9801294
40
0.3517954
50
281.5473923
51
310.9169905
0
ARC
8
DEFAULT_255_1_234
10
6.8340856
20
5.1354084
40
0.5110832
50
269.6192722
51
281.9789957
0
ARC
8
DEFAULT_255_1_234
10
6.8268645
20
5.1354828
40
0.5111606
50
257.4584469
51
270.4287458
0
ARC
8
DEFAULT_255_1_234
10
6.7887788
20
4.9751344
40
0.3463762
50
228.7553743
51
257.8484423
0
ARC
8
DEFAULT_255_1_234
10
6.7577986
20
4.9378442
40
0.297916
50
184.0104442
51
228.5071787
0
ARC
8
DEFAULT_255_1_234
10
6.874093
20
4.9555512
40
0.4152734
50
179.9315461
51
185.3254504
0
ARC
8
DEFAULT_255_1_234
10
6.7564576
20
4.9592992
40
0.2976554
50
145.6795913
51
180.6259649
0
ARC
8
DEFAULT_255_1_234
10
6.7727925
20
4.9478929
40
0.3175776
50
115.5537925
51
145.6416199
0
ARC
8
DEFAULT_255_1_234
10
6.8068855
20
4.8868028
40
0.3874232
50
113.2437915
51
116.2054627
0
ARC
8
DEFAULT_255_1_234
10
6.7916068
20
5.526658
40
0.3154751
50
222.9548379
51
244.1372485
0
ARC
8
DEFAULT_255_1_234
10
6.7794143
20
5.5129834
40
0.2972382
50
213.3439227
51
222.6271327
0
ARC
8
DEFAULT_255_1_234
10
6.7602078
20
5.4999308
40
0.274019
50
180.4316517
51
213.2713999
0
ARC
8
DEFAULT_255_1_234
10
6.8177079
20
5.504611
40
0.33158
50
179.9992944
51
181.1655061
0
ARC
8
DEFAULT_255_1_234
10
6.8586496
20
5.5080561
40
0.3725376
50
164.6186108
51
180.5292368
0
ARC
8
DEFAULT_255_1_234
10
6.7688359
20
5.5322101
40
0.2795349
50
132.2454369
51
164.5092287
0
ARC
8
DEFAULT_255_1_234
10
6.7975463
20
5.4997028
40
0.3229019
50
100.7052766
51
132.1387266
0
ARC
8
DEFAULT_255_1_234
10
6.8280435
20
5.3619086
40
0.4639835
50
89.6732617
51
101.2449487
0
ARC
8
DEFAULT_255_1_234
10
6.8342633
20
5.379399
40
0.4464999
50
76.2876631
51
90.4586123
0
ARC
8
DEFAULT_255_1_234
10
6.8648865
20
5.501622
40
0.3205023
50
47.8240157
51
76.4266918
0
ARC
8
DEFAULT_255_1_234
10
6.8871415
20
5.527659
40
0.2862661
50
6.9168658
51
47.6261438
0
ARC
8
DEFAULT_255_1_234
10
6.7684818
20
5.505737
40
0.4067708
50
359.8419705
51
7.9694496
0
ARC
8
DEFAULT_255_1_234
10
6.8026715
20
4.9616925
40
0.2513121
50
359.4454068
51
16.9256425
0
ARC
8
DEFAULT_255_1_234
10
6.8495526
20
4.9746033
40
0.2027071
50
17.292259
51
45.462717
0
ARC
8
DEFAULT_255_1_234
10
6.8441462
20
4.9699434
40
0.2098212
50
45.3028762
51
83.1921472
0
ARC
8
DEFAULT_255_1_234
10
6.8298146
20
4.8897895
40
0.2911472
50
82.2614531
51
90.143954
0
ARC
8
DEFAULT_255_1_234
10
6.8267266
20
4.913095
40
0.2678513
50
89.4959189
51
104.8579811
0
ARC
8
DEFAULT_255_1_234
10
6.8090525
20
4.980089
40
0.1985654
50
104.8855873
51
135.2448349
0
ARC
8
DEFAULT_255_1_234
10
6.8140298
20
4.9756336
40
0.2052373
50
135.3398955
51
172.104394
0
ARC
8
DEFAULT_255_1_234
10
6.8947356
20
4.9601925
40
0.2873299
50
171.2651929
51
180.1859362
0
ARC
8
DEFAULT_255_1_234
10
6.8778057
20
4.9569733
40
0.2704083
50
179.515471
51
193.6466734
0
ARC
8
DEFAULT_255_1_234
10
6.7961826
20
4.9361777
40
0.1861855
50
193.3540587
51
225.8256931
0
ARC
8
DEFAULT_255_1_234
10
6.8002583
20
4.9432524
40
0.1941102
50
226.418029
51
255.8553723
0
ARC
8
DEFAULT_255_1_234
10
6.8259016
20
5.0368998
40
0.2911917
50
255.4655572
51
268.7985967
0
ARC
8
DEFAULT_255_1_234
10
6.8306208
20
5.1207491
40
0.3751331
50
268.3464808
51
270.0104874
0
ARC
8
DEFAULT_255_1_234
10
6.8329596
20
5.0523138
40
0.3067064
50
269.575914
51
282.0823146
0
ARC
8
DEFAULT_255_1_234
10
6.8554505
20
4.9528803
40
0.2047712
50
281.7522535
51
306.6056425
0
ARC
8
DEFAULT_255_1_234
10
6.8652931
20
4.9367487
40
0.1859604
50
307.1350025
51
314.0277951
0
ARC
8
DEFAULT_255_1_234
10
6.8617015
20
4.9393766
40
0.1903475
50
314.2553419
51
350.169324
0
ARC
8
DEFAULT_255_1_234
10
6.7765484
20
4.9578409
40
0.2774269
50
349.4145679
51
0.2930737
0
ARC
8
DEFAULT_255_1_234
10
6.8285917
20
5.4737353
40
0.2300764
50
89.477591
51
105.729794
0
ARC
8
DEFAULT_255_1_234
10
6.814983
20
5.5242637
40
0.1777519
50
105.922966
51
135.1662921
0
ARC
8
DEFAULT_255_1_234
10
6.8170333
20
5.5228419
40
0.1802087
50
135.3053131
51
168.9882338
0
ARC
8
DEFAULT_255_1_234
10
6.8997905
20
5.5038721
40
0.2650806
50
168.3802067
51
180.3602358
0
ARC
8
DEFAULT_255_1_234
10
6.8769485
20
5.5001041
40
0.2422425
50
179.5029707
51
194.9126783
0
ARC
8
DEFAULT_255_1_234
10
6.8184146
20
5.484711
40
0.1817188
50
194.9722181
51
224.1943972
0
ARC
8
DEFAULT_255_1_234
10
6.8156013
20
5.4824169
40
0.1781027
50
224.2961434
51
262.0157375
0
ARC
8
DEFAULT_255_1_234
10
6.8298256
20
5.5555661
40
0.2525492
50
261.1250369
51
270.1959853
0
ARC
8
DEFAULT_255_1_234
10
6.8328011
20
5.5368339
40
0.233825
50
269.4825617
51
285.0988277
0
ARC
8
DEFAULT_255_1_234
10
6.848217
20
5.478999
40
0.1739712
50
285.1585659
51
315.9484648
0
ARC
8
DEFAULT_255_1_234
10
6.8393182
20
5.4871886
40
0.1860616
50
316.0412958
51
351.9162715
0
ARC
8
DEFAULT_255_1_234
10
6.7660137
20
5.5013245
40
0.2606517
50
351.1056823
51
0.1936567
0
ARC
8
DEFAULT_255_1_234
10
6.7922966
20
5.5043369
40
0.234377
50
359.4789506
51
16.0679113
0
ARC
8
DEFAULT_255_1_234
10
6.8398925
20
5.517181
40
0.1850875
50
16.3251951
51
44.791304
0
ARC
8
DEFAULT_255_1_234
10
6.8381206
20
5.5172339
40
0.186312
50
44.3958661
51
88.2498933
0
ARC
8
DEFAULT_255_1_234
10
6.830776
20
5.4561154
40
0.2476868
50
86.9833827
51
90.0200148
0
LINE
8
DEFAULT_255_1_234
10
7.7141807
20
5.1978026
11
7.7141807
21
5.0765234
0
LINE
8
DEFAULT_255_1_234
10
7.7141807
20
5.0765234
11
7.3222318
21
5.0765234
0
LINE
8
DEFAULT_255_1_234
10
7.3222318
20
5.0765234
11
7.3222318
21
5.1978026
0
LINE
8
DEFAULT_255_1_234
10
7.3222318
20
5.1978026
11
7.7141807
21
5.1978026
0
LINE
8
DEFAULT_255_1_234
10
4.966523
20
12.9489663
11
5.1215355
21
12.9489663
0
LINE
8
DEFAULT_255_1_234
10
4.2211777
20
13.1079947
11
4.2211777
21
13.2204391
0
LINE
8
DEFAULT_255_1_234
10
5.1215355
20
13.3714357
11
4.966523
21
13.3714357
0
LINE
8
DEFAULT_255_1_234
10
4.3761902
20
13.2164232
11
4.3761902
21
13.1031757
0
ARC
8
DEFAULT_255_1_234
10
4.5734742
20
13.0086846
40
0.5513052
50
340.1774281
51
353.7814284
0
ARC
8
DEFAULT_255_1_234
10
4.7306095
20
12.9501582
40
0.3836379
50
311.4558989
51
340.4421614
0
ARC
8
DEFAULT_255_1_234
10
4.7272763
20
12.9612528
40
0.3941894
50
282.4333181
51
310.7513653
0
ARC
8
DEFAULT_255_1_234
10
4.6833502
20
13.1427679
40
0.5809175
50
269.9358511
51
282.809604
0
ARC
8
DEFAULT_255_1_234
10
4.6781568
20
13.2885212
40
0.7266847
50
270.0021091
51
270.3581957
0
ARC
8
DEFAULT_255_1_234
10
4.6728985
20
13.0284585
40
0.4666519
50
250.7884749
51
270.6489167
0
ARC
8
DEFAULT_255_1_234
10
4.656082
20
12.9647319
40
0.4009729
50
219.3627325
51
250.0611886
0
ARC
8
DEFAULT_255_1_234
10
4.7390031
20
13.0352042
40
0.5097822
50
193.5479632
51
219.5756669
0
ARC
8
DEFAULT_255_1_234
10
4.9761652
20
13.0967919
40
0.7547848
50
181.1218675
51
193.87563
0
ARC
8
DEFAULT_255_1_234
10
5.1831833
20
13.107858
40
0.9620055
50
179.9918545
51
181.5394234
0
ARC
8
DEFAULT_255_1_234
10
4.9980935
20
13.2241788
40
0.7769248
50
169.5837241
51
180.2757934
0
ARC
8
DEFAULT_255_1_234
10
4.8143873
20
13.2581229
40
0.590109
50
155.0365899
51
169.6003176
0
ARC
8
DEFAULT_255_1_234
10
4.7008337
20
13.3128677
40
0.4640625
50
136.783148
51
155.2472683
0
ARC
8
DEFAULT_255_1_234
10
4.6618814
20
13.3459562
40
0.4130255
50
121.7633186
51
136.428115
0
ARC
8
DEFAULT_255_1_234
10
4.6753776
20
13.3210227
40
0.4413323
50
95.6459699
51
121.5490577
0
ARC
8
DEFAULT_255_1_234
10
4.6911058
20
13.2101949
40
0.55319
50
89.924208
51
96.1377933
0
ARC
8
DEFAULT_255_1_234
10
4.6961491
20
13.2220542
40
0.5413475
50
76.6779277
51
90.4563316
0
ARC
8
DEFAULT_255_1_234
10
4.7355114
20
13.3811114
40
0.3775041
50
47.485847
51
76.9287264
0
ARC
8
DEFAULT_255_1_234
10
4.7208087
20
13.3711159
40
0.3948286
50
16.5424086
51
46.8933463
0
ARC
8
DEFAULT_255_1_234
10
4.5600244
20
13.3182861
40
0.564021
50
5.4072051
51
17.0365086
0
ARC
8
DEFAULT_255_1_234
10
4.4161261
20
13.2951679
40
0.5556559
50
7.8891745
51
15.9239216
0
ARC
8
DEFAULT_255_1_234
10
4.6148274
20
13.3528631
40
0.3487515
50
15.7653144
51
27.9410532
0
ARC
8
DEFAULT_255_1_234
10
4.7252492
20
13.411979
40
0.2235026
50
27.8166557
51
46.4008329
0
ARC
8
DEFAULT_255_1_234
10
4.7302135
20
13.4114082
40
0.2205286
50
47.4371857
51
75.0698205
0
ARC
8
DEFAULT_255_1_234
10
4.6993529
20
13.3039765
40
0.3322915
50
74.7008593
51
87.8124495
0
ARC
8
DEFAULT_255_1_234
10
4.6920217
20
13.1983844
40
0.4380987
50
87.3814673
51
90.0240855
0
ARC
8
DEFAULT_255_1_234
10
4.688176
20
13.3161291
40
0.3203749
50
89.3451631
51
108.5745436
0
ARC
8
DEFAULT_255_1_234
10
4.6744865
20
13.3674908
40
0.2673494
50
109.2998449
51
143.3037509
0
ARC
8
DEFAULT_255_1_234
10
4.7506938
20
13.3088881
40
0.3634757
50
143.0753173
51
163.1916937
0
ARC
8
DEFAULT_255_1_234
10
4.9458666
20
13.2472967
40
0.5681262
50
162.9373603
51
174.6208611
0
ARC
8
DEFAULT_255_1_234
10
5.2084708
20
13.218501
40
0.8322832
50
174.3419979
51
180.1430411
0
ARC
8
DEFAULT_255_1_234
10
5.1153864
20
13.0990698
40
0.7392076
50
179.6817502
51
189.150529
0
ARC
8
DEFAULT_255_1_234
10
4.8653112
20
13.057419
40
0.4856932
50
188.9910863
51
203.5773039
0
ARC
8
DEFAULT_255_1_234
10
4.7573445
20
13.0126211
40
0.3688271
50
203.9077269
51
215.1312379
0
ARC
8
DEFAULT_255_1_234
10
4.6650539
20
12.9410941
40
0.2522457
50
213.9071664
51
263.8849284
0
ARC
8
DEFAULT_255_1_234
10
4.6775868
20
13.0195518
40
0.3316174
50
263.1758525
51
270.1031083
0
ARC
8
DEFAULT_255_1_234
10
4.680796
20
13.1442365
40
0.4563091
50
269.6719807
51
279.0609165
0
ARC
8
DEFAULT_255_1_234
10
4.7074728
20
12.9829907
40
0.2928759
50
278.8750225
51
293.6346586
0
ARC
8
DEFAULT_255_1_234
10
4.7394936
20
12.90779
40
0.2111472
50
293.8553404
51
310.0518804
0
ARC
8
DEFAULT_255_1_234
10
4.739979
20
12.9015516
40
0.2060917
50
311.0646779
51
332.0108348
0
ARC
8
DEFAULT_255_1_234
10
4.6207517
20
12.9672978
40
0.3422352
50
331.6588543
51
343.2878891
0
ARC
8
DEFAULT_255_1_234
10
4.4145032
20
13.0306798
40
0.5580003
50
343.1446044
51
351.010618
0
ARC
8
DEFAULT_255_1_234
10
4.2603678
20
13.0587871
40
0.7146438
50
350.7157277
51
351.1602153
0
LINE
8
DEFAULT_255_1_234
10
6.2307186
20
13.7473211
11
6.2307186
21
12.5779
0
LINE
8
DEFAULT_255_1_234
10
6.2307186
20
12.5779
11
6.0757061
21
12.5779
0
LINE
8
DEFAULT_255_1_234
10
6.0757061
20
12.5779
11
6.0757061
21
13.118436
0
LINE
8
DEFAULT_255_1_234
10
6.0757061
20
13.118436
11
5.4861765
21
13.118436
0
LINE
8
DEFAULT_255_1_234
10
5.4861765
20
13.118436
11
5.4861765
21
12.5779
0
LINE
8
DEFAULT_255_1_234
10
5.4861765
20
12.5779
11
5.3319671
21
12.5779
0
LINE
8
DEFAULT_255_1_234
10
5.3319671
20
12.5779
11
5.3319671
21
13.7473211
0
LINE
8
DEFAULT_255_1_234
10
5.3319671
20
13.7473211
11
5.4861765
21
13.7473211
0
LINE
8
DEFAULT_255_1_234
10
5.4861765
20
13.7473211
11
5.4861765
21
13.2445343
0
LINE
8
DEFAULT_255_1_234
10
5.4861765
20
13.2445343
11
6.0757061
21
13.2445343
0
LINE
8
DEFAULT_255_1_234
10
6.0757061
20
13.2445343
11
6.0757061
21
13.7473211
0
LINE
8
DEFAULT_255_1_234
10
6.0757061
20
13.7473211
11
6.2307186
21
13.7473211
0
LINE
8
DEFAULT_255_1_234
10
7.2210319
20
13.7473211
11
7.2210319
21
13.663791
0
LINE
8
DEFAULT_255_1_234
10
7.2210319
20
13.663791
11
6.7367181
21
12.5779
0
LINE
8
DEFAULT_255_1_234
10
6.7367181
20
12.5779
11
6.5809024
21
12.5779
0
LINE
8
DEFAULT_255_1_234
10
6.5809024
20
12.5779
11
7.0636099
21
13.6252387
0
LINE
8
DEFAULT_255_1_234
10
7.0636099
20
13.6252387
11
6.4307089
21
13.6252387
0
LINE
8
DEFAULT_255_1_234
10
6.4307089
20
13.6252387
11
6.4307089
21
13.7473211
0
LINE
8
DEFAULT_255_1_234
10
6.4307089
20
13.7473211
11
7.2210319
21
13.7473211
0
LINE
8
DEFAULT_255_1_234
10
7.7141807
20
13.1353026
11
7.7141807
21
13.0140234
0
LINE
8
DEFAULT_255_1_234
10
7.7141807
20
13.0140234
11
7.3222318
21
13.0140234
0
LINE
8
DEFAULT_255_1_234
10
7.3222318
20
13.0140234
11
7.3222318
21
13.1353026
0
LINE
8
DEFAULT_255_1_234
10
7.3222318
20
13.1353026
11
7.7141807
21
13.1353026
0
LINE
8
DEFAULT_255_1_234
10
4.966523
20
20.8864663
11
5.1215355
21
20.8864663
0
LINE
8
DEFAULT_255_1_234
10
4.2211777
20
21.0454947
11
4.2211777
21
21.1579391
0
LINE
8
DEFAULT_255_1_234
10
5.1215355
20
21.3089357
11
4.966523
21
21.3089357
0
LINE
8
DEFAULT_255_1_234
10
4.3761902
20
21.1539232
11
4.3761902
21
21.0406757
0
ARC
8
DEFAULT_255_1_234
10
4.5734742
20
20.9461846
40
0.5513052
50
340.1774281
51
353.7814284
0
ARC
8
DEFAULT_255_1_234
10
4.7306095
20
20.8876582
40
0.3836379
50
311.4558989
51
340.4421614
0
ARC
8
DEFAULT_255_1_234
10
4.7272763
20
20.8987528
40
0.3941894
50
282.4333181
51
310.7513653
0
ARC
8
DEFAULT_255_1_234
10
4.6833502
20
21.0802679
40
0.5809175
50
269.9358511
51
282.809604
0
ARC
8
DEFAULT_255_1_234
10
4.6781568
20
21.2260212
40
0.7266847
50
270.0021091
51
270.3581957
0
ARC
8
DEFAULT_255_1_234
10
4.6728985
20
20.9659585
40
0.4666519
50
250.7884749
51
270.6489167
0
ARC
8
DEFAULT_255_1_234
10
4.656082
20
20.9022319
40
0.4009729
50
219.3627325
51
250.0611886
0
ARC
8
DEFAULT_255_1_234
10
4.7390031
20
20.9727042
40
0.5097822
50
193.5479632
51
219.5756669
0
ARC
8
DEFAULT_255_1_234
10
4.9761652
20
21.0342919
40
0.7547848
50
181.1218675
51
193.87563
0
ARC
8
DEFAULT_255_1_234
10
5.1831833
20
21.045358
40
0.9620055
50
179.9918545
51
181.5394234
0
ARC
8
DEFAULT_255_1_234
10
4.9980935
20
21.1616788
40
0.7769248
50
169.5837241
51
180.2757934
0
ARC
8
DEFAULT_255_1_234
10
4.8143873
20
21.1956229
40
0.590109
50
155.0365899
51
169.6003176
0
ARC
8
DEFAULT_255_1_234
10
4.7008337
20
21.2503677
40
0.4640625
50
136.783148
51
155.2472683
0
ARC
8
DEFAULT_255_1_234
10
4.6618814
20
21.2834562
40
0.4130255
50
121.7633186
51
136.428115
0
ARC
8
DEFAULT_255_1_234
10
4.6753776
20
21.2585227
40
0.4413323
50
95.6459699
51
121.5490577
0
ARC
8
DEFAULT_255_1_234
10
4.6911058
20
21.1476949
40
0.55319
50
89.924208
51
96.1377933
0
ARC
8
DEFAULT_255_1_234
10
4.6961491
20
21.1595542
40
0.5413475
50
76.6779277
51
90.4563316
0
ARC
8
DEFAULT_255_1_234
10
4.7355114
20
21.3186114
40
0.3775041
50
47.485847
51
76.9287264
0
ARC
8
DEFAULT_255_1_234
10
4.7208087
20
21.3086159
40
0.3948286
50
16.5424086
51
46.8933463
0
ARC
8
DEFAULT_255_1_234
10
4.5600244
20
21.2557861
40
0.564021
50
5.4072051
51
17.0365086
0
ARC
8
DEFAULT_255_1_234
10
4.4161261
20
21.2326679
40
0.5556559
50
7.8891745
51
15.9239216
0
ARC
8
DEFAULT_255_1_234
10
4.6148274
20
21.2903631
40
0.3487515
50
15.7653144
51
27.9410532
0
ARC
8
DEFAULT_255_1_234
10
4.7252492
20
21.349479
40
0.2235026
50
27.8166557
51
46.4008329
0
ARC
8
DEFAULT_255_1_234
10
4.7302135
20
21.3489082
40
0.2205286
50
47.4371857
51
75.0698205
0
ARC
8
DEFAULT_255_1_234
10
4.6993529
20
21.2414765
40
0.3322915
50
74.7008593
51
87.8124495
0
ARC
8
DEFAULT_255_1_234
10
4.6920217
20
21.1358844
40
0.4380987
50
87.3814673
51
90.0240855
0
ARC
8
DEFAULT_255_1_234
10
4.688176
20
21.2536291
40
0.3203749
50
89.3451631
51
108.5745436
0
ARC
8
DEFAULT_255_1_234
10
4.6744865
20
21.3049908
40
0.2673494
50
109.2998449
51
143.3037509
0
ARC
8
DEFAULT_255_1_234
10
4.7506938
20
21.2463881
40
0.3634757
50
143.0753173
51
163.1916937
0
ARC
8
DEFAULT_255_1_234
10
4.9458666
20
21.1847967
40
0.5681262
50
162.9373603
51
174.6208611
0
ARC
8
DEFAULT_255_1_234
10
5.2084708
20
21.156001
40
0.8322832
50
174.3419979
51
180.1430411
0
ARC
8
DEFAULT_255_1_234
10
5.1153864
20
21.0365698
40
0.7392076
50
179.6817502
51
189.150529
0
ARC
8
DEFAULT_255_1_234
10
4.8653112
20
20.994919
40
0.4856932
50
188.9910863
51
203.5773039
0
ARC
8
DEFAULT_255_1_234
10
4.7573445
20
20.9501211
40
0.3688271
50
203.9077269
51
215.1312379
0
ARC
8
DEFAULT_255_1_234
10
4.6650539
20
20.8785941
40
0.2522457
50
213.9071664
51
263.8849284
0
ARC
8
DEFAULT_255_1_234
10
4.6775868
20
20.9570518
40
0.3316174
50
263.1758525
51
270.1031083
0
ARC
8
DEFAULT_255_1_234
10
4.680796
20
21.0817365
40
0.4563091
50
269.6719807
51
279.0609165
0
ARC
8
DEFAULT_255_1_234
10
4.7074728
20
20.9204907
40
0.2928759
50
278.8750225
51
293.6346586
0
ARC
8
DEFAULT_255_1_234
10
4.7394936
20
20.84529
40
0.2111472
50
293.8553404
51
310.0518804
0
ARC
8
DEFAULT_255_1_234
10
4.739979
20
20.8390516
40
0.2060917
50
311.0646779
51
332.0108348
0
ARC
8
DEFAULT_255_1_234
10
4.6207517
20
20.9047978
40
0.3422352
50
331.6588543
51
343.2878891
0
ARC
8
DEFAULT_255_1_234
10
4.4145032
20
20.9681798
40
0.5580003
50
343.1446044
51
351.010618
0
ARC
8
DEFAULT_255_1_234
10
4.2603678
20
20.9962871
40
0.7146438
50
350.7157277
51
351.1602153
0
LINE
8
DEFAULT_255_1_234
10
6.2307186
20
21.6848211
11
6.2307186
21
20.5154
0
LINE
8
DEFAULT_255_1_234
10
6.2307186
20
20.5154
11
6.0757061
21
20.5154
0
LINE
8
DEFAULT_255_1_234
10
6.0757061
20
20.5154
11
6.0757061
21
21.055936
0
LINE
8
DEFAULT_255_1_234
10
6.0757061
20
21.055936
11
5.4861765
21
21.055936
0
LINE
8
DEFAULT_255_1_234
10
5.4861765
20
21.055936
11
5.4861765
21
20.5154
0
LINE
8
DEFAULT_255_1_234
10
5.4861765
20
20.5154
11
5.3319671
21
20.5154
0
LINE
8
DEFAULT_255_1_234
10
5.3319671
20
20.5154
11
5.3319671
21
21.6848211
0
LINE
8
DEFAULT_255_1_234
10
5.3319671
20
21.6848211
11
5.4861765
21
21.6848211
0
LINE
8
DEFAULT_255_1_234
10
5.4861765
20
21.6848211
11
5.4861765
21
21.1820343
0
LINE
8
DEFAULT_255_1_234
10
5.4861765
20
21.1820343
11
6.0757061
21
21.1820343
0
LINE
8
DEFAULT_255_1_234
10
6.0757061
20
21.1820343
11
6.0757061
21
21.6848211
0
LINE
8
DEFAULT_255_1_234
10
6.0757061
20
21.6848211
11
6.2307186
21
21.6848211
0
LINE
8
DEFAULT_255_1_234
10
7.022648
20
21.6856243
11
7.0491527
21
21.6856243
0
LINE
8
DEFAULT_255_1_234
10
7.0491527
20
21.6856243
11
7.0491527
21
21.559526
0
LINE
8
DEFAULT_255_1_234
10
7.0491527
20
21.559526
11
7.0218448
21
21.559526
0
LINE
8
DEFAULT_255_1_234
10
6.4748834
20
20.9603583
11
6.4748834
21
21.0173836
0
LINE
8
DEFAULT_255_1_234
10
6.6242738
20
20.9981075
11
6.6242738
21
20.9434917
0
ARC
8
DEFAULT_255_1_234
10
7.0270796
20
21.0597455
40
0.4998079
50
90.6001036
51
104.514704
0
ARC
8
DEFAULT_255_1_234
10
6.9882312
20
21.2042131
40
0.3502176
50
104.2855254
51
133.862935
0
ARC
8
DEFAULT_255_1_234
10
7.0046069
20
21.193383
40
0.3693984
50
134.5302688
51
161.6210873
0
ARC
8
DEFAULT_255_1_234
10
7.1699258
20
21.1350895
40
0.5446739
50
161.2849839
51
174.2076652
0
ARC
8
DEFAULT_255_1_234
10
7.3106195
20
21.1156787
40
0.6866274
50
173.7810589
51
174.9254635
0
ARC
8
DEFAULT_255_1_234
10
6.8556027
20
20.9773839
40
0.3033419
50
95.8330959
51
138.9954921
0
ARC
8
DEFAULT_255_1_234
10
6.8779383
20
20.8495375
40
0.4328947
50
89.8753725
51
97.0544009
0
ARC
8
DEFAULT_255_1_234
10
6.8826849
20
20.9330748
40
0.3493769
50
71.6407809
51
90.6240094
0
ARC
8
DEFAULT_255_1_234
10
6.8977422
20
20.9885082
40
0.2920396
50
39.6367836
51
71.019018
0
ARC
8
DEFAULT_255_1_234
10
6.8340895
20
20.9334998
40
0.3761538
50
10.658731
51
39.9043955
0
ARC
8
DEFAULT_255_1_234
10
6.6792978
20
20.8998686
40
0.5345136
50
359.682601
51
11.132623
0
ARC
8
DEFAULT_255_1_234
10
6.6753109
20
20.892801
40
0.5385081
50
347.2486944
51
0.4369317
0
ARC
8
DEFAULT_255_1_234
10
6.8420586
20
20.8526807
40
0.3670249
50
318.1409698
51
347.6118597
0
ARC
8
DEFAULT_255_1_234
10
6.8745579
20
20.8259702
40
0.3250007
50
275.6342139
51
317.8248465
0
ARC
8
DEFAULT_255_1_234
10
6.852469
20
20.9559219
40
0.4565864
50
269.8874292
51
276.7917694
0
ARC
8
DEFAULT_255_1_234
10
6.8469761
20
20.8533743
40
0.3540676
50
246.9140195
51
270.7437342
0
ARC
8
DEFAULT_255_1_234
10
6.8476151
20
20.8391384
40
0.3412781
50
218.1665114
51
245.878116
0
ARC
8
DEFAULT_255_1_234
10
6.9355612
20
20.9127279
40
0.455911
50
191.4115814
51
218.6077802
0
ARC
8
DEFAULT_255_1_234
10
7.1293701
20
20.9561833
40
0.6545001
50
179.6345085
51
191.7836486
0
ARC
8
DEFAULT_255_1_234
10
7.6876038
20
21.0240697
40
1.2127388
50
171.4525249
51
180.3158839
0
ARC
8
DEFAULT_255_1_234
10
7.2480914
20
21.0924608
40
0.7679464
50
157.9802646
51
171.6246686
0
ARC
8
DEFAULT_255_1_234
10
7.0266935
20
21.1807421
40
0.5296008
50
141.4298019
51
157.854097
0
ARC
8
DEFAULT_255_1_234
10
6.9625255
20
21.2261381
40
0.4511509
50
102.8715806
51
140.8564722
0
ARC
8
DEFAULT_255_1_234
10
7.0272871
20
20.9821552
40
0.7034845
50
90.3778349
51
103.5869322
0
ARC
8
DEFAULT_255_1_234
10
6.8534647
20
20.921673
40
0.2370698
50
89.8751008
51
126.2071704
0
ARC
8
DEFAULT_255_1_234
10
6.8580437
20
20.9062303
40
0.2522934
50
124.9745049
51
144.895901
0
ARC
8
DEFAULT_255_1_234
10
6.8404627
20
20.920556
40
0.2296779
50
145.2974905
51
160.2660252
0
ARC
8
DEFAULT_255_1_234
10
7.1477166
20
20.9403071
40
0.5234525
50
179.6514266
51
190.2855912
0
ARC
8
DEFAULT_255_1_234
10
6.9783303
20
20.9083786
40
0.3510893
50
190.0945431
51
207.5098196
0
ARC
8
DEFAULT_255_1_234
10
6.9217573
20
20.8814623
40
0.288489
50
207.9583163
51
216.3251085
0
ARC
8
DEFAULT_255_1_234
10
6.8877681
20
20.8535105
40
0.2445587
50
215.7661442
51
232.5456785
0
ARC
8
DEFAULT_255_1_234
10
6.8494664
20
20.8048482
40
0.1826382
50
232.8005391
51
270.6605633
0
ARC
8
DEFAULT_255_1_234
10
6.8540365
20
20.8412612
40
0.2190529
50
269.35537
51
288.4744281
0
ARC
8
DEFAULT_255_1_234
10
6.8633262
20
20.8063118
40
0.1829749
50
289.1833337
51
322.9683818
0
ARC
8
DEFAULT_255_1_234
10
6.8021784
20
20.8545391
40
0.2608399
50
322.6007884
51
346.5182367
0
ARC
8
DEFAULT_255_1_234
10
6.686438
20
20.8840616
40
0.3802777
50
346.2582162
51
358.7741648
0
ARC
8
DEFAULT_255_1_234
10
6.5846049
20
20.8895965
40
0.4822176
50
358.3755224
51
0.0098023
0
ARC
8
DEFAULT_255_1_234
10
6.6602236
20
20.8923657
40
0.4066078
50
359.6214041
51
11.2839074
0
ARC
8
DEFAULT_255_1_234
10
6.7879383
20
20.9190066
40
0.2761514
50
11.0482309
51
31.8146458
0
ARC
8
DEFAULT_255_1_234
10
6.8188426
20
20.9357584
40
0.2410679
50
32.3035391
51
38.082671
0
ARC
8
DEFAULT_255_1_234
10
6.8609086
20
20.9738662
40
0.1844966
50
36.825067
51
85.7415724
0
ARC
8
DEFAULT_255_1_234
10
6.8541919
20
20.9238301
40
0.2349122
50
85.0140713
51
90.0513278
0
LINE
8
DEFAULT_255_1_234
10
7.7141807
20
21.0728026
11
7.7141807
21
20.9515234
0
LINE
8
DEFAULT_255_1_234
10
7.7141807
20
20.9515234
11
7.3222318
21
20.9515234
0
LINE
8
DEFAULT_255_1_234
10
7.3222318
20
20.9515234
11
7.3222318
21
21.0728026
0
LINE
8
DEFAULT_255_1_234
10
7.3222318
20
21.0728026
11
7.7141807
21
21.0728026
0
LINE
8
DEFAULT_255_1_234
10
4.966523
20
28.8239663
11
5.1215355
21
28.8239663
0
LINE
8
DEFAULT_255_1_234
10
4.2211777
20
28.9829947
11
4.2211777
21
29.0954391
0
LINE
8
DEFAULT_255_1_234
10
5.1215355
20
29.2464357
11
4.966523
21
29.2464357
0
LINE
8
DEFAULT_255_1_234
10
4.3761902
20
29.0914232
11
4.3761902
21
28.9781757
0
ARC
8
DEFAULT_255_1_234
10
4.5734742
20
28.8836846
40
0.5513052
50
340.1774281
51
353.7814284
0
ARC
8
DEFAULT_255_1_234
10
4.7306095
20
28.8251582
40
0.3836379
50
311.4558989
51
340.4421614
0
ARC
8
DEFAULT_255_1_234
10
4.7272763
20
28.8362528
40
0.3941894
50
282.4333181
51
310.7513653
0
ARC
8
DEFAULT_255_1_234
10
4.6833502
20
29.0177679
40
0.5809175
50
269.9358511
51
282.809604
0
ARC
8
DEFAULT_255_1_234
10
4.6781568
20
29.1635212
40
0.7266847
50
270.0021091
51
270.3581957
0
ARC
8
DEFAULT_255_1_234
10
4.6728985
20
28.9034585
40
0.4666519
50
250.7884749
51
270.6489167
0
ARC
8
DEFAULT_255_1_234
10
4.656082
20
28.8397319
40
0.4009729
50
219.3627325
51
250.0611886
0
ARC
8
DEFAULT_255_1_234
10
4.7390031
20
28.9102042
40
0.5097822
50
193.5479632
51
219.5756669
0
ARC
8
DEFAULT_255_1_234
10
4.9761652
20
28.9717919
40
0.7547848
50
181.1218675
51
193.87563
0
ARC
8
DEFAULT_255_1_234
10
5.1831833
20
28.982858
40
0.9620055
50
179.9918545
51
181.5394234
0
ARC
8
DEFAULT_255_1_234
10
4.9980935
20
29.0991788
40
0.7769248
50
169.5837241
51
180.2757934
0
ARC
8
DEFAULT_255_1_234
10
4.8143873
20
29.1331229
40
0.590109
50
155.0365899
51
169.6003176
0
ARC
8
DEFAULT_255_1_234
10
4.7008337
20
29.1878677
40
0.4640625
50
136.783148
51
155.2472683
0
ARC
8
DEFAULT_255_1_234
10
4.6618814
20
29.2209562
40
0.4130255
50
121.7633186
51
136.428115
0
ARC
8
DEFAULT_255_1_234
10
4.6753776
20
29.1960227
40
0.4413323
50
95.6459699
51
121.5490577
0
ARC
8
DEFAULT_255_1_234
10
4.6911058
20
29.0851949
40
0.55319
50
89.924208
51
96.1377933
0
ARC
8
DEFAULT_255_1_234
10
4.6961491
20
29.0970542
40
0.5413475
50
76.6779277
51
90.4563316
0
ARC
8
DEFAULT_255_1_234
10
4.7355114
20
29.2561114
40
0.3775041
50
47.485847
51
76.9287264
0
ARC
8
DEFAULT_255_1_234
10
4.7208087
20
29.2461159
40
0.3948286
50
16.5424086
51
46.8933463
0
ARC
8
DEFAULT_255_1_234
10
4.5600244
20
29.1932861
40
0.564021
50
5.4072051
51
17.0365086
0
ARC
8
DEFAULT_255_1_234
10
4.4161261
20
29.1701679
40
0.5556559
50
7.8891745
51
15.9239216
0
ARC
8
DEFAULT_255_1_234
10
4.6148274
20
29.2278631
40
0.3487515
50
15.7653144
51
27.9410532
0
ARC
8
DEFAULT_255_1_234
10
4.7252492
20
29.286979
40
0.2235026
50
27.8166557
51
46.4008329
0
ARC
8
DEFAULT_255_1_234
10
4.7302135
20
29.2864082
40
0.2205286
50
47.4371857
51
75.0698205
0
ARC
8
DEFAULT_255_1_234
10
4.6993529
20
29.1789765
40
0.3322915
50
74.7008593
51
87.8124495
0
ARC
8
DEFAULT_255_1_234
10
4.6920217
20
29.0733844
40
0.4380987
50
87.3814673
51
90.0240855
0
ARC
8
DEFAULT_255_1_234
10
4.688176
20
29.1911291
40
0.3203749
50
89.3451631
51
108.5745436
0
ARC
8
DEFAULT_255_1_234
10
4.6744865
20
29.2424908
40
0.2673494
50
109.2998449
51
143.3037509
0
ARC
8
DEFAULT_255_1_234
10
4.7506938
20
29.1838881
40
0.3634757
50
143.0753173
51
163.1916937
0
ARC
8
DEFAULT_255_1_234
10
4.9458666
20
29.1222967
40
0.5681262
50
162.9373603
51
174.6208611
0
ARC
8
DEFAULT_255_1_234
10
5.2084708
20
29.093501
40
0.8322832
50
174.3419979
51
180.1430411
0
ARC
8
DEFAULT_255_1_234
10
5.1153864
20
28.9740698
40
0.7392076
50
179.6817502
51
189.150529
0
ARC
8
DEFAULT_255_1_234
10
4.8653112
20
28.932419
40
0.4856932
50
188.9910863
51
203.5773039
0
ARC
8
DEFAULT_255_1_234
10
4.7573445
20
28.8876211
40
0.3688271
50
203.9077269
51
215.1312379
0
ARC
8
DEFAULT_255_1_234
10
4.6650539
20
28.8160941
40
0.2522457
50
213.9071664
51
263.8849284
0
ARC
8
DEFAULT_255_1_234
10
4.6775868
20
28.8945518
40
0.3316174
50
263.1758525
51
270.1031083
0
ARC
8
DEFAULT_255_1_234
10
4.680796
20
29.0192365
40
0.4563091
50
269.6719807
51
279.0609165
0
ARC
8
DEFAULT_255_1_234
10
4.7074728
20
28.8579907
40
0.2928759
50
278.8750225
51
293.6346586
0
ARC
8
DEFAULT_255_1_234
10
4.7394936
20
28.78279
40
0.2111472
50
293.8553404
51
310.0518804
0
ARC
8
DEFAULT_255_1_234
10
4.739979
20
28.7765516
40
0.2060917
50
311.0646779
51
332.0108348
0
ARC
8
DEFAULT_255_1_234
10
4.6207517
20
28.8422978
40
0.3422352
50
331.6588543
51
343.2878891
0
ARC
8
DEFAULT_255_1_234
10
4.4145032
20
28.9056798
40
0.5580003
50
343.1446044
51
351.010618
0
ARC
8
DEFAULT_255_1_234
10
4.2603678
20
28.9337871
40
0.7146438
50
350.7157277
51
351.1602153
0
LINE
8
DEFAULT_255_1_234
10
6.2307186
20
29.6223211
11
6.2307186
21
28.4529
0
LINE
8
DEFAULT_255_1_234
10
6.2307186
20
28.4529
11
6.0757061
21
28.4529
0
LINE
8
DEFAULT_255_1_234
10
6.0757061
20
28.4529
11
6.0757061
21
28.993436
0
LINE
8
DEFAULT_255_1_234
10
6.0757061
20
28.993436
11
5.4861765
21
28.993436
0
LINE
8
DEFAULT_255_1_234
10
5.4861765
20
28.993436
11
5.4861765
21
28.4529
0
LINE
8
DEFAULT_255_1_234
10
5.4861765
20
28.4529
11
5.3319671
21
28.4529
0
LINE
8
DEFAULT_255_1_234
10
5.3319671
20
28.4529
11
5.3319671
21
29.6223211
0
LINE
8
DEFAULT_255_1_234
10
5.3319671
20
29.6223211
11
5.4861765
21
29.6223211
0
LINE
8
DEFAULT_255_1_234
10
5.4861765
20
29.6223211
11
5.4861765
21
29.1195343
0
LINE
8
DEFAULT_255_1_234
10
5.4861765
20
29.1195343
11
6.0757061
21
29.1195343
0
LINE
8
DEFAULT_255_1_234
10
6.0757061
20
29.1195343
11
6.0757061
21
29.6223211
0
LINE
8
DEFAULT_255_1_234
10
6.0757061
20
29.6223211
11
6.2307186
21
29.6223211
0
LINE
8
DEFAULT_255_1_234
10
6.653188
20
29.0086963
11
6.5343183
21
29.0392169
0
LINE
8
DEFAULT_255_1_234
10
6.5343183
20
29.0392169
11
6.5937532
21
29.6223211
0
LINE
8
DEFAULT_255_1_234
10
6.5937532
20
29.6223211
11
7.1929208
21
29.6223211
0
LINE
8
DEFAULT_255_1_234
10
7.1929208
20
29.6223211
11
7.1929208
21
29.4849784
0
LINE
8
DEFAULT_255_1_234
10
7.1929208
20
29.4849784
11
6.7198515
21
29.4849784
0
LINE
8
DEFAULT_255_1_234
10
6.7198515
20
29.4849784
11
6.6845118
21
29.1661184
0
LINE
8
DEFAULT_255_1_234
10
6.4925533
20
28.7605156
11
6.6331087
21
28.7605156
0
LINE
8
DEFAULT_255_1_234
10
6.6925436
20
29.0408232
11
6.653188
21
29.0086963
0
ARC
8
DEFAULT_255_1_234
10
6.8699902
20
28.848123
40
0.3681349
50
93.7182161
51
120.2538958
0
ARC
8
DEFAULT_255_1_234
10
6.8794165
20
28.7673394
40
0.449379
50
89.9660152
51
94.2496022
0
ARC
8
DEFAULT_255_1_234
10
6.8834899
20
28.8262549
40
0.390482
50
73.8043271
51
90.5585896
0
ARC
8
DEFAULT_255_1_234
10
6.9069796
20
28.9120602
40
0.3015334
50
41.3071453
51
73.5430202
0
ARC
8
DEFAULT_255_1_234
10
6.8653623
20
28.8762324
40
0.3564457
50
13.5075983
51
41.2174222
0
ARC
8
DEFAULT_255_1_234
10
6.7011827
20
28.8332486
40
0.5261351
50
1.1331335
51
13.8829381
0
ARC
8
DEFAULT_255_1_234
10
6.5600196
20
28.8256665
40
0.6674378
50
359.9919444
51
1.544251
0
ARC
8
DEFAULT_255_1_234
10
6.6877022
20
28.821528
40
0.5397702
50
347.8572367
51
0.4293338
0
ARC
8
DEFAULT_255_1_234
10
6.862734
20
28.7818736
40
0.3603188
50
323.673004
51
348.1672506
0
ARC
8
DEFAULT_255_1_234
10
6.8921848
20
28.7639168
40
0.3259678
50
316.8171152
51
323.1492751
0
ARC
8
DEFAULT_255_1_234
10
6.8983037
20
28.760246
40
0.3189975
50
281.8396411
51
316.5457803
0
ARC
8
DEFAULT_255_1_234
10
6.8607301
20
28.9157762
40
0.4789527
50
269.5770101
51
282.4214771
0
ARC
8
DEFAULT_255_1_234
10
6.8536112
20
28.8944125
40
0.45759
50
256.2427136
51
270.4486331
0
ARC
8
DEFAULT_255_1_234
10
6.8237015
20
28.7744229
40
0.3339303
50
228.9023911
51
256.3314342
0
ARC
8
DEFAULT_255_1_234
10
6.8163247
20
28.7627746
40
0.32031
50
193.753695
51
228.5271154
0
ARC
8
DEFAULT_255_1_234
10
6.9401201
20
28.79908
40
0.4492253
50
184.924711
51
194.497588
0
ARC
8
DEFAULT_255_1_234
10
6.9593768
20
28.8026591
40
0.3289787
50
187.3600538
51
198.6732863
0
ARC
8
DEFAULT_255_1_234
10
6.8544062
20
28.7662674
40
0.217884
50
198.4451669
51
217.794479
0
ARC
8
DEFAULT_255_1_234
10
6.8248237
20
28.7453085
40
0.1816698
50
218.2887171
51
228.5612368
0
ARC
8
DEFAULT_255_1_234
10
6.8346024
20
28.7584963
40
0.1980329
50
228.9654866
51
258.1234728
0
ARC
8
DEFAULT_255_1_234
10
6.8551734
20
28.8465833
40
0.2884748
50
257.7258293
51
270.401361
0
ARC
8
DEFAULT_255_1_234
10
6.859662
20
28.8020821
40
0.2439788
50
269.4204404
51
286.4209037
0
ARC
8
DEFAULT_255_1_234
10
6.8745108
20
28.7481657
40
0.1880666
50
286.7251356
51
320.600362
0
ARC
8
DEFAULT_255_1_234
10
6.8361933
20
28.7792595
40
0.2374121
50
320.6712579
51
344.5441685
0
ARC
8
DEFAULT_255_1_234
10
6.7205259
20
28.8132045
40
0.3579479
50
344.2412205
51
356.7357071
0
ARC
8
DEFAULT_255_1_234
10
6.5956408
20
28.8235444
40
0.4832297
50
356.3548756
51
0.0500261
0
ARC
8
DEFAULT_255_1_234
10
6.7292917
20
28.826665
40
0.3495889
50
359.5576869
51
12.953486
0
ARC
8
DEFAULT_255_1_234
10
6.8347814
20
28.8522434
40
0.2410532
50
12.6490276
51
41.6081334
0
ARC
8
DEFAULT_255_1_234
10
6.8578185
20
28.8718321
40
0.2108218
50
41.7850273
51
85.9892764
0
ARC
8
DEFAULT_255_1_234
10
6.8454922
20
28.7905462
40
0.2928454
50
84.6957577
51
90.0676183
0
ARC
8
DEFAULT_255_1_234
10
6.8431406
20
28.7236716
40
0.3597255
50
89.6804936
51
99.1614436
0
ARC
8
DEFAULT_255_1_234
10
6.8226037
20
28.8464131
40
0.235281
50
98.9830931
51
113.8908934
0
ARC
8
DEFAULT_255_1_234
10
6.7996447
20
28.9005587
40
0.176479
50
114.1950727
51
127.3641004
0
LINE
8
DEFAULT_255_1_234
10
7.7141807
20
29.0103026
11
7.7141807
21
28.8890234
0
LINE
8
DEFAULT_255_1_234
10
7.7141807
20
28.8890234
11
7.3222318
21
28.8890234
0
LINE
8
DEFAULT_255_1_234
10
7.3222318
20
28.8890234
11
7.3222318
21
29.0103026
0
LINE
8
DEFAULT_255_1_234
10
7.3222318
20
29.0103026
11
7.7141807
21
29.0103026
0
LINE
8
DEFAULT_255_1_234
10
4.966523
20
36.7614663
11
5.1215355
21
36.7614663
0
LINE
8
DEFAULT_255_1_234
10
4.2211777
20
36.9204947
11
4.2211777
21
37.0329391
0
LINE
8
DEFAULT_255_1_234
10
5.1215355
20
37.1839357
11
4.966523
21
37.1839357
0
LINE
8
DEFAULT_255_1_234
10
4.3761902
20
37.0289232
11
4.3761902
21
36.9156757
0
ARC
8
DEFAULT_255_1_234
10
4.5734742
20
36.8211846
40
0.5513052
50
340.1774281
51
353.7814284
0
ARC
8
DEFAULT_255_1_234
10
4.7306095
20
36.7626582
40
0.3836379
50
311.4558989
51
340.4421614
0
ARC
8
DEFAULT_255_1_234
10
4.7272763
20
36.7737528
40
0.3941894
50
282.4333181
51
310.7513653
0
ARC
8
DEFAULT_255_1_234
10
4.6833502
20
36.9552679
40
0.5809175
50
269.9358511
51
282.809604
0
ARC
8
DEFAULT_255_1_234
10
4.6781568
20
37.1010212
40
0.7266847
50
270.0021091
51
270.3581957
0
ARC
8
DEFAULT_255_1_234
10
4.6728985
20
36.8409585
40
0.4666519
50
250.7884749
51
270.6489167
0
ARC
8
DEFAULT_255_1_234
10
4.656082
20
36.7772319
40
0.4009729
50
219.3627325
51
250.0611886
0
ARC
8
DEFAULT_255_1_234
10
4.7390031
20
36.8477042
40
0.5097822
50
193.5479632
51
219.5756669
0
ARC
8
DEFAULT_255_1_234
10
4.9761652
20
36.9092919
40
0.7547848
50
181.1218675
51
193.87563
0
ARC
8
DEFAULT_255_1_234
10
5.1831833
20
36.920358
40
0.9620055
50
179.9918545
51
181.5394234
0
ARC
8
DEFAULT_255_1_234
10
4.9980935
20
37.0366788
40
0.7769248
50
169.5837241
51
180.2757934
0
ARC
8
DEFAULT_255_1_234
10
4.8143873
20
37.0706229
40
0.590109
50
155.0365899
51
169.6003176
0
ARC
8
DEFAULT_255_1_234
10
4.7008337
20
37.1253677
40
0.4640625
50
136.783148
51
155.2472683
0
ARC
8
DEFAULT_255_1_234
10
4.6618814
20
37.1584562
40
0.4130255
50
121.7633186
51
136.428115
0
ARC
8
DEFAULT_255_1_234
10
4.6753776
20
37.1335227
40
0.4413323
50
95.6459699
51
121.5490577
0
ARC
8
DEFAULT_255_1_234
10
4.6911058
20
37.0226949
40
0.55319
50
89.924208
51
96.1377933
0
ARC
8
DEFAULT_255_1_234
10
4.6961491
20
37.0345542
40
0.5413475
50
76.6779277
51
90.4563316
0
ARC
8
DEFAULT_255_1_234
10
4.7355114
20
37.1936114
40
0.3775041
50
47.485847
51
76.9287264
0
ARC
8
DEFAULT_255_1_234
10
4.7208087
20
37.1836159
40
0.3948286
50
16.5424086
51
46.8933463
0
ARC
8
DEFAULT_255_1_234
10
4.5600244
20
37.1307861
40
0.564021
50
5.4072051
51
17.0365086
0
ARC
8
DEFAULT_255_1_234
10
4.4161261
20
37.1076679
40
0.5556559
50
7.8891745
51
15.9239216
0
ARC
8
DEFAULT_255_1_234
10
4.6148274
20
37.1653631
40
0.3487515
50
15.7653144
51
27.9410532
0
ARC
8
DEFAULT_255_1_234
10
4.7252492
20
37.224479
40
0.2235026
50
27.8166557
51
46.4008329
0
ARC
8
DEFAULT_255_1_234
10
4.7302135
20
37.2239082
40
0.2205286
50
47.4371857
51
75.0698205
0
ARC
8
DEFAULT_255_1_234
10
4.6993529
20
37.1164765
40
0.3322915
50
74.7008593
51
87.8124495
0
ARC
8
DEFAULT_255_1_234
10
4.6920217
20
37.0108844
40
0.4380987
50
87.3814673
51
90.0240855
0
ARC
8
DEFAULT_255_1_234
10
4.688176
20
37.1286291
40
0.3203749
50
89.3451631
51
108.5745436
0
ARC
8
DEFAULT_255_1_234
10
4.6744865
20
37.1799908
40
0.2673494
50
109.2998449
51
143.3037509
0
ARC
8
DEFAULT_255_1_234
10
4.7506938
20
37.1213881
40
0.3634757
50
143.0753173
51
163.1916937
0
ARC
8
DEFAULT_255_1_234
10
4.9458666
20
37.0597967
40
0.5681262
50
162.9373603
51
174.6208611
0
ARC
8
DEFAULT_255_1_234
10
5.2084708
20
37.031001
40
0.8322832
50
174.3419979
51
180.1430411
0
ARC
8
DEFAULT_255_1_234
10
5.1153864
20
36.9115698
40
0.7392076
50
179.6817502
51
189.150529
0
ARC
8
DEFAULT_255_1_234
10
4.8653112
20
36.869919
40
0.4856932
50
188.9910863
51
203.5773039
0
ARC
8
DEFAULT_255_1_234
10
4.7573445
20
36.8251211
40
0.3688271
50
203.9077269
51
215.1312379
0
ARC
8
DEFAULT_255_1_234
10
4.6650539
20
36.7535941
40
0.2522457
50
213.9071664
51
263.8849284
0
ARC
8
DEFAULT_255_1_234
10
4.6775868
20
36.8320518
40
0.3316174
50
263.1758525
51
270.1031083
0
ARC
8
DEFAULT_255_1_234
10
4.680796
20
36.9567365
40
0.4563091
50
269.6719807
51
279.0609165
0
ARC
8
DEFAULT_255_1_234
10
4.7074728
20
36.7954907
40
0.2928759
50
278.8750225
51
293.6346586
0
ARC
8
DEFAULT_255_1_234
10
4.7394936
20
36.72029
40
0.2111472
50
293.8553404
51
310.0518804
0
ARC
8
DEFAULT_255_1_234
10
4.739979
20
36.7140516
40
0.2060917
50
311.0646779
51
332.0108348
0
ARC
8
DEFAULT_255_1_234
10
4.6207517
20
36.7797978
40
0.3422352
50
331.6588543
51
343.2878891
0
ARC
8
DEFAULT_255_1_234
10
4.4145032
20
36.8431798
40
0.5580003
50
343.1446044
51
351.010618
0
ARC
8
DEFAULT_255_1_234
10
4.2603678
20
36.8712871
40
0.7146438
50
350.7157277
51
351.1602153
0
LINE
8
DEFAULT_255_1_234
10
6.2307186
20
37.5598211
11
6.2307186
21
36.3904
0
LINE
8
DEFAULT_255_1_234
10
6.2307186
20
36.3904
11
6.0757061
21
36.3904
0
LINE
8
DEFAULT_255_1_234
10
6.0757061
20
36.3904
11
6.0757061
21
36.930936
0
LINE
8
DEFAULT_255_1_234
10
6.0757061
20
36.930936
11
5.4861765
21
36.930936
0
LINE
8
DEFAULT_255_1_234
10
5.4861765
20
36.930936
11
5.4861765
21
36.3904
0
LINE
8
DEFAULT_255_1_234
10
5.4861765
20
36.3904
11
5.3319671
21
36.3904
0
LINE
8
DEFAULT_255_1_234
10
5.3319671
20
36.3904
11
5.3319671
21
37.5598211
0
LINE
8
DEFAULT_255_1_234
10
5.3319671
20
37.5598211
11
5.4861765
21
37.5598211
0
LINE
8
DEFAULT_255_1_234
10
5.4861765
20
37.5598211
11
5.4861765
21
37.0570343
0
LINE
8
DEFAULT_255_1_234
10
5.4861765
20
37.0570343
11
6.0757061
21
37.0570343
0
LINE
8
DEFAULT_255_1_234
10
6.0757061
20
37.0570343
11
6.0757061
21
37.5598211
0
LINE
8
DEFAULT_255_1_234
10
6.0757061
20
37.5598211
11
6.2307186
21
37.5598211
0
LINE
8
DEFAULT_255_1_234
10
7.0933273
20
37.5598211
11
7.0933273
21
36.783152
0
LINE
8
DEFAULT_255_1_234
10
7.0933273
20
36.783152
11
7.2555684
21
36.783152
0
LINE
8
DEFAULT_255_1_234
10
7.2555684
20
36.783152
11
7.2555684
21
36.6618728
0
LINE
8
DEFAULT_255_1_234
10
7.2555684
20
36.6618728
11
7.0933273
21
36.6618728
0
LINE
8
DEFAULT_255_1_234
10
7.0933273
20
36.6618728
11
7.0933273
21
36.3904
0
LINE
8
DEFAULT_255_1_234
10
7.0933273
20
36.3904
11
6.943937
21
36.3904
0
LINE
8
DEFAULT_255_1_234
10
6.943937
20
36.3904
11
6.943937
21
36.6618728
0
LINE
8
DEFAULT_255_1_234
10
6.943937
20
36.6618728
11
6.4114327
21
36.6618728
0
LINE
8
DEFAULT_255_1_234
10
6.4114327
20
36.6618728
11
6.4114327
21
36.7494187
0
LINE
8
DEFAULT_255_1_234
10
6.4114327
20
36.7494187
11
6.9351021
21
37.5598211
0
LINE
8
DEFAULT_255_1_234
10
6.9351021
20
37.5598211
11
7.0933273
21
37.5598211
0
LINE
8
DEFAULT_255_1_234
10
6.9262671
20
37.3244912
11
6.5800992
21
36.783152
0
LINE
8
DEFAULT_255_1_234
10
6.5800992
20
36.783152
11
6.943937
21
36.783152
0
LINE
8
DEFAULT_255_1_234
10
6.943937
20
36.783152
11
6.943937
21
37.3566181
0
LINE
8
DEFAULT_255_1_234
10
6.943937
20
37.3566181
11
6.9262671
21
37.3244912
0
LINE
8
DEFAULT_255_1_234
10
7.7141807
20
36.9478026
11
7.7141807
21
36.8265234
0
LINE
8
DEFAULT_255_1_234
10
7.7141807
20
36.8265234
11
7.3222318
21
36.8265234
0
LINE
8
DEFAULT_255_1_234
10
7.3222318
20
36.8265234
11
7.3222318
21
36.9478026
0
LINE
8
DEFAULT_255_1_234
10
7.3222318
20
36.9478026
11
7.7141807
21
36.9478026
0
LINE
8
DEFAULT_255_1_234
10
4.966523
20
44.6989663
11
5.1215355
21
44.6989663
0
LINE
8
DEFAULT_255_1_234
10
4.2211777
20
44.8579947
11
4.2211777
21
44.9704391
0
LINE
8
DEFAULT_255_1_234
10
5.1215355
20
45.1214357
11
4.966523
21
45.1214357
0
LINE
8
DEFAULT_255_1_234
10
4.3761902
20
44.9664232
11
4.3761902
21
44.8531757
0
ARC
8
DEFAULT_255_1_234
10
4.5734742
20
44.7586846
40
0.5513052
50
340.1774281
51
353.7814284
0
ARC
8
DEFAULT_255_1_234
10
4.7306095
20
44.7001582
40
0.3836379
50
311.4558989
51
340.4421614
0
ARC
8
DEFAULT_255_1_234
10
4.7272763
20
44.7112528
40
0.3941894
50
282.4333181
51
310.7513653
0
ARC
8
DEFAULT_255_1_234
10
4.6833502
20
44.8927679
40
0.5809175
50
269.9358511
51
282.809604
0
ARC
8
DEFAULT_255_1_234
10
4.6781568
20
45.0385212
40
0.7266847
50
270.0021091
51
270.3581957
0
ARC
8
DEFAULT_255_1_234
10
4.6728985
20
44.7784585
40
0.4666519
50
250.7884749
51
270.6489167
0
ARC
8
DEFAULT_255_1_234
10
4.656082
20
44.7147319
40
0.4009729
50
219.3627325
51
250.0611886
0
ARC
8
DEFAULT_255_1_234
10
4.7390031
20
44.7852042
40
0.5097822
50
193.5479632
51
219.5756669
0
ARC
8
DEFAULT_255_1_234
10
4.9761652
20
44.8467919
40
0.7547848
50
181.1218675
51
193.87563
0
ARC
8
DEFAULT_255_1_234
10
5.1831833
20
44.857858
40
0.9620055
50
179.9918545
51
181.5394234
0
ARC
8
DEFAULT_255_1_234
10
4.9980935
20
44.9741788
40
0.7769248
50
169.5837241
51
180.2757934
0
ARC
8
DEFAULT_255_1_234
10
4.8143873
20
45.0081229
40
0.590109
50
155.0365899
51
169.6003176
0
ARC
8
DEFAULT_255_1_234
10
4.7008337
20
45.0628677
40
0.4640625
50
136.783148
51
155.2472683
0
ARC
8
DEFAULT_255_1_234
10
4.6618814
20
45.0959562
40
0.4130255
50
121.7633186
51
136.428115
0
ARC
8
DEFAULT_255_1_234
10
4.6753776
20
45.0710227
40
0.4413323
50
95.6459699
51
121.5490577
0
ARC
8
DEFAULT_255_1_234
10
4.6911058
20
44.9601949
40
0.55319
50
89.924208
51
96.1377933
0
ARC
8
DEFAULT_255_1_234
10
4.6961491
20
44.9720542
40
0.5413475
50
76.6779277
51
90.4563316
0
ARC
8
DEFAULT_255_1_234
10
4.7355114
20
45.1311114
40
0.3775041
50
47.485847
51
76.9287264
0
ARC
8
DEFAULT_255_1_234
10
4.7208087
20
45.1211159
40
0.3948286
50
16.5424086
51
46.8933463
0
ARC
8
DEFAULT_255_1_234
10
4.5600244
20
45.0682861
40
0.564021
50
5.4072051
51
17.0365086
0
ARC
8
DEFAULT_255_1_234
10
4.4161261
20
45.0451679
40
0.5556559
50
7.8891745
51
15.9239216
0
ARC
8
DEFAULT_255_1_234
10
4.6148274
20
45.1028631
40
0.3487515
50
15.7653144
51
27.9410532
0
ARC
8
DEFAULT_255_1_234
10
4.7252492
20
45.161979
40
0.2235026
50
27.8166557
51
46.4008329
0
ARC
8
DEFAULT_255_1_234
10
4.7302135
20
45.1614082
40
0.2205286
50
47.4371857
51
75.0698205
0
ARC
8
DEFAULT_255_1_234
10
4.6993529
20
45.0539765
40
0.3322915
50
74.7008593
51
87.8124495
0
ARC
8
DEFAULT_255_1_234
10
4.6920217
20
44.9483844
40
0.4380987
50
87.3814673
51
90.0240855
0
ARC
8
DEFAULT_255_1_234
10
4.688176
20
45.0661291
40
0.3203749
50
89.3451631
51
108.5745436
0
ARC
8
DEFAULT_255_1_234
10
4.6744865
20
45.1174908
40
0.2673494
50
109.2998449
51
143.3037509
0
ARC
8
DEFAULT_255_1_234
10
4.7506938
20
45.0588881
40
0.3634757
50
143.0753173
51
163.1916937
0
ARC
8
DEFAULT_255_1_234
10
4.9458666
20
44.9972967
40
0.5681262
50
162.9373603
51
174.6208611
0
ARC
8
DEFAULT_255_1_234
10
5.2084708
20
44.968501
40
0.8322832
50
174.3419979
51
180.1430411
0
ARC
8
DEFAULT_255_1_234
10
5.1153864
20
44.8490698
40
0.7392076
50
179.6817502
51
189.150529
0
ARC
8
DEFAULT_255_1_234
10
4.8653112
20
44.807419
40
0.4856932
50
188.9910863
51
203.5773039
0
ARC
8
DEFAULT_255_1_234
10
4.7573445
20
44.7626211
40
0.3688271
50
203.9077269
51
215.1312379
0
ARC
8
DEFAULT_255_1_234
10
4.6650539
20
44.6910941
40
0.2522457
50
213.9071664
51
263.8849284
0
ARC
8
DEFAULT_255_1_234
10
4.6775868
20
44.7695518
40
0.3316174
50
263.1758525
51
270.1031083
0
ARC
8
DEFAULT_255_1_234
10
4.680796
20
44.8942365
40
0.4563091
50
269.6719807
51
279.0609165
0
ARC
8
DEFAULT_255_1_234
10
4.7074728
20
44.7329907
40
0.2928759
50
278.8750225
51
293.6346586
0
ARC
8
DEFAULT_255_1_234
10
4.7394936
20
44.65779
40
0.2111472
50
293.8553404
51
310.0518804
0
ARC
8
DEFAULT_255_1_234
10
4.739979
20
44.6515516
40
0.2060917
50
311.0646779
51
332.0108348
0
ARC
8
DEFAULT_255_1_234
10
4.6207517
20
44.7172978
40
0.3422352
50
331.6588543
51
343.2878891
0
ARC
8
DEFAULT_255_1_234
10
4.4145032
20
44.7806798
40
0.5580003
50
343.1446044
51
351.010618
0
ARC
8
DEFAULT_255_1_234
10
4.2603678
20
44.8087871
40
0.7146438
50
350.7157277
51
351.1602153
0
LINE
8
DEFAULT_255_1_234
10
6.2307186
20
45.4973211
11
6.2307186
21
44.3279
0
LINE
8
DEFAULT_255_1_234
10
6.2307186
20
44.3279
11
6.0757061
21
44.3279
0
LINE
8
DEFAULT_255_1_234
10
6.0757061
20
44.3279
11
6.0757061
21
44.868436
0
LINE
8
DEFAULT_255_1_234
10
6.0757061
20
44.868436
11
5.4861765
21
44.868436
0
LINE
8
DEFAULT_255_1_234
10
5.4861765
20
44.868436
11
5.4861765
21
44.3279
0
LINE
8
DEFAULT_255_1_234
10
5.4861765
20
44.3279
11
5.3319671
21
44.3279
0
LINE
8
DEFAULT_255_1_234
10
5.3319671
20
44.3279
11
5.3319671
21
45.4973211
0
LINE
8
DEFAULT_255_1_234
10
5.3319671
20
45.4973211
11
5.4861765
21
45.4973211
0
LINE
8
DEFAULT_255_1_234
10
5.4861765
20
45.4973211
11
5.4861765
21
44.9945343
0
LINE
8
DEFAULT_255_1_234
10
5.4861765
20
44.9945343
11
6.0757061
21
44.9945343
0
LINE
8
DEFAULT_255_1_234
10
6.0757061
20
44.9945343
11
6.0757061
21
45.4973211
0
LINE
8
DEFAULT_255_1_234
10
6.0757061
20
45.4973211
11
6.2307186
21
45.4973211
0
LINE
8
DEFAULT_255_1_234
10
6.6821023
20
44.8636169
11
6.6821023
21
44.9848962
0
LINE
8
DEFAULT_255_1_234
10
6.6821023
20
44.9848962
11
6.7937435
21
44.9848962
0
LINE
8
DEFAULT_255_1_234
10
6.6033913
20
45.1905087
11
6.4548041
21
45.1905087
0
LINE
8
DEFAULT_255_1_234
10
6.4443628
20
44.6363188
11
6.5937532
21
44.6363188
0
LINE
8
DEFAULT_255_1_234
10
6.7937435
20
44.8636169
11
6.6821023
21
44.8636169
0
ARC
8
DEFAULT_255_1_234
10
6.7908301
20
45.3241713
40
0.3392876
50
270.4919872
51
281.8951556
0
ARC
8
DEFAULT_255_1_234
10
6.8149563
20
45.2139702
40
0.2264817
50
281.6691735
51
301.2943132
0
ARC
8
DEFAULT_255_1_234
10
6.8319773
20
45.1828304
40
0.1910381
50
301.7833094
51
311.7545298
0
ARC
8
DEFAULT_255_1_234
10
6.8411349
20
45.1726748
40
0.1773635
50
311.7323931
51
354.2802411
0
ARC
8
DEFAULT_255_1_234
10
6.7684974
20
45.1851722
40
0.2509385
50
353.0937916
51
0.1181479
0
ARC
8
DEFAULT_255_1_234
10
6.7223759
20
45.1899386
40
0.2970898
50
359.1805295
51
15.0453146
0
ARC
8
DEFAULT_255_1_234
10
6.8569596
20
45.2291992
40
0.1569564
50
13.9577229
51
77.6713066
0
ARC
8
DEFAULT_255_1_234
10
6.8183125
20
45.0906949
40
0.3006298
50
76.1116566
51
90.7026153
0
ARC
8
DEFAULT_255_1_234
10
6.8123963
20
45.1180545
40
0.2732568
50
89.5324876
51
103.531937
0
ARC
8
DEFAULT_255_1_234
10
6.7923407
20
45.1979884
40
0.1908508
50
103.2931773
51
133.5619022
0
ARC
8
DEFAULT_255_1_234
10
6.7878896
20
45.2039375
40
0.1834746
50
133.8349307
51
173.5344437
0
ARC
8
DEFAULT_255_1_234
10
6.8601939
20
45.1911213
40
0.2568033
50
172.5096846
51
180.1366907
0
ARC
8
DEFAULT_255_1_234
10
6.7650833
20
45.1945622
40
0.3103056
50
155.3484492
51
180.7484736
0
ARC
8
DEFAULT_255_1_234
10
6.7601922
20
45.1916846
40
0.3070957
50
131.5744599
51
154.4798489
0
ARC
8
DEFAULT_255_1_234
10
6.7915069
20
45.160031
40
0.3515643
50
96.9875458
51
131.9690667
0
ARC
8
DEFAULT_255_1_234
10
6.8134549
20
45.0354636
40
0.4779224
50
89.8596053
51
97.7825159
0
ARC
8
DEFAULT_255_1_234
10
6.8182612
20
45.0092616
40
0.5041361
50
78.3655447
51
90.4131539
0
ARC
8
DEFAULT_255_1_234
10
6.854053
20
45.1751887
40
0.3344039
50
56.6229102
51
78.638727
0
ARC
8
DEFAULT_255_1_234
10
6.8755474
20
45.2127805
40
0.2912001
50
47.0253525
51
56.0854072
0
ARC
8
DEFAULT_255_1_234
10
6.8775254
20
45.2167223
40
0.2869704
50
10.9208013
51
46.7778124
0
ARC
8
DEFAULT_255_1_234
10
6.741132
20
45.1851857
40
0.426899
50
359.6364486
51
11.6087304
0
ARC
8
DEFAULT_255_1_234
10
6.9246164
20
45.1836752
40
0.243409
50
332.3549906
51
359.7179418
0
ARC
8
DEFAULT_255_1_234
10
6.8595766
20
45.2145142
40
0.3153459
50
325.2333722
51
332.8745602
0
ARC
8
DEFAULT_255_1_234
10
6.874839
20
45.2038828
40
0.2967456
50
292.9802137
51
325.2392345
0
ARC
8
DEFAULT_255_1_234
10
6.8473763
20
45.2572863
40
0.3566604
50
292.5402179
51
293.6924929
0
ARC
8
DEFAULT_255_1_234
10
6.8866359
20
44.6118091
40
0.3307468
50
57.6435486
51
72.8625112
0
ARC
8
DEFAULT_255_1_234
10
6.9220859
20
44.6692549
40
0.2632492
50
36.7248896
51
57.4697979
0
ARC
8
DEFAULT_255_1_234
10
6.9209492
20
44.670522
40
0.2634081
50
8.0545065
51
36.356114
0
ARC
8
DEFAULT_255_1_234
10
6.8346677
20
44.6550174
40
0.3510261
50
359.8320645
51
8.5869982
0
ARC
8
DEFAULT_255_1_234
10
6.7971453
20
44.6502101
40
0.3885653
50
343.9829931
51
0.5571613
0
ARC
8
DEFAULT_255_1_234
10
6.885765
20
44.6259438
40
0.2966924
50
311.6359546
51
343.7651759
0
ARC
8
DEFAULT_255_1_234
10
6.8479219
20
44.6686102
40
0.3537231
50
279.7829875
51
311.6255694
0
ARC
8
DEFAULT_255_1_234
10
6.8177996
20
44.812328
40
0.5004971
50
269.7286406
51
280.3856417
0
ARC
8
DEFAULT_255_1_234
10
6.8116068
20
44.8081996
40
0.4963778
50
256.6828919
51
270.4412052
0
ARC
8
DEFAULT_255_1_234
10
6.7777364
20
44.6697394
40
0.3538406
50
229.4223008
51
256.8556159
0
ARC
8
DEFAULT_255_1_234
10
6.7362757
20
44.6230736
40
0.2914296
50
181.818294
51
229.6455059
0
ARC
8
DEFAULT_255_1_234
10
6.8402713
20
44.6361496
40
0.3959084
50
179.9755256
51
183.2323064
0
ARC
8
DEFAULT_255_1_234
10
6.8230459
20
44.6341037
40
0.2293034
50
179.4465117
51
196.2869258
0
ARC
8
DEFAULT_255_1_234
10
6.7742867
20
44.6207651
40
0.1787621
50
196.5661473
51
227.705904
0
ARC
8
DEFAULT_255_1_234
10
6.7906962
20
44.6391155
40
0.2033784
50
227.7652068
51
257.8762805
0
ARC
8
DEFAULT_255_1_234
10
6.8131932
20
44.7334156
40
0.3003081
50
257.4584385
51
270.426602
0
ARC
8
DEFAULT_255_1_234
10
6.8177498
20
44.7623996
40
0.329292
50
269.5962073
51
280.8789248
0
ARC
8
DEFAULT_255_1_234
10
6.8407027
20
44.6477685
40
0.2123908
50
280.6346389
51
299.8595945
0
ARC
8
DEFAULT_255_1_234
10
6.8597934
20
44.6115212
40
0.171457
50
300.3576302
51
314.5517981
0
ARC
8
DEFAULT_255_1_234
10
6.8514994
20
44.6175919
40
0.1816095
50
315.0728369
51
345.0431014
0
ARC
8
DEFAULT_255_1_234
10
6.7591808
20
44.6444841
40
0.2777492
50
344.5986631
51
357.9269593
0
ARC
8
DEFAULT_255_1_234
10
6.6696135
20
44.6506276
40
0.3674917
50
357.4748886
51
0.0231117
0
ARC
8
DEFAULT_255_1_234
10
6.7719244
20
44.6530679
40
0.2651907
50
359.5047933
51
13.4239635
0
ARC
8
DEFAULT_255_1_234
10
6.8585887
20
44.6752478
40
0.1757509
50
12.9498199
51
48.7551375
0
ARC
8
DEFAULT_255_1_234
10
6.8403621
20
44.65034
40
0.2065134
50
49.5088623
51
72.1836453
0
ARC
8
DEFAULT_255_1_234
10
6.8045774
20
44.5441291
40
0.3185836
50
71.9010081
51
84.3554254
0
ARC
8
DEFAULT_255_1_234
10
6.7884406
20
44.4080326
40
0.4556151
50
84.0193428
51
89.333121
0
LINE
8
DEFAULT_255_1_234
10
7.7141807
20
44.8853026
11
7.7141807
21
44.7640234
0
LINE
8
DEFAULT_255_1_234
10
7.7141807
20
44.7640234
11
7.3222318
21
44.7640234
0
LINE
8
DEFAULT_255_1_234
10
7.3222318
20
44.7640234
11
7.3222318
21
44.8853026
0
LINE
8
DEFAULT_255_1_234
10
7.3222318
20
44.8853026
11
7.7141807
21
44.8853026
0
LINE
8
DEFAULT_255_1_234
10
4.966523
20
52.6364663
11
5.1215355
21
52.6364663
0
LINE
8
DEFAULT_255_1_234
10
4.2211777
20
52.7954947
11
4.2211777
21
52.9079391
0
LINE
8
DEFAULT_255_1_234
10
5.1215355
20
53.0589357
11
4.966523
21
53.0589357
0
LINE
8
DEFAULT_255_1_234
10
4.3761902
20
52.9039232
11
4.3761902
21
52.7906757
0
ARC
8
DEFAULT_255_1_234
10
4.5734742
20
52.6961846
40
0.5513052
50
340.1774281
51
353.7814284
0
ARC
8
DEFAULT_255_1_234
10
4.7306095
20
52.6376582
40
0.3836379
50
311.4558989
51
340.4421614
0
ARC
8
DEFAULT_255_1_234
10
4.7272763
20
52.6487528
40
0.3941894
50
282.4333181
51
310.7513653
0
ARC
8
DEFAULT_255_1_234
10
4.6833502
20
52.8302679
40
0.5809175
50
269.9358511
51
282.809604
0
ARC
8
DEFAULT_255_1_234
10
4.6781568
20
52.9760212
40
0.7266847
50
270.0021091
51
270.3581957
0
ARC
8
DEFAULT_255_1_234
10
4.6728985
20
52.7159585
40
0.4666519
50
250.7884749
51
270.6489167
0
ARC
8
DEFAULT_255_1_234
10
4.656082
20
52.6522319
40
0.4009729
50
219.3627325
51
250.0611886
0
ARC
8
DEFAULT_255_1_234
10
4.7390031
20
52.7227042
40
0.5097822
50
193.5479632
51
219.5756669
0
ARC
8
DEFAULT_255_1_234
10
4.9761652
20
52.7842919
40
0.7547848
50
181.1218675
51
193.87563
0
ARC
8
DEFAULT_255_1_234
10
5.1831833
20
52.795358
40
0.9620055
50
179.9918545
51
181.5394234
0
ARC
8
DEFAULT_255_1_234
10
4.9980935
20
52.9116788
40
0.7769248
50
169.5837241
51
180.2757934
0
ARC
8
DEFAULT_255_1_234
10
4.8143873
20
52.9456229
40
0.590109
50
155.0365899
51
169.6003176
0
ARC
8
DEFAULT_255_1_234
10
4.7008337
20
53.0003677
40
0.4640625
50
136.783148
51
155.2472683
0
ARC
8
DEFAULT_255_1_234
10
4.6618814
20
53.0334562
40
0.4130255
50
121.7633186
51
136.428115
0
ARC
8
DEFAULT_255_1_234
10
4.6753776
20
53.0085227
40
0.4413323
50
95.6459699
51
121.5490577
0
ARC
8
DEFAULT_255_1_234
10
4.6911058
20
52.8976949
40
0.55319
50
89.924208
51
96.1377933
0
ARC
8
DEFAULT_255_1_234
10
4.6961491
20
52.9095542
40
0.5413475
50
76.6779277
51
90.4563316
0
ARC
8
DEFAULT_255_1_234
10
4.7355114
20
53.0686114
40
0.3775041
50
47.485847
51
76.9287264
0
ARC
8
DEFAULT_255_1_234
10
4.7208087
20
53.0586159
40
0.3948286
50
16.5424086
51
46.8933463
0
ARC
8
DEFAULT_255_1_234
10
4.5600244
20
53.0057861
40
0.564021
50
5.4072051
51
17.0365086
0
ARC
8
DEFAULT_255_1_234
10
4.4161261
20
52.9826679
40
0.5556559
50
7.8891745
51
15.9239216
0
ARC
8
DEFAULT_255_1_234
10
4.6148274
20
53.0403631
40
0.3487515
50
15.7653144
51
27.9410532
0
ARC
8
DEFAULT_255_1_234
10
4.7252492
20
53.099479
40
0.2235026
50
27.8166557
51
46.4008329
0
ARC
8
DEFAULT_255_1_234
10
4.7302135
20
53.0989082
40
0.2205286
50
47.4371857
51
75.0698205
0
ARC
8
DEFAULT_255_1_234
10
4.6993529
20
52.9914765
40
0.3322915
50
74.7008593
51
87.8124495
0
ARC
8
DEFAULT_255_1_234
10
4.6920217
20
52.8858844
40
0.4380987
50
87.3814673
51
90.0240855
0
ARC
8
DEFAULT_255_1_234
10
4.688176
20
53.0036291
40
0.3203749
50
89.3451631
51
108.5745436
0
ARC
8
DEFAULT_255_1_234
10
4.6744865
20
53.0549908
40
0.2673494
50
109.2998449
51
143.3037509
0
ARC
8
DEFAULT_255_1_234
10
4.7506938
20
52.9963881
40
0.3634757
50
143.0753173
51
163.1916937
0
ARC
8
DEFAULT_255_1_234
10
4.9458666
20
52.9347967
40
0.5681262
50
162.9373603
51
174.6208611
0
ARC
8
DEFAULT_255_1_234
10
5.2084708
20
52.906001
40
0.8322832
50
174.3419979
51
180.1430411
0
ARC
8
DEFAULT_255_1_234
10
5.1153864
20
52.7865698
40
0.7392076
50
179.6817502
51
189.150529
0
ARC
8
DEFAULT_255_1_234
10
4.8653112
20
52.744919
40
0.4856932
50
188.9910863
51
203.5773039
0
ARC
8
DEFAULT_255_1_234
10
4.7573445
20
52.7001211
40
0.3688271
50
203.9077269
51
215.1312379
0
ARC
8
DEFAULT_255_1_234
10
4.6650539
20
52.6285941
40
0.2522457
50
213.9071664
51
263.8849284
0
ARC
8
DEFAULT_255_1_234
10
4.6775868
20
52.7070518
40
0.3316174
50
263.1758525
51
270.1031083
0
ARC
8
DEFAULT_255_1_234
10
4.680796
20
52.8317365
40
0.4563091
50
269.6719807
51
279.0609165
0
ARC
8
DEFAULT_255_1_234
10
4.7074728
20
52.6704907
40
0.2928759
50
278.8750225
51
293.6346586
0
ARC
8
DEFAULT_255_1_234
10
4.7394936
20
52.59529
40
0.2111472
50
293.8553404
51
310.0518804
0
ARC
8
DEFAULT_255_1_234
10
4.739979
20
52.5890516
40
0.2060917
50
311.0646779
51
332.0108348
0
ARC
8
DEFAULT_255_1_234
10
4.6207517
20
52.6547978
40
0.3422352
50
331.6588543
51
343.2878891
0
ARC
8
DEFAULT_255_1_234
10
4.4145032
20
52.7181798
40
0.5580003
50
343.1446044
51
351.010618
0
ARC
8
DEFAULT_255_1_234
10
4.2603678
20
52.7462871
40
0.7146438
50
350.7157277
51
351.1602153
0
LINE
8
DEFAULT_255_1_234
10
6.2307186
20
53.4348211
11
6.2307186
21
52.2654
0
LINE
8
DEFAULT_255_1_234
10
6.2307186
20
52.2654
11
6.0757061
21
52.2654
0
LINE
8
DEFAULT_255_1_234
10
6.0757061
20
52.2654
11
6.0757061
21
52.805936
0
LINE
8
DEFAULT_255_1_234
10
6.0757061
20
52.805936
11
5.4861765
21
52.805936
0
LINE
8
DEFAULT_255_1_234
10
5.4861765
20
52.805936
11
5.4861765
21
52.2654
0
LINE
8
DEFAULT_255_1_234
10
5.4861765
20
52.2654
11
5.3319671
21
52.2654
0
LINE
8
DEFAULT_255_1_234
10
5.3319671
20
52.2654
11
5.3319671
21
53.4348211
0
LINE
8
DEFAULT_255_1_234
10
5.3319671
20
53.4348211
11
5.4861765
21
53.4348211
0
LINE
8
DEFAULT_255_1_234
10
5.4861765
20
53.4348211
11
5.4861765
21
52.9320343
0
LINE
8
DEFAULT_255_1_234
10
5.4861765
20
52.9320343
11
6.0757061
21
52.9320343
0
LINE
8
DEFAULT_255_1_234
10
6.0757061
20
52.9320343
11
6.0757061
21
53.4348211
0
LINE
8
DEFAULT_255_1_234
10
6.0757061
20
53.4348211
11
6.2307186
21
53.4348211
0
LINE
8
DEFAULT_255_1_234
10
7.2322764
20
52.3866792
11
7.2322764
21
52.2654
0
LINE
8
DEFAULT_255_1_234
10
7.2322764
20
52.2654
11
6.4660485
21
52.2654
0
LINE
8
DEFAULT_255_1_234
10
6.4660485
20
52.2654
11
6.4660485
21
52.3722221
0
LINE
8
DEFAULT_255_1_234
10
6.4660485
20
52.3722221
11
6.8708481
21
52.8219995
0
LINE
8
DEFAULT_255_1_234
10
6.5921468
20
53.0902595
11
6.4435597
21
53.0902595
0
LINE
8
DEFAULT_255_1_234
10
6.9583941
20
52.7264218
11
6.6451563
21
52.3866792
0
LINE
8
DEFAULT_255_1_234
10
6.6451563
20
52.3866792
11
7.2322764
21
52.3866792
0
ARC
8
DEFAULT_255_1_234
10
5.5218315
20
54.0149527
40
1.8008286
50
318.5132453
51
320.7828378
0
ARC
8
DEFAULT_255_1_234
10
6.0505289
20
53.5846426
40
1.1191493
50
320.7372736
51
323.9737074
0
ARC
8
DEFAULT_255_1_234
10
6.4425146
20
53.3006361
40
0.6350923
50
323.8961724
51
328.6421089
0
ARC
8
DEFAULT_255_1_234
10
6.6471741
20
53.1744031
40
0.3946393
50
328.8299013
51
331.789948
0
ARC
8
DEFAULT_255_1_234
10
6.7468919
20
53.1229509
40
0.2824501
50
331.4255242
51
352.9364833
0
ARC
8
DEFAULT_255_1_234
10
6.760542
20
53.1198976
40
0.2685315
50
353.2248685
51
0.0169286
0
ARC
8
DEFAULT_255_1_234
10
6.7815297
20
53.122195
40
0.2475536
50
359.4866256
51
15.9339782
0
ARC
8
DEFAULT_255_1_234
10
6.8322282
20
53.1358286
40
0.1950618
50
16.1714718
51
43.5284424
0
ARC
8
DEFAULT_255_1_234
10
6.8399591
20
53.1435573
40
0.184134
50
43.4415429
51
83.1661404
0
ARC
8
DEFAULT_255_1_234
10
6.8265509
20
53.0698771
40
0.258926
50
82.160215
51
90.1505798
0
ARC
8
DEFAULT_255_1_234
10
6.8233936
20
53.0161865
40
0.3126255
50
89.5460705
51
102.5418777
0
ARC
8
DEFAULT_255_1_234
10
6.7991022
20
53.1192665
40
0.2067346
50
102.1739365
51
129.2061916
0
ARC
8
DEFAULT_255_1_234
10
6.7912094
20
53.1317094
40
0.1921118
50
129.7279328
51
135.7542026
0
ARC
8
DEFAULT_255_1_234
10
6.8033622
20
53.1220045
40
0.2075944
50
136.175737
51
166.3674722
0
ARC
8
DEFAULT_255_1_234
10
6.9040541
20
53.0950182
40
0.3118201
50
165.9092917
51
178.8683903
0
ARC
8
DEFAULT_255_1_234
10
6.9905402
20
53.0903179
40
0.3983935
50
178.438168
51
180.0083905
0
ARC
8
DEFAULT_255_1_234
10
6.8504005
20
53.0942231
40
0.4068601
50
163.2878735
51
180.5581814
0
ARC
8
DEFAULT_255_1_234
10
6.7702266
20
53.116284
40
0.3237344
50
133.454115
51
162.9470031
0
ARC
8
DEFAULT_255_1_234
10
6.7880807
20
53.0973
40
0.349795
50
100.7869394
51
133.4384016
0
ARC
8
DEFAULT_255_1_234
10
6.8228579
20
52.9424319
40
0.5084616
50
89.6605301
51
101.3704185
0
ARC
8
DEFAULT_255_1_234
10
6.8294918
20
52.9485496
40
0.502348
50
78.2171172
51
90.4130393
0
ARC
8
DEFAULT_255_1_234
10
6.8649996
20
53.1109637
40
0.3361092
50
55.9268222
51
78.4888551
0
ARC
8
DEFAULT_255_1_234
10
6.8846436
20
53.1448324
40
0.2970617
50
47.9292255
51
55.4054003
0
ARC
8
DEFAULT_255_1_234
10
6.8947997
20
53.1551502
40
0.2825983
50
4.3347696
51
48.0560701
0
ARC
8
DEFAULT_255_1_234
10
6.785239
20
53.1381601
40
0.393225
50
359.925209
51
5.5967654
0
ARC
8
DEFAULT_255_1_234
10
6.8281282
20
53.1437816
40
0.3503892
50
337.8914096
51
358.9967724
0
ARC
8
DEFAULT_255_1_234
10
6.5567694
20
53.2484706
40
0.6412172
50
326.9135351
51
338.3505194
0
ARC
8
DEFAULT_255_1_234
10
6.1581998
20
53.5039284
40
1.1146189
50
319.6472867
51
327.095818
0
ARC
8
DEFAULT_255_1_234
10
5.7749001
20
53.8201
40
1.6114559
50
317.2586784
51
319.9046139
0
LINE
8
DEFAULT_255_1_234
10
7.7141807
20
52.8228026
11
7.7141807
21
52.7015234
0
LINE
8
DEFAULT_255_1_234
10
7.7141807
20
52.7015234
11
7.3222318
21
52.7015234
0
LINE
8
DEFAULT_255_1_234
10
7.3222318
20
52.7015234
11
7.3222318
21
52.8228026
0
LINE
8
DEFAULT_255_1_234
10
7.3222318
20
52.8228026
11
7.7141807
21
52.8228026
0
LINE
8
DEFAULT_255_1_234
10
4.966523
20
60.5739663
11
5.1215355
21
60.5739663
0
LINE
8
DEFAULT_255_1_234
10
4.2211777
20
60.7329947
11
4.2211777
21
60.8454391
0
LINE
8
DEFAULT_255_1_234
10
5.1215355
20
60.9964357
11
4.966523
21
60.9964357
0
LINE
8
DEFAULT_255_1_234
10
4.3761902
20
60.8414232
11
4.3761902
21
60.7281757
0
ARC
8
DEFAULT_255_1_234
10
4.5734742
20
60.6336846
40
0.5513052
50
340.1774281
51
353.7814284
0
ARC
8
DEFAULT_255_1_234
10
4.7306095
20
60.5751582
40
0.3836379
50
311.4558989
51
340.4421614
0
ARC
8
DEFAULT_255_1_234
10
4.7272763
20
60.5862528
40
0.3941894
50
282.4333181
51
310.7513653
0
ARC
8
DEFAULT_255_1_234
10
4.6833502
20
60.7677679
40
0.5809175
50
269.9358511
51
282.809604
0
ARC
8
DEFAULT_255_1_234
10
4.6781568
20
60.9135212
40
0.7266847
50
270.0021091
51
270.3581957
0
ARC
8
DEFAULT_255_1_234
10
4.6728985
20
60.6534585
40
0.4666519
50
250.7884749
51
270.6489167
0
ARC
8
DEFAULT_255_1_234
10
4.656082
20
60.5897319
40
0.4009729
50
219.3627325
51
250.0611886
0
ARC
8
DEFAULT_255_1_234
10
4.7390031
20
60.6602042
40
0.5097822
50
193.5479632
51
219.5756669
0
ARC
8
DEFAULT_255_1_234
10
4.9761652
20
60.7217919
40
0.7547848
50
181.1218675
51
193.87563
0
ARC
8
DEFAULT_255_1_234
10
5.1831833
20
60.732858
40
0.9620055
50
179.9918545
51
181.5394234
0
ARC
8
DEFAULT_255_1_234
10
4.9980935
20
60.8491788
40
0.7769248
50
169.5837241
51
180.2757934
0
ARC
8
DEFAULT_255_1_234
10
4.8143873
20
60.8831229
40
0.590109
50
155.0365899
51
169.6003176
0
ARC
8
DEFAULT_255_1_234
10
4.7008337
20
60.9378677
40
0.4640625
50
136.783148
51
155.2472683
0
ARC
8
DEFAULT_255_1_234
10
4.6618814
20
60.9709562
40
0.4130255
50
121.7633186
51
136.428115
0
ARC
8
DEFAULT_255_1_234
10
4.6753776
20
60.9460227
40
0.4413323
50
95.6459699
51
121.5490577
0
ARC
8
DEFAULT_255_1_234
10
4.6911058
20
60.8351949
40
0.55319
50
89.924208
51
96.1377933
0
ARC
8
DEFAULT_255_1_234
10
4.6961491
20
60.8470542
40
0.5413475
50
76.6779277
51
90.4563316
0
ARC
8
DEFAULT_255_1_234
10
4.7355114
20
61.0061114
40
0.3775041
50
47.485847
51
76.9287264
0
ARC
8
DEFAULT_255_1_234
10
4.7208087
20
60.9961159
40
0.3948286
50
16.5424086
51
46.8933463
0
ARC
8
DEFAULT_255_1_234
10
4.5600244
20
60.9432861
40
0.564021
50
5.4072051
51
17.0365086
0
ARC
8
DEFAULT_255_1_234
10
4.4161261
20
60.9201679
40
0.5556559
50
7.8891745
51
15.9239216
0
ARC
8
DEFAULT_255_1_234
10
4.6148274
20
60.9778631
40
0.3487515
50
15.7653144
51
27.9410532
0
ARC
8
DEFAULT_255_1_234
10
4.7252492
20
61.036979
40
0.2235026
50
27.8166557
51
46.4008329
0
ARC
8
DEFAULT_255_1_234
10
4.7302135
20
61.0364082
40
0.2205286
50
47.4371857
51
75.0698205
0
ARC
8
DEFAULT_255_1_234
10
4.6993529
20
60.9289765
40
0.3322915
50
74.7008593
51
87.8124495
0
ARC
8
DEFAULT_255_1_234
10
4.6920217
20
60.8233844
40
0.4380987
50
87.3814673
51
90.0240855
0
ARC
8
DEFAULT_255_1_234
10
4.688176
20
60.9411291
40
0.3203749
50
89.3451631
51
108.5745436
0
ARC
8
DEFAULT_255_1_234
10
4.6744865
20
60.9924908
40
0.2673494
50
109.2998449
51
143.3037509
0
ARC
8
DEFAULT_255_1_234
10
4.7506938
20
60.9338881
40
0.3634757
50
143.0753173
51
163.1916937
0
ARC
8
DEFAULT_255_1_234
10
4.9458666
20
60.8722967
40
0.5681262
50
162.9373603
51
174.6208611
0
ARC
8
DEFAULT_255_1_234
10
5.2084708
20
60.843501
40
0.8322832
50
174.3419979
51
180.1430411
0
ARC
8
DEFAULT_255_1_234
10
5.1153864
20
60.7240698
40
0.7392076
50
179.6817502
51
189.150529
0
ARC
8
DEFAULT_255_1_234
10
4.8653112
20
60.682419
40
0.4856932
50
188.9910863
51
203.5773039
0
ARC
8
DEFAULT_255_1_234
10
4.7573445
20
60.6376211
40
0.3688271
50
203.9077269
51
215.1312379
0
ARC
8
DEFAULT_255_1_234
10
4.6650539
20
60.5660941
40
0.2522457
50
213.9071664
51
263.8849284
0
ARC
8
DEFAULT_255_1_234
10
4.6775868
20
60.6445518
40
0.3316174
50
263.1758525
51
270.1031083
0
ARC
8
DEFAULT_255_1_234
10
4.680796
20
60.7692365
40
0.4563091
50
269.6719807
51
279.0609165
0
ARC
8
DEFAULT_255_1_234
10
4.7074728
20
60.6079907
40
0.2928759
50
278.8750225
51
293.6346586
0
ARC
8
DEFAULT_255_1_234
10
4.7394936
20
60.53279
40
0.2111472
50
293.8553404
51
310.0518804
0
ARC
8
DEFAULT_255_1_234
10
4.739979
20
60.5265516
40
0.2060917
50
311.0646779
51
332.0108348
0
ARC
8
DEFAULT_255_1_234
10
4.6207517
20
60.5922978
40
0.3422352
50
331.6588543
51
343.2878891
0
ARC
8
DEFAULT_255_1_234
10
4.4145032
20
60.6556798
40
0.5580003
50
343.1446044
51
351.010618
0
ARC
8
DEFAULT_255_1_234
10
4.2603678
20
60.6837871
40
0.7146438
50
350.7157277
51
351.1602153
0
LINE
8
DEFAULT_255_1_234
10
6.2307186
20
61.3723211
11
6.2307186
21
60.2029
0
LINE
8
DEFAULT_255_1_234
10
6.2307186
20
60.2029
11
6.0757061
21
60.2029
0
LINE
8
DEFAULT_255_1_234
10
6.0757061
20
60.2029
11
6.0757061
21
60.743436
0
LINE
8
DEFAULT_255_1_234
10
6.0757061
20
60.743436
11
5.4861765
21
60.743436
0
LINE
8
DEFAULT_255_1_234
10
5.4861765
20
60.743436
11
5.4861765
21
60.2029
0
LINE
8
DEFAULT_255_1_234
10
5.4861765
20
60.2029
11
5.3319671
21
60.2029
0
LINE
8
DEFAULT_255_1_234
10
5.3319671
20
60.2029
11
5.3319671
21
61.3723211
0
LINE
8
DEFAULT_255_1_234
10
5.3319671
20
61.3723211
11
5.4861765
21
61.3723211
0
LINE
8
DEFAULT_255_1_234
10
5.4861765
20
61.3723211
11
5.4861765
21
60.8695343
0
LINE
8
DEFAULT_255_1_234
10
5.4861765
20
60.8695343
11
6.0757061
21
60.8695343
0
LINE
8
DEFAULT_255_1_234
10
6.0757061
20
60.8695343
11
6.0757061
21
61.3723211
0
LINE
8
DEFAULT_255_1_234
10
6.0757061
20
61.3723211
11
6.2307186
21
61.3723211
0
LINE
8
DEFAULT_255_1_234
10
6.9543782
20
61.3779433
11
6.9543782
21
60.2029
0
LINE
8
DEFAULT_255_1_234
10
6.9543782
20
60.2029
11
6.8049879
21
60.2029
0
LINE
8
DEFAULT_255_1_234
10
6.8049879
20
60.2029
11
6.8049879
21
61.1932133
0
LINE
8
DEFAULT_255_1_234
10
6.8049879
20
61.1932133
11
6.5054041
21
61.0831785
0
LINE
8
DEFAULT_255_1_234
10
6.5054041
20
61.0831785
11
6.5054041
21
61.2181117
0
LINE
8
DEFAULT_255_1_234
10
6.5054041
20
61.2181117
11
6.9310862
21
61.3779433
0
LINE
8
DEFAULT_255_1_234
10
6.9310862
20
61.3779433
11
6.9543782
21
61.3779433
0
LINE
8
DEFAULT_255_1_234
10
7.7141807
20
60.7603026
11
7.7141807
21
60.6390234
0
LINE
8
DEFAULT_255_1_234
10
7.7141807
20
60.6390234
11
7.3222318
21
60.6390234
0
LINE
8
DEFAULT_255_1_234
10
7.3222318
20
60.6390234
11
7.3222318
21
60.7603026
0
LINE
8
DEFAULT_255_1_234
10
7.3222318
20
60.7603026
11
7.7141807
21
60.7603026
0
LINE
8
DEFAULT_255_1_234
10
4.938423
20
68.5114663
11
5.0934355
21
68.5114663
0
LINE
8
DEFAULT_255_1_234
10
4.1930777
20
68.6704947
11
4.1930777
21
68.7829391
0
LINE
8
DEFAULT_255_1_234
10
5.0934355
20
68.9339357
11
4.938423
21
68.9339357
0
LINE
8
DEFAULT_255_1_234
10
4.3480902
20
68.7789232
11
4.3480902
21
68.6656757
0
ARC
8
DEFAULT_255_1_234
10
4.5453742
20
68.5711846
40
0.5513052
50
340.1774281
51
353.7814284
0
ARC
8
DEFAULT_255_1_234
10
4.7025095
20
68.5126582
40
0.3836379
50
311.4558989
51
340.4421614
0
ARC
8
DEFAULT_255_1_234
10
4.6991763
20
68.5237528
40
0.3941894
50
282.4333181
51
310.7513653
0
ARC
8
DEFAULT_255_1_234
10
4.6552502
20
68.7052679
40
0.5809175
50
269.9358511
51
282.809604
0
ARC
8
DEFAULT_255_1_234
10
4.6500568
20
68.8510212
40
0.7266847
50
270.0021091
51
270.3581957
0
ARC
8
DEFAULT_255_1_234
10
4.6447985
20
68.5909585
40
0.4666519
50
250.7884749
51
270.6489167
0
ARC
8
DEFAULT_255_1_234
10
4.627982
20
68.5272319
40
0.4009729
50
219.3627325
51
250.0611886
0
ARC
8
DEFAULT_255_1_234
10
4.7109031
20
68.5977042
40
0.5097822
50
193.5479632
51
219.5756669
0
ARC
8
DEFAULT_255_1_234
10
4.9480652
20
68.6592919
40
0.7547848
50
181.1218675
51
193.87563
0
ARC
8
DEFAULT_255_1_234
10
5.1550833
20
68.670358
40
0.9620055
50
179.9918545
51
181.5394234
0
ARC
8
DEFAULT_255_1_234
10
4.9699935
20
68.7866788
40
0.7769248
50
169.5837241
51
180.2757934
0
ARC
8
DEFAULT_255_1_234
10
4.7862873
20
68.8206229
40
0.590109
50
155.0365899
51
169.6003176
0
ARC
8
DEFAULT_255_1_234
10
4.6727337
20
68.8753677
40
0.4640625
50
136.783148
51
155.2472683
0
ARC
8
DEFAULT_255_1_234
10
4.6337814
20
68.9084562
40
0.4130255
50
121.7633186
51
136.428115
0
ARC
8
DEFAULT_255_1_234
10
4.6472776
20
68.8835227
40
0.4413323
50
95.6459699
51
121.5490577
0
ARC
8
DEFAULT_255_1_234
10
4.6630058
20
68.7726949
40
0.55319
50
89.924208
51
96.1377933
0
ARC
8
DEFAULT_255_1_234
10
4.6680491
20
68.7845542
40
0.5413475
50
76.6779277
51
90.4563316
0
ARC
8
DEFAULT_255_1_234
10
4.7074114
20
68.9436114
40
0.3775041
50
47.485847
51
76.9287264
0
ARC
8
DEFAULT_255_1_234
10
4.6927087
20
68.9336159
40
0.3948286
50
16.5424086
51
46.8933463
0
ARC
8
DEFAULT_255_1_234
10
4.5319244
20
68.8807861
40
0.564021
50
5.4072051
51
17.0365086
0
ARC
8
DEFAULT_255_1_234
10
4.3880261
20
68.8576679
40
0.5556559
50
7.8891745
51
15.9239216
0
ARC
8
DEFAULT_255_1_234
10
4.5867274
20
68.9153631
40
0.3487515
50
15.7653144
51
27.9410532
0
ARC
8
DEFAULT_255_1_234
10
4.6971492
20
68.974479
40
0.2235026
50
27.8166557
51
46.4008329
0
ARC
8
DEFAULT_255_1_234
10
4.7021135
20
68.9739082
40
0.2205286
50
47.4371857
51
75.0698205
0
ARC
8
DEFAULT_255_1_234
10
4.6712529
20
68.8664765
40
0.3322915
50
74.7008593
51
87.8124495
0
ARC
8
DEFAULT_255_1_234
10
4.6639217
20
68.7608844
40
0.4380987
50
87.3814673
51
90.0240855
0
ARC
8
DEFAULT_255_1_234
10
4.660076
20
68.8786291
40
0.3203749
50
89.3451631
51
108.5745436
0
ARC
8
DEFAULT_255_1_234
10
4.6463865
20
68.9299908
40
0.2673494
50
109.2998449
51
143.3037509
0
ARC
8
DEFAULT_255_1_234
10
4.7225938
20
68.8713881
40
0.3634757
50
143.0753173
51
163.1916937
0
ARC
8
DEFAULT_255_1_234
10
4.9177666
20
68.8097967
40
0.5681262
50
162.9373603
51
174.6208611
0
ARC
8
DEFAULT_255_1_234
10
5.1803708
20
68.781001
40
0.8322832
50
174.3419979
51
180.1430411
0
ARC
8
DEFAULT_255_1_234
10
5.0872864
20
68.6615698
40
0.7392076
50
179.6817502
51
189.150529
0
ARC
8
DEFAULT_255_1_234
10
4.8372112
20
68.619919
40
0.4856932
50
188.9910863
51
203.5773039
0
ARC
8
DEFAULT_255_1_234
10
4.7292445
20
68.5751211
40
0.3688271
50
203.9077269
51
215.1312379
0
ARC
8
DEFAULT_255_1_234
10
4.6369539
20
68.5035941
40
0.2522457
50
213.9071664
51
263.8849284
0
ARC
8
DEFAULT_255_1_234
10
4.6494868
20
68.5820518
40
0.3316174
50
263.1758525
51
270.1031083
0
ARC
8
DEFAULT_255_1_234
10
4.652696
20
68.7067365
40
0.4563091
50
269.6719807
51
279.0609165
0
ARC
8
DEFAULT_255_1_234
10
4.6793728
20
68.5454907
40
0.2928759
50
278.8750225
51
293.6346586
0
ARC
8
DEFAULT_255_1_234
10
4.7113936
20
68.47029
40
0.2111472
50
293.8553404
51
310.0518804
0
ARC
8
DEFAULT_255_1_234
10
4.711879
20
68.4640516
40
0.2060917
50
311.0646779
51
332.0108348
0
ARC
8
DEFAULT_255_1_234
10
4.5926517
20
68.5297978
40
0.3422352
50
331.6588543
51
343.2878891
0
ARC
8
DEFAULT_255_1_234
10
4.3864032
20
68.5931798
40
0.5580003
50
343.1446044
51
351.010618
0
ARC
8
DEFAULT_255_1_234
10
4.2322678
20
68.6212871
40
0.7146438
50
350.7157277
51
351.1602153
0
LINE
8
DEFAULT_255_1_234
10
6.2026186
20
69.3098211
11
6.2026186
21
68.1404
0
LINE
8
DEFAULT_255_1_234
10
6.2026186
20
68.1404
11
6.0476061
21
68.1404
0
LINE
8
DEFAULT_255_1_234
10
6.0476061
20
68.1404
11
6.0476061
21
68.680936
0
LINE
8
DEFAULT_255_1_234
10
6.0476061
20
68.680936
11
5.4580765
21
68.680936
0
LINE
8
DEFAULT_255_1_234
10
5.4580765
20
68.680936
11
5.4580765
21
68.1404
0
LINE
8
DEFAULT_255_1_234
10
5.4580765
20
68.1404
11
5.3038671
21
68.1404
0
LINE
8
DEFAULT_255_1_234
10
5.3038671
20
68.1404
11
5.3038671
21
69.3098211
0
LINE
8
DEFAULT_255_1_234
10
5.3038671
20
69.3098211
11
5.4580765
21
69.3098211
0
LINE
8
DEFAULT_255_1_234
10
5.4580765
20
69.3098211
11
5.4580765
21
68.8070343
0
LINE
8
DEFAULT_255_1_234
10
5.4580765
20
68.8070343
11
6.0476061
21
68.8070343
0
LINE
8
DEFAULT_255_1_234
10
6.0476061
20
68.8070343
11
6.0476061
21
69.3098211
0
LINE
8
DEFAULT_255_1_234
10
6.0476061
20
69.3098211
11
6.2026186
21
69.3098211
0
ARC
8
DEFAULT_255_1_234
10
6.8649269
20
69.0020703
40
0.2822356
50
338.8763615
51
0.5166041
0
ARC
8
DEFAULT_255_1_234
10
6.8817923
20
68.9975208
40
0.2648703
50
325.8412414
51
338.4795939
0
ARC
8
DEFAULT_255_1_234
10
6.8427291
20
69.0246042
40
0.3124019
50
296.7586019
51
325.753654
0
ARC
8
DEFAULT_255_1_234
10
6.8139399
20
69.0730789
40
0.368668
50
296.0902311
51
297.3618122
0
ARC
8
DEFAULT_255_1_234
10
6.8396857
20
68.4176041
40
0.3518806
50
47.9009248
51
67.1946869
0
ARC
8
DEFAULT_255_1_234
10
6.8593099
20
68.4422395
40
0.320451
50
35.236241
51
47.551371
0
ARC
8
DEFAULT_255_1_234
10
6.8854717
20
68.4596993
40
0.2890103
50
359.2759738
51
35.4014081
0
ARC
8
DEFAULT_255_1_234
10
6.8109748
20
68.4523826
40
0.3635026
50
343.1294516
51
0.5776525
0
ARC
8
DEFAULT_255_1_234
10
6.8834293
20
68.432433
40
0.2883832
50
310.8497458
51
342.744803
0
ARC
8
DEFAULT_255_1_234
10
6.8416406
20
68.4801294
40
0.3517954
50
281.5473923
51
310.9169905
0
ARC
8
DEFAULT_255_1_234
10
6.8059856
20
68.6354084
40
0.5110832
50
269.6192722
51
281.9789957
0
ARC
8
DEFAULT_255_1_234
10
6.7987645
20
68.6354828
40
0.5111606
50
257.4584469
51
270.4287458
0
ARC
8
DEFAULT_255_1_234
10
6.7606788
20
68.4751344
40
0.3463762
50
228.7553743
51
257.8484423
0
ARC
8
DEFAULT_255_1_234
10
6.7296986
20
68.4378442
40
0.297916
50
184.0104442
51
228.5071787
0
ARC
8
DEFAULT_255_1_234
10
6.845993
20
68.4555512
40
0.4152734
50
179.9315461
51
185.3254504
0
ARC
8
DEFAULT_255_1_234
10
6.7283576
20
68.4592992
40
0.2976554
50
145.6795913
51
180.6259649
0
ARC
8
DEFAULT_255_1_234
10
6.7446925
20
68.4478929
40
0.3175776
50
115.5537925
51
145.6416199
0
ARC
8
DEFAULT_255_1_234
10
6.7787855
20
68.3868028
40
0.3874232
50
113.2437915
51
116.2054627
0
ARC
8
DEFAULT_255_1_234
10
6.7635068
20
69.026658
40
0.3154751
50
222.9548379
51
244.1372485
0
ARC
8
DEFAULT_255_1_234
10
6.7513143
20
69.0129834
40
0.2972382
50
213.3439227
51
222.6271327
0
ARC
8
DEFAULT_255_1_234
10
6.7321078
20
68.9999308
40
0.274019
50
180.4316517
51
213.2713999
0
ARC
8
DEFAULT_255_1_234
10
6.7896079
20
69.004611
40
0.33158
50
179.9992944
51
181.1655061
0
ARC
8
DEFAULT_255_1_234
10
6.8305496
20
69.0080561
40
0.3725376
50
164.6186108
51
180.5292368
0
ARC
8
DEFAULT_255_1_234
10
6.7407359
20
69.0322101
40
0.2795349
50
132.2454369
51
164.5092287
0
ARC
8
DEFAULT_255_1_234
10
6.7694463
20
68.9997028
40
0.3229019
50
100.7052766
51
132.1387266
0
ARC
8
DEFAULT_255_1_234
10
6.7999435
20
68.8619086
40
0.4639835
50
89.6732617
51
101.2449487
0
ARC
8
DEFAULT_255_1_234
10
6.8061633
20
68.879399
40
0.4464999
50
76.2876631
51
90.4586123
0
ARC
8
DEFAULT_255_1_234
10
6.8367865
20
69.001622
40
0.3205023
50
47.8240157
51
76.4266918
0
ARC
8
DEFAULT_255_1_234
10
6.8590415
20
69.027659
40
0.2862661
50
6.9168658
51
47.6261438
0
ARC
8
DEFAULT_255_1_234
10
6.7403818
20
69.005737
40
0.4067708
50
359.8419705
51
7.9694496
0
ARC
8
DEFAULT_255_1_234
10
6.7745715
20
68.4616925
40
0.2513121
50
359.4454068
51
16.9256425
0
ARC
8
DEFAULT_255_1_234
10
6.8214526
20
68.4746033
40
0.2027071
50
17.292259
51
45.462717
0
ARC
8
DEFAULT_255_1_234
10
6.8160462
20
68.4699434
40
0.2098212
50
45.3028762
51
83.1921472
0
ARC
8
DEFAULT_255_1_234
10
6.8017146
20
68.3897895
40
0.2911472
50
82.2614531
51
90.143954
0
ARC
8
DEFAULT_255_1_234
10
6.7986266
20
68.413095
40
0.2678513
50
89.4959189
51
104.8579811
0
ARC
8
DEFAULT_255_1_234
10
6.7809525
20
68.480089
40
0.1985654
50
104.8855873
51
135.2448349
0
ARC
8
DEFAULT_255_1_234
10
6.7859298
20
68.4756336
40
0.2052373
50
135.3398955
51
172.104394
0
ARC
8
DEFAULT_255_1_234
10
6.8666356
20
68.4601925
40
0.2873299
50
171.2651929
51
180.1859362
0
ARC
8
DEFAULT_255_1_234
10
6.8497057
20
68.4569733
40
0.2704083
50
179.515471
51
193.6466734
0
ARC
8
DEFAULT_255_1_234
10
6.7680826
20
68.4361777
40
0.1861855
50
193.3540587
51
225.8256931
0
ARC
8
DEFAULT_255_1_234
10
6.7721583
20
68.4432524
40
0.1941102
50
226.418029
51
255.8553723
0
ARC
8
DEFAULT_255_1_234
10
6.7978016
20
68.5368998
40
0.2911917
50
255.4655572
51
268.7985967
0
ARC
8
DEFAULT_255_1_234
10
6.8025208
20
68.6207491
40
0.3751331
50
268.3464808
51
270.0104874
0
ARC
8
DEFAULT_255_1_234
10
6.8048596
20
68.5523138
40
0.3067064
50
269.575914
51
282.0823146
0
ARC
8
DEFAULT_255_1_234
10
6.8273505
20
68.4528803
40
0.2047712
50
281.7522535
51
306.6056425
0
ARC
8
DEFAULT_255_1_234
10
6.8371931
20
68.4367487
40
0.1859604
50
307.1350025
51
314.0277951
0
ARC
8
DEFAULT_255_1_234
10
6.8336015
20
68.4393766
40
0.1903475
50
314.2553419
51
350.169324
0
ARC
8
DEFAULT_255_1_234
10
6.7484484
20
68.4578409
40
0.2774269
50
349.4145679
51
0.2930737
0
ARC
8
DEFAULT_255_1_234
10
6.8004917
20
68.9737353
40
0.2300764
50
89.477591
51
105.729794
0
ARC
8
DEFAULT_255_1_234
10
6.786883
20
69.0242637
40
0.1777519
50
105.922966
51
135.1662921
0
ARC
8
DEFAULT_255_1_234
10
6.7889333
20
69.0228419
40
0.1802087
50
135.3053131
51
168.9882338
0
ARC
8
DEFAULT_255_1_234
10
6.8716905
20
69.0038721
40
0.2650806
50
168.3802067
51
180.3602358
0
ARC
8
DEFAULT_255_1_234
10
6.8488485
20
69.0001041
40
0.2422425
50
179.5029707
51
194.9126783
0
ARC
8
DEFAULT_255_1_234
10
6.7903146
20
68.984711
40
0.1817188
50
194.9722181
51
224.1943972
0
ARC
8
DEFAULT_255_1_234
10
6.7875013
20
68.9824169
40
0.1781027
50
224.2961434
51
262.0157375
0
ARC
8
DEFAULT_255_1_234
10
6.8017256
20
69.0555661
40
0.2525492
50
261.1250369
51
270.1959853
0
ARC
8
DEFAULT_255_1_234
10
6.8047011
20
69.0368339
40
0.233825
50
269.4825617
51
285.0988277
0
ARC
8
DEFAULT_255_1_234
10
6.820117
20
68.978999
40
0.1739712
50
285.1585659
51
315.9484648
0
ARC
8
DEFAULT_255_1_234
10
6.8112182
20
68.9871886
40
0.1860616
50
316.0412958
51
351.9162715
0
ARC
8
DEFAULT_255_1_234
10
6.7379137
20
69.0013245
40
0.2606517
50
351.1056823
51
0.1936567
0
ARC
8
DEFAULT_255_1_234
10
6.7641966
20
69.0043369
40
0.234377
50
359.4789506
51
16.0679113
0
ARC
8
DEFAULT_255_1_234
10
6.8117925
20
69.017181
40
0.1850875
50
16.3251951
51
44.791304
0
ARC
8
DEFAULT_255_1_234
10
6.8100206
20
69.0172339
40
0.186312
50
44.3958661
51
88.2498933
0
ARC
8
DEFAULT_255_1_234
10
6.802676
20
68.9561154
40
0.2476868
50
86.9833827
51
90.0200148
0
LINE
8
DEFAULT_255_1_234
10
7.8025409
20
69.1090276
11
7.8025409
21
68.7676788
0
LINE
8
DEFAULT_255_1_234
10
7.8025409
20
68.7676788
11
8.1286294
21
68.7676788
0
LINE
8
DEFAULT_255_1_234
10
8.1286294
20
68.7676788
11
8.1286294
21
68.6271233
0
LINE
8
DEFAULT_255_1_234
10
8.1286294
20
68.6271233
11
7.8025409
21
68.6271233
0
LINE
8
DEFAULT_255_1_234
10
7.8025409
20
68.6271233
11
7.8025409
21
68.2576634
0
LINE
8
DEFAULT_255_1_234
10
7.8025409
20
68.2576634
11
7.6531505
21
68.2576634
0
LINE
8
DEFAULT_255_1_234
10
7.6531505
20
68.2576634
11
7.6531505
21
68.6271233
0
LINE
8
DEFAULT_255_1_234
10
7.6531505
20
68.6271233
11
7.327062
21
68.6271233
0
LINE
8
DEFAULT_255_1_234
10
7.327062
20
68.6271233
11
7.327062
21
68.7676788
0
LINE
8
DEFAULT_255_1_234
10
7.327062
20
68.7676788
11
7.6531505
21
68.7676788
0
LINE
8
DEFAULT_255_1_234
10
7.6531505
20
68.7676788
11
7.6531505
21
69.1090276
0
LINE
8
DEFAULT_255_1_234
10
7.6531505
20
69.1090276
11
7.8025409
21
69.1090276
0
LINE
8
DEFAULT_255_1_234
10
4.938423
20
76.4489663
11
5.0934355
21
76.4489663
0
LINE
8
DEFAULT_255_1_234
10
4.1930777
20
76.6079947
11
4.1930777
21
76.7204391
0
LINE
8
DEFAULT_255_1_234
10
5.0934355
20
76.8714357
11
4.938423
21
76.8714357
0
LINE
8
DEFAULT_255_1_234
10
4.3480902
20
76.7164232
11
4.3480902
21
76.6031757
0
ARC
8
DEFAULT_255_1_234
10
4.5453742
20
76.5086846
40
0.5513052
50
340.1774281
51
353.7814284
0
ARC
8
DEFAULT_255_1_234
10
4.7025095
20
76.4501582
40
0.3836379
50
311.4558989
51
340.4421614
0
ARC
8
DEFAULT_255_1_234
10
4.6991763
20
76.4612528
40
0.3941894
50
282.4333181
51
310.7513653
0
ARC
8
DEFAULT_255_1_234
10
4.6552502
20
76.6427679
40
0.5809175
50
269.9358511
51
282.809604
0
ARC
8
DEFAULT_255_1_234
10
4.6500568
20
76.7885212
40
0.7266847
50
270.0021091
51
270.3581957
0
ARC
8
DEFAULT_255_1_234
10
4.6447985
20
76.5284585
40
0.4666519
50
250.7884749
51
270.6489167
0
ARC
8
DEFAULT_255_1_234
10
4.627982
20
76.4647319
40
0.4009729
50
219.3627325
51
250.0611886
0
ARC
8
DEFAULT_255_1_234
10
4.7109031
20
76.5352042
40
0.5097822
50
193.5479632
51
219.5756669
0
ARC
8
DEFAULT_255_1_234
10
4.9480652
20
76.5967919
40
0.7547848
50
181.1218675
51
193.87563
0
ARC
8
DEFAULT_255_1_234
10
5.1550833
20
76.607858
40
0.9620055
50
179.9918545
51
181.5394234
0
ARC
8
DEFAULT_255_1_234
10
4.9699935
20
76.7241788
40
0.7769248
50
169.5837241
51
180.2757934
0
ARC
8
DEFAULT_255_1_234
10
4.7862873
20
76.7581229
40
0.590109
50
155.0365899
51
169.6003176
0
ARC
8
DEFAULT_255_1_234
10
4.6727337
20
76.8128677
40
0.4640625
50
136.783148
51
155.2472683
0
ARC
8
DEFAULT_255_1_234
10
4.6337814
20
76.8459562
40
0.4130255
50
121.7633186
51
136.428115
0
ARC
8
DEFAULT_255_1_234
10
4.6472776
20
76.8210227
40
0.4413323
50
95.6459699
51
121.5490577
0
ARC
8
DEFAULT_255_1_234
10
4.6630058
20
76.7101949
40
0.55319
50
89.924208
51
96.1377933
0
ARC
8
DEFAULT_255_1_234
10
4.6680491
20
76.7220542
40
0.5413475
50
76.6779277
51
90.4563316
0
ARC
8
DEFAULT_255_1_234
10
4.7074114
20
76.8811114
40
0.3775041
50
47.485847
51
76.9287264
0
ARC
8
DEFAULT_255_1_234
10
4.6927087
20
76.8711159
40
0.3948286
50
16.5424086
51
46.8933463
0
ARC
8
DEFAULT_255_1_234
10
4.5319244
20
76.8182861
40
0.564021
50
5.4072051
51
17.0365086
0
ARC
8
DEFAULT_255_1_234
10
4.3880261
20
76.7951679
40
0.5556559
50
7.8891745
51
15.9239216
0
ARC
8
DEFAULT_255_1_234
10
4.5867274
20
76.8528631
40
0.3487515
50
15.7653144
51
27.9410532
0
ARC
8
DEFAULT_255_1_234
10
4.6971492
20
76.911979
40
0.2235026
50
27.8166557
51
46.4008329
0
ARC
8
DEFAULT_255_1_234
10
4.7021135
20
76.9114082
40
0.2205286
50
47.4371857
51
75.0698205
0
ARC
8
DEFAULT_255_1_234
10
4.6712529
20
76.8039765
40
0.3322915
50
74.7008593
51
87.8124495
0
ARC
8
DEFAULT_255_1_234
10
4.6639217
20
76.6983844
40
0.4380987
50
87.3814673
51
90.0240855
0
ARC
8
DEFAULT_255_1_234
10
4.660076
20
76.8161291
40
0.3203749
50
89.3451631
51
108.5745436
0
ARC
8
DEFAULT_255_1_234
10
4.6463865
20
76.8674908
40
0.2673494
50
109.2998449
51
143.3037509
0
ARC
8
DEFAULT_255_1_234
10
4.7225938
20
76.8088881
40
0.3634757
50
143.0753173
51
163.1916937
0
ARC
8
DEFAULT_255_1_234
10
4.9177666
20
76.7472967
40
0.5681262
50
162.9373603
51
174.6208611
0
ARC
8
DEFAULT_255_1_234
10
5.1803708
20
76.718501
40
0.8322832
50
174.3419979
51
180.1430411
0
ARC
8
DEFAULT_255_1_234
10
5.0872864
20
76.5990698
40
0.7392076
50
179.6817502
51
189.150529
0
ARC
8
DEFAULT_255_1_234
10
4.8372112
20
76.557419
40
0.4856932
50
188.9910863
51
203.5773039
0
ARC
8
DEFAULT_255_1_234
10
4.7292445
20
76.5126211
40
0.3688271
50
203.9077269
51
215.1312379
0
ARC
8
DEFAULT_255_1_234
10
4.6369539
20
76.4410941
40
0.2522457
50
213.9071664
51
263.8849284
0
ARC
8
DEFAULT_255_1_234
10
4.6494868
20
76.5195518
40
0.3316174
50
263.1758525
51
270.1031083
0
ARC
8
DEFAULT_255_1_234
10
4.652696
20
76.6442365
40
0.4563091
50
269.6719807
51
279.0609165
0
ARC
8
DEFAULT_255_1_234
10
4.6793728
20
76.4829907
40
0.2928759
50
278.8750225
51
293.6346586
0
ARC
8
DEFAULT_255_1_234
10
4.7113936
20
76.40779
40
0.2111472
50
293.8553404
51
310.0518804
0
ARC
8
DEFAULT_255_1_234
10
4.711879
20
76.4015516
40
0.2060917
50
311.0646779
51
332.0108348
0
ARC
8
DEFAULT_255_1_234
10
4.5926517
20
76.4672978
40
0.3422352
50
331.6588543
51
343.2878891
0
ARC
8
DEFAULT_255_1_234
10
4.3864032
20
76.5306798
40
0.5580003
50
343.1446044
51
351.010618
0
ARC
8
DEFAULT_255_1_234
10
4.2322678
20
76.5587871
40
0.7146438
50
350.7157277
51
351.1602153
0
LINE
8
DEFAULT_255_1_234
10
6.2026186
20
77.2473211
11
6.2026186
21
76.0779
0
LINE
8
DEFAULT_255_1_234
10
6.2026186
20
76.0779
11
6.0476061
21
76.0779
0
LINE
8
DEFAULT_255_1_234
10
6.0476061
20
76.0779
11
6.0476061
21
76.618436
0
LINE
8
DEFAULT_255_1_234
10
6.0476061
20
76.618436
11
5.4580765
21
76.618436
0
LINE
8
DEFAULT_255_1_234
10
5.4580765
20
76.618436
11
5.4580765
21
76.0779
0
LINE
8
DEFAULT_255_1_234
10
5.4580765
20
76.0779
11
5.3038671
21
76.0779
0
LINE
8
DEFAULT_255_1_234
10
5.3038671
20
76.0779
11
5.3038671
21
77.2473211
0
LINE
8
DEFAULT_255_1_234
10
5.3038671
20
77.2473211
11
5.4580765
21
77.2473211
0
LINE
8
DEFAULT_255_1_234
10
5.4580765
20
77.2473211
11
5.4580765
21
76.7445343
0
LINE
8
DEFAULT_255_1_234
10
5.4580765
20
76.7445343
11
6.0476061
21
76.7445343
0
LINE
8
DEFAULT_255_1_234
10
6.0476061
20
76.7445343
11
6.0476061
21
77.2473211
0
LINE
8
DEFAULT_255_1_234
10
6.0476061
20
77.2473211
11
6.2026186
21
77.2473211
0
LINE
8
DEFAULT_255_1_234
10
7.1929319
20
77.2473211
11
7.1929319
21
77.163791
0
LINE
8
DEFAULT_255_1_234
10
7.1929319
20
77.163791
11
6.7086181
21
76.0779
0
LINE
8
DEFAULT_255_1_234
10
6.7086181
20
76.0779
11
6.5528024
21
76.0779
0
LINE
8
DEFAULT_255_1_234
10
6.5528024
20
76.0779
11
7.0355099
21
77.1252387
0
LINE
8
DEFAULT_255_1_234
10
7.0355099
20
77.1252387
11
6.4026089
21
77.1252387
0
LINE
8
DEFAULT_255_1_234
10
6.4026089
20
77.1252387
11
6.4026089
21
77.2473211
0
LINE
8
DEFAULT_255_1_234
10
6.4026089
20
77.2473211
11
7.1929319
21
77.2473211
0
LINE
8
DEFAULT_255_1_234
10
7.8025409
20
77.0465276
11
7.8025409
21
76.7051788
0
LINE
8
DEFAULT_255_1_234
10
7.8025409
20
76.7051788
11
8.1286294
21
76.7051788
0
LINE
8
DEFAULT_255_1_234
10
8.1286294
20
76.7051788
11
8.1286294
21
76.5646233
0
LINE
8
DEFAULT_255_1_234
10
8.1286294
20
76.5646233
11
7.8025409
21
76.5646233
0
LINE
8
DEFAULT_255_1_234
10
7.8025409
20
76.5646233
11
7.8025409
21
76.1951634
0
LINE
8
DEFAULT_255_1_234
10
7.8025409
20
76.1951634
11
7.6531505
21
76.1951634
0
LINE
8
DEFAULT_255_1_234
10
7.6531505
20
76.1951634
11
7.6531505
21
76.5646233
0
LINE
8
DEFAULT_255_1_234
10
7.6531505
20
76.5646233
11
7.327062
21
76.5646233
0
LINE
8
DEFAULT_255_1_234
10
7.327062
20
76.5646233
11
7.327062
21
76.7051788
0
LINE
8
DEFAULT_255_1_234
10
7.327062
20
76.7051788
11
7.6531505
21
76.7051788
0
LINE
8
DEFAULT_255_1_234
10
7.6531505
20
76.7051788
11
7.6531505
21
77.0465276
0
LINE
8
DEFAULT_255_1_234
10
7.6531505
20
77.0465276
11
7.8025409
21
77.0465276
0
LINE
8
DEFAULT_255_1_234
10
4.938423
20
84.3864663
11
5.0934355
21
84.3864663
0
LINE
8
DEFAULT_255_1_234
10
4.1930777
20
84.5454947
11
4.1930777
21
84.6579391
0
LINE
8
DEFAULT_255_1_234
10
5.0934355
20
84.8089357
11
4.938423
21
84.8089357
0
LINE
8
DEFAULT_255_1_234
10
4.3480902
20
84.6539232
11
4.3480902
21
84.5406757
0
ARC
8
DEFAULT_255_1_234
10
4.5453742
20
84.4461846
40
0.5513052
50
340.1774281
51
353.7814284
0
ARC
8
DEFAULT_255_1_234
10
4.7025095
20
84.3876582
40
0.3836379
50
311.4558989
51
340.4421614
0
ARC
8
DEFAULT_255_1_234
10
4.6991763
20
84.3987528
40
0.3941894
50
282.4333181
51
310.7513653
0
ARC
8
DEFAULT_255_1_234
10
4.6552502
20
84.5802679
40
0.5809175
50
269.9358511
51
282.809604
0
ARC
8
DEFAULT_255_1_234
10
4.6500568
20
84.7260212
40
0.7266847
50
270.0021091
51
270.3581957
0
ARC
8
DEFAULT_255_1_234
10
4.6447985
20
84.4659585
40
0.4666519
50
250.7884749
51
270.6489167
0
ARC
8
DEFAULT_255_1_234
10
4.627982
20
84.4022319
40
0.4009729
50
219.3627325
51
250.0611886
0
ARC
8
DEFAULT_255_1_234
10
4.7109031
20
84.4727042
40
0.5097822
50
193.5479632
51
219.5756669
0
ARC
8
DEFAULT_255_1_234
10
4.9480652
20
84.5342919
40
0.7547848
50
181.1218675
51
193.87563
0
ARC
8
DEFAULT_255_1_234
10
5.1550833
20
84.545358
40
0.9620055
50
179.9918545
51
181.5394234
0
ARC
8
DEFAULT_255_1_234
10
4.9699935
20
84.6616788
40
0.7769248
50
169.5837241
51
180.2757934
0
ARC
8
DEFAULT_255_1_234
10
4.7862873
20
84.6956229
40
0.590109
50
155.0365899
51
169.6003176
0
ARC
8
DEFAULT_255_1_234
10
4.6727337
20
84.7503677
40
0.4640625
50
136.783148
51
155.2472683
0
ARC
8
DEFAULT_255_1_234
10
4.6337814
20
84.7834562
40
0.4130255
50
121.7633186
51
136.428115
0
ARC
8
DEFAULT_255_1_234
10
4.6472776
20
84.7585227
40
0.4413323
50
95.6459699
51
121.5490577
0
ARC
8
DEFAULT_255_1_234
10
4.6630058
20
84.6476949
40
0.55319
50
89.924208
51
96.1377933
0
ARC
8
DEFAULT_255_1_234
10
4.6680491
20
84.6595542
40
0.5413475
50
76.6779277
51
90.4563316
0
ARC
8
DEFAULT_255_1_234
10
4.7074114
20
84.8186114
40
0.3775041
50
47.485847
51
76.9287264
0
ARC
8
DEFAULT_255_1_234
10
4.6927087
20
84.8086159
40
0.3948286
50
16.5424086
51
46.8933463
0
ARC
8
DEFAULT_255_1_234
10
4.5319244
20
84.7557861
40
0.564021
50
5.4072051
51
17.0365086
0
ARC
8
DEFAULT_255_1_234
10
4.3880261
20
84.7326679
40
0.5556559
50
7.8891745
51
15.9239216
0
ARC
8
DEFAULT_255_1_234
10
4.5867274
20
84.7903631
40
0.3487515
50
15.7653144
51
27.9410532
0
ARC
8
DEFAULT_255_1_234
10
4.6971492
20
84.849479
40
0.2235026
50
27.8166557
51
46.4008329
0
ARC
8
DEFAULT_255_1_234
10
4.7021135
20
84.8489082
40
0.2205286
50
47.4371857
51
75.0698205
0
ARC
8
DEFAULT_255_1_234
10
4.6712529
20
84.7414765
40
0.3322915
50
74.7008593
51
87.8124495
0
ARC
8
DEFAULT_255_1_234
10
4.6639217
20
84.6358844
40
0.4380987
50
87.3814673
51
90.0240855
0
ARC
8
DEFAULT_255_1_234
10
4.660076
20
84.7536291
40
0.3203749
50
89.3451631
51
108.5745436
0
ARC
8
DEFAULT_255_1_234
10
4.6463865
20
84.8049908
40
0.2673494
50
109.2998449
51
143.3037509
0
ARC
8
DEFAULT_255_1_234
10
4.7225938
20
84.7463881
40
0.3634757
50
143.0753173
51
163.1916937
0
ARC
8
DEFAULT_255_1_234
10
4.9177666
20
84.6847967
40
0.5681262
50
162.9373603
51
174.6208611
0
ARC
8
DEFAULT_255_1_234
10
5.1803708
20
84.656001
40
0.8322832
50
174.3419979
51
180.1430411
0
ARC
8
DEFAULT_255_1_234
10
5.0872864
20
84.5365698
40
0.7392076
50
179.6817502
51
189.150529
0
ARC
8
DEFAULT_255_1_234
10
4.8372112
20
84.494919
40
0.4856932
50
188.9910863
51
203.5773039
0
ARC
8
DEFAULT_255_1_234
10
4.7292445
20
84.4501211
40
0.3688271
50
203.9077269
51
215.1312379
0
ARC
8
DEFAULT_255_1_234
10
4.6369539
20
84.3785941
40
0.2522457
50
213.9071664
51
263.8849284
0
ARC
8
DEFAULT_255_1_234
10
4.6494868
20
84.4570518
40
0.3316174
50
263.1758525
51
270.1031083
0
ARC
8
DEFAULT_255_1_234
10
4.652696
20
84.5817365
40
0.4563091
50
269.6719807
51
279.0609165
0
ARC
8
DEFAULT_255_1_234
10
4.6793728
20
84.4204907
40
0.2928759
50
278.8750225
51
293.6346586
0
ARC
8
DEFAULT_255_1_234
10
4.7113936
20
84.34529
40
0.2111472
50
293.8553404
51
310.0518804
0
ARC
8
DEFAULT_255_1_234
10
4.711879
20
84.3390516
40
0.2060917
50
311.0646779
51
332.0108348
0
ARC
8
DEFAULT_255_1_234
10
4.5926517
20
84.4047978
40
0.3422352
50
331.6588543
51
343.2878891
0
ARC
8
DEFAULT_255_1_234
10
4.3864032
20
84.4681798
40
0.5580003
50
343.1446044
51
351.010618
0
ARC
8
DEFAULT_255_1_234
10
4.2322678
20
84.4962871
40
0.7146438
50
350.7157277
51
351.1602153
0
LINE
8
DEFAULT_255_1_234
10
6.2026186
20
85.1848211
11
6.2026186
21
84.0154
0
LINE
8
DEFAULT_255_1_234
10
6.2026186
20
84.0154
11
6.0476061
21
84.0154
0
LINE
8
DEFAULT_255_1_234
10
6.0476061
20
84.0154
11
6.0476061
21
84.555936
0
LINE
8
DEFAULT_255_1_234
10
6.0476061
20
84.555936
11
5.4580765
21
84.555936
0
LINE
8
DEFAULT_255_1_234
10
5.4580765
20
84.555936
11
5.4580765
21
84.0154
0
LINE
8
DEFAULT_255_1_234
10
5.4580765
20
84.0154
11
5.3038671
21
84.0154
0
LINE
8
DEFAULT_255_1_234
10
5.3038671
20
84.0154
11
5.3038671
21
85.1848211
0
LINE
8
DEFAULT_255_1_234
10
5.3038671
20
85.1848211
11
5.4580765
21
85.1848211
0
LINE
8
DEFAULT_255_1_234
10
5.4580765
20
85.1848211
11
5.4580765
21
84.6820343
0
LINE
8
DEFAULT_255_1_234
10
5.4580765
20
84.6820343
11
6.0476061
21
84.6820343
0
LINE
8
DEFAULT_255_1_234
10
6.0476061
20
84.6820343
11
6.0476061
21
85.1848211
0
LINE
8
DEFAULT_255_1_234
10
6.0476061
20
85.1848211
11
6.2026186
21
85.1848211
0
LINE
8
DEFAULT_255_1_234
10
6.994548
20
85.1856243
11
7.0210527
21
85.1856243
0
LINE
8
DEFAULT_255_1_234
10
7.0210527
20
85.1856243
11
7.0210527
21
85.059526
0
LINE
8
DEFAULT_255_1_234
10
7.0210527
20
85.059526
11
6.9937448
21
85.059526
0
LINE
8
DEFAULT_255_1_234
10
6.4467834
20
84.4603583
11
6.4467834
21
84.5173836
0
LINE
8
DEFAULT_255_1_234
10
6.5961738
20
84.4981075
11
6.5961738
21
84.4434917
0
ARC
8
DEFAULT_255_1_234
10
6.9989796
20
84.5597455
40
0.4998079
50
90.6001036
51
104.514704
0
ARC
8
DEFAULT_255_1_234
10
6.9601312
20
84.7042131
40
0.3502176
50
104.2855254
51
133.862935
0
ARC
8
DEFAULT_255_1_234
10
6.9765069
20
84.693383
40
0.3693984
50
134.5302688
51
161.6210873
0
ARC
8
DEFAULT_255_1_234
10
7.1418258
20
84.6350895
40
0.5446739
50
161.2849839
51
174.2076652
0
ARC
8
DEFAULT_255_1_234
10
7.2825195
20
84.6156787
40
0.6866274
50
173.7810589
51
174.9254635
0
ARC
8
DEFAULT_255_1_234
10
6.8275027
20
84.4773839
40
0.3033419
50
95.8330959
51
138.9954921
0
ARC
8
DEFAULT_255_1_234
10
6.8498383
20
84.3495375
40
0.4328947
50
89.8753725
51
97.0544009
0
ARC
8
DEFAULT_255_1_234
10
6.8545849
20
84.4330748
40
0.3493769
50
71.6407809
51
90.6240094
0
ARC
8
DEFAULT_255_1_234
10
6.8696422
20
84.4885082
40
0.2920396
50
39.6367836
51
71.019018
0
ARC
8
DEFAULT_255_1_234
10
6.8059895
20
84.4334998
40
0.3761538
50
10.658731
51
39.9043955
0
ARC
8
DEFAULT_255_1_234
10
6.6511978
20
84.3998686
40
0.5345136
50
359.682601
51
11.132623
0
ARC
8
DEFAULT_255_1_234
10
6.6472109
20
84.392801
40
0.5385081
50
347.2486944
51
0.4369317
0
ARC
8
DEFAULT_255_1_234
10
6.8139586
20
84.3526807
40
0.3670249
50
318.1409698
51
347.6118597
0
ARC
8
DEFAULT_255_1_234
10
6.8464579
20
84.3259702
40
0.3250007
50
275.6342139
51
317.8248465
0
ARC
8
DEFAULT_255_1_234
10
6.824369
20
84.4559219
40
0.4565864
50
269.8874292
51
276.7917694
0
ARC
8
DEFAULT_255_1_234
10
6.8188761
20
84.3533743
40
0.3540676
50
246.9140195
51
270.7437342
0
ARC
8
DEFAULT_255_1_234
10
6.8195151
20
84.3391384
40
0.3412781
50
218.1665114
51
245.878116
0
ARC
8
DEFAULT_255_1_234
10
6.9074612
20
84.4127279
40
0.455911
50
191.4115814
51
218.6077802
0
ARC
8
DEFAULT_255_1_234
10
7.1012701
20
84.4561833
40
0.6545001
50
179.6345085
51
191.7836486
0
ARC
8
DEFAULT_255_1_234
10
7.6595038
20
84.5240697
40
1.2127388
50
171.4525249
51
180.3158839
0
ARC
8
DEFAULT_255_1_234
10
7.2199914
20
84.5924608
40
0.7679464
50
157.9802646
51
171.6246686
0
ARC
8
DEFAULT_255_1_234
10
6.9985935
20
84.6807421
40
0.5296008
50
141.4298019
51
157.854097
0
ARC
8
DEFAULT_255_1_234
10
6.9344255
20
84.7261381
40
0.4511509
50
102.8715806
51
140.8564722
0
ARC
8
DEFAULT_255_1_234
10
6.9991871
20
84.4821552
40
0.7034845
50
90.3778349
51
103.5869322
0
ARC
8
DEFAULT_255_1_234
10
6.8253647
20
84.421673
40
0.2370698
50
89.8751008
51
126.2071704
0
ARC
8
DEFAULT_255_1_234
10
6.8299437
20
84.4062303
40
0.2522934
50
124.9745049
51
144.895901
0
ARC
8
DEFAULT_255_1_234
10
6.8123627
20
84.420556
40
0.2296779
50
145.2974905
51
160.2660252
0
ARC
8
DEFAULT_255_1_234
10
7.1196166
20
84.4403071
40
0.5234525
50
179.6514266
51
190.2855912
0
ARC
8
DEFAULT_255_1_234
10
6.9502303
20
84.4083786
40
0.3510893
50
190.0945431
51
207.5098196
0
ARC
8
DEFAULT_255_1_234
10
6.8936573
20
84.3814623
40
0.288489
50
207.9583163
51
216.3251085
0
ARC
8
DEFAULT_255_1_234
10
6.8596681
20
84.3535105
40
0.2445587
50
215.7661442
51
232.5456785
0
ARC
8
DEFAULT_255_1_234
10
6.8213664
20
84.3048482
40
0.1826382
50
232.8005391
51
270.6605633
0
ARC
8
DEFAULT_255_1_234
10
6.8259365
20
84.3412612
40
0.2190529
50
269.35537
51
288.4744281
0
ARC
8
DEFAULT_255_1_234
10
6.8352262
20
84.3063118
40
0.1829749
50
289.1833337
51
322.9683818
0
ARC
8
DEFAULT_255_1_234
10
6.7740784
20
84.3545391
40
0.2608399
50
322.6007884
51
346.5182367
0
ARC
8
DEFAULT_255_1_234
10
6.658338
20
84.3840616
40
0.3802777
50
346.2582162
51
358.7741648
0
ARC
8
DEFAULT_255_1_234
10
6.5565049
20
84.3895965
40
0.4822176
50
358.3755224
51
0.0098023
0
ARC
8
DEFAULT_255_1_234
10
6.6321236
20
84.3923657
40
0.4066078
50
359.6214041
51
11.2839074
0
ARC
8
DEFAULT_255_1_234
10
6.7598383
20
84.4190066
40
0.2761514
50
11.0482309
51
31.8146458
0
ARC
8
DEFAULT_255_1_234
10
6.7907426
20
84.4357584
40
0.2410679
50
32.3035391
51
38.082671
0
ARC
8
DEFAULT_255_1_234
10
6.8328086
20
84.4738662
40
0.1844966
50
36.825067
51
85.7415724
0
ARC
8
DEFAULT_255_1_234
10
6.8260919
20
84.4238301
40
0.2349122
50
85.0140713
51
90.0513278
0
LINE
8
DEFAULT_255_1_234
10
7.8025409
20
84.9840276
11
7.8025409
21
84.6426788
0
LINE
8
DEFAULT_255_1_234
10
7.8025409
20
84.6426788
11
8.1286294
21
84.6426788
0
LINE
8
DEFAULT_255_1_234
10
8.1286294
20
84.6426788
11
8.1286294
21
84.5021233
0
LINE
8
DEFAULT_255_1_234
10
8.1286294
20
84.5021233
11
7.8025409
21
84.5021233
0
LINE
8
DEFAULT_255_1_234
10
7.8025409
20
84.5021233
11
7.8025409
21
84.1326634
0
LINE
8
DEFAULT_255_1_234
10
7.8025409
20
84.1326634
11
7.6531505
21
84.1326634
0
LINE
8
DEFAULT_255_1_234
10
7.6531505
20
84.1326634
11
7.6531505
21
84.5021233
0
LINE
8
DEFAULT_255_1_234
10
7.6531505
20
84.5021233
11
7.327062
21
84.5021233
0
LINE
8
DEFAULT_255_1_234
10
7.327062
20
84.5021233
11
7.327062
21
84.6426788
0
LINE
8
DEFAULT_255_1_234
10
7.327062
20
84.6426788
11
7.6531505
21
84.6426788
0
LINE
8
DEFAULT_255_1_234
10
7.6531505
20
84.6426788
11
7.6531505
21
84.9840276
0
LINE
8
DEFAULT_255_1_234
10
7.6531505
20
84.9840276
11
7.8025409
21
84.9840276
0
LINE
8
DEFAULT_255_1_234
10
4.938423
20
92.3239663
11
5.0934355
21
92.3239663
0
LINE
8
DEFAULT_255_1_234
10
4.1930777
20
92.4829947
11
4.1930777
21
92.5954391
0
LINE
8
DEFAULT_255_1_234
10
5.0934355
20
92.7464357
11
4.938423
21
92.7464357
0
LINE
8
DEFAULT_255_1_234
10
4.3480902
20
92.5914232
11
4.3480902
21
92.4781757
0
ARC
8
DEFAULT_255_1_234
10
4.5453742
20
92.3836846
40
0.5513052
50
340.1774281
51
353.7814284
0
ARC
8
DEFAULT_255_1_234
10
4.7025095
20
92.3251582
40
0.3836379
50
311.4558989
51
340.4421614
0
ARC
8
DEFAULT_255_1_234
10
4.6991763
20
92.3362528
40
0.3941894
50
282.4333181
51
310.7513653
0
ARC
8
DEFAULT_255_1_234
10
4.6552502
20
92.5177679
40
0.5809175
50
269.9358511
51
282.809604
0
ARC
8
DEFAULT_255_1_234
10
4.6500568
20
92.6635212
40
0.7266847
50
270.0021091
51
270.3581957
0
ARC
8
DEFAULT_255_1_234
10
4.6447985
20
92.4034585
40
0.4666519
50
250.7884749
51
270.6489167
0
ARC
8
DEFAULT_255_1_234
10
4.627982
20
92.3397319
40
0.4009729
50
219.3627325
51
250.0611886
0
ARC
8
DEFAULT_255_1_234
10
4.7109031
20
92.4102042
40
0.5097822
50
193.5479632
51
219.5756669
0
ARC
8
DEFAULT_255_1_234
10
4.9480652
20
92.4717919
40
0.7547848
50
181.1218675
51
193.87563
0
ARC
8
DEFAULT_255_1_234
10
5.1550833
20
92.482858
40
0.9620055
50
179.9918545
51
181.5394234
0
ARC
8
DEFAULT_255_1_234
10
4.9699935
20
92.5991788
40
0.7769248
50
169.5837241
51
180.2757934
0
ARC
8
DEFAULT_255_1_234
10
4.7862873
20
92.6331229
40
0.590109
50
155.0365899
51
169.6003176
0
ARC
8
DEFAULT_255_1_234
10
4.6727337
20
92.6878677
40
0.4640625
50
136.783148
51
155.2472683
0
ARC
8
DEFAULT_255_1_234
10
4.6337814
20
92.7209562
40
0.4130255
50
121.7633186
51
136.428115
0
ARC
8
DEFAULT_255_1_234
10
4.6472776
20
92.6960227
40
0.4413323
50
95.6459699
51
121.5490577
0
ARC
8
DEFAULT_255_1_234
10
4.6630058
20
92.5851949
40
0.55319
50
89.924208
51
96.1377933
0
ARC
8
DEFAULT_255_1_234
10
4.6680491
20
92.5970542
40
0.5413475
50
76.6779277
51
90.4563316
0
ARC
8
DEFAULT_255_1_234
10
4.7074114
20
92.7561114
40
0.3775041
50
47.485847
51
76.9287264
0
ARC
8
DEFAULT_255_1_234
10
4.6927087
20
92.7461159
40
0.3948286
50
16.5424086
51
46.8933463
0
ARC
8
DEFAULT_255_1_234
10
4.5319244
20
92.6932861
40
0.564021
50
5.4072051
51
17.0365086
0
ARC
8
DEFAULT_255_1_234
10
4.3880261
20
92.6701679
40
0.5556559
50
7.8891745
51
15.9239216
0
ARC
8
DEFAULT_255_1_234
10
4.5867274
20
92.7278631
40
0.3487515
50
15.7653144
51
27.9410532
0
ARC
8
DEFAULT_255_1_234
10
4.6971492
20
92.786979
40
0.2235026
50
27.8166557
51
46.4008329
0
ARC
8
DEFAULT_255_1_234
10
4.7021135
20
92.7864082
40
0.2205286
50
47.4371857
51
75.0698205
0
ARC
8
DEFAULT_255_1_234
10
4.6712529
20
92.6789765
40
0.3322915
50
74.7008593
51
87.8124495
0
ARC
8
DEFAULT_255_1_234
10
4.6639217
20
92.5733844
40
0.4380987
50
87.3814673
51
90.0240855
0
ARC
8
DEFAULT_255_1_234
10
4.660076
20
92.6911291
40
0.3203749
50
89.3451631
51
108.5745436
0
ARC
8
DEFAULT_255_1_234
10
4.6463865
20
92.7424908
40
0.2673494
50
109.2998449
51
143.3037509
0
ARC
8
DEFAULT_255_1_234
10
4.7225938
20
92.6838881
40
0.3634757
50
143.0753173
51
163.1916937
0
ARC
8
DEFAULT_255_1_234
10
4.9177666
20
92.6222967
40
0.5681262
50
162.9373603
51
174.6208611
0
ARC
8
DEFAULT_255_1_234
10
5.1803708
20
92.593501
40
0.8322832
50
174.3419979
51
180.1430411
0
ARC
8
DEFAULT_255_1_234
10
5.0872864
20
92.4740698
40
0.7392076
50
179.6817502
51
189.150529
0
ARC
8
DEFAULT_255_1_234
10
4.8372112
20
92.432419
40
0.4856932
50
188.9910863
51
203.5773039
0
ARC
8
DEFAULT_255_1_234
10
4.7292445
20
92.3876211
40
0.3688271
50
203.9077269
51
215.1312379
0
ARC
8
DEFAULT_255_1_234
10
4.6369539
20
92.3160941
40
0.2522457
50
213.9071664
51
263.8849284
0
ARC
8
DEFAULT_255_1_234
10
4.6494868
20
92.3945518
40
0.3316174
50
263.1758525
51
270.1031083
0
ARC
8
DEFAULT_255_1_234
10
4.652696
20
92.5192365
40
0.4563091
50
269.6719807
51
279.0609165
0
ARC
8
DEFAULT_255_1_234
10
4.6793728
20
92.3579907
40
0.2928759
50
278.8750225
51
293.6346586
0
ARC
8
DEFAULT_255_1_234
10
4.7113936
20
92.28279
40
0.2111472
50
293.8553404
51
310.0518804
0
ARC
8
DEFAULT_255_1_234
10
4.711879
20
92.2765516
40
0.2060917
50
311.0646779
51
332.0108348
0
ARC
8
DEFAULT_255_1_234
10
4.5926517
20
92.3422978
40
0.3422352
50
331.6588543
51
343.2878891
0
ARC
8
DEFAULT_255_1_234
10
4.3864032
20
92.4056798
40
0.5580003
50
343.1446044
51
351.010618
0
ARC
8
DEFAULT_255_1_234
10
4.2322678
20
92.4337871
40
0.7146438
50
350.7157277
51
351.1602153
0
LINE
8
DEFAULT_255_1_234
10
6.2026186
20
93.1223211
11
6.2026186
21
91.9529
0
LINE
8
DEFAULT_255_1_234
10
6.2026186
20
91.9529
11
6.0476061
21
91.9529
0
LINE
8
DEFAULT_255_1_234
10
6.0476061
20
91.9529
11
6.0476061
21
92.493436
0
LINE
8
DEFAULT_255_1_234
10
6.0476061
20
92.493436
11
5.4580765
21
92.493436
0
LINE
8
DEFAULT_255_1_234
10
5.4580765
20
92.493436
11
5.4580765
21
91.9529
0
LINE
8
DEFAULT_255_1_234
10
5.4580765
20
91.9529
11
5.3038671
21
91.9529
0
LINE
8
DEFAULT_255_1_234
10
5.3038671
20
91.9529
11
5.3038671
21
93.1223211
0
LINE
8
DEFAULT_255_1_234
10
5.3038671
20
93.1223211
11
5.4580765
21
93.1223211
0
LINE
8
DEFAULT_255_1_234
10
5.4580765
20
93.1223211
11
5.4580765
21
92.6195343
0
LINE
8
DEFAULT_255_1_234
10
5.4580765
20
92.6195343
11
6.0476061
21
92.6195343
0
LINE
8
DEFAULT_255_1_234
10
6.0476061
20
92.6195343
11
6.0476061
21
93.1223211
0
LINE
8
DEFAULT_255_1_234
10
6.0476061
20
93.1223211
11
6.2026186
21
93.1223211
0
LINE
8
DEFAULT_255_1_234
10
6.625088
20
92.5086963
11
6.5062183
21
92.5392169
0
LINE
8
DEFAULT_255_1_234
10
6.5062183
20
92.5392169
11
6.5656532
21
93.1223211
0
LINE
8
DEFAULT_255_1_234
10
6.5656532
20
93.1223211
11
7.1648208
21
93.1223211
0
LINE
8
DEFAULT_255_1_234
10
7.1648208
20
93.1223211
11
7.1648208
21
92.9849784
0
LINE
8
DEFAULT_255_1_234
10
7.1648208
20
92.9849784
11
6.6917515
21
92.9849784
0
LINE
8
DEFAULT_255_1_234
10
6.6917515
20
92.9849784
11
6.6564118
21
92.6661184
0
LINE
8
DEFAULT_255_1_234
10
6.4644533
20
92.2605156
11
6.6050087
21
92.2605156
0
LINE
8
DEFAULT_255_1_234
10
6.6644436
20
92.5408232
11
6.625088
21
92.5086963
0
ARC
8
DEFAULT_255_1_234
10
6.8418902
20
92.348123
40
0.3681349
50
93.7182161
51
120.2538958
0
ARC
8
DEFAULT_255_1_234
10
6.8513165
20
92.2673394
40
0.449379
50
89.9660152
51
94.2496022
0
ARC
8
DEFAULT_255_1_234
10
6.8553899
20
92.3262549
40
0.390482
50
73.8043271
51
90.5585896
0
ARC
8
DEFAULT_255_1_234
10
6.8788796
20
92.4120602
40
0.3015334
50
41.3071453
51
73.5430202
0
ARC
8
DEFAULT_255_1_234
10
6.8372623
20
92.3762324
40
0.3564457
50
13.5075983
51
41.2174222
0
ARC
8
DEFAULT_255_1_234
10
6.6730827
20
92.3332486
40
0.5261351
50
1.1331335
51
13.8829381
0
ARC
8
DEFAULT_255_1_234
10
6.5319196
20
92.3256665
40
0.6674378
50
359.9919444
51
1.544251
0
ARC
8
DEFAULT_255_1_234
10
6.6596022
20
92.321528
40
0.5397702
50
347.8572367
51
0.4293338
0
ARC
8
DEFAULT_255_1_234
10
6.834634
20
92.2818736
40
0.3603188
50
323.673004
51
348.1672506
0
ARC
8
DEFAULT_255_1_234
10
6.8640848
20
92.2639168
40
0.3259678
50
316.8171152
51
323.1492751
0
ARC
8
DEFAULT_255_1_234
10
6.8702037
20
92.260246
40
0.3189975
50
281.8396411
51
316.5457803
0
ARC
8
DEFAULT_255_1_234
10
6.8326301
20
92.4157762
40
0.4789527
50
269.5770101
51
282.4214771
0
ARC
8
DEFAULT_255_1_234
10
6.8255112
20
92.3944125
40
0.45759
50
256.2427136
51
270.4486331
0
ARC
8
DEFAULT_255_1_234
10
6.7956015
20
92.2744229
40
0.3339303
50
228.9023911
51
256.3314342
0
ARC
8
DEFAULT_255_1_234
10
6.7882247
20
92.2627746
40
0.32031
50
193.753695
51
228.5271154
0
ARC
8
DEFAULT_255_1_234
10
6.9120201
20
92.29908
40
0.4492253
50
184.924711
51
194.497588
0
ARC
8
DEFAULT_255_1_234
10
6.9312768
20
92.3026591
40
0.3289787
50
187.3600538
51
198.6732863
0
ARC
8
DEFAULT_255_1_234
10
6.8263062
20
92.2662674
40
0.217884
50
198.4451669
51
217.794479
0
ARC
8
DEFAULT_255_1_234
10
6.7967237
20
92.2453085
40
0.1816698
50
218.2887171
51
228.5612368
0
ARC
8
DEFAULT_255_1_234
10
6.8065024
20
92.2584963
40
0.1980329
50
228.9654866
51
258.1234728
0
ARC
8
DEFAULT_255_1_234
10
6.8270734
20
92.3465833
40
0.2884748
50
257.7258293
51
270.401361
0
ARC
8
DEFAULT_255_1_234
10
6.831562
20
92.3020821
40
0.2439788
50
269.4204404
51
286.4209037
0
ARC
8
DEFAULT_255_1_234
10
6.8464108
20
92.2481657
40
0.1880666
50
286.7251356
51
320.600362
0
ARC
8
DEFAULT_255_1_234
10
6.8080933
20
92.2792595
40
0.2374121
50
320.6712579
51
344.5441685
0
ARC
8
DEFAULT_255_1_234
10
6.6924259
20
92.3132045
40
0.3579479
50
344.2412205
51
356.7357071
0
ARC
8
DEFAULT_255_1_234
10
6.5675408
20
92.3235444
40
0.4832297
50
356.3548756
51
0.0500261
0
ARC
8
DEFAULT_255_1_234
10
6.7011917
20
92.326665
40
0.3495889
50
359.5576869
51
12.953486
0
ARC
8
DEFAULT_255_1_234
10
6.8066814
20
92.3522434
40
0.2410532
50
12.6490276
51
41.6081334
0
ARC
8
DEFAULT_255_1_234
10
6.8297185
20
92.3718321
40
0.2108218
50
41.7850273
51
85.9892764
0
ARC
8
DEFAULT_255_1_234
10
6.8173922
20
92.2905462
40
0.2928454
50
84.6957577
51
90.0676183
0
ARC
8
DEFAULT_255_1_234
10
6.8150406
20
92.2236716
40
0.3597255
50
89.6804936
51
99.1614436
0
ARC
8
DEFAULT_255_1_234
10
6.7945037
20
92.3464131
40
0.235281
50
98.9830931
51
113.8908934
0
ARC
8
DEFAULT_255_1_234
10
6.7715447
20
92.4005587
40
0.176479
50
114.1950727
51
127.3641004
0
LINE
8
DEFAULT_255_1_234
10
7.8025409
20
92.9215276
11
7.8025409
21
92.5801788
0
LINE
8
DEFAULT_255_1_234
10
7.8025409
20
92.5801788
11
8.1286294
21
92.5801788
0
LINE
8
DEFAULT_255_1_234
10
8.1286294
20
92.5801788
11
8.1286294
21
92.4396233
0
LINE
8
DEFAULT_255_1_234
10
8.1286294
20
92.4396233
11
7.8025409
21
92.4396233
0
LINE
8
DEFAULT_255_1_234
10
7.8025409
20
92.4396233
11
7.8025409
21
92.0701634
0
LINE
8
DEFAULT_255_1_234
10
7.8025409
20
92.0701634
11
7.6531505
21
92.0701634
0
LINE
8
DEFAULT_255_1_234
10
7.6531505
20
92.0701634
11
7.6531505
21
92.4396233
0
LINE
8
DEFAULT_255_1_234
10
7.6531505
20
92.4396233
11
7.327062
21
92.4396233
0
LINE
8
DEFAULT_255_1_234
10
7.327062
20
92.4396233
11
7.327062
21
92.5801788
0
LINE
8
DEFAULT_255_1_234
10
7.327062
20
92.5801788
11
7.6531505
21
92.5801788
0
LINE
8
DEFAULT_255_1_234
10
7.6531505
20
92.5801788
11
7.6531505
21
92.9215276
0
LINE
8
DEFAULT_255_1_234
10
7.6531505
20
92.9215276
11
7.8025409
21
92.9215276
0
LINE
8
DEFAULT_255_1_234
10
4.938423
20
100.2614663
11
5.0934355
21
100.2614663
0
LINE
8
DEFAULT_255_1_234
10
4.1930777
20
100.4204947
11
4.1930777
21
100.5329391
0
LINE
8
DEFAULT_255_1_234
10
5.0934355
20
100.6839357
11
4.938423
21
100.6839357
0
LINE
8
DEFAULT_255_1_234
10
4.3480902
20
100.5289232
11
4.3480902
21
100.4156757
0
ARC
8
DEFAULT_255_1_234
10
4.5453742
20
100.3211846
40
0.5513052
50
340.1774281
51
353.7814284
0
ARC
8
DEFAULT_255_1_234
10
4.7025095
20
100.2626582
40
0.3836379
50
311.4558989
51
340.4421614
0
ARC
8
DEFAULT_255_1_234
10
4.6991763
20
100.2737528
40
0.3941894
50
282.4333181
51
310.7513653
0
ARC
8
DEFAULT_255_1_234
10
4.6552502
20
100.4552679
40
0.5809175
50
269.9358511
51
282.809604
0
ARC
8
DEFAULT_255_1_234
10
4.6500568
20
100.6010212
40
0.7266847
50
270.0021091
51
270.3581957
0
ARC
8
DEFAULT_255_1_234
10
4.6447985
20
100.3409585
40
0.4666519
50
250.7884749
51
270.6489167
0
ARC
8
DEFAULT_255_1_234
10
4.627982
20
100.2772319
40
0.4009729
50
219.3627325
51
250.0611886
0
ARC
8
DEFAULT_255_1_234
10
4.7109031
20
100.3477042
40
0.5097822
50
193.5479632
51
219.5756669
0
ARC
8
DEFAULT_255_1_234
10
4.9480652
20
100.4092919
40
0.7547848
50
181.1218675
51
193.87563
0
ARC
8
DEFAULT_255_1_234
10
5.1550833
20
100.420358
40
0.9620055
50
179.9918545
51
181.5394234
0
ARC
8
DEFAULT_255_1_234
10
4.9699935
20
100.5366788
40
0.7769248
50
169.5837241
51
180.2757934
0
ARC
8
DEFAULT_255_1_234
10
4.7862873
20
100.5706229
40
0.590109
50
155.0365899
51
169.6003176
0
ARC
8
DEFAULT_255_1_234
10
4.6727337
20
100.6253677
40
0.4640625
50
136.783148
51
155.2472683
0
ARC
8
DEFAULT_255_1_234
10
4.6337814
20
100.6584562
40
0.4130255
50
121.7633186
51
136.428115
0
ARC
8
DEFAULT_255_1_234
10
4.6472776
20
100.6335227
40
0.4413323
50
95.6459699
51
121.5490577
0
ARC
8
DEFAULT_255_1_234
10
4.6630058
20
100.5226949
40
0.55319
50
89.924208
51
96.1377933
0
ARC
8
DEFAULT_255_1_234
10
4.6680491
20
100.5345542
40
0.5413475
50
76.6779277
51
90.4563316
0
ARC
8
DEFAULT_255_1_234
10
4.7074114
20
100.6936114
40
0.3775041
50
47.485847
51
76.9287264
0
ARC
8
DEFAULT_255_1_234
10
4.6927087
20
100.6836159
40
0.3948286
50
16.5424086
51
46.8933463
0
ARC
8
DEFAULT_255_1_234
10
4.5319244
20
100.6307861
40
0.564021
50
5.4072051
51
17.0365086
0
ARC
8
DEFAULT_255_1_234
10
4.3880261
20
100.6076679
40
0.5556559
50
7.8891745
51
15.9239216
0
ARC
8
DEFAULT_255_1_234
10
4.5867274
20
100.6653631
40
0.3487515
50
15.7653144
51
27.9410532
0
ARC
8
DEFAULT_255_1_234
10
4.6971492
20
100.724479
40
0.2235026
50
27.8166557
51
46.4008329
0
ARC
8
DEFAULT_255_1_234
10
4.7021135
20
100.7239082
40
0.2205286
50
47.4371857
51
75.0698205
0
ARC
8
DEFAULT_255_1_234
10
4.6712529
20
100.6164765
40
0.3322915
50
74.7008593
51
87.8124495
0
ARC
8
DEFAULT_255_1_234
10
4.6639217
20
100.5108844
40
0.4380987
50
87.3814673
51
90.0240855
0
ARC
8
DEFAULT_255_1_234
10
4.660076
20
100.6286291
40
0.3203749
50
89.3451631
51
108.5745436
0
ARC
8
DEFAULT_255_1_234
10
4.6463865
20
100.6799908
40
0.2673494
50
109.2998449
51
143.3037509
0
ARC
8
DEFAULT_255_1_234
10
4.7225938
20
100.6213881
40
0.3634757
50
143.0753173
51
163.1916937
0
ARC
8
DEFAULT_255_1_234
10
4.9177666
20
100.5597967
40
0.5681262
50
162.9373603
51
174.6208611
0
ARC
8
DEFAULT_255_1_234
10
5.1803708
20
100.531001
40
0.8322832
50
174.3419979
51
180.1430411
0
ARC
8
DEFAULT_255_1_234
10
5.0872864
20
100.4115698
40
0.7392076
50
179.6817502
51
189.150529
0
ARC
8
DEFAULT_255_1_234
10
4.8372112
20
100.369919
40
0.4856932
50
188.9910863
51
203.5773039
0
ARC
8
DEFAULT_255_1_234
10
4.7292445
20
100.3251211
40
0.3688271
50
203.9077269
51
215.1312379
0
ARC
8
DEFAULT_255_1_234
10
4.6369539
20
100.2535941
40
0.2522457
50
213.9071664
51
263.8849284
0
ARC
8
DEFAULT_255_1_234
10
4.6494868
20
100.3320518
40
0.3316174
50
263.1758525
51
270.1031083
0
ARC
8
DEFAULT_255_1_234
10
4.652696
20
100.4567365
40
0.4563091
50
269.6719807
51
279.0609165
0
ARC
8
DEFAULT_255_1_234
10
4.6793728
20
100.2954907
40
0.2928759
50
278.8750225
51
293.6346586
0
ARC
8
DEFAULT_255_1_234
10
4.7113936
20
100.22029
40
0.2111472
50
293.8553404
51
310.0518804
0
ARC
8
DEFAULT_255_1_234
10
4.711879
20
100.2140516
40
0.2060917
50
311.0646779
51
332.0108348
0
ARC
8
DEFAULT_255_1_234
10
4.5926517
20
100.2797978
40
0.3422352
50
331.6588543
51
343.2878891
0
ARC
8
DEFAULT_255_1_234
10
4.3864032
20
100.3431798
40
0.5580003
50
343.1446044
51
351.010618
0
ARC
8
DEFAULT_255_1_234
10
4.2322678
20
100.3712871
40
0.7146438
50
350.7157277
51
351.1602153
0
LINE
8
DEFAULT_255_1_234
10
6.2026186
20
101.0598211
11
6.2026186
21
99.8904
0
LINE
8
DEFAULT_255_1_234
10
6.2026186
20
99.8904
11
6.0476061
21
99.8904
0
LINE
8
DEFAULT_255_1_234
10
6.0476061
20
99.8904
11
6.0476061
21
100.430936
0
LINE
8
DEFAULT_255_1_234
10
6.0476061
20
100.430936
11
5.4580765
21
100.430936
0
LINE
8
DEFAULT_255_1_234
10
5.4580765
20
100.430936
11
5.4580765
21
99.8904
0
LINE
8
DEFAULT_255_1_234
10
5.4580765
20
99.8904
11
5.3038671
21
99.8904
0
LINE
8
DEFAULT_255_1_234
10
5.3038671
20
99.8904
11
5.3038671
21
101.0598211
0
LINE
8
DEFAULT_255_1_234
10
5.3038671
20
101.0598211
11
5.4580765
21
101.0598211
0
LINE
8
DEFAULT_255_1_234
10
5.4580765
20
101.0598211
11
5.4580765
21
100.5570343
0
LINE
8
DEFAULT_255_1_234
10
5.4580765
20
100.5570343
11
6.0476061
21
100.5570343
0
LINE
8
DEFAULT_255_1_234
10
6.0476061
20
100.5570343
11
6.0476061
21
101.0598211
0
LINE
8
DEFAULT_255_1_234
10
6.0476061
20
101.0598211
11
6.2026186
21
101.0598211
0
LINE
8
DEFAULT_255_1_234
10
7.0652273
20
101.0598211
11
7.0652273
21
100.283152
0
LINE
8
DEFAULT_255_1_234
10
7.0652273
20
100.283152
11
7.2274684
21
100.283152
0
LINE
8
DEFAULT_255_1_234
10
7.2274684
20
100.283152
11
7.2274684
21
100.1618728
0
LINE
8
DEFAULT_255_1_234
10
7.2274684
20
100.1618728
11
7.0652273
21
100.1618728
0
LINE
8
DEFAULT_255_1_234
10
7.0652273
20
100.1618728
11
7.0652273
21
99.8904
0
LINE
8
DEFAULT_255_1_234
10
7.0652273
20
99.8904
11
6.915837
21
99.8904
0
LINE
8
DEFAULT_255_1_234
10
6.915837
20
99.8904
11
6.915837
21
100.1618728
0
LINE
8
DEFAULT_255_1_234
10
6.915837
20
100.1618728
11
6.3833327
21
100.1618728
0
LINE
8
DEFAULT_255_1_234
10
6.3833327
20
100.1618728
11
6.3833327
21
100.2494187
0
LINE
8
DEFAULT_255_1_234
10
6.3833327
20
100.2494187
11
6.9070021
21
101.0598211
0
LINE
8
DEFAULT_255_1_234
10
6.9070021
20
101.0598211
11
7.0652273
21
101.0598211
0
LINE
8
DEFAULT_255_1_234
10
6.8981671
20
100.8244912
11
6.5519992
21
100.283152
0
LINE
8
DEFAULT_255_1_234
10
6.5519992
20
100.283152
11
6.915837
21
100.283152
0
LINE
8
DEFAULT_255_1_234
10
6.915837
20
100.283152
11
6.915837
21
100.8566181
0
LINE
8
DEFAULT_255_1_234
10
6.915837
20
100.8566181
11
6.8981671
21
100.8244912
0
LINE
8
DEFAULT_255_1_234
10
7.8025409
20
100.8590276
11
7.8025409
21
100.5176788
0
LINE
8
DEFAULT_255_1_234
10
7.8025409
20
100.5176788
11
8.1286294
21
100.5176788
0
LINE
8
DEFAULT_255_1_234
10
8.1286294
20
100.5176788
11
8.1286294
21
100.3771233
0
LINE
8
DEFAULT_255_1_234
10
8.1286294
20
100.3771233
11
7.8025409
21
100.3771233
0
LINE
8
DEFAULT_255_1_234
10
7.8025409
20
100.3771233
11
7.8025409
21
100.0076634
0
LINE
8
DEFAULT_255_1_234
10
7.8025409
20
100.0076634
11
7.6531505
21
100.0076634
0
LINE
8
DEFAULT_255_1_234
10
7.6531505
20
100.0076634
11
7.6531505
21
100.3771233
0
LINE
8
DEFAULT_255_1_234
10
7.6531505
20
100.3771233
11
7.327062
21
100.3771233
0
LINE
8
DEFAULT_255_1_234
10
7.327062
20
100.3771233
11
7.327062
21
100.5176788
0
LINE
8
DEFAULT_255_1_234
10
7.327062
20
100.5176788
11
7.6531505
21
100.5176788
0
LINE
8
DEFAULT_255_1_234
10
7.6531505
20
100.5176788
11
7.6531505
21
100.8590276
0
LINE
8
DEFAULT_255_1_234
10
7.6531505
20
100.8590276
11
7.8025409
21
100.8590276
0
LINE
8
DEFAULT_255_1_234
10
4.938423
20
108.1989663
11
5.0934355
21
108.1989663
0
LINE
8
DEFAULT_255_1_234
10
4.1930777
20
108.3579947
11
4.1930777
21
108.4704391
0
LINE
8
DEFAULT_255_1_234
10
5.0934355
20
108.6214357
11
4.938423
21
108.6214357
0
LINE
8
DEFAULT_255_1_234
10
4.3480902
20
108.4664232
11
4.3480902
21
108.3531757
0
ARC
8
DEFAULT_255_1_234
10
4.5453742
20
108.2586846
40
0.5513052
50
340.1774281
51
353.7814284
0
ARC
8
DEFAULT_255_1_234
10
4.7025095
20
108.2001582
40
0.3836379
50
311.4558989
51
340.4421614
0
ARC
8
DEFAULT_255_1_234
10
4.6991763
20
108.2112528
40
0.3941894
50
282.4333181
51
310.7513653
0
ARC
8
DEFAULT_255_1_234
10
4.6552502
20
108.3927679
40
0.5809175
50
269.9358511
51
282.809604
0
ARC
8
DEFAULT_255_1_234
10
4.6500568
20
108.5385212
40
0.7266847
50
270.0021091
51
270.3581957
0
ARC
8
DEFAULT_255_1_234
10
4.6447985
20
108.2784585
40
0.4666519
50
250.7884749
51
270.6489167
0
ARC
8
DEFAULT_255_1_234
10
4.627982
20
108.2147319
40
0.4009729
50
219.3627325
51
250.0611886
0
ARC
8
DEFAULT_255_1_234
10
4.7109031
20
108.2852042
40
0.5097822
50
193.5479632
51
219.5756669
0
ARC
8
DEFAULT_255_1_234
10
4.9480652
20
108.3467919
40
0.7547848
50
181.1218675
51
193.87563
0
ARC
8
DEFAULT_255_1_234
10
5.1550833
20
108.357858
40
0.9620055
50
179.9918545
51
181.5394234
0
ARC
8
DEFAULT_255_1_234
10
4.9699935
20
108.4741788
40
0.7769248
50
169.5837241
51
180.2757934
0
ARC
8
DEFAULT_255_1_234
10
4.7862873
20
108.5081229
40
0.590109
50
155.0365899
51
169.6003176
0
ARC
8
DEFAULT_255_1_234
10
4.6727337
20
108.5628677
40
0.4640625
50
136.783148
51
155.2472683
0
ARC
8
DEFAULT_255_1_234
10
4.6337814
20
108.5959562
40
0.4130255
50
121.7633186
51
136.428115
0
ARC
8
DEFAULT_255_1_234
10
4.6472776
20
108.5710227
40
0.4413323
50
95.6459699
51
121.5490577
0
ARC
8
DEFAULT_255_1_234
10
4.6630058
20
108.4601949
40
0.55319
50
89.924208
51
96.1377933
0
ARC
8
DEFAULT_255_1_234
10
4.6680491
20
108.4720542
40
0.5413475
50
76.6779277
51
90.4563316
0
ARC
8
DEFAULT_255_1_234
10
4.7074114
20
108.6311114
40
0.3775041
50
47.485847
51
76.9287264
0
ARC
8
DEFAULT_255_1_234
10
4.6927087
20
108.6211159
40
0.3948286
50
16.5424086
51
46.8933463
0
ARC
8
DEFAULT_255_1_234
10
4.5319244
20
108.5682861
40
0.564021
50
5.4072051
51
17.0365086
0
ARC
8
DEFAULT_255_1_234
10
4.3880261
20
108.5451679
40
0.5556559
50
7.8891745
51
15.9239216
0
ARC
8
DEFAULT_255_1_234
10
4.5867274
20
108.6028631
40
0.3487515
50
15.7653144
51
27.9410532
0
ARC
8
DEFAULT_255_1_234
10
4.6971492
20
108.661979
40
0.2235026
50
27.8166557
51
46.4008329
0
ARC
8
DEFAULT_255_1_234
10
4.7021135
20
108.6614082
40
0.2205286
50
47.4371857
51
75.0698205
0
ARC
8
DEFAULT_255_1_234
10
4.6712529
20
108.5539765
40
0.3322915
50
74.7008593
51
87.8124495
0
ARC
8
DEFAULT_255_1_234
10
4.6639217
20
108.4483844
40
0.4380987
50
87.3814673
51
90.0240855
0
ARC
8
DEFAULT_255_1_234
10
4.660076
20
108.5661291
40
0.3203749
50
89.3451631
51
108.5745436
0
ARC
8
DEFAULT_255_1_234
10
4.6463865
20
108.6174908
40
0.2673494
50
109.2998449
51
143.3037509
0
ARC
8
DEFAULT_255_1_234
10
4.7225938
20
108.5588881
40
0.3634757
50
143.0753173
51
163.1916937
0
ARC
8
DEFAULT_255_1_234
10
4.9177666
20
108.4972967
40
0.5681262
50
162.9373603
51
174.6208611
0
ARC
8
DEFAULT_255_1_234
10
5.1803708
20
108.468501
40
0.8322832
50
174.3419979
51
180.1430411
0
ARC
8
DEFAULT_255_1_234
10
5.0872864
20
108.3490698
40
0.7392076
50
179.6817502
51
189.150529
0
ARC
8
DEFAULT_255_1_234
10
4.8372112
20
108.307419
40
0.4856932
50
188.9910863
51
203.5773039
0
ARC
8
DEFAULT_255_1_234
10
4.7292445
20
108.2626211
40
0.3688271
50
203.9077269
51
215.1312379
0
ARC
8
DEFAULT_255_1_234
10
4.6369539
20
108.1910941
40
0.2522457
50
213.9071664
51
263.8849284
0
ARC
8
DEFAULT_255_1_234
10
4.6494868
20
108.2695518
40
0.3316174
50
263.1758525
51
270.1031083
0
ARC
8
DEFAULT_255_1_234
10
4.652696
20
108.3942365
40
0.4563091
50
269.6719807
51
279.0609165
0
ARC
8
DEFAULT_255_1_234
10
4.6793728
20
108.2329907
40
0.2928759
50
278.8750225
51
293.6346586
0
ARC
8
DEFAULT_255_1_234
10
4.7113936
20
108.15779
40
0.2111472
50
293.8553404
51
310.0518804
0
ARC
8
DEFAULT_255_1_234
10
4.711879
20
108.1515516
40
0.2060917
50
311.0646779
51
332.0108348
0
ARC
8
DEFAULT_255_1_234
10
4.5926517
20
108.2172978
40
0.3422352
50
331.6588543
51
343.2878891
0
ARC
8
DEFAULT_255_1_234
10
4.3864032
20
108.2806798
40
0.5580003
50
343.1446044
51
351.010618
0
ARC
8
DEFAULT_255_1_234
10
4.2322678
20
108.3087871
40
0.7146438
50
350.7157277
51
351.1602153
0
LINE
8
DEFAULT_255_1_234
10
6.2026186
20
108.9973211
11
6.2026186
21
107.8279
0
LINE
8
DEFAULT_255_1_234
10
6.2026186
20
107.8279
11
6.0476061
21
107.8279
0
LINE
8
DEFAULT_255_1_234
10
6.0476061
20
107.8279
11
6.0476061
21
108.368436
0
LINE
8
DEFAULT_255_1_234
10
6.0476061
20
108.368436
11
5.4580765
21
108.368436
0
LINE
8
DEFAULT_255_1_234
10
5.4580765
20
108.368436
11
5.4580765
21
107.8279
0
LINE
8
DEFAULT_255_1_234
10
5.4580765
20
107.8279
11
5.3038671
21
107.8279
0
LINE
8
DEFAULT_255_1_234
10
5.3038671
20
107.8279
11
5.3038671
21
108.9973211
0
LINE
8
DEFAULT_255_1_234
10
5.3038671
20
108.9973211
11
5.4580765
21
108.9973211
0
LINE
8
DEFAULT_255_1_234
10
5.4580765
20
108.9973211
11
5.4580765
21
108.4945343
0
LINE
8
DEFAULT_255_1_234
10
5.4580765
20
108.4945343
11
6.0476061
21
108.4945343
0
LINE
8
DEFAULT_255_1_234
10
6.0476061
20
108.4945343
11
6.0476061
21
108.9973211
0
LINE
8
DEFAULT_255_1_234
10
6.0476061
20
108.9973211
11
6.2026186
21
108.9973211
0
LINE
8
DEFAULT_255_1_234
10
6.6540023
20
108.3636169
11
6.6540023
21
108.4848962
0
LINE
8
DEFAULT_255_1_234
10
6.6540023
20
108.4848962
11
6.7656435
21
108.4848962
0
LINE
8
DEFAULT_255_1_234
10
6.5752913
20
108.6905087
11
6.4267041
21
108.6905087
0
LINE
8
DEFAULT_255_1_234
10
6.4162628
20
108.1363188
11
6.5656532
21
108.1363188
0
LINE
8
DEFAULT_255_1_234
10
6.7656435
20
108.3636169
11
6.6540023
21
108.3636169
0
ARC
8
DEFAULT_255_1_234
10
6.7627301
20
108.8241713
40
0.3392876
50
270.4919872
51
281.8951556
0
ARC
8
DEFAULT_255_1_234
10
6.7868563
20
108.7139702
40
0.2264817
50
281.6691735
51
301.2943132
0
ARC
8
DEFAULT_255_1_234
10
6.8038773
20
108.6828304
40
0.1910381
50
301.7833094
51
311.7545298
0
ARC
8
DEFAULT_255_1_234
10
6.8130349
20
108.6726748
40
0.1773635
50
311.7323931
51
354.2802411
0
ARC
8
DEFAULT_255_1_234
10
6.7403974
20
108.6851722
40
0.2509385
50
353.0937916
51
0.1181479
0
ARC
8
DEFAULT_255_1_234
10
6.6942759
20
108.6899386
40
0.2970898
50
359.1805295
51
15.0453146
0
ARC
8
DEFAULT_255_1_234
10
6.8288596
20
108.7291992
40
0.1569564
50
13.9577229
51
77.6713066
0
ARC
8
DEFAULT_255_1_234
10
6.7902125
20
108.5906949
40
0.3006298
50
76.1116566
51
90.7026153
0
ARC
8
DEFAULT_255_1_234
10
6.7842963
20
108.6180545
40
0.2732568
50
89.5324876
51
103.531937
0
ARC
8
DEFAULT_255_1_234
10
6.7642407
20
108.6979884
40
0.1908508
50
103.2931773
51
133.5619022
0
ARC
8
DEFAULT_255_1_234
10
6.7597896
20
108.7039375
40
0.1834746
50
133.8349307
51
173.5344437
0
ARC
8
DEFAULT_255_1_234
10
6.8320939
20
108.6911213
40
0.2568033
50
172.5096846
51
180.1366907
0
ARC
8
DEFAULT_255_1_234
10
6.7369833
20
108.6945622
40
0.3103056
50
155.3484492
51
180.7484736
0
ARC
8
DEFAULT_255_1_234
10
6.7320922
20
108.6916846
40
0.3070957
50
131.5744599
51
154.4798489
0
ARC
8
DEFAULT_255_1_234
10
6.7634069
20
108.660031
40
0.3515643
50
96.9875458
51
131.9690667
0
ARC
8
DEFAULT_255_1_234
10
6.7853549
20
108.5354636
40
0.4779224
50
89.8596053
51
97.7825159
0
ARC
8
DEFAULT_255_1_234
10
6.7901612
20
108.5092616
40
0.5041361
50
78.3655447
51
90.4131539
0
ARC
8
DEFAULT_255_1_234
10
6.825953
20
108.6751887
40
0.3344039
50
56.6229102
51
78.638727
0
ARC
8
DEFAULT_255_1_234
10
6.8474474
20
108.7127805
40
0.2912001
50
47.0253525
51
56.0854072
0
ARC
8
DEFAULT_255_1_234
10
6.8494254
20
108.7167223
40
0.2869704
50
10.9208013
51
46.7778124
0
ARC
8
DEFAULT_255_1_234
10
6.713032
20
108.6851857
40
0.426899
50
359.6364486
51
11.6087304
0
ARC
8
DEFAULT_255_1_234
10
6.8965164
20
108.6836752
40
0.243409
50
332.3549906
51
359.7179418
0
ARC
8
DEFAULT_255_1_234
10
6.8314766
20
108.7145142
40
0.3153459
50
325.2333722
51
332.8745602
0
ARC
8
DEFAULT_255_1_234
10
6.846739
20
108.7038828
40
0.2967456
50
292.9802137
51
325.2392345
0
ARC
8
DEFAULT_255_1_234
10
6.8192763
20
108.7572863
40
0.3566604
50
292.5402179
51
293.6924929
0
ARC
8
DEFAULT_255_1_234
10
6.8585359
20
108.1118091
40
0.3307468
50
57.6435486
51
72.8625112
0
ARC
8
DEFAULT_255_1_234
10
6.8939859
20
108.1692549
40
0.2632492
50
36.7248896
51
57.4697979
0
ARC
8
DEFAULT_255_1_234
10
6.8928492
20
108.170522
40
0.2634081
50
8.0545065
51
36.356114
0
ARC
8
DEFAULT_255_1_234
10
6.8065677
20
108.1550174
40
0.3510261
50
359.8320645
51
8.5869982
0
ARC
8
DEFAULT_255_1_234
10
6.7690453
20
108.1502101
40
0.3885653
50
343.9829931
51
0.5571613
0
ARC
8
DEFAULT_255_1_234
10
6.857665
20
108.1259438
40
0.2966924
50
311.6359546
51
343.7651759
0
ARC
8
DEFAULT_255_1_234
10
6.8198219
20
108.1686102
40
0.3537231
50
279.7829875
51
311.6255694
0
ARC
8
DEFAULT_255_1_234
10
6.7896996
20
108.312328
40
0.5004971
50
269.7286406
51
280.3856417
0
ARC
8
DEFAULT_255_1_234
10
6.7835068
20
108.3081996
40
0.4963778
50
256.6828919
51
270.4412052
0
ARC
8
DEFAULT_255_1_234
10
6.7496364
20
108.1697394
40
0.3538406
50
229.4223008
51
256.8556159
0
ARC
8
DEFAULT_255_1_234
10
6.7081757
20
108.1230736
40
0.2914296
50
181.818294
51
229.6455059
0
ARC
8
DEFAULT_255_1_234
10
6.8121713
20
108.1361496
40
0.3959084
50
179.9755256
51
183.2323064
0
ARC
8
DEFAULT_255_1_234
10
6.7949459
20
108.1341037
40
0.2293034
50
179.4465117
51
196.2869258
0
ARC
8
DEFAULT_255_1_234
10
6.7461867
20
108.1207651
40
0.1787621
50
196.5661473
51
227.705904
0
ARC
8
DEFAULT_255_1_234
10
6.7625962
20
108.1391155
40
0.2033784
50
227.7652068
51
257.8762805
0
ARC
8
DEFAULT_255_1_234
10
6.7850932
20
108.2334156
40
0.3003081
50
257.4584385
51
270.426602
0
ARC
8
DEFAULT_255_1_234
10
6.7896498
20
108.2623996
40
0.329292
50
269.5962073
51
280.8789248
0
ARC
8
DEFAULT_255_1_234
10
6.8126027
20
108.1477685
40
0.2123908
50
280.6346389
51
299.8595945
0
ARC
8
DEFAULT_255_1_234
10
6.8316934
20
108.1115212
40
0.171457
50
300.3576302
51
314.5517981
0
ARC
8
DEFAULT_255_1_234
10
6.8233994
20
108.1175919
40
0.1816095
50
315.0728369
51
345.0431014
0
ARC
8
DEFAULT_255_1_234
10
6.7310808
20
108.1444841
40
0.2777492
50
344.5986631
51
357.9269593
0
ARC
8
DEFAULT_255_1_234
10
6.6415135
20
108.1506276
40
0.3674917
50
357.4748886
51
0.0231117
0
ARC
8
DEFAULT_255_1_234
10
6.7438244
20
108.1530679
40
0.2651907
50
359.5047933
51
13.4239635
0
ARC
8
DEFAULT_255_1_234
10
6.8304887
20
108.1752478
40
0.1757509
50
12.9498199
51
48.7551375
0
ARC
8
DEFAULT_255_1_234
10
6.8122621
20
108.15034
40
0.2065134
50
49.5088623
51
72.1836453
0
ARC
8
DEFAULT_255_1_234
10
6.7764774
20
108.0441291
40
0.3185836
50
71.9010081
51
84.3554254
0
ARC
8
DEFAULT_255_1_234
10
6.7603406
20
107.9080326
40
0.4556151
50
84.0193428
51
89.333121
0
LINE
8
DEFAULT_255_1_234
10
7.8025409
20
108.7965276
11
7.8025409
21
108.4551788
0
LINE
8
DEFAULT_255_1_234
10
7.8025409
20
108.4551788
11
8.1286294
21
108.4551788
0
LINE
8
DEFAULT_255_1_234
10
8.1286294
20
108.4551788
11
8.1286294
21
108.3146233
0
LINE
8
DEFAULT_255_1_234
10
8.1286294
20
108.3146233
11
7.8025409
21
108.3146233
0
LINE
8
DEFAULT_255_1_234
10
7.8025409
20
108.3146233
11
7.8025409
21
107.9451634
0
LINE
8
DEFAULT_255_1_234
10
7.8025409
20
107.9451634
11
7.6531505
21
107.9451634
0
LINE
8
DEFAULT_255_1_234
10
7.6531505
20
107.9451634
11
7.6531505
21
108.3146233
0
LINE
8
DEFAULT_255_1_234
10
7.6531505
20
108.3146233
11
7.327062
21
108.3146233
0
LINE
8
DEFAULT_255_1_234
10
7.327062
20
108.3146233
11
7.327062
21
108.4551788
0
LINE
8
DEFAULT_255_1_234
10
7.327062
20
108.4551788
11
7.6531505
21
108.4551788
0
LINE
8
DEFAULT_255_1_234
10
7.6531505
20
108.4551788
11
7.6531505
21
108.7965276
0
LINE
8
DEFAULT_255_1_234
10
7.6531505
20
108.7965276
11
7.8025409
21
108.7965276
0
LINE
8
DEFAULT_255_1_234
10
4.938423
20
116.1364663
11
5.0934355
21
116.1364663
0
LINE
8
DEFAULT_255_1_234
10
4.1930777
20
116.2954947
11
4.1930777
21
116.4079391
0
LINE
8
DEFAULT_255_1_234
10
5.0934355
20
116.5589357
11
4.938423
21
116.5589357
0
LINE
8
DEFAULT_255_1_234
10
4.3480902
20
116.4039232
11
4.3480902
21
116.2906757
0
ARC
8
DEFAULT_255_1_234
10
4.5453742
20
116.1961846
40
0.5513052
50
340.1774281
51
353.7814284
0
ARC
8
DEFAULT_255_1_234
10
4.7025095
20
116.1376582
40
0.3836379
50
311.4558989
51
340.4421614
0
ARC
8
DEFAULT_255_1_234
10
4.6991763
20
116.1487528
40
0.3941894
50
282.4333181
51
310.7513653
0
ARC
8
DEFAULT_255_1_234
10
4.6552502
20
116.3302679
40
0.5809175
50
269.9358511
51
282.809604
0
ARC
8
DEFAULT_255_1_234
10
4.6500568
20
116.4760212
40
0.7266847
50
270.0021091
51
270.3581957
0
ARC
8
DEFAULT_255_1_234
10
4.6447985
20
116.2159585
40
0.4666519
50
250.7884749
51
270.6489167
0
ARC
8
DEFAULT_255_1_234
10
4.627982
20
116.1522319
40
0.4009729
50
219.3627325
51
250.0611886
0
ARC
8
DEFAULT_255_1_234
10
4.7109031
20
116.2227042
40
0.5097822
50
193.5479632
51
219.5756669
0
ARC
8
DEFAULT_255_1_234
10
4.9480652
20
116.2842919
40
0.7547848
50
181.1218675
51
193.87563
0
ARC
8
DEFAULT_255_1_234
10
5.1550833
20
116.295358
40
0.9620055
50
179.9918545
51
181.5394234
0
ARC
8
DEFAULT_255_1_234
10
4.9699935
20
116.4116788
40
0.7769248
50
169.5837241
51
180.2757934
0
ARC
8
DEFAULT_255_1_234
10
4.7862873
20
116.4456229
40
0.590109
50
155.0365899
51
169.6003176
0
ARC
8
DEFAULT_255_1_234
10
4.6727337
20
116.5003677
40
0.4640625
50
136.783148
51
155.2472683
0
ARC
8
DEFAULT_255_1_234
10
4.6337814
20
116.5334562
40
0.4130255
50
121.7633186
51
136.428115
0
ARC
8
DEFAULT_255_1_234
10
4.6472776
20
116.5085227
40
0.4413323
50
95.6459699
51
121.5490577
0
ARC
8
DEFAULT_255_1_234
10
4.6630058
20
116.3976949
40
0.55319
50
89.924208
51
96.1377933
0
ARC
8
DEFAULT_255_1_234
10
4.6680491
20
116.4095542
40
0.5413475
50
76.6779277
51
90.4563316
0
ARC
8
DEFAULT_255_1_234
10
4.7074114
20
116.5686114
40
0.3775041
50
47.485847
51
76.9287264
0
ARC
8
DEFAULT_255_1_234
10
4.6927087
20
116.5586159
40
0.3948286
50
16.5424086
51
46.8933463
0
ARC
8
DEFAULT_255_1_234
10
4.5319244
20
116.5057861
40
0.564021
50
5.4072051
51
17.0365086
0
ARC
8
DEFAULT_255_1_234
10
4.3880261
20
116.4826679
40
0.5556559
50
7.8891745
51
15.9239216
0
ARC
8
DEFAULT_255_1_234
10
4.5867274
20
116.5403631
40
0.3487515
50
15.7653144
51
27.9410532
0
ARC
8
DEFAULT_255_1_234
10
4.6971492
20
116.599479
40
0.2235026
50
27.8166557
51
46.4008329
0
ARC
8
DEFAULT_255_1_234
10
4.7021135
20
116.5989082
40
0.2205286
50
47.4371857
51
75.0698205
0
ARC
8
DEFAULT_255_1_234
10
4.6712529
20
116.4914765
40
0.3322915
50
74.7008593
51
87.8124495
0
ARC
8
DEFAULT_255_1_234
10
4.6639217
20
116.3858844
40
0.4380987
50
87.3814673
51
90.0240855
0
ARC
8
DEFAULT_255_1_234
10
4.660076
20
116.5036291
40
0.3203749
50
89.3451631
51
108.5745436
0
ARC
8
DEFAULT_255_1_234
10
4.6463865
20
116.5549908
40
0.2673494
50
109.2998449
51
143.3037509
0
ARC
8
DEFAULT_255_1_234
10
4.7225938
20
116.4963881
40
0.3634757
50
143.0753173
51
163.1916937
0
ARC
8
DEFAULT_255_1_234
10
4.9177666
20
116.4347967
40
0.5681262
50
162.9373603
51
174.6208611
0
ARC
8
DEFAULT_255_1_234
10
5.1803708
20
116.406001
40
0.8322832
50
174.3419979
51
180.1430411
0
ARC
8
DEFAULT_255_1_234
10
5.0872864
20
116.2865698
40
0.7392076
50
179.6817502
51
189.150529
0
ARC
8
DEFAULT_255_1_234
10
4.8372112
20
116.244919
40
0.4856932
50
188.9910863
51
203.5773039
0
ARC
8
DEFAULT_255_1_234
10
4.7292445
20
116.2001211
40
0.3688271
50
203.9077269
51
215.1312379
0
ARC
8
DEFAULT_255_1_234
10
4.6369539
20
116.1285941
40
0.2522457
50
213.9071664
51
263.8849284
0
ARC
8
DEFAULT_255_1_234
10
4.6494868
20
116.2070518
40
0.3316174
50
263.1758525
51
270.1031083
0
ARC
8
DEFAULT_255_1_234
10
4.652696
20
116.3317365
40
0.4563091
50
269.6719807
51
279.0609165
0
ARC
8
DEFAULT_255_1_234
10
4.6793728
20
116.1704907
40
0.2928759
50
278.8750225
51
293.6346586
0
ARC
8
DEFAULT_255_1_234
10
4.7113936
20
116.09529
40
0.2111472
50
293.8553404
51
310.0518804
0
ARC
8
DEFAULT_255_1_234
10
4.711879
20
116.0890516
40
0.2060917
50
311.0646779
51
332.0108348
0
ARC
8
DEFAULT_255_1_234
10
4.5926517
20
116.1547978
40
0.3422352
50
331.6588543
51
343.2878891
0
ARC
8
DEFAULT_255_1_234
10
4.3864032
20
116.2181798
40
0.5580003
50
343.1446044
51
351.010618
0
ARC
8
DEFAULT_255_1_234
10
4.2322678
20
116.2462871
40
0.7146438
50
350.7157277
51
351.1602153
0
LINE
8
DEFAULT_255_1_234
10
6.2026186
20
116.9348211
11
6.2026186
21
115.7654
0
LINE
8
DEFAULT_255_1_234
10
6.2026186
20
115.7654
11
6.0476061
21
115.7654
0
LINE
8
DEFAULT_255_1_234
10
6.0476061
20
115.7654
11
6.0476061
21
116.305936
0
LINE
8
DEFAULT_255_1_234
10
6.0476061
20
116.305936
11
5.4580765
21
116.305936
0
LINE
8
DEFAULT_255_1_234
10
5.4580765
20
116.305936
11
5.4580765
21
115.7654
0
LINE
8
DEFAULT_255_1_234
10
5.4580765
20
115.7654
11
5.3038671
21
115.7654
0
LINE
8
DEFAULT_255_1_234
10
5.3038671
20
115.7654
11
5.3038671
21
116.9348211
0
LINE
8
DEFAULT_255_1_234
10
5.3038671
20
116.9348211
11
5.4580765
21
116.9348211
0
LINE
8
DEFAULT_255_1_234
10
5.4580765
20
116.9348211
11
5.4580765
21
116.4320343
0
LINE
8
DEFAULT_255_1_234
10
5.4580765
20
116.4320343
11
6.0476061
21
116.4320343
0
LINE
8
DEFAULT_255_1_234
10
6.0476061
20
116.4320343
11
6.0476061
21
116.9348211
0
LINE
8
DEFAULT_255_1_234
10
6.0476061
20
116.9348211
11
6.2026186
21
116.9348211
0
LINE
8
DEFAULT_255_1_234
10
7.2041764
20
115.8866792
11
7.2041764
21
115.7654
0
LINE
8
DEFAULT_255_1_234
10
7.2041764
20
115.7654
11
6.4379485
21
115.7654
0
LINE
8
DEFAULT_255_1_234
10
6.4379485
20
115.7654
11
6.4379485
21
115.8722221
0
LINE
8
DEFAULT_255_1_234
10
6.4379485
20
115.8722221
11
6.8427481
21
116.3219995
0
LINE
8
DEFAULT_255_1_234
10
6.5640468
20
116.5902595
11
6.4154597
21
116.5902595
0
LINE
8
DEFAULT_255_1_234
10
6.9302941
20
116.2264218
11
6.6170563
21
115.8866792
0
LINE
8
DEFAULT_255_1_234
10
6.6170563
20
115.8866792
11
7.2041764
21
115.8866792
0
ARC
8
DEFAULT_255_1_234
10
5.4937315
20
117.5149527
40
1.8008286
50
318.5132453
51
320.7828378
0
ARC
8
DEFAULT_255_1_234
10
6.0224289
20
117.0846426
40
1.1191493
50
320.7372736
51
323.9737074
0
ARC
8
DEFAULT_255_1_234
10
6.4144146
20
116.8006361
40
0.6350923
50
323.8961724
51
328.6421089
0
ARC
8
DEFAULT_255_1_234
10
6.6190741
20
116.6744031
40
0.3946393
50
328.8299013
51
331.789948
0
ARC
8
DEFAULT_255_1_234
10
6.7187919
20
116.6229509
40
0.2824501
50
331.4255242
51
352.9364833
0
ARC
8
DEFAULT_255_1_234
10
6.732442
20
116.6198976
40
0.2685315
50
353.2248685
51
0.0169286
0
ARC
8
DEFAULT_255_1_234
10
6.7534297
20
116.622195
40
0.2475536
50
359.4866256
51
15.9339782
0
ARC
8
DEFAULT_255_1_234
10
6.8041282
20
116.6358286
40
0.1950618
50
16.1714718
51
43.5284424
0
ARC
8
DEFAULT_255_1_234
10
6.8118591
20
116.6435573
40
0.184134
50
43.4415429
51
83.1661404
0
ARC
8
DEFAULT_255_1_234
10
6.7984509
20
116.5698771
40
0.258926
50
82.160215
51
90.1505798
0
ARC
8
DEFAULT_255_1_234
10
6.7952936
20
116.5161865
40
0.3126255
50
89.5460705
51
102.5418777
0
ARC
8
DEFAULT_255_1_234
10
6.7710022
20
116.6192665
40
0.2067346
50
102.1739365
51
129.2061916
0
ARC
8
DEFAULT_255_1_234
10
6.7631094
20
116.6317094
40
0.1921118
50
129.7279328
51
135.7542026
0
ARC
8
DEFAULT_255_1_234
10
6.7752622
20
116.6220045
40
0.2075944
50
136.175737
51
166.3674722
0
ARC
8
DEFAULT_255_1_234
10
6.8759541
20
116.5950182
40
0.3118201
50
165.9092917
51
178.8683903
0
ARC
8
DEFAULT_255_1_234
10
6.9624402
20
116.5903179
40
0.3983935
50
178.438168
51
180.0083905
0
ARC
8
DEFAULT_255_1_234
10
6.8223005
20
116.5942231
40
0.4068601
50
163.2878735
51
180.5581814
0
ARC
8
DEFAULT_255_1_234
10
6.7421266
20
116.616284
40
0.3237344
50
133.454115
51
162.9470031
0
ARC
8
DEFAULT_255_1_234
10
6.7599807
20
116.5973
40
0.349795
50
100.7869394
51
133.4384016
0
ARC
8
DEFAULT_255_1_234
10
6.7947579
20
116.4424319
40
0.5084616
50
89.6605301
51
101.3704185
0
ARC
8
DEFAULT_255_1_234
10
6.8013918
20
116.4485496
40
0.502348
50
78.2171172
51
90.4130393
0
ARC
8
DEFAULT_255_1_234
10
6.8368996
20
116.6109637
40
0.3361092
50
55.9268222
51
78.4888551
0
ARC
8
DEFAULT_255_1_234
10
6.8565436
20
116.6448324
40
0.2970617
50
47.9292255
51
55.4054003
0
ARC
8
DEFAULT_255_1_234
10
6.8666997
20
116.6551502
40
0.2825983
50
4.3347696
51
48.0560701
0
ARC
8
DEFAULT_255_1_234
10
6.757139
20
116.6381601
40
0.393225
50
359.925209
51
5.5967654
0
ARC
8
DEFAULT_255_1_234
10
6.8000282
20
116.6437816
40
0.3503892
50
337.8914096
51
358.9967724
0
ARC
8
DEFAULT_255_1_234
10
6.5286694
20
116.7484706
40
0.6412172
50
326.9135351
51
338.3505194
0
ARC
8
DEFAULT_255_1_234
10
6.1300998
20
117.0039284
40
1.1146189
50
319.6472867
51
327.095818
0
ARC
8
DEFAULT_255_1_234
10
5.7468001
20
117.3201
40
1.6114559
50
317.2586784
51
319.9046139
0
LINE
8
DEFAULT_255_1_234
10
7.8025409
20
116.7340276
11
7.8025409
21
116.3926788
0
LINE
8
DEFAULT_255_1_234
10
7.8025409
20
116.3926788
11
8.1286294
21
116.3926788
0
LINE
8
DEFAULT_255_1_234
10
8.1286294
20
116.3926788
11
8.1286294
21
116.2521233
0
LINE
8
DEFAULT_255_1_234
10
8.1286294
20
116.2521233
11
7.8025409
21
116.2521233
0
LINE
8
DEFAULT_255_1_234
10
7.8025409
20
116.2521233
11
7.8025409
21
115.8826634
0
LINE
8
DEFAULT_255_1_234
10
7.8025409
20
115.8826634
11
7.6531505
21
115.8826634
0
LINE
8
DEFAULT_255_1_234
10
7.6531505
20
115.8826634
11
7.6531505
21
116.2521233
0
LINE
8
DEFAULT_255_1_234
10
7.6531505
20
116.2521233
11
7.327062
21
116.2521233
0
LINE
8
DEFAULT_255_1_234
10
7.327062
20
116.2521233
11
7.327062
21
116.3926788
0
LINE
8
DEFAULT_255_1_234
10
7.327062
20
116.3926788
11
7.6531505
21
116.3926788
0
LINE
8
DEFAULT_255_1_234
10
7.6531505
20
116.3926788
11
7.6531505
21
116.7340276
0
LINE
8
DEFAULT_255_1_234
10
7.6531505
20
116.7340276
11
7.8025409
21
116.7340276
0
LINE
8
DEFAULT_255_1_234
10
4.938423
20
124.0739663
11
5.0934355
21
124.0739663
0
LINE
8
DEFAULT_255_1_234
10
4.1930777
20
124.2329947
11
4.1930777
21
124.3454391
0
LINE
8
DEFAULT_255_1_234
10
5.0934355
20
124.4964357
11
4.938423
21
124.4964357
0
LINE
8
DEFAULT_255_1_234
10
4.3480902
20
124.3414232
11
4.3480902
21
124.2281757
0
ARC
8
DEFAULT_255_1_234
10
4.5453742
20
124.1336846
40
0.5513052
50
340.1774281
51
353.7814284
0
ARC
8
DEFAULT_255_1_234
10
4.7025095
20
124.0751582
40
0.3836379
50
311.4558989
51
340.4421614
0
ARC
8
DEFAULT_255_1_234
10
4.6991763
20
124.0862528
40
0.3941894
50
282.4333181
51
310.7513653
0
ARC
8
DEFAULT_255_1_234
10
4.6552502
20
124.2677679
40
0.5809175
50
269.9358511
51
282.809604
0
ARC
8
DEFAULT_255_1_234
10
4.6500568
20
124.4135212
40
0.7266847
50
270.0021091
51
270.3581957
0
ARC
8
DEFAULT_255_1_234
10
4.6447985
20
124.1534585
40
0.4666519
50
250.7884749
51
270.6489167
0
ARC
8
DEFAULT_255_1_234
10
4.627982
20
124.0897319
40
0.4009729
50
219.3627325
51
250.0611886
0
ARC
8
DEFAULT_255_1_234
10
4.7109031
20
124.1602042
40
0.5097822
50
193.5479632
51
219.5756669
0
ARC
8
DEFAULT_255_1_234
10
4.9480652
20
124.2217919
40
0.7547848
50
181.1218675
51
193.87563
0
ARC
8
DEFAULT_255_1_234
10
5.1550833
20
124.232858
40
0.9620055
50
179.9918545
51
181.5394234
0
ARC
8
DEFAULT_255_1_234
10
4.9699935
20
124.3491788
40
0.7769248
50
169.5837241
51
180.2757934
0
ARC
8
DEFAULT_255_1_234
10
4.7862873
20
124.3831229
40
0.590109
50
155.0365899
51
169.6003176
0
ARC
8
DEFAULT_255_1_234
10
4.6727337
20
124.4378677
40
0.4640625
50
136.783148
51
155.2472683
0
ARC
8
DEFAULT_255_1_234
10
4.6337814
20
124.4709562
40
0.4130255
50
121.7633186
51
136.428115
0
ARC
8
DEFAULT_255_1_234
10
4.6472776
20
124.4460227
40
0.4413323
50
95.6459699
51
121.5490577
0
ARC
8
DEFAULT_255_1_234
10
4.6630058
20
124.3351949
40
0.55319
50
89.924208
51
96.1377933
0
ARC
8
DEFAULT_255_1_234
10
4.6680491
20
124.3470542
40
0.5413475
50
76.6779277
51
90.4563316
0
ARC
8
DEFAULT_255_1_234
10
4.7074114
20
124.5061114
40
0.3775041
50
47.485847
51
76.9287264
0
ARC
8
DEFAULT_255_1_234
10
4.6927087
20
124.4961159
40
0.3948286
50
16.5424086
51
46.8933463
0
ARC
8
DEFAULT_255_1_234
10
4.5319244
20
124.4432861
40
0.564021
50
5.4072051
51
17.0365086
0
ARC
8
DEFAULT_255_1_234
10
4.3880261
20
124.4201679
40
0.5556559
50
7.8891745
51
15.9239216
0
ARC
8
DEFAULT_255_1_234
10
4.5867274
20
124.4778631
40
0.3487515
50
15.7653144
51
27.9410532
0
ARC
8
DEFAULT_255_1_234
10
4.6971492
20
124.536979
40
0.2235026
50
27.8166557
51
46.4008329
0
ARC
8
DEFAULT_255_1_234
10
4.7021135
20
124.5364082
40
0.2205286
50
47.4371857
51
75.0698205
0
ARC
8
DEFAULT_255_1_234
10
4.6712529
20
124.4289765
40
0.3322915
50
74.7008593
51
87.8124495
0
ARC
8
DEFAULT_255_1_234
10
4.6639217
20
124.3233844
40
0.4380987
50
87.3814673
51
90.0240855
0
ARC
8
DEFAULT_255_1_234
10
4.660076
20
124.4411291
40
0.3203749
50
89.3451631
51
108.5745436
0
ARC
8
DEFAULT_255_1_234
10
4.6463865
20
124.4924908
40
0.2673494
50
109.2998449
51
143.3037509
0
ARC
8
DEFAULT_255_1_234
10
4.7225938
20
124.4338881
40
0.3634757
50
143.0753173
51
163.1916937
0
ARC
8
DEFAULT_255_1_234
10
4.9177666
20
124.3722967
40
0.5681262
50
162.9373603
51
174.6208611
0
ARC
8
DEFAULT_255_1_234
10
5.1803708
20
124.343501
40
0.8322832
50
174.3419979
51
180.1430411
0
ARC
8
DEFAULT_255_1_234
10
5.0872864
20
124.2240698
40
0.7392076
50
179.6817502
51
189.150529
0
ARC
8
DEFAULT_255_1_234
10
4.8372112
20
124.182419
40
0.4856932
50
188.9910863
51
203.5773039
0
ARC
8
DEFAULT_255_1_234
10
4.7292445
20
124.1376211
40
0.3688271
50
203.9077269
51
215.1312379
0
ARC
8
DEFAULT_255_1_234
10
4.6369539
20
124.0660941
40
0.2522457
50
213.9071664
51
263.8849284
0
ARC
8
DEFAULT_255_1_234
10
4.6494868
20
124.1445518
40
0.3316174
50
263.1758525
51
270.1031083
0
ARC
8
DEFAULT_255_1_234
10
4.652696
20
124.2692365
40
0.4563091
50
269.6719807
51
279.0609165
0
ARC
8
DEFAULT_255_1_234
10
4.6793728
20
124.1079907
40
0.2928759
50
278.8750225
51
293.6346586
0
ARC
8
DEFAULT_255_1_234
10
4.7113936
20
124.03279
40
0.2111472
50
293.8553404
51
310.0518804
0
ARC
8
DEFAULT_255_1_234
10
4.711879
20
124.0265516
40
0.2060917
50
311.0646779
51
332.0108348
0
ARC
8
DEFAULT_255_1_234
10
4.5926517
20
124.0922978
40
0.3422352
50
331.6588543
51
343.2878891
0
ARC
8
DEFAULT_255_1_234
10
4.3864032
20
124.1556798
40
0.5580003
50
343.1446044
51
351.010618
0
ARC
8
DEFAULT_255_1_234
10
4.2322678
20
124.1837871
40
0.7146438
50
350.7157277
51
351.1602153
0
LINE
8
DEFAULT_255_1_234
10
6.2026186
20
124.8723211
11
6.2026186
21
123.7029
0
LINE
8
DEFAULT_255_1_234
10
6.2026186
20
123.7029
11
6.0476061
21
123.7029
0
LINE
8
DEFAULT_255_1_234
10
6.0476061
20
123.7029
11
6.0476061
21
124.243436
0
LINE
8
DEFAULT_255_1_234
10
6.0476061
20
124.243436
11
5.4580765
21
124.243436
0
LINE
8
DEFAULT_255_1_234
10
5.4580765
20
124.243436
11
5.4580765
21
123.7029
0
LINE
8
DEFAULT_255_1_234
10
5.4580765
20
123.7029
11
5.3038671
21
123.7029
0
LINE
8
DEFAULT_255_1_234
10
5.3038671
20
123.7029
11
5.3038671
21
124.8723211
0
LINE
8
DEFAULT_255_1_234
10
5.3038671
20
124.8723211
11
5.4580765
21
124.8723211
0
LINE
8
DEFAULT_255_1_234
10
5.4580765
20
124.8723211
11
5.4580765
21
124.3695343
0
LINE
8
DEFAULT_255_1_234
10
5.4580765
20
124.3695343
11
6.0476061
21
124.3695343
0
LINE
8
DEFAULT_255_1_234
10
6.0476061
20
124.3695343
11
6.0476061
21
124.8723211
0
LINE
8
DEFAULT_255_1_234
10
6.0476061
20
124.8723211
11
6.2026186
21
124.8723211
0
LINE
8
DEFAULT_255_1_234
10
6.9262782
20
124.8779433
11
6.9262782
21
123.7029
0
LINE
8
DEFAULT_255_1_234
10
6.9262782
20
123.7029
11
6.7768879
21
123.7029
0
LINE
8
DEFAULT_255_1_234
10
6.7768879
20
123.7029
11
6.7768879
21
124.6932133
0
LINE
8
DEFAULT_255_1_234
10
6.7768879
20
124.6932133
11
6.4773041
21
124.5831785
0
LINE
8
DEFAULT_255_1_234
10
6.4773041
20
124.5831785
11
6.4773041
21
124.7181117
0
LINE
8
DEFAULT_255_1_234
10
6.4773041
20
124.7181117
11
6.9029862
21
124.8779433
0
LINE
8
DEFAULT_255_1_234
10
6.9029862
20
124.8779433
11
6.9262782
21
124.8779433
0
LINE
8
DEFAULT_255_1_234
10
7.8025409
20
124.6715276
11
7.8025409
21
124.3301788
0
LINE
8
DEFAULT_255_1_234
10
7.8025409
20
124.3301788
11
8.1286294
21
124.3301788
0
LINE
8
DEFAULT_255_1_234
10
8.1286294
20
124.3301788
11
8.1286294
21
124.1896233
0
LINE
8
DEFAULT_255_1_234
10
8.1286294
20
124.1896233
11
7.8025409
21
124.1896233
0
LINE
8
DEFAULT_255_1_234
10
7.8025409
20
124.1896233
11
7.8025409
21
123.8201634
0
LINE
8
DEFAULT_255_1_234
10
7.8025409
20
123.8201634
11
7.6531505
21
123.8201634
0
LINE
8
DEFAULT_255_1_234
10
7.6531505
20
123.8201634
11
7.6531505
21
124.1896233
0
LINE
8
DEFAULT_255_1_234
10
7.6531505
20
124.1896233
11
7.327062
21
124.1896233
0
LINE
8
DEFAULT_255_1_234
10
7.327062
20
124.1896233
11
7.327062
21
124.3301788
0
LINE
8
DEFAULT_255_1_234
10
7.327062
20
124.3301788
11
7.6531505
21
124.3301788
0
LINE
8
DEFAULT_255_1_234
10
7.6531505
20
124.3301788
11
7.6531505
21
124.6715276
0
LINE
8
DEFAULT_255_1_234
10
7.6531505
20
124.6715276
11
7.8025409
21
124.6715276
0
LINE
8
DEFAULT_255_1_234
10
19.9962522
20
132.8098211
11
20.3287662
21
131.8452093
0
LINE
8
DEFAULT_255_1_234
10
20.3287662
20
131.8452093
11
20.6628865
21
132.8098211
0
LINE
8
DEFAULT_255_1_234
10
20.6628865
20
132.8098211
11
20.831553
21
132.8098211
0
LINE
8
DEFAULT_255_1_234
10
20.831553
20
132.8098211
11
20.3978391
21
131.6404
0
LINE
8
DEFAULT_255_1_234
10
20.3978391
20
131.6404
11
20.2612996
21
131.6404
0
LINE
8
DEFAULT_255_1_234
10
20.2612996
20
131.6404
11
19.8283889
21
132.8098211
0
LINE
8
DEFAULT_255_1_234
10
19.8283889
20
132.8098211
11
19.9962522
21
132.8098211
0
LINE
8
DEFAULT_255_1_234
10
21.8772853
20
132.2612534
11
21.8772853
21
132.1873614
0
LINE
8
DEFAULT_255_1_234
10
20.9367688
20
132.1769201
11
20.9367688
21
132.2612534
0
LINE
8
DEFAULT_255_1_234
10
21.7238791
20
132.1761169
11
21.7238791
21
132.2628597
0
LINE
8
DEFAULT_255_1_234
10
21.090175
20
132.273301
11
21.090175
21
132.1873614
0
ARC
8
DEFAULT_255_1_234
10
21.013088
20
132.1834015
40
0.8642064
50
350.487711
51
0.2625388
0
ARC
8
DEFAULT_255_1_234
10
21.2424121
20
132.1439578
40
0.631518
50
336.0277639
51
350.5787438
0
ARC
8
DEFAULT_255_1_234
10
21.3768944
20
132.0831892
40
0.4839466
50
319.8877444
51
336.1328423
0
ARC
8
DEFAULT_255_1_234
10
21.4371585
20
132.034958
40
0.4067874
50
302.4806467
51
319.6143626
0
ARC
8
DEFAULT_255_1_234
10
21.4256595
20
132.0571202
40
0.4316636
50
275.8195682
51
302.1884709
0
ARC
8
DEFAULT_255_1_234
10
21.4090229
20
132.1713665
40
0.5470306
50
269.9171439
51
276.3397983
0
ARC
8
DEFAULT_255_1_234
10
21.4045438
20
132.1027681
40
0.4784458
50
252.5219675
51
270.4416499
0
ARC
8
DEFAULT_255_1_234
10
21.3901697
20
132.0488592
40
0.422716
50
237.5352116
51
252.1857531
0
ARC
8
DEFAULT_255_1_234
10
21.3990893
20
132.0602363
40
0.4371052
50
209.063312
51
237.3492538
0
ARC
8
DEFAULT_255_1_234
10
21.4860741
20
132.1148685
40
0.5397041
50
205.1183774
51
209.6470015
0
ARC
8
DEFAULT_255_1_234
10
21.5657778
20
132.148683
40
0.6262326
50
188.7215458
51
204.8240747
0
ARC
8
DEFAULT_255_1_234
10
21.7655306
20
132.1823067
40
0.8287794
50
180.3723947
51
188.9252049
0
ARC
8
DEFAULT_255_1_234
10
21.7628058
20
132.2652402
40
0.8260467
50
169.5253763
51
180.2765336
0
ARC
8
DEFAULT_255_1_234
10
21.5725507
20
132.3002309
40
0.6326007
50
155.8315255
51
169.5089989
0
ARC
8
DEFAULT_255_1_234
10
21.4445008
20
132.3596348
40
0.4914567
50
139.6258461
51
156.0379525
0
ARC
8
DEFAULT_255_1_234
10
21.3855341
20
132.4070799
40
0.4158054
50
122.6416387
51
139.3430715
0
ARC
8
DEFAULT_255_1_234
10
21.3955961
20
132.3887451
40
0.4366739
50
93.0223692
51
122.455762
0
ARC
8
DEFAULT_255_1_234
10
21.4063958
20
132.2922709
40
0.5336137
50
89.975342
51
93.6341897
0
ARC
8
DEFAULT_255_1_234
10
21.4102737
20
132.3321242
40
0.4937738
50
73.746375
51
90.4233405
0
ARC
8
DEFAULT_255_1_234
10
21.4278316
20
132.4001287
40
0.4235786
50
57.662753
51
73.4518111
0
ARC
8
DEFAULT_255_1_234
10
21.4270322
20
132.4022832
40
0.4221899
50
29.1440151
51
57.414694
0
ARC
8
DEFAULT_255_1_234
10
21.3335517
20
132.3439005
40
0.5322966
50
24.0982783
51
29.7323517
0
ARC
8
DEFAULT_255_1_234
10
21.2301792
20
132.3010399
40
0.6441673
50
8.6655297
51
23.8241346
0
ARC
8
DEFAULT_255_1_234
10
21.006753
20
132.2645854
40
0.8705386
50
359.7806941
51
8.8218784
0
ARC
8
DEFAULT_255_1_234
10
20.8920528
20
132.2671345
40
0.8318373
50
359.7055579
51
8.036044
0
ARC
8
DEFAULT_255_1_234
10
21.1920534
20
132.3108239
40
0.5286768
50
7.8928306
51
20.2962107
0
ARC
8
DEFAULT_255_1_234
10
21.3548105
20
132.3708395
40
0.3552073
50
20.3231126
51
36.4992797
0
ARC
8
DEFAULT_255_1_234
10
21.4233651
20
132.4236402
40
0.2686974
50
36.1437156
51
85.6627023
0
ARC
8
DEFAULT_255_1_234
10
21.4071197
20
132.3196221
40
0.373739
50
84.3852322
51
90.0757696
0
ARC
8
DEFAULT_255_1_234
10
21.4028869
20
132.3856839
40
0.3076997
50
89.3038458
51
109.9045693
0
ARC
8
DEFAULT_255_1_234
10
21.393626
20
132.4239062
40
0.2686424
50
110.8228367
51
143.9179474
0
ARC
8
DEFAULT_255_1_234
10
21.486992
20
132.3526236
40
0.3860887
50
143.5289163
51
163.2980757
0
ARC
8
DEFAULT_255_1_234
10
21.6777741
20
132.2926433
40
0.5860659
50
163.0418846
51
174.3140048
0
ARC
8
DEFAULT_255_1_234
10
21.9181853
20
132.2648854
40
0.8280531
50
174.0509143
51
179.4176892
0
ARC
8
DEFAULT_255_1_234
10
21.8677592
20
132.1831954
40
0.7775954
50
179.6930361
51
188.7906598
0
ARC
8
DEFAULT_255_1_234
10
21.6014071
20
132.1405935
40
0.5078633
50
188.6331305
51
202.5629587
0
ARC
8
DEFAULT_255_1_234
10
21.4759663
20
132.0901996
40
0.3726913
50
202.8081362
51
216.1193925
0
ARC
8
DEFAULT_255_1_234
10
21.3950233
20
132.0250676
40
0.2689577
50
215.0755913
51
264.6379694
0
ARC
8
DEFAULT_255_1_234
10
21.4077183
20
132.1081513
40
0.3528978
50
263.846392
51
270.0833719
0
ARC
8
DEFAULT_255_1_234
10
21.4118573
20
132.0823374
40
0.3271036
50
269.3649385
51
287.5152008
0
ARC
8
DEFAULT_255_1_234
10
21.4296731
20
132.0176238
40
0.2600406
50
288.0630309
51
323.8113348
0
ARC
8
DEFAULT_255_1_234
10
21.3425573
20
132.0826049
40
0.3687189
50
323.6547608
51
342.6590488
0
ARC
8
DEFAULT_255_1_234
10
21.1394188
20
132.1486952
40
0.5823286
50
342.4091907
51
353.6451149
0
ARC
8
DEFAULT_255_1_234
10
20.8562699
20
132.183919
40
0.8676442
50
353.4029884
51
359.4847795
0
LINE
8
DEFAULT_255_1_234
10
22.77684
20
132.8098211
11
22.9318525
21
132.8098211
0
LINE
8
DEFAULT_255_1_234
10
22.9318525
20
132.8098211
11
22.9318525
21
132.014679
0
LINE
8
DEFAULT_255_1_234
10
22.5479354
20
131.6259429
11
22.5069736
21
131.6243365
0
LINE
8
DEFAULT_255_1_234
10
22.0853073
20
132.0130727
11
22.0853073
21
132.8098211
0
LINE
8
DEFAULT_255_1_234
10
22.0853073
20
132.8098211
11
22.2379104
21
132.8098211
0
LINE
8
DEFAULT_255_1_234
10
22.2379104
20
132.8098211
11
22.2379104
21
132.0178917
0
LINE
8
DEFAULT_255_1_234
10
22.77684
20
132.0170885
11
22.77684
21
132.8098211
0
ARC
8
DEFAULT_255_1_234
10
22.4965424
20
132.0126928
40
0.4353147
50
343.0898354
51
0.2614217
0
ARC
8
DEFAULT_255_1_234
10
22.5793825
20
131.9895837
40
0.3493402
50
315.3345598
51
342.7641223
0
ARC
8
DEFAULT_255_1_234
10
22.5570274
20
132.0127682
40
0.3815385
50
284.6606969
51
315.2182466
0
ARC
8
DEFAULT_255_1_234
10
22.5114987
20
132.1673755
40
0.5426573
50
273.8500273
51
285.1797701
0
ARC
8
DEFAULT_255_1_234
10
22.5027037
20
132.2015475
40
0.5772268
50
257.6317484
51
270.4238298
0
ARC
8
DEFAULT_255_1_234
10
22.4602235
20
132.0194198
40
0.3902347
50
230.6087562
51
257.9964012
0
ARC
8
DEFAULT_255_1_234
10
22.4470238
20
131.9987802
40
0.3659186
50
227.7440991
51
230.1551448
0
ARC
8
DEFAULT_255_1_234
10
22.4336069
20
131.9826471
40
0.3449568
50
189.2524587
51
227.5916061
0
ARC
8
DEFAULT_255_1_234
10
22.5857756
20
132.0154013
40
0.5004737
50
180.2665968
51
190.1525252
0
ARC
8
DEFAULT_255_1_234
10
22.6079775
20
132.0150918
40
0.3700778
50
179.5665184
51
191.9952995
0
ARC
8
DEFAULT_255_1_234
10
22.4851882
20
131.9877043
40
0.2442808
50
191.6974072
51
215.1404042
0
ARC
8
DEFAULT_255_1_234
10
22.4613797
20
131.9735108
40
0.2166522
50
215.6950207
51
224.8513522
0
ARC
8
DEFAULT_255_1_234
10
22.466954
20
131.9814697
40
0.2262237
50
225.2846858
51
255.0111758
0
ARC
8
DEFAULT_255_1_234
10
22.49935
20
132.0928455
40
0.3421979
50
254.5944985
51
267.9129803
0
ARC
8
DEFAULT_255_1_234
10
22.5067981
20
132.2012903
40
0.4508556
50
267.4689655
51
270.0223026
0
ARC
8
DEFAULT_255_1_234
10
22.5098126
20
132.1423849
40
0.3919604
50
269.5849941
51
281.1843768
0
ARC
8
DEFAULT_255_1_234
10
22.5376891
20
132.0071059
40
0.2538457
50
280.9344262
51
300.9743589
0
ARC
8
DEFAULT_255_1_234
10
22.5589496
20
131.9679688
40
0.2093566
50
301.4980046
51
315.1466847
0
ARC
8
DEFAULT_255_1_234
10
22.5445035
20
131.9798236
40
0.2279656
50
315.5952539
51
345.6678731
0
ARC
8
DEFAULT_255_1_234
10
22.4325551
20
132.0110009
40
0.3441564
50
345.2524969
51
358.6304371
0
ARC
8
DEFAULT_255_1_234
10
22.3307905
20
132.0169916
40
0.4460494
50
358.1735671
51
0.0124524
0
LINE
8
DEFAULT_255_1_234
10
23.9832071
20
132.8098211
11
23.9832071
21
132.6829196
0
LINE
8
DEFAULT_255_1_234
10
23.9832071
20
132.6829196
11
23.6073217
21
132.6829196
0
LINE
8
DEFAULT_255_1_234
10
23.6073217
20
132.6829196
11
23.6073217
21
131.6404
0
LINE
8
DEFAULT_255_1_234
10
23.6073217
20
131.6404
11
23.4539155
21
131.6404
0
LINE
8
DEFAULT_255_1_234
10
23.4539155
20
131.6404
11
23.4539155
21
132.6829196
0
LINE
8
DEFAULT_255_1_234
10
23.4539155
20
132.6829196
11
23.0788333
21
132.6829196
0
LINE
8
DEFAULT_255_1_234
10
23.0788333
20
132.6829196
11
23.0788333
21
132.8098211
0
LINE
8
DEFAULT_255_1_234
10
23.0788333
20
132.8098211
11
23.9832071
21
132.8098211
0
ENDSEC
0
EOF