0
SECTION
2
HEADER
9
$MEASUREMENT
70
1
0
ENDSEC
0
SECTION
2
TABLES
0
TABLE
2
LTYPE
0
LTYPE
72
65
70
64
2
CONTINUOUS
3
______
73
0
40
0
0
ENDTAB
0
TABLE
2
LAYER
0
LAYER
2
DEFAULT_255_2_778
70
0
62
255
6
CONTINUOUS
0
LAYER
2
DEFAULT_255_1_604
70
0
62
255
6
CONTINUOUS
0
LAYER
2
DEFAULT_255_1_234
70
0
62
255
6
CONTINUOUS
0
ENDTAB
0
ENDSEC
0
SECTION
2
ENTITIES
0
ARC
8
DEFAULT_255_2_778
10
3.5700693
20
171.0552017
40
0.7914215
50
129.1312896
51
180.1450914
0
ARC
8
DEFAULT_255_2_778
10
3.5703345
20
171.0556888
40
0.7912112
50
89.854026
51
129.1684493
0
ARC
8
DEFAULT_255_2_778
10
25.7993937
20
171.0553754
40
0.7915249
50
39.4792447
51
90.147911
0
ARC
8
DEFAULT_255_2_778
10
25.7999935
20
171.055222
40
0.7911595
50
359.8533901
51
39.5154338
0
ARC
8
DEFAULT_255_2_778
10
25.7996693
20
-1.9863506
40
0.7914836
50
309.4761667
51
0.1482649
0
ARC
8
DEFAULT_255_2_778
10
25.799398
20
-1.9867816
40
0.7913235
50
269.8517415
51
309.511178
0
ARC
8
DEFAULT_255_2_778
10
3.570342
20
-1.9867235
40
0.7913815
50
219.1282118
51
270.1454017
0
ARC
8
DEFAULT_255_2_778
10
3.5700247
20
-1.986341
40
0.7913769
50
179.8524075
51
219.1641908
0
LINE
8
DEFAULT_255_2_778
10
3.5723503
20
171.8468976
11
25.7973503
21
171.8468976
0
LINE
8
DEFAULT_255_2_778
10
26.5911503
20
171.0531976
11
26.5911503
21
-1.9843024
0
LINE
8
DEFAULT_255_2_778
10
25.7973503
20
-2.7781024
11
3.5723503
21
-2.7781024
0
LINE
8
DEFAULT_255_2_778
10
2.7786503
20
-1.9843024
11
2.7786503
21
171.0531976
0
LINE
8
DEFAULT_255_1_604
10
10.7768295
20
-0.711
11
10.4468965
21
-0.0960299
0
LINE
8
DEFAULT_255_1_604
10
10.4468965
20
-0.0960299
11
10.0898171
21
-0.0960299
0
LINE
8
DEFAULT_255_1_604
10
10.0898171
20
-0.0960299
11
10.0898171
21
-0.711
0
LINE
8
DEFAULT_255_1_604
10
10.0898171
20
-0.711
11
9.8883074
21
-0.711
0
LINE
8
DEFAULT_255_1_604
10
9.8883074
20
-0.711
11
9.8883074
21
0.8091977
0
LINE
8
DEFAULT_255_1_604
10
9.8883074
20
0.8091977
11
10.3915597
21
0.8091977
0
LINE
8
DEFAULT_255_1_604
10
10.6348331
20
-0.0532222
11
10.9919125
21
-0.6984709
0
LINE
8
DEFAULT_255_1_604
10
10.9919125
20
-0.6984709
11
10.9919125
21
-0.711
0
LINE
8
DEFAULT_255_1_604
10
10.9919125
20
-0.711
11
10.7768295
21
-0.711
0
LINE
8
DEFAULT_255_1_604
10
10.0898171
20
0.6442312
11
10.0898171
21
0.0678925
0
LINE
8
DEFAULT_255_1_604
10
10.0898171
20
0.0678925
11
10.3978242
21
0.0678925
0
LINE
8
DEFAULT_255_1_604
10
10.3967801
20
0.6442312
11
10.0898171
21
0.6442312
0
ARC
8
DEFAULT_255_1_604
10
10.3969751
20
-0.0957306
40
0.9049445
50
80.6534298
51
90.3428782
0
ARC
8
DEFAULT_255_1_604
10
10.4515053
20
0.2243757
40
0.5802347
50
65.6985442
51
80.8330543
0
ARC
8
DEFAULT_255_1_604
10
10.5135957
20
0.3667087
40
0.4249655
50
50.0017241
51
65.4306932
0
ARC
8
DEFAULT_255_1_604
10
10.5419931
20
0.4050758
40
0.3773321
50
11.6284612
51
49.5603452
0
ARC
8
DEFAULT_255_1_604
10
10.3423752
20
0.3563057
40
0.582732
50
359.5653823
51
12.369169
0
ARC
8
DEFAULT_255_1_604
10
10.482351
20
0.3481591
40
0.4427552
50
341.9982919
51
0.4822194
0
ARC
8
DEFAULT_255_1_604
10
10.5336778
20
0.3342279
40
0.3896446
50
323.8608663
51
341.6140542
0
ARC
8
DEFAULT_255_1_604
10
10.4944501
20
0.3645195
40
0.4391908
50
296.7018753
51
323.6875271
0
ARC
8
DEFAULT_255_1_604
10
10.4371256
20
0.4670173
40
0.5565405
50
290.808375
51
297.2324914
0
ARC
8
DEFAULT_255_1_604
10
10.4011694
20
0.5350525
40
0.467172
50
269.5897295
51
281.8058768
0
ARC
8
DEFAULT_255_1_604
10
10.4337866
20
0.3858688
40
0.3144739
50
281.5499349
51
303.935729
0
ARC
8
DEFAULT_255_1_604
10
10.4516506
20
0.3549133
40
0.2788292
50
304.4412701
51
311.2116295
0
ARC
8
DEFAULT_255_1_604
10
10.468793
20
0.3368478
40
0.2539468
50
310.987447
51
356.2715628
0
ARC
8
DEFAULT_255_1_604
10
10.3704494
20
0.3515074
40
0.3531316
50
354.9355631
51
0.0613455
0
ARC
8
DEFAULT_255_1_604
10
10.3461509
20
0.3550218
40
0.377443
50
359.5238974
51
12.8810874
0
ARC
8
DEFAULT_255_1_604
10
10.473221
20
0.3861279
40
0.2466444
50
12.4174629
51
43.1021461
0
ARC
8
DEFAULT_255_1_604
10
10.4812023
20
0.3909061
40
0.2375601
50
43.5760474
51
48.2039879
0
ARC
8
DEFAULT_255_1_604
10
10.4591941
20
0.3621524
40
0.2736785
50
48.7810032
51
72.6968122
0
ARC
8
DEFAULT_255_1_604
10
10.4131309
20
0.2223606
40
0.4208513
50
72.3699971
51
84.8793256
0
ARC
8
DEFAULT_255_1_604
10
10.3939527
20
0.0479341
40
0.5963037
50
84.5398091
51
89.728323
0
LINE
8
DEFAULT_255_1_604
10
11.6267203
20
-0.711
11
11.2059513
21
-0.711
0
LINE
8
DEFAULT_255_1_604
10
11.2059513
20
-0.711
11
11.2059513
21
0.8091977
0
LINE
8
DEFAULT_255_1_604
10
11.2059513
20
0.8091977
11
11.635073
21
0.8091977
0
LINE
8
DEFAULT_255_1_604
10
12.3053799
20
0.1002593
11
12.3053799
21
0.0031588
0
LINE
8
DEFAULT_255_1_604
10
11.6402935
20
0.6442312
11
11.4064169
21
0.6442312
0
LINE
8
DEFAULT_255_1_604
10
11.4064169
20
0.6442312
11
11.4064169
21
-0.5470776
0
LINE
8
DEFAULT_255_1_604
10
11.4064169
20
-0.5470776
11
11.6173234
21
-0.5470776
0
LINE
8
DEFAULT_255_1_604
10
12.1070025
20
0.0073352
11
12.1070025
21
0.096083
0
ARC
8
DEFAULT_255_1_604
10
11.6401351
20
0.0467318
40
0.7624827
50
75.4100774
51
90.3803846
0
ARC
8
DEFAULT_255_1_604
10
11.6699713
20
0.1710839
40
0.6346294
50
60.1456505
51
75.1888808
0
ARC
8
DEFAULT_255_1_604
10
11.6906106
20
0.2070547
40
0.5931579
50
26.5254235
51
60.1450903
0
ARC
8
DEFAULT_255_1_604
10
11.5449947
20
0.1298364
40
0.757942
50
7.4029017
51
26.832236
0
ARC
8
DEFAULT_255_1_604
10
11.3377307
20
0.097549
40
0.967653
50
0.1604823
51
7.717504
0
ARC
8
DEFAULT_255_1_604
10
11.3590449
20
-0.001818
40
0.9463482
50
348.7290162
51
0.3013178
0
ARC
8
DEFAULT_255_1_604
10
11.5743762
20
-0.0445929
40
0.7268094
50
333.0706801
51
348.7182579
0
ARC
8
DEFAULT_255_1_604
10
11.7000497
20
-0.1128487
40
0.583864
50
299.2531206
51
333.4571395
0
ARC
8
DEFAULT_255_1_604
10
11.6531379
20
-0.0237358
40
0.6845416
50
278.1072459
51
299.0340304
0
ARC
8
DEFAULT_255_1_604
10
11.6198686
20
0.1722393
40
0.8832658
50
270.4444611
51
278.4509945
0
ARC
8
DEFAULT_255_1_604
10
11.6225783
20
0.0514535
40
0.5985542
50
269.4969829
51
284.020426
0
ARC
8
DEFAULT_255_1_604
10
11.6687652
20
-0.1260224
40
0.4151796
50
283.7700501
51
318.1556027
0
ARC
8
DEFAULT_255_1_604
10
11.6249223
20
-0.0932109
40
0.4697543
50
318.7416475
51
343.6872757
0
ARC
8
DEFAULT_255_1_604
10
11.3904012
20
-0.0199609
40
0.7154224
50
343.3325746
51
355.8546968
0
ARC
8
DEFAULT_255_1_604
10
11.1175442
20
0.005971
40
0.9894591
50
355.4991336
51
0.0789924
0
ARC
8
DEFAULT_255_1_604
10
11.2193848
20
0.1015758
40
0.8876346
50
359.6454412
51
9.8607665
0
ARC
8
DEFAULT_255_1_604
10
11.5262586
20
0.1569934
40
0.5758076
50
9.657244
51
26.1932279
0
ARC
8
DEFAULT_255_1_604
10
11.6469026
20
0.2130282
40
0.4428288
50
26.5777141
51
40.1534131
0
ARC
8
DEFAULT_255_1_604
10
11.6801406
20
0.2389604
40
0.4007056
50
40.3839847
51
80.1431575
0
ARC
8
DEFAULT_255_1_604
10
11.6376482
20
0.0505702
40
0.5936668
50
79.2151462
51
89.7447056
0
LINE
8
DEFAULT_255_1_604
10
13.2816058
20
0.8102417
11
13.3160608
21
0.8102417
0
LINE
8
DEFAULT_255_1_604
10
13.3160608
20
0.8102417
11
13.3160608
21
0.6463193
0
LINE
8
DEFAULT_255_1_604
10
13.3160608
20
0.6463193
11
13.2805617
21
0.6463193
0
LINE
8
DEFAULT_255_1_604
10
12.5695352
20
-0.1325731
11
12.5695352
21
-0.0584426
0
LINE
8
DEFAULT_255_1_604
10
12.7637362
20
-0.0835008
11
12.7637362
21
-0.1544991
0
ARC
8
DEFAULT_255_1_604
10
13.2873665
20
-0.0033766
40
0.6497316
50
90.6000832
51
104.5146297
0
ARC
8
DEFAULT_255_1_604
10
13.2368648
20
0.1844298
40
0.4552658
50
104.2855267
51
133.8630714
0
ARC
8
DEFAULT_255_1_604
10
13.2581529
20
0.1703494
40
0.4802017
50
134.5302776
51
161.6211184
0
ARC
8
DEFAULT_255_1_604
10
13.4730749
20
0.0945661
40
0.7080677
50
161.2850611
51
174.2074729
0
ARC
8
DEFAULT_255_1_604
10
13.6567679
20
0.0692552
40
0.893402
50
173.7814907
51
174.9248506
0
ARC
8
DEFAULT_255_1_604
10
13.0644545
20
-0.1104414
40
0.3943324
50
95.8331611
51
138.9954585
0
ARC
8
DEFAULT_255_1_604
10
13.0934891
20
-0.2766672
40
0.5627761
50
89.8753659
51
97.0539913
0
ARC
8
DEFAULT_255_1_604
10
13.0996596
20
-0.1680401
40
0.4541748
50
71.6407637
51
90.624006
0
ARC
8
DEFAULT_255_1_604
10
13.1192339
20
-0.0959793
40
0.3796388
50
39.6367886
51
71.0190541
0
ARC
8
DEFAULT_255_1_604
10
13.036487
20
-0.1674887
40
0.4889851
50
10.6587975
51
39.9044015
0
ARC
8
DEFAULT_255_1_604
10
12.8352584
20
-0.2112093
40
0.694852
50
359.6827733
51
11.1326812
0
ARC
8
DEFAULT_255_1_604
10
12.8300908
20
-0.2203951
40
0.7000292
50
347.2485661
51
0.4369619
0
ARC
8
DEFAULT_255_1_604
10
13.0468488
20
-0.2725498
40
0.4771152
50
318.1408756
51
347.611859
0
ARC
8
DEFAULT_255_1_604
10
13.0890948
20
-0.3072711
40
0.4224878
50
275.634222
51
317.8247771
0
ARC
8
DEFAULT_255_1_604
10
13.0603804
20
-0.1383352
40
0.5935479
50
269.8874263
51
276.7917079
0
ARC
8
DEFAULT_255_1_604
10
13.0532393
20
-0.2716496
40
0.4602711
50
246.9139864
51
270.7437966
0
ARC
8
DEFAULT_255_1_604
10
13.0540739
20
-0.2901489
40
0.4436529
50
218.1667392
51
245.8779694
0
ARC
8
DEFAULT_255_1_604
10
13.1683979
20
-0.1944908
40
0.5926658
50
191.4115405
51
218.6076887
0
ARC
8
DEFAULT_255_1_604
10
13.4203291
20
-0.1380025
40
0.8508112
50
179.6343721
51
191.78367
0
ARC
8
DEFAULT_255_1_604
10
14.1460247
20
-0.0497524
40
1.5765135
50
171.4524999
51
180.3158318
0
ARC
8
DEFAULT_255_1_604
10
13.5746591
20
0.0391588
40
0.9982837
50
157.9802049
51
171.6248009
0
ARC
8
DEFAULT_255_1_604
10
13.286868
20
0.1539149
40
0.6884621
50
141.4298684
51
157.8540769
0
ARC
8
DEFAULT_255_1_604
10
13.2034484
20
0.2129305
40
0.5864756
50
102.8715332
51
140.8565167
0
ARC
8
DEFAULT_255_1_604
10
13.2876349
20
-0.1042311
40
0.9144928
50
90.3777448
51
103.5869442
0
ARC
8
DEFAULT_255_1_604
10
13.0616749
20
-0.1828615
40
0.3081798
50
89.8751467
51
126.2073013
0
ARC
8
DEFAULT_255_1_604
10
13.0676228
20
-0.2029334
40
0.3279651
50
124.9742745
51
144.8960214
0
ARC
8
DEFAULT_255_1_604
10
13.0447734
20
-0.184315
40
0.2985723
50
145.2974858
51
160.2659776
0
ARC
8
DEFAULT_255_1_604
10
13.4441829
20
-0.1586401
40
0.6804593
50
179.651315
51
190.285586
0
ARC
8
DEFAULT_255_1_604
10
13.2239891
20
-0.2001457
40
0.4563955
50
190.0945246
51
207.5100169
0
ARC
8
DEFAULT_255_1_604
10
13.150442
20
-0.2351396
40
0.3750121
50
207.9583664
51
216.3254093
0
ARC
8
DEFAULT_255_1_604
10
13.1062682
20
-0.2714703
40
0.3179167
50
215.7661473
51
232.5456418
0
ARC
8
DEFAULT_255_1_604
10
13.0564774
20
-0.3347288
40
0.2374228
50
232.8006051
51
270.6604754
0
ARC
8
DEFAULT_255_1_604
10
13.0624192
20
-0.2874029
40
0.2847509
50
269.3550916
51
288.4747303
0
ARC
8
DEFAULT_255_1_604
10
13.0744943
20
-0.3328272
40
0.2378594
50
289.1833058
51
322.9683803
0
ARC
8
DEFAULT_255_1_604
10
12.9950106
20
-0.2701365
40
0.3390743
50
322.6005668
51
346.5184776
0
ARC
8
DEFAULT_255_1_604
10
12.8445328
20
-0.2317543
40
0.494359
50
346.2584658
51
358.7740518
0
ARC
8
DEFAULT_255_1_604
10
12.7117036
20
-0.2245515
40
0.6273272
50
358.3759058
51
0.0089746
0
ARC
8
DEFAULT_255_1_604
10
12.8104852
20
-0.2209583
40
0.5285572
50
359.6211517
51
11.2840036
0
ARC
8
DEFAULT_255_1_604
10
12.9764905
20
-0.1863297
40
0.358988
50
11.0483326
51
31.8145783
0
ARC
8
DEFAULT_255_1_604
10
13.0166859
20
-0.1645366
40
0.3133542
50
32.3029694
51
38.0825427
0
ARC
8
DEFAULT_255_1_604
10
13.0713515
20
-0.1150129
40
0.2398374
50
36.8249897
51
85.7415937
0
ARC
8
DEFAULT_255_1_604
10
13.0626222
20
-0.180008
40
0.3053257
50
85.0136622
51
90.0517472
0
LINE
8
DEFAULT_255_1_604
10
14.7548193
20
-0.5533421
11
14.7548193
21
-0.711
0
LINE
8
DEFAULT_255_1_604
10
14.7548193
20
-0.711
11
13.7587557
21
-0.711
0
LINE
8
DEFAULT_255_1_604
10
13.7587557
20
-0.711
11
13.7587557
21
-0.5721358
0
LINE
8
DEFAULT_255_1_604
10
13.7587557
20
-0.5721358
11
14.284978
21
0.0125556
0
LINE
8
DEFAULT_255_1_604
10
13.9226781
20
0.3612823
11
13.7295211
21
0.3612823
0
LINE
8
DEFAULT_255_1_604
10
14.398784
20
-0.1116913
11
13.9915882
21
-0.5533421
0
LINE
8
DEFAULT_255_1_604
10
13.9915882
20
-0.5533421
11
14.7548193
21
-0.5533421
0
ARC
8
DEFAULT_255_1_604
10
12.5312915
20
1.5633624
40
2.3410292
50
318.513271
51
320.7828357
0
ARC
8
DEFAULT_255_1_604
10
13.2184927
20
1.0040368
40
1.4549769
50
320.7375321
51
323.9736753
0
ARC
8
DEFAULT_255_1_604
10
13.7281118
20
0.6347972
40
0.8256542
50
323.8963242
51
328.6419085
0
ARC
8
DEFAULT_255_1_604
10
13.9944501
20
0.4705351
40
0.5127425
50
328.8285352
51
331.7901522
0
ARC
8
DEFAULT_255_1_604
10
14.1238412
20
0.4037794
40
0.367172
50
331.4254946
51
352.9365149
0
ARC
8
DEFAULT_255_1_604
10
14.1415782
20
0.3998103
40
0.349086
50
353.2250252
51
0.0169584
0
ARC
8
DEFAULT_255_1_604
10
14.1688783
20
0.4027986
40
0.3217987
50
359.4863351
51
15.9342296
0
ARC
8
DEFAULT_255_1_604
10
14.2347748
20
0.4205207
40
0.2535708
50
16.1714081
51
43.5285108
0
ARC
8
DEFAULT_255_1_604
10
14.2448238
20
0.4305668
40
0.2393664
50
43.4416531
51
83.1662234
0
ARC
8
DEFAULT_255_1_604
10
14.2273934
20
0.3347793
40
0.3365994
50
82.1603671
51
90.1505737
0
ARC
8
DEFAULT_255_1_604
10
14.2232881
20
0.2649952
40
0.4063951
50
89.5459142
51
102.5418751
0
ARC
8
DEFAULT_255_1_604
10
14.1917109
20
0.398991
40
0.2687452
50
102.1738823
51
129.2062395
0
ARC
8
DEFAULT_255_1_604
10
14.1814596
20
0.4151571
40
0.249749
50
129.7282356
51
135.7542178
0
ARC
8
DEFAULT_255_1_604
10
14.1972485
20
0.4025499
40
0.2698631
50
136.1757281
51
166.3675485
0
ARC
8
DEFAULT_255_1_604
10
14.3281374
20
0.3674683
40
0.4053462
50
165.9090448
51
178.8683608
0
ARC
8
DEFAULT_255_1_604
10
14.4405679
20
0.3613653
40
0.5178896
50
178.438946
51
180.0091831
0
ARC
8
DEFAULT_255_1_604
10
14.258401
20
0.3664335
40
0.5289049
50
163.2878723
51
180.558041
0
ARC
8
DEFAULT_255_1_604
10
14.1541733
20
0.3951134
40
0.4208399
50
133.4540582
51
162.9470171
0
ARC
8
DEFAULT_255_1_604
10
14.1773851
20
0.3704313
40
0.4547218
50
100.7870211
51
133.4382382
0
ARC
8
DEFAULT_255_1_604
10
14.2225949
20
0.1690903
40
0.6610008
50
89.6607391
51
101.3702307
0
ARC
8
DEFAULT_255_1_604
10
14.2312161
20
0.1770615
40
0.6530349
50
78.2171576
51
90.4130072
0
ARC
8
DEFAULT_255_1_604
10
14.2773751
20
0.3881972
40
0.4369273
50
55.9267954
51
78.488844
0
ARC
8
DEFAULT_255_1_604
10
14.3028855
20
0.4321913
40
0.3862098
50
47.9296795
51
55.4050352
0
ARC
8
DEFAULT_255_1_604
10
14.316113
20
0.4456369
40
0.3673667
50
4.3348317
51
48.056014
0
ARC
8
DEFAULT_255_1_604
10
14.1737413
20
0.4235553
40
0.5111241
50
359.9247088
51
5.596838
0
ARC
8
DEFAULT_255_1_604
10
14.2294405
20
0.4308594
40
0.4554945
50
337.8914976
51
358.9967003
0
ARC
8
DEFAULT_255_1_604
10
13.8767068
20
0.5669408
40
0.8335352
50
326.9133997
51
338.3506587
0
ARC
8
DEFAULT_255_1_604
10
13.3586219
20
0.8989906
40
1.4488861
50
319.647155
51
327.0960531
0
ARC
8
DEFAULT_255_1_604
10
12.860211
20
1.3101174
40
2.0949336
50
317.2587072
51
319.9045043
0
LINE
8
DEFAULT_255_1_604
10
15.5681668
20
-0.1158677
11
15.2100433
21
-0.1158677
0
LINE
8
DEFAULT_255_1_604
10
15.2100433
20
-0.1158677
11
15.2100433
21
-0.711
0
LINE
8
DEFAULT_255_1_604
10
15.2100433
20
-0.711
11
15.0095777
21
-0.711
0
LINE
8
DEFAULT_255_1_604
10
15.0095777
20
-0.711
11
15.0095777
21
0.8091977
0
LINE
8
DEFAULT_255_1_604
10
15.0095777
20
0.8091977
11
15.570255
21
0.8091977
0
LINE
8
DEFAULT_255_1_604
10
15.2100433
20
0.6442312
11
15.2100433
21
0.0480547
0
LINE
8
DEFAULT_255_1_604
10
15.2100433
20
0.0480547
11
15.570255
21
0.0480547
0
LINE
8
DEFAULT_255_1_604
10
15.58174
20
0.6442312
11
15.2100433
21
0.6442312
0
ARC
8
DEFAULT_255_1_604
10
15.5757311
20
0.0215426
40
0.7876741
50
78.8379181
51
90.3983364
0
ARC
8
DEFAULT_255_1_604
10
15.6298104
20
0.2842298
40
0.5194916
50
58.9632993
51
79.0810081
0
ARC
8
DEFAULT_255_1_604
10
15.6690176
20
0.3570179
40
0.4369272
50
48.0196763
51
58.4473503
0
ARC
8
DEFAULT_255_1_604
10
15.6805616
20
0.3681239
40
0.4209513
50
3.3374908
51
48.1766126
0
ARC
8
DEFAULT_255_1_604
10
15.5205343
20
0.3451021
40
0.5822079
50
359.9483027
51
4.6825437
0
ARC
8
DEFAULT_255_1_604
10
15.5366758
20
0.3395773
40
0.5660881
50
346.187811
51
0.5060212
0
ARC
8
DEFAULT_255_1_604
10
15.7133225
20
0.2937031
40
0.3836049
50
310.8832963
51
346.5425636
0
ARC
8
DEFAULT_255_1_604
10
15.6732099
20
0.3479056
40
0.4508682
50
286.6925476
51
310.2288456
0
ARC
8
DEFAULT_255_1_604
10
15.5992204
20
0.5806216
40
0.6950416
50
274.6850413
51
287.0245368
0
ARC
8
DEFAULT_255_1_604
10
15.5699376
20
0.8677561
40
0.9836252
50
269.8968534
51
275.0189466
0
ARC
8
DEFAULT_255_1_604
10
15.5735217
20
0.5975157
40
0.5494707
50
269.6593667
51
279.4151209
0
ARC
8
DEFAULT_255_1_604
10
15.6069683
20
0.403726
40
0.3528224
50
279.2048717
51
294.9902009
0
ARC
8
DEFAULT_255_1_604
10
15.6447137
20
0.3195342
40
0.2605699
50
295.2884184
51
311.2913347
0
ARC
8
DEFAULT_255_1_604
10
15.6539245
20
0.3058557
40
0.2442233
50
311.7853299
51
347.285981
0
ARC
8
DEFAULT_255_1_604
10
15.5260329
20
0.3387279
40
0.376234
50
346.6891268
51
0.105898
0
ARC
8
DEFAULT_255_1_604
10
15.4335784
20
0.3424543
40
0.4686976
50
359.6294666
51
0.0041938
0
ARC
8
DEFAULT_255_1_604
10
15.5540055
20
0.3457273
40
0.3482858
50
359.4672039
51
15.5933324
0
ARC
8
DEFAULT_255_1_604
10
15.635238
20
0.367675
40
0.2641443
50
15.744312
51
46.6202191
0
ARC
8
DEFAULT_255_1_604
10
15.6160304
20
0.3455403
40
0.2934273
50
46.8628152
51
75.6678312
0
ARC
8
DEFAULT_255_1_604
10
15.5777858
20
0.2078881
40
0.4362728
50
75.2765339
51
88.2914447
0
ARC
8
DEFAULT_255_1_604
10
15.570218
20
0.0937245
40
0.5506271
50
87.8585073
51
88.8009899
0
LINE
8
DEFAULT_255_1_604
10
17.3044915
20
-0.5533421
11
17.3044915
21
-0.711
0
LINE
8
DEFAULT_255_1_604
10
17.3044915
20
-0.711
11
16.3084279
21
-0.711
0
LINE
8
DEFAULT_255_1_604
10
16.3084279
20
-0.711
11
16.3084279
21
-0.5721358
0
LINE
8
DEFAULT_255_1_604
10
16.3084279
20
-0.5721358
11
16.8346501
21
0.0125556
0
LINE
8
DEFAULT_255_1_604
10
16.4723503
20
0.3612823
11
16.2791933
21
0.3612823
0
LINE
8
DEFAULT_255_1_604
10
16.9484562
20
-0.1116913
11
16.5412604
21
-0.5533421
0
LINE
8
DEFAULT_255_1_604
10
16.5412604
20
-0.5533421
11
17.3044915
21
-0.5533421
0
ARC
8
DEFAULT_255_1_604
10
15.0809637
20
1.5633624
40
2.3410292
50
318.513271
51
320.7828357
0
ARC
8
DEFAULT_255_1_604
10
15.7681649
20
1.0040368
40
1.4549769
50
320.7375321
51
323.9736753
0
ARC
8
DEFAULT_255_1_604
10
16.2777839
20
0.6347972
40
0.8256542
50
323.8963242
51
328.6419085
0
ARC
8
DEFAULT_255_1_604
10
16.5441223
20
0.4705351
40
0.5127425
50
328.8285352
51
331.7901522
0
ARC
8
DEFAULT_255_1_604
10
16.6735134
20
0.4037794
40
0.367172
50
331.4254946
51
352.9365149
0
ARC
8
DEFAULT_255_1_604
10
16.6912503
20
0.3998103
40
0.349086
50
353.2250252
51
0.0169584
0
ARC
8
DEFAULT_255_1_604
10
16.7185505
20
0.4027986
40
0.3217987
50
359.4863351
51
15.9342296
0
ARC
8
DEFAULT_255_1_604
10
16.784447
20
0.4205207
40
0.2535708
50
16.1714081
51
43.5285108
0
ARC
8
DEFAULT_255_1_604
10
16.794496
20
0.4305668
40
0.2393664
50
43.4416531
51
83.1662234
0
ARC
8
DEFAULT_255_1_604
10
16.7770656
20
0.3347793
40
0.3365994
50
82.1603671
51
90.1505737
0
ARC
8
DEFAULT_255_1_604
10
16.7729602
20
0.2649952
40
0.4063951
50
89.5459142
51
102.5418751
0
ARC
8
DEFAULT_255_1_604
10
16.7413831
20
0.398991
40
0.2687452
50
102.1738823
51
129.2062395
0
ARC
8
DEFAULT_255_1_604
10
16.7311318
20
0.4151571
40
0.249749
50
129.7282356
51
135.7542178
0
ARC
8
DEFAULT_255_1_604
10
16.7469207
20
0.4025499
40
0.2698631
50
136.1757281
51
166.3675485
0
ARC
8
DEFAULT_255_1_604
10
16.8778096
20
0.3674683
40
0.4053462
50
165.9090448
51
178.8683608
0
ARC
8
DEFAULT_255_1_604
10
16.9902401
20
0.3613653
40
0.5178896
50
178.438946
51
180.0091831
0
ARC
8
DEFAULT_255_1_604
10
16.8080732
20
0.3664335
40
0.5289049
50
163.2878723
51
180.558041
0
ARC
8
DEFAULT_255_1_604
10
16.7038454
20
0.3951134
40
0.4208399
50
133.4540582
51
162.9470171
0
ARC
8
DEFAULT_255_1_604
10
16.7270573
20
0.3704313
40
0.4547218
50
100.7870211
51
133.4382382
0
ARC
8
DEFAULT_255_1_604
10
16.7722671
20
0.1690903
40
0.6610008
50
89.6607391
51
101.3702307
0
ARC
8
DEFAULT_255_1_604
10
16.7808883
20
0.1770615
40
0.6530349
50
78.2171576
51
90.4130072
0
ARC
8
DEFAULT_255_1_604
10
16.8270472
20
0.3881972
40
0.4369273
50
55.9267954
51
78.488844
0
ARC
8
DEFAULT_255_1_604
10
16.8525576
20
0.4321913
40
0.3862098
50
47.9296795
51
55.4050352
0
ARC
8
DEFAULT_255_1_604
10
16.8657852
20
0.4456369
40
0.3673667
50
4.3348317
51
48.056014
0
ARC
8
DEFAULT_255_1_604
10
16.7234134
20
0.4235553
40
0.5111241
50
359.9247088
51
5.596838
0
ARC
8
DEFAULT_255_1_604
10
16.7791126
20
0.4308594
40
0.4554945
50
337.8914976
51
358.9967003
0
ARC
8
DEFAULT_255_1_604
10
16.426379
20
0.5669408
40
0.8335352
50
326.9133997
51
338.3506587
0
ARC
8
DEFAULT_255_1_604
10
15.9082941
20
0.8989906
40
1.4488861
50
319.647155
51
327.0960531
0
ARC
8
DEFAULT_255_1_604
10
15.4098831
20
1.3101174
40
2.0949336
50
317.2587072
51
319.9045043
0
LINE
8
DEFAULT_255_1_604
10
18.4185374
20
0.1555962
11
18.4185374
21
-0.0083262
0
LINE
8
DEFAULT_255_1_604
10
18.4185374
20
-0.0083262
11
17.7597155
21
-0.0083262
0
LINE
8
DEFAULT_255_1_604
10
17.7597155
20
-0.0083262
11
17.7597155
21
-0.5470776
0
LINE
8
DEFAULT_255_1_604
10
17.7597155
20
-0.5470776
11
18.5250348
21
-0.5470776
0
LINE
8
DEFAULT_255_1_604
10
18.5250348
20
-0.5470776
11
18.5250348
21
-0.711
0
LINE
8
DEFAULT_255_1_604
10
18.5250348
20
-0.711
11
17.5592499
21
-0.711
0
LINE
8
DEFAULT_255_1_604
10
17.5592499
20
-0.711
11
17.5592499
21
0.8091977
0
LINE
8
DEFAULT_255_1_604
10
17.5592499
20
0.8091977
11
18.5145938
21
0.8091977
0
LINE
8
DEFAULT_255_1_604
10
18.5145938
20
0.8091977
11
18.5145938
21
0.6442312
0
LINE
8
DEFAULT_255_1_604
10
18.5145938
20
0.6442312
11
17.7597155
21
0.6442312
0
LINE
8
DEFAULT_255_1_604
10
17.7597155
20
0.6442312
11
17.7597155
21
0.1555962
0
LINE
8
DEFAULT_255_1_604
10
17.7597155
20
0.1555962
11
18.4185374
21
0.1555962
0
LINE
8
DEFAULT_255_2_778
10
10.5738396
20
167.8993073
11
9.3932396
21
167.8993073
0
LINE
8
DEFAULT_255_2_778
10
9.3932396
20
167.8993073
11
9.9837396
21
168.9219073
0
LINE
8
DEFAULT_255_2_778
10
9.9837396
20
168.9219073
11
11.1643396
21
168.9219073
0
LINE
8
DEFAULT_255_2_778
10
11.1643396
20
168.9219073
11
10.5738396
21
167.8993073
0
LINE
8
DEFAULT_255_2_778
10
10.5738396
20
167.8993073
11
10.5738396
21
167.8993073
0
LINE
8
DEFAULT_255_2_778
10
11.7546396
20
167.8993073
11
12.9354396
21
167.8993073
0
LINE
8
DEFAULT_255_2_778
10
12.9354396
20
167.8993073
11
12.3451396
21
168.9219073
0
LINE
8
DEFAULT_255_2_778
10
12.3451396
20
168.9219073
11
11.1643396
21
168.9219073
0
LINE
8
DEFAULT_255_2_778
10
11.1643396
20
168.9219073
11
11.7546396
21
167.8993073
0
LINE
8
DEFAULT_255_2_778
10
11.7546396
20
167.8993073
11
11.7546396
21
167.8993073
0
LINE
8
DEFAULT_255_2_778
10
11.7545823
20
169.9445146
11
11.1642823
21
170.9671146
0
LINE
8
DEFAULT_255_2_778
10
11.1642823
20
170.9671146
11
10.5737823
21
169.9445146
0
LINE
8
DEFAULT_255_2_778
10
10.5737823
20
169.9445146
11
11.1642823
21
168.9219146
0
LINE
8
DEFAULT_255_2_778
10
11.1642823
20
168.9219146
11
11.7545823
21
169.9445146
0
LINE
8
DEFAULT_255_2_778
10
11.7545823
20
169.9445146
11
11.7545823
21
169.9445146
0
ARC
8
DEFAULT_255_2_778
10
16.5183731
20
169.5907426
40
0.5650491
50
268.7543645
51
289.1417717
0
ARC
8
DEFAULT_255_2_778
10
16.606208
20
169.3355531
40
0.2951681
50
289.2776255
51
3.7648372
0
ARC
8
DEFAULT_255_2_778
10
16.3901618
20
169.3621085
40
0.5106278
50
359.1949826
51
0.0020862
0
ARC
8
DEFAULT_255_2_778
10
16.547449
20
169.3480832
40
0.1541914
50
280.2616216
51
358.5297855
0
ARC
8
DEFAULT_255_2_778
10
16.5080075
20
169.460655
40
0.2726346
50
269.5969454
51
284.2065679
0
ARC
8
DEFAULT_255_2_778
10
16.4981967
20
169.4450316
40
0.2571258
50
246.5290903
51
271.7590909
0
ARC
8
DEFAULT_255_2_778
10
16.4527148
20
169.3370009
40
0.1399248
50
188.1071678
51
245.9934684
0
ARC
8
DEFAULT_255_2_778
10
16.4829007
20
169.3439617
40
0.1708111
50
179.9445314
51
188.990814
0
ARC
8
DEFAULT_255_2_778
10
16.4924507
20
169.3507849
40
0.3763411
50
178.2272621
51
205.8283807
0
ARC
8
DEFAULT_255_2_778
10
16.4132476
20
169.3330833
40
0.2979176
50
209.4028057
51
263.0375728
0
ARC
8
DEFAULT_255_2_778
10
16.5005111
20
169.7077629
40
0.6816586
50
259.5722942
51
270.4689037
0
ARC
8
DEFAULT_255_2_778
10
17.411252
20
169.7639767
40
0.1217154
50
2.0482843
51
87.015299
0
ARC
8
DEFAULT_255_2_778
10
17.4060617
20
169.7683852
40
0.126828
50
353.0600847
51
359.9737428
0
ARC
8
DEFAULT_255_2_778
10
17.4110442
20
169.7652555
40
0.1215295
50
270.5739762
51
354.2410513
0
ARC
8
DEFAULT_255_2_778
10
17.4065059
20
169.8014297
40
0.1578027
50
269.9941256
51
272.0902921
0
ARC
8
DEFAULT_255_2_778
10
17.414084
20
169.3505295
40
0.1400686
50
358.2807293
51
95.6106825
0
ARC
8
DEFAULT_255_2_778
10
17.4103233
20
169.3466963
40
0.1437669
50
266.9962473
51
359.8528392
0
ARC
8
DEFAULT_255_2_778
10
17.4725249
20
169.3869988
40
0.3335288
50
268.2414507
51
302.0223478
0
ARC
8
DEFAULT_255_2_778
10
17.5091261
20
169.311683
40
0.2504234
50
304.0600275
51
2.0468005
0
ARC
8
DEFAULT_255_2_778
10
17.4832788
20
169.3183521
40
0.2761203
50
0.4720601
51
65.8403529
0
ARC
8
DEFAULT_255_2_778
10
17.5191655
20
169.3831061
40
0.2024466
50
67.606893
51
75.8693222
0
ARC
8
DEFAULT_255_2_778
10
17.5042026
20
169.790722
40
0.2208874
50
286.9473417
51
358.0074963
0
ARC
8
DEFAULT_255_2_778
10
17.4710866
20
169.7995045
40
0.2544031
50
356.2897886
51
0.0050857
0
ARC
8
DEFAULT_255_2_778
10
17.497262
20
169.8045946
40
0.2282839
50
358.7280137
51
81.8073164
0
ARC
8
DEFAULT_255_2_778
10
17.4216369
20
169.5531283
40
0.4895182
50
77.2355086
51
90.5088275
0
ARC
8
DEFAULT_255_2_778
10
17.5842742
20
168.5886263
40
0.130243
50
89.9974494
51
92.6776592
0
ARC
8
DEFAULT_255_2_778
10
17.5843316
20
168.5891872
40
0.129682
50
45.0880141
51
90.022782
0
ARC
8
DEFAULT_255_2_778
10
17.5844118
20
168.589219
40
0.1296029
50
0.001866
51
45.1031959
0
ARC
8
DEFAULT_255_2_778
10
17.5845123
20
168.5892202
40
0.1295026
50
357.4803735
51
0.0013544
0
ARC
8
DEFAULT_255_2_778
10
17.5901979
20
168.5853512
40
0.1237052
50
339.8672523
51
359.1550732
0
ARC
8
DEFAULT_255_2_778
10
17.5794513
20
168.5825079
40
0.1329691
50
272.0853006
51
342.6124646
0
ARC
8
DEFAULT_255_2_778
10
17.6596145
20
168.6207661
40
0.2575135
50
286.787355
51
290.6121696
0
ARC
8
DEFAULT_255_2_778
10
17.6689461
20
168.6064533
40
0.24086
50
289.7330405
51
342.3216972
0
ARC
8
DEFAULT_255_2_778
10
17.641261
20
168.6112954
40
0.268735
50
343.130572
51
0.3905272
0
ARC
8
DEFAULT_255_2_778
10
17.6578783
20
168.6286767
40
0.2525904
50
356.4706028
51
80.1788963
0
ARC
8
DEFAULT_255_2_778
10
17.5921649
20
168.4017163
40
0.4881286
50
77.1212301
51
90.4900821
0
ARC
8
DEFAULT_255_2_778
10
17.5166337
20
168.104036
40
0.1865405
50
50.1507009
51
92.9634648
0
ARC
8
DEFAULT_255_2_778
10
17.5301354
20
168.1323678
40
0.1563319
50
12.621233
51
47.2950617
0
ARC
8
DEFAULT_255_2_778
10
16.8485884
20
167.9994726
40
0.8506657
50
2.8173892
51
11.3253986
0
ARC
8
DEFAULT_255_2_778
10
-29.2295733
20
164.5031175
40
47.060992
50
4.3048394
51
4.3117143
0
ARC
8
DEFAULT_255_2_778
10
18.5500859
20
168.075584
40
0.8523717
50
182.6850102
51
191.2954256
0
ARC
8
DEFAULT_255_2_778
10
17.9656837
20
167.9692399
40
0.2586603
50
193.5512904
51
195.3825538
0
ARC
8
DEFAULT_255_2_778
10
19.3415679
20
168.2268916
40
1.4608773
50
182.5958701
51
192.9049706
0
ARC
8
DEFAULT_255_2_778
10
17.6207606
20
168.1552215
40
0.261487
50
1.2064311
51
30.4123358
0
ARC
8
DEFAULT_255_2_778
10
17.6663626
20
168.170276
40
0.2147766
50
33.1081154
51
71.7312197
0
LINE
8
DEFAULT_255_2_778
10
13.4657897
20
168.3348271
11
13.9385897
21
168.3348271
0
LINE
8
DEFAULT_255_2_778
10
13.9385897
20
168.3348271
11
13.9385897
21
168.5062271
0
LINE
8
DEFAULT_255_2_778
10
13.9385897
20
168.5062271
11
13.4657897
21
168.5062271
0
LINE
8
DEFAULT_255_2_778
10
13.4657897
20
168.5062271
11
13.4657897
21
168.7171271
0
LINE
8
DEFAULT_255_2_778
10
13.4657897
20
168.7171271
11
13.9977897
21
168.7171271
0
LINE
8
DEFAULT_255_2_778
10
13.9977897
20
168.7171271
11
13.9977897
21
168.8885271
0
LINE
8
DEFAULT_255_2_778
10
13.9977897
20
168.8885271
11
13.4657897
21
168.8885271
0
LINE
8
DEFAULT_255_2_778
10
13.4657897
20
168.8885271
11
13.2651897
21
168.8885271
0
LINE
8
DEFAULT_255_2_778
10
13.2651897
20
168.8885271
11
13.2651897
21
168.7171271
0
LINE
8
DEFAULT_255_2_778
10
13.2651897
20
168.7171271
11
13.2651897
21
168.0707271
0
LINE
8
DEFAULT_255_2_778
10
13.2651897
20
168.0707271
11
13.2651897
21
167.8992271
0
LINE
8
DEFAULT_255_2_778
10
13.2651897
20
167.8992271
11
13.4657897
21
167.8992271
0
LINE
8
DEFAULT_255_2_778
10
13.4657897
20
167.8992271
11
14.0118897
21
167.8992271
0
LINE
8
DEFAULT_255_2_778
10
14.0118897
20
167.8992271
11
14.0118897
21
168.0707271
0
LINE
8
DEFAULT_255_2_778
10
14.0118897
20
168.0707271
11
13.4657897
21
168.0707271
0
LINE
8
DEFAULT_255_2_778
10
13.4657897
20
168.0707271
11
13.4657897
21
168.3345271
0
LINE
8
DEFAULT_255_2_778
10
13.4657897
20
168.3345271
11
13.4657897
21
168.3348271
0
LINE
8
DEFAULT_255_2_778
10
13.4519897
20
169.7889271
11
13.6620897
21
169.0536271
0
LINE
8
DEFAULT_255_2_778
10
13.6620897
20
169.0536271
11
13.6704897
21
169.0536271
0
LINE
8
DEFAULT_255_2_778
10
13.6704897
20
169.0536271
11
13.8464897
21
169.0536271
0
LINE
8
DEFAULT_255_2_778
10
13.8464897
20
169.0536271
11
13.8546897
21
169.0536271
0
LINE
8
DEFAULT_255_2_778
10
13.8546897
20
169.0536271
11
14.0647897
21
169.7889271
0
LINE
8
DEFAULT_255_2_778
10
14.0647897
20
169.7889271
11
14.0647897
21
169.0536271
0
LINE
8
DEFAULT_255_2_778
10
14.0647897
20
169.0536271
11
14.2515897
21
169.0536271
0
LINE
8
DEFAULT_255_2_778
10
14.2515897
20
169.0536271
11
14.2515897
21
170.0429271
0
LINE
8
DEFAULT_255_2_778
10
14.2515897
20
170.0429271
11
14.1496897
21
170.0429271
0
LINE
8
DEFAULT_255_2_778
10
14.1496897
20
170.0429271
11
14.0615897
21
170.0429271
0
LINE
8
DEFAULT_255_2_778
10
14.0615897
20
170.0429271
11
13.9655897
21
170.0429271
0
LINE
8
DEFAULT_255_2_778
10
13.9655897
20
170.0429271
11
13.7583897
21
169.3486271
0
LINE
8
DEFAULT_255_2_778
10
13.7583897
20
169.3486271
11
13.5511897
21
170.0429271
0
LINE
8
DEFAULT_255_2_778
10
13.5511897
20
170.0429271
11
13.4551897
21
170.0429271
0
LINE
8
DEFAULT_255_2_778
10
13.4551897
20
170.0429271
11
13.3669897
21
170.0429271
0
LINE
8
DEFAULT_255_2_778
10
13.3669897
20
170.0429271
11
13.2651897
21
170.0429271
0
LINE
8
DEFAULT_255_2_778
10
13.2651897
20
170.0429271
11
13.2651897
21
169.0536271
0
LINE
8
DEFAULT_255_2_778
10
13.2651897
20
169.0536271
11
13.4519897
21
169.0536271
0
LINE
8
DEFAULT_255_2_778
10
13.4519897
20
169.0536271
11
13.4519897
21
169.7889271
0
LINE
8
DEFAULT_255_2_778
10
13.4519897
20
169.7889271
11
13.4519897
21
169.7889271
0
LINE
8
DEFAULT_255_2_778
10
18.0056897
20
170.0429271
11
17.8064897
21
170.0429271
0
LINE
8
DEFAULT_255_2_778
10
17.8064897
20
170.0429271
11
17.8064897
21
169.0536271
0
LINE
8
DEFAULT_255_2_778
10
17.8064897
20
169.0536271
11
18.0056897
21
169.0536271
0
LINE
8
DEFAULT_255_2_778
10
18.0056897
20
169.0536271
11
18.0056897
21
170.0429271
0
LINE
8
DEFAULT_255_2_778
10
18.0056897
20
170.0429271
11
18.0056897
21
170.0429271
0
LINE
8
DEFAULT_255_2_778
10
18.1681897
20
168.8888271
11
17.9689897
21
168.8888271
0
LINE
8
DEFAULT_255_2_778
10
17.9689897
20
168.8888271
11
17.9689897
21
167.8995271
0
LINE
8
DEFAULT_255_2_778
10
17.9689897
20
167.8995271
11
18.1681897
21
167.8995271
0
LINE
8
DEFAULT_255_2_778
10
18.1681897
20
167.8995271
11
18.1681897
21
168.8888271
0
LINE
8
DEFAULT_255_2_778
10
18.1681897
20
168.8888271
11
18.1681897
21
168.8888271
0
LINE
8
DEFAULT_255_2_778
10
19.9765897
20
170.0429271
11
19.7773897
21
170.0429271
0
LINE
8
DEFAULT_255_2_778
10
19.7773897
20
170.0429271
11
19.7773897
21
169.0536271
0
LINE
8
DEFAULT_255_2_778
10
19.7773897
20
169.0536271
11
19.9765897
21
169.0536271
0
LINE
8
DEFAULT_255_2_778
10
19.9765897
20
169.0536271
11
19.9765897
21
170.0429271
0
LINE
8
DEFAULT_255_2_778
10
19.9765897
20
170.0429271
11
19.9765897
21
170.0429271
0
LINE
8
DEFAULT_255_2_778
10
14.5298897
20
170.0429271
11
14.3306897
21
170.0429271
0
LINE
8
DEFAULT_255_2_778
10
14.3306897
20
170.0429271
11
14.3306897
21
169.0536271
0
LINE
8
DEFAULT_255_2_778
10
14.3306897
20
169.0536271
11
14.5298897
21
169.0536271
0
LINE
8
DEFAULT_255_2_778
10
14.5298897
20
169.0536271
11
14.5298897
21
170.0429271
0
LINE
8
DEFAULT_255_2_778
10
14.5298897
20
170.0429271
11
14.5298897
21
170.0429271
0
LINE
8
DEFAULT_255_2_778
10
19.4989897
20
169.6569271
11
19.1029897
21
169.6569271
0
LINE
8
DEFAULT_255_2_778
10
19.1029897
20
169.6569271
11
19.1029897
21
170.0426271
0
LINE
8
DEFAULT_255_2_778
10
19.1029897
20
170.0426271
11
18.9068897
21
170.0426271
0
LINE
8
DEFAULT_255_2_778
10
18.9068897
20
170.0426271
11
18.9068897
21
169.0536271
0
LINE
8
DEFAULT_255_2_778
10
18.9068897
20
169.0536271
11
19.1029897
21
169.0536271
0
LINE
8
DEFAULT_255_2_778
10
19.1029897
20
169.0536271
11
19.1029897
21
169.4854271
0
LINE
8
DEFAULT_255_2_778
10
19.1029897
20
169.4854271
11
19.4989897
21
169.4854271
0
LINE
8
DEFAULT_255_2_778
10
19.4989897
20
169.4854271
11
19.4989897
21
169.0536271
0
LINE
8
DEFAULT_255_2_778
10
19.4989897
20
169.0536271
11
19.6950897
21
169.0536271
0
LINE
8
DEFAULT_255_2_778
10
19.6950897
20
169.0536271
11
19.6950897
21
170.0426271
0
LINE
8
DEFAULT_255_2_778
10
19.6950897
20
170.0426271
11
19.4989897
21
170.0426271
0
LINE
8
DEFAULT_255_2_778
10
19.4989897
20
170.0426271
11
19.4989897
21
169.6569271
0
LINE
8
DEFAULT_255_2_778
10
19.4989897
20
169.6569271
11
19.4989897
21
169.6569271
0
LINE
8
DEFAULT_255_2_778
10
14.8246897
20
169.0536271
11
15.0280897
21
169.0536271
0
LINE
8
DEFAULT_255_2_778
10
15.0280897
20
169.0536271
11
15.0280897
21
169.8715271
0
LINE
8
DEFAULT_255_2_778
10
15.0280897
20
169.8715271
11
15.2696897
21
169.8715271
0
LINE
8
DEFAULT_255_2_778
10
15.2696897
20
169.8715271
11
15.2696897
21
170.0429271
0
LINE
8
DEFAULT_255_2_778
10
15.2696897
20
170.0429271
11
15.0280897
21
170.0429271
0
LINE
8
DEFAULT_255_2_778
10
15.0280897
20
170.0429271
11
14.8246897
21
170.0429271
0
LINE
8
DEFAULT_255_2_778
10
14.8246897
20
170.0429271
11
14.5830897
21
170.0429271
0
LINE
8
DEFAULT_255_2_778
10
14.5830897
20
170.0429271
11
14.5830897
21
169.8715271
0
LINE
8
DEFAULT_255_2_778
10
14.5830897
20
169.8715271
11
14.8246897
21
169.8715271
0
LINE
8
DEFAULT_255_2_778
10
14.8246897
20
169.8715271
11
14.8246897
21
169.0536271
0
LINE
8
DEFAULT_255_2_778
10
14.8246897
20
169.0536271
11
14.8246897
21
169.0536271
0
LINE
8
DEFAULT_255_2_778
10
16.6422897
20
167.8995271
11
16.8454897
21
167.8995271
0
LINE
8
DEFAULT_255_2_778
10
16.8454897
20
167.8995271
11
16.8454897
21
168.7173271
0
LINE
8
DEFAULT_255_2_778
10
16.8454897
20
168.7173271
11
17.0873897
21
168.7173271
0
LINE
8
DEFAULT_255_2_778
10
17.0873897
20
168.7173271
11
17.0873897
21
168.8891271
0
LINE
8
DEFAULT_255_2_778
10
17.0873897
20
168.8891271
11
16.8454897
21
168.8891271
0
LINE
8
DEFAULT_255_2_778
10
16.8454897
20
168.8891271
11
16.6422897
21
168.8891271
0
LINE
8
DEFAULT_255_2_778
10
16.6422897
20
168.8891271
11
16.4004897
21
168.8891271
0
LINE
8
DEFAULT_255_2_778
10
16.4004897
20
168.8891271
11
16.4004897
21
168.7173271
0
LINE
8
DEFAULT_255_2_778
10
16.4004897
20
168.7173271
11
16.6422897
21
168.7173271
0
LINE
8
DEFAULT_255_2_778
10
16.6422897
20
168.7173271
11
16.6422897
21
167.8995271
0
LINE
8
DEFAULT_255_2_778
10
16.6422897
20
167.8995271
11
16.6422897
21
167.8995271
0
LINE
8
DEFAULT_255_2_778
10
16.9007897
20
169.3621271
11
16.9007897
21
170.0426271
0
LINE
8
DEFAULT_255_2_778
10
16.9007897
20
170.0426271
11
16.7015897
21
170.0426271
0
LINE
8
DEFAULT_255_2_778
10
16.7015897
20
170.0426271
11
16.7015897
21
169.3441271
0
LINE
8
DEFAULT_255_2_778
10
16.3120897
20
169.3441271
11
16.3120897
21
170.0426271
0
LINE
8
DEFAULT_255_2_778
10
16.3120897
20
170.0426271
11
16.1162897
21
170.0426271
0
LINE
8
DEFAULT_255_2_778
10
16.1162897
20
170.0426271
11
16.1162897
21
169.3624271
0
LINE
8
DEFAULT_255_2_778
10
15.0000897
20
168.3348271
11
15.4730897
21
168.3348271
0
LINE
8
DEFAULT_255_2_778
10
15.4730897
20
168.3348271
11
15.4730897
21
168.5062271
0
LINE
8
DEFAULT_255_2_778
10
15.4730897
20
168.5062271
11
15.0000897
21
168.5062271
0
LINE
8
DEFAULT_255_2_778
10
15.0000897
20
168.5062271
11
15.0000897
21
168.7171271
0
LINE
8
DEFAULT_255_2_778
10
15.0000897
20
168.7171271
11
15.5320897
21
168.7171271
0
LINE
8
DEFAULT_255_2_778
10
15.5320897
20
168.7171271
11
15.5320897
21
168.8885271
0
LINE
8
DEFAULT_255_2_778
10
15.5320897
20
168.8885271
11
15.0000897
21
168.8885271
0
LINE
8
DEFAULT_255_2_778
10
15.0000897
20
168.8885271
11
14.7997897
21
168.8885271
0
LINE
8
DEFAULT_255_2_778
10
14.7997897
20
168.8885271
11
14.7997897
21
168.7171271
0
LINE
8
DEFAULT_255_2_778
10
14.7997897
20
168.7171271
11
14.7997897
21
168.0707271
0
LINE
8
DEFAULT_255_2_778
10
14.7997897
20
168.0707271
11
14.7997897
21
167.8992271
0
LINE
8
DEFAULT_255_2_778
10
14.7997897
20
167.8992271
11
15.0000897
21
167.8992271
0
LINE
8
DEFAULT_255_2_778
10
15.0000897
20
167.8992271
11
15.5461897
21
167.8992271
0
LINE
8
DEFAULT_255_2_778
10
15.5461897
20
167.8992271
11
15.5461897
21
168.0707271
0
LINE
8
DEFAULT_255_2_778
10
15.5461897
20
168.0707271
11
15.0000897
21
168.0707271
0
LINE
8
DEFAULT_255_2_778
10
15.0000897
20
168.0707271
11
15.0000897
21
168.3345271
0
LINE
8
DEFAULT_255_2_778
10
15.0000897
20
168.3345271
11
15.0000897
21
168.3348271
0
LINE
8
DEFAULT_255_2_778
10
17.4064897
20
169.6436271
11
17.1690897
21
169.6436271
0
LINE
8
DEFAULT_255_2_778
10
17.1690897
20
169.6436271
11
17.1690897
21
169.8852271
0
LINE
8
DEFAULT_255_2_778
10
17.1690897
20
169.8852271
11
17.4175897
21
169.8852271
0
LINE
8
DEFAULT_255_2_778
10
17.4175897
20
169.8852271
11
17.4175897
21
169.8855271
0
LINE
8
DEFAULT_255_2_778
10
17.4027897
20
169.2028271
11
17.1690897
21
169.2028271
0
LINE
8
DEFAULT_255_2_778
10
17.1690897
20
169.2028271
11
17.1690897
21
169.4899271
0
LINE
8
DEFAULT_255_2_778
10
17.1690897
20
169.4899271
11
17.4003897
21
169.4899271
0
LINE
8
DEFAULT_255_2_778
10
17.1767897
20
169.0536271
11
17.4622897
21
169.0536271
0
LINE
8
DEFAULT_255_2_778
10
17.4172897
20
170.0426271
11
17.1770897
21
170.0426271
0
LINE
8
DEFAULT_255_2_778
10
17.1770897
20
170.0426271
11
16.9722897
21
170.0426271
0
LINE
8
DEFAULT_255_2_778
10
16.9722897
20
170.0426271
11
16.9711897
21
170.0426271
0
LINE
8
DEFAULT_255_2_778
10
16.9711897
20
170.0426271
11
16.9711897
21
169.0536271
0
LINE
8
DEFAULT_255_2_778
10
16.9711897
20
169.0536271
11
16.9722897
21
169.0536271
0
LINE
8
DEFAULT_255_2_778
10
16.9722897
20
169.0536271
11
17.1770897
21
169.0536271
0
LINE
8
DEFAULT_255_2_778
10
17.1770897
20
169.0536271
11
17.1767897
21
169.0536271
0
LINE
8
DEFAULT_255_2_778
10
17.3368897
20
168.4493271
11
17.3368897
21
168.7187271
0
LINE
8
DEFAULT_255_2_778
10
17.3368897
20
168.7187271
11
17.5781897
21
168.7187271
0
LINE
8
DEFAULT_255_2_778
10
17.5842897
20
168.4496271
11
17.3370897
21
168.4496271
0
LINE
8
DEFAULT_255_2_778
10
17.3370897
20
168.4496271
11
17.3368897
21
168.4493271
0
LINE
8
DEFAULT_255_2_778
10
17.5879897
20
168.8898271
11
17.3368897
21
168.8898271
0
LINE
8
DEFAULT_255_2_778
10
17.3368897
20
168.8898271
11
17.1383897
21
168.8898271
0
LINE
8
DEFAULT_255_2_778
10
17.1383897
20
168.8898271
11
17.1362897
21
168.8898271
0
LINE
8
DEFAULT_255_2_778
10
17.1362897
20
168.8898271
11
17.1362897
21
167.9006271
0
LINE
8
DEFAULT_255_2_778
10
17.1362897
20
167.9006271
11
17.3368897
21
167.9006271
0
LINE
8
DEFAULT_255_2_778
10
17.3368897
20
167.9006271
11
17.3368897
21
168.2903271
0
LINE
8
DEFAULT_255_2_778
10
17.3368897
20
168.2903271
11
17.5069897
21
168.2903271
0
LINE
8
DEFAULT_255_2_778
10
17.7162897
20
167.9006271
11
17.9175897
21
167.9006271
0
LINE
8
DEFAULT_255_2_778
10
14.2763897
20
168.8888271
11
14.0760897
21
168.8888271
0
LINE
8
DEFAULT_255_2_778
10
14.0760897
20
168.8888271
11
14.0760897
21
168.0710271
0
LINE
8
DEFAULT_255_2_778
10
14.0760897
20
168.0710271
11
14.0760897
21
167.8995271
0
LINE
8
DEFAULT_255_2_778
10
14.0760897
20
167.8995271
11
14.2763897
21
167.8995271
0
LINE
8
DEFAULT_255_2_778
10
14.2763897
20
167.8995271
11
14.7428897
21
167.8995271
0
LINE
8
DEFAULT_255_2_778
10
14.7428897
20
167.8995271
11
14.7428897
21
168.0710271
0
LINE
8
DEFAULT_255_2_778
10
14.7428897
20
168.0710271
11
14.2763897
21
168.0710271
0
LINE
8
DEFAULT_255_2_778
10
14.2763897
20
168.0710271
11
14.2763897
21
168.8888271
0
LINE
8
DEFAULT_255_2_778
10
14.2763897
20
168.8888271
11
14.2763897
21
168.8888271
0
ARC
8
DEFAULT_255_2_778
10
15.4584271
20
168.5146969
40
0.9681224
50
72.4822103
51
81.3184214
0
ARC
8
DEFAULT_255_2_778
10
15.7160297
20
169.2913918
40
0.1503783
50
28.8883513
51
77.0092434
0
ARC
8
DEFAULT_255_2_778
10
15.7432379
20
169.3203196
40
0.113238
50
358.9917455
51
22.7117017
0
ARC
8
DEFAULT_255_2_778
10
15.7394861
20
169.3244918
40
0.1171346
50
289.2958104
51
356.9831562
0
ARC
8
DEFAULT_255_2_778
10
15.6668261
20
169.4819882
40
0.2902651
50
268.4665462
51
292.5613311
0
ARC
8
DEFAULT_255_2_778
10
15.6496856
20
169.4229179
40
0.2312808
50
236.4956947
51
272.3225735
0
ARC
8
DEFAULT_255_2_778
10
15.6106646
20
169.3546839
40
0.1529307
50
178.9722202
51
234.5742435
0
ARC
8
DEFAULT_255_2_778
10
15.5656113
20
169.3451079
40
0.3002058
50
177.6481608
51
245.5596397
0
ARC
8
DEFAULT_255_2_778
10
15.6409971
20
169.5173561
40
0.488217
50
245.8690375
51
267.169035
0
ARC
8
DEFAULT_255_2_778
10
15.6671503
20
169.7683916
40
0.7403648
50
266.1069867
51
270.0547972
0
ARC
8
DEFAULT_255_2_778
10
15.6772894
20
169.5996135
40
0.5716642
50
269.0547216
51
287.7147747
0
ARC
8
DEFAULT_255_2_778
10
15.7598889
20
169.3539091
40
0.3125017
50
286.995984
51
325.1221533
0
ARC
8
DEFAULT_255_2_778
10
15.7678294
20
169.337361
40
0.2966627
50
326.8673922
51
0.8625726
0
ARC
8
DEFAULT_255_2_778
10
15.7898286
20
169.3459409
40
0.2746606
50
359.1417932
51
76.9739731
0
ARC
8
DEFAULT_255_2_778
10
15.6705461
20
169.0650719
40
0.577616
50
71.7185727
51
79.1315439
0
ARC
8
DEFAULT_255_2_778
10
14.2492968
20
161.711467
40
8.0673056
50
79.0662148
51
79.6216572
0
ARC
8
DEFAULT_255_2_778
10
16.4356585
20
173.5891581
40
4.0099443
50
259.1227669
51
259.4665204
0
ARC
8
DEFAULT_255_2_778
10
15.7836732
20
170.2941142
40
0.6513291
50
249.9945768
51
260.7485895
0
ARC
8
DEFAULT_255_2_778
10
15.5880401
20
169.7830999
40
0.1046098
50
178.6705173
51
254.9333545
0
ARC
8
DEFAULT_255_2_778
10
15.6049957
20
169.7796688
40
0.1216785
50
93.288632
51
177.2403935
0
ARC
8
DEFAULT_255_2_778
10
15.6585677
20
169.5926752
40
0.3143588
50
89.6189463
51
101.1057977
0
ARC
8
DEFAULT_255_2_778
10
15.6722733
20
169.704516
40
0.2028439
50
53.5634072
51
93.2825843
0
ARC
8
DEFAULT_255_2_778
10
15.7018505
20
169.7627144
40
0.1388739
50
357.1985816
51
49.1152298
0
ARC
8
DEFAULT_255_2_778
10
15.7254907
20
169.7559274
40
0.3087677
50
359.9999335
51
2.3703878
0
ARC
8
DEFAULT_255_2_778
10
15.7353555
20
169.7574337
40
0.298851
50
2.1600756
51
60.1092229
0
ARC
8
DEFAULT_255_2_778
10
15.6766212
20
169.6508133
40
0.4205645
50
60.4106856
51
86.1444419
0
ARC
8
DEFAULT_255_2_778
10
15.6536151
20
169.4741228
40
0.5985046
50
85.0843314
51
90.0628677
0
ARC
8
DEFAULT_255_2_778
10
15.6529718
20
169.5975466
40
0.4750804
50
90.001616
51
92.2300394
0
ARC
8
DEFAULT_255_2_778
10
15.6281193
20
169.702687
40
0.3696351
50
89.0131319
51
149.6364996
0
ARC
8
DEFAULT_255_2_778
10
15.5505461
20
169.7749055
40
0.2671974
50
154.5962367
51
180.4885883
0
ARC
8
DEFAULT_255_2_778
10
15.5651524
20
169.773384
40
0.281795
50
180.1539064
51
255.1120325
0
ARC
8
DEFAULT_255_2_778
10
15.7094242
20
170.096232
40
0.6333958
50
249.9962237
51
260.4976723
0
ARC
8
DEFAULT_255_2_778
10
18.2470963
20
168.5158351
40
0.967002
50
72.4685023
51
81.3064395
0
ARC
8
DEFAULT_255_2_778
10
18.5045397
20
169.291427
40
0.1503535
50
28.8782248
51
76.9904304
0
ARC
8
DEFAULT_255_2_778
10
18.5317197
20
169.3203189
40
0.1132561
50
358.9922779
51
22.7082666
0
ARC
8
DEFAULT_255_2_778
10
18.5280402
20
169.3244088
40
0.1170763
50
289.2761556
51
357.0223042
0
ARC
8
DEFAULT_255_2_778
10
18.4553612
20
169.4822836
40
0.2905613
50
268.4611814
51
292.5289055
0
ARC
8
DEFAULT_255_2_778
10
18.4381801
20
169.4238175
40
0.2321799
50
236.6698634
51
272.3149402
0
ARC
8
DEFAULT_255_2_778
10
18.39878
20
169.3546762
40
0.1528464
50
178.9687581
51
234.7686008
0
ARC
8
DEFAULT_255_2_778
10
18.3540113
20
169.3451079
40
0.3002058
50
177.6481608
51
245.5596397
0
ARC
8
DEFAULT_255_2_778
10
18.4293971
20
169.5173561
40
0.488217
50
245.8690375
51
267.169035
0
ARC
8
DEFAULT_255_2_778
10
18.4555503
20
169.7683916
40
0.7403648
50
266.1069867
51
270.0547972
0
ARC
8
DEFAULT_255_2_778
10
18.4656836
20
169.6002451
40
0.5722957
50
269.0563423
51
287.7048702
0
ARC
8
DEFAULT_255_2_778
10
18.548344
20
169.3542682
40
0.312856
50
286.9832601
51
325.0871916
0
ARC
8
DEFAULT_255_2_778
10
18.5567708
20
169.3373856
40
0.2964208
50
326.8311942
51
0.8585267
0
ARC
8
DEFAULT_255_2_778
10
18.5785756
20
169.3460282
40
0.2746149
50
359.1234265
51
76.9343785
0
ARC
8
DEFAULT_255_2_778
10
18.4596421
20
169.0661965
40
0.5764934
50
71.6999697
51
79.1198353
0
ARC
8
DEFAULT_255_2_778
10
17.0173657
20
161.5894392
40
8.1910887
50
79.0843627
51
79.6321368
0
ARC
8
DEFAULT_255_2_778
10
19.2200266
20
173.5689177
40
3.9892176
50
259.1314419
51
259.4772924
0
ARC
8
DEFAULT_255_2_778
10
18.5723251
20
170.2935131
40
0.6507003
50
249.9919323
51
260.7592458
0
ARC
8
DEFAULT_255_2_778
10
18.376901
20
169.7830546
40
0.1045718
50
178.6452075
51
254.9151907
0
ARC
8
DEFAULT_255_2_778
10
18.3939581
20
169.7796016
40
0.121744
50
93.2745253
51
177.21023
0
ARC
8
DEFAULT_255_2_778
10
18.4475726
20
169.5925052
40
0.3145287
50
89.6200387
51
101.1027534
0
ARC
8
DEFAULT_255_2_778
10
18.4613489
20
169.7058453
40
0.2015212
50
53.1490002
51
93.3256649
0
ARC
8
DEFAULT_255_2_778
10
18.4902753
20
169.7626519
40
0.1391457
50
357.2298288
51
48.6469881
0
ARC
8
DEFAULT_255_2_778
10
18.5137232
20
169.7559226
40
0.3092351
50
0.0008291
51
2.3676985
0
ARC
8
DEFAULT_255_2_778
10
18.5240744
20
169.7574868
40
0.2988304
50
2.1500394
51
60.0956838
0
ARC
8
DEFAULT_255_2_778
10
18.4654399
20
169.6509909
40
0.4203859
50
60.40452
51
86.1455285
0
ARC
8
DEFAULT_255_2_778
10
18.4424157
20
169.4741686
40
0.5984588
50
85.0841409
51
90.0629301
0
ARC
8
DEFAULT_255_2_778
10
18.4417778
20
169.5971392
40
0.4754878
50
90.0023409
51
92.3231329
0
ARC
8
DEFAULT_255_2_778
10
18.4167555
20
169.7024604
40
0.3698206
50
89.1093915
51
149.6400816
0
ARC
8
DEFAULT_255_2_778
10
18.338761
20
169.7748917
40
0.2669122
50
154.6001925
51
180.486137
0
ARC
8
DEFAULT_255_2_778
10
18.3537607
20
169.7735152
40
0.2819037
50
180.1805176
51
255.132702
0
ARC
8
DEFAULT_255_2_778
10
18.4982264
20
170.0967784
40
0.6339516
50
250.0026216
51
260.4967164
0
ARC
8
DEFAULT_255_2_778
10
16.008917
20
168.3039283
40
0.2519711
50
190.2626864
51
267.3480013
0
ARC
8
DEFAULT_255_2_778
10
16.2443543
20
168.3952548
40
0.5022041
50
179.6723028
51
195.7380858
0
ARC
8
DEFAULT_255_2_778
10
16.1790511
20
168.4107671
40
0.4370755
50
148.7005643
51
181.6572045
0
ARC
8
DEFAULT_255_2_778
10
15.9957576
20
168.5208723
40
0.2232598
50
89.6148479
51
148.4074796
0
ARC
8
DEFAULT_255_2_778
10
16.0060936
20
168.542949
40
0.201372
50
41.9769772
51
92.5146611
0
ARC
8
DEFAULT_255_2_778
10
15.9522078
20
168.5052523
40
0.2667646
50
15.1848537
51
40.2549591
0
ARC
8
DEFAULT_255_2_778
10
16.028123
20
168.5155326
40
0.3935735
50
8.7091682
51
82.0550801
0
ARC
8
DEFAULT_255_2_778
10
15.9931241
20
168.3690871
40
0.543642
50
80.5350289
51
90.1544743
0
ARC
8
DEFAULT_255_2_778
10
15.9818804
20
168.4577192
40
0.4551129
50
88.7689246
51
119.6437418
0
ARC
8
DEFAULT_255_2_778
10
16.0077717
20
168.4614647
40
0.4653013
50
122.644121
51
173.3997839
0
ARC
8
DEFAULT_255_2_778
10
16.2711934
20
168.3971568
40
0.7351371
50
170.7798304
51
180.1348114
0
ARC
8
DEFAULT_255_2_778
10
16.1377257
20
168.3817615
40
0.6018225
50
178.6988735
51
210.5289552
0
ARC
8
DEFAULT_255_2_778
10
15.970325
20
168.2909953
40
0.4115783
50
211.4828222
51
265.8686737
0
ARC
8
DEFAULT_255_2_778
10
15.9909864
20
168.4157011
40
0.5375742
50
264.6297133
51
270.0503073
0
ARC
8
DEFAULT_255_2_778
10
16.0020995
20
168.3475749
40
0.4695684
50
268.7014824
51
300.1403067
0
ARC
8
DEFAULT_255_2_778
10
16.0350333
20
168.2691852
40
0.385394
50
301.7580058
51
353.77968
0
ARC
8
DEFAULT_255_2_778
10
16.0012256
20
168.2635219
40
0.2113379
50
268.8430278
51
350.1661143
0
ARC
8
DEFAULT_255_2_778
10
18.6896799
20
168.3038824
40
0.2519281
50
190.2538303
51
267.3332171
0
ARC
8
DEFAULT_255_2_778
10
18.9252249
20
168.3952581
40
0.5022746
50
179.672724
51
195.7362088
0
ARC
8
DEFAULT_255_2_778
10
18.8600432
20
168.4107917
40
0.4372682
50
148.7196987
51
181.6596982
0
ARC
8
DEFAULT_255_2_778
10
18.676443
20
168.5209906
40
0.2231415
50
89.6108896
51
148.4244661
0
ARC
8
DEFAULT_255_2_778
10
18.686876
20
168.542967
40
0.2013576
50
42.5913083
51
92.5383066
0
ARC
8
DEFAULT_255_2_778
10
18.6345542
20
168.5065973
40
0.2646316
50
15.0085433
51
40.7215892
0
ARC
8
DEFAULT_255_2_778
10
18.708623
20
168.5155326
40
0.3935735
50
8.7091682
51
82.0550801
0
ARC
8
DEFAULT_255_2_778
10
18.6736241
20
168.3690871
40
0.543642
50
80.5350289
51
90.1544743
0
ARC
8
DEFAULT_255_2_778
10
18.6623804
20
168.4577192
40
0.4551129
50
88.7689246
51
119.6437418
0
ARC
8
DEFAULT_255_2_778
10
18.6882717
20
168.4614647
40
0.4653013
50
122.644121
51
173.3997839
0
ARC
8
DEFAULT_255_2_778
10
18.9516934
20
168.3971568
40
0.7351371
50
170.7798304
51
180.1348114
0
ARC
8
DEFAULT_255_2_778
10
18.8177822
20
168.38182
40
0.6013778
50
178.7034849
51
210.5604279
0
ARC
8
DEFAULT_255_2_778
10
18.6511312
20
168.2913377
40
0.4119265
50
211.5090145
51
265.8592607
0
ARC
8
DEFAULT_255_2_778
10
18.6716883
20
168.4154521
40
0.5373252
50
264.628472
51
270.0501277
0
ARC
8
DEFAULT_255_2_778
10
18.682837
20
168.3473685
40
0.4693629
50
268.6963312
51
300.2191972
0
ARC
8
DEFAULT_255_2_778
10
18.7155684
20
168.2694124
40
0.3856821
50
301.8465101
51
353.7503927
0
ARC
8
DEFAULT_255_2_778
10
18.6820648
20
168.2633604
40
0.2111733
50
268.8857714
51
350.2028431
0
LINE
8
DEFAULT_255_2_778
10
15.4577584
20
169.3574271
11
15.2656584
21
169.3574271
0
LINE
8
DEFAULT_255_2_778
10
15.8405584
20
169.7559271
11
16.0342584
21
169.7559271
0
LINE
8
DEFAULT_255_2_778
10
18.2459584
20
169.3574271
11
18.0540584
21
169.3574271
0
LINE
8
DEFAULT_255_2_778
10
18.6292584
20
169.7559271
11
18.8229584
21
169.7559271
0
LINE
8
DEFAULT_255_2_778
10
16.2096584
20
168.5751271
11
16.4171584
21
168.5751271
0
LINE
8
DEFAULT_255_2_778
10
16.4181584
20
168.2274271
11
16.2094584
21
168.2274271
0
LINE
8
DEFAULT_255_2_778
10
18.8901584
20
168.5751271
11
19.0976584
21
168.5751271
0
LINE
8
DEFAULT_255_2_778
10
19.0989584
20
168.2274271
11
18.8901584
21
168.2274271
0
LINE
8
DEFAULT_255_1_234
10
10.4663823
20
166.2437341
11
10.4663823
21
165.3747
0
LINE
8
DEFAULT_255_1_234
10
10.4663823
20
165.3747
11
10.3177951
21
165.3747
0
LINE
8
DEFAULT_255_1_234
10
10.3177951
20
165.3747
11
10.3177951
21
166.2437341
0
LINE
8
DEFAULT_255_1_234
10
10.3177951
20
166.2437341
11
10.4663823
21
166.2437341
0
ARC
8
DEFAULT_255_1_234
10
10.40361
20
166.4751889
40
0.097867
50
161.415052
51
180.5526306
0
ARC
8
DEFAULT_255_1_234
10
10.3911878
20
166.4786077
40
0.0850062
50
138.1827368
51
160.9307106
0
ARC
8
DEFAULT_255_1_234
10
10.3801824
20
166.4881588
40
0.0704362
50
104.6368899
51
138.0039868
0
ARC
8
DEFAULT_255_1_234
10
10.3908978
20
166.4514963
40
0.1086221
50
92.0600725
51
105.2189128
0
ARC
8
DEFAULT_255_1_234
10
10.3932327
20
166.4172117
40
0.1429728
50
89.9756393
51
92.5012496
0
ARC
8
DEFAULT_255_1_234
10
10.3942346
20
166.4397731
40
0.1204151
50
78.0235316
51
90.4478182
0
ARC
8
DEFAULT_255_1_234
10
10.4034438
20
166.4811295
40
0.0780493
50
55.051506
51
78.3369085
0
ARC
8
DEFAULT_255_1_234
10
10.4084712
20
166.4895711
40
0.0682538
50
42.0501187
51
54.4513741
0
ARC
8
DEFAULT_255_1_234
10
10.394958
20
166.4771798
40
0.0865878
50
1.7497075
51
42.1496013
0
ARC
8
DEFAULT_255_1_234
10
10.3694912
20
166.4742738
40
0.1121515
50
359.9852656
51
2.8364544
0
ARC
8
DEFAULT_255_1_234
10
10.3860905
20
166.4733229
40
0.0955566
50
342.1070653
51
0.552888
0
ARC
8
DEFAULT_255_1_234
10
10.4003602
20
166.4693904
40
0.0807713
50
316.7107116
51
341.6516965
0
ARC
8
DEFAULT_255_1_234
10
10.4070639
20
166.4633823
40
0.0717724
50
285.4397031
51
316.5324284
0
ARC
8
DEFAULT_255_1_234
10
10.3960556
20
166.4999554
40
0.1099597
50
272.3547054
51
285.8953117
0
ARC
8
DEFAULT_255_1_234
10
10.3933714
20
166.5365048
40
0.1465932
50
269.9695369
51
272.8160237
0
ARC
8
DEFAULT_255_1_234
10
10.3923896
20
166.5145863
40
0.1246779
50
258.8431134
51
270.4153935
0
ARC
8
DEFAULT_255_1_234
10
10.3833938
20
166.4710414
40
0.0802162
50
238.5431189
51
259.1288175
0
ARC
8
DEFAULT_255_1_234
10
10.3765823
20
166.4586856
40
0.0661247
50
222.5062634
51
237.9906969
0
ARC
8
DEFAULT_255_1_234
10
10.389341
20
166.4702889
40
0.0833707
50
184.1069131
51
222.460413
0
ARC
8
DEFAULT_255_1_234
10
10.4162651
20
166.4741349
40
0.1105176
50
179.9429482
51
185.0960898
0
LINE
8
DEFAULT_255_1_234
10
11.6205431
20
165.9963565
11
11.6205431
21
165.9216614
0
LINE
8
DEFAULT_255_1_234
10
11.4157337
20
165.4381507
11
11.6245589
21
165.2743033
0
LINE
8
DEFAULT_255_1_234
10
11.6245589
20
165.2743033
11
11.5193432
21
165.1771192
0
LINE
8
DEFAULT_255_1_234
10
11.5193432
20
165.1771192
11
11.2727688
21
165.3730937
0
LINE
8
DEFAULT_255_1_234
10
10.6792233
20
165.9112201
11
10.6792233
21
165.9955534
0
LINE
8
DEFAULT_255_1_234
10
11.4663337
20
165.9104169
11
11.4663337
21
165.9971597
0
LINE
8
DEFAULT_255_1_234
10
10.8334327
20
166.007601
11
10.8334327
21
165.9216614
0
ARC
8
DEFAULT_255_1_234
10
10.7251682
20
165.9177707
40
0.8953833
50
351.453011
51
0.2489685
0
ARC
8
DEFAULT_255_1_234
10
10.9836483
20
165.8777933
40
0.6338333
50
338.6861641
51
351.5540711
0
ARC
8
DEFAULT_255_1_234
10
11.0770367
20
165.8447828
40
0.5348431
50
336.2887631
51
338.3442418
0
ARC
8
DEFAULT_255_1_234
10
11.1109989
20
165.8261698
40
0.4962747
50
321.1170344
51
336.6795229
0
ARC
8
DEFAULT_255_1_234
10
11.1741818
20
165.7775206
40
0.4165565
50
305.4419708
51
320.8705636
0
ARC
8
DEFAULT_255_1_234
10
11.1545288
20
165.8522707
40
0.4935497
50
271.6373023
51
283.8611969
0
ARC
8
DEFAULT_255_1_234
10
11.1507541
20
165.9178572
40
0.5592206
50
269.9930596
51
271.8318864
0
ARC
8
DEFAULT_255_1_234
10
11.1469984
20
165.8370681
40
0.4784458
50
252.5219675
51
270.4416499
0
ARC
8
DEFAULT_255_1_234
10
11.1326243
20
165.7831592
40
0.422716
50
237.5352116
51
252.1857531
0
ARC
8
DEFAULT_255_1_234
10
11.1415439
20
165.7945363
40
0.4371052
50
209.063312
51
237.3492538
0
ARC
8
DEFAULT_255_1_234
10
11.2285287
20
165.8491685
40
0.5397041
50
205.1183774
51
209.6470015
0
ARC
8
DEFAULT_255_1_234
10
11.3082324
20
165.882983
40
0.6262326
50
188.7215458
51
204.8240747
0
ARC
8
DEFAULT_255_1_234
10
11.5079852
20
165.9166067
40
0.8287794
50
180.3723947
51
188.9252049
0
ARC
8
DEFAULT_255_1_234
10
11.5052604
20
165.9995402
40
0.8260467
50
169.5253763
51
180.2765336
0
ARC
8
DEFAULT_255_1_234
10
11.3150053
20
166.0345309
40
0.6326007
50
155.8315255
51
169.5089989
0
ARC
8
DEFAULT_255_1_234
10
11.1869554
20
166.0939348
40
0.4914567
50
139.6258461
51
156.0379525
0
ARC
8
DEFAULT_255_1_234
10
11.1279887
20
166.1413799
40
0.4158054
50
122.6416387
51
139.3430715
0
ARC
8
DEFAULT_255_1_234
10
11.1380507
20
166.1230451
40
0.4366739
50
93.0223692
51
122.455762
0
ARC
8
DEFAULT_255_1_234
10
11.1488504
20
166.0265709
40
0.5336137
50
89.975342
51
93.6341897
0
ARC
8
DEFAULT_255_1_234
10
11.152739
20
166.0645375
40
0.4956606
50
73.9665422
51
90.4229648
0
ARC
8
DEFAULT_255_1_234
10
11.1711037
20
166.1360451
40
0.4218674
50
57.5178019
51
73.6813337
0
ARC
8
DEFAULT_255_1_234
10
11.166682
20
166.1324462
40
0.4272816
50
28.7261108
51
57.2767933
0
ARC
8
DEFAULT_255_1_234
10
11.0756152
20
166.0761688
40
0.534218
50
24.2448911
51
29.3248482
0
ARC
8
DEFAULT_255_1_234
10
10.9830253
20
166.0378819
40
0.6343711
50
9.064382
51
23.9639114
0
ARC
8
DEFAULT_255_1_234
10
10.7574581
20
165.9999925
40
0.8630926
50
359.7586264
51
9.1891435
0
ARC
8
DEFAULT_255_1_234
10
10.6320061
20
166.0013343
40
0.834338
50
359.7133237
51
7.96545
0
ARC
8
DEFAULT_255_1_234
10
10.9282278
20
166.0440681
40
0.5350538
50
7.8291991
51
20.0421623
0
ARC
8
DEFAULT_255_1_234
10
11.0906841
20
166.1031606
40
0.3621841
50
20.0677553
51
35.9161685
0
ARC
8
DEFAULT_255_1_234
10
11.1681879
20
166.160767
40
0.2656263
50
35.6594382
51
85.1578074
0
ARC
8
DEFAULT_255_1_234
10
11.1497135
20
166.0492378
40
0.3784238
50
83.7959068
51
90.095906
0
ARC
8
DEFAULT_255_1_234
10
11.1454069
20
166.1225601
40
0.3051229
50
89.3102392
51
109.9889877
0
ARC
8
DEFAULT_255_1_234
10
11.1371552
20
166.1581433
40
0.2688988
50
110.9285147
51
143.9411762
0
ARC
8
DEFAULT_255_1_234
10
11.2302498
20
166.0869236
40
0.3860887
50
143.5289163
51
163.2980757
0
ARC
8
DEFAULT_255_1_234
10
11.4210319
20
166.0269433
40
0.5860659
50
163.0418846
51
174.3140048
0
ARC
8
DEFAULT_255_1_234
10
11.6614431
20
165.9991854
40
0.8280531
50
174.0509143
51
179.4176892
0
ARC
8
DEFAULT_255_1_234
10
11.6100766
20
165.9173634
40
0.7766558
50
179.6829237
51
188.9631324
0
ARC
8
DEFAULT_255_1_234
10
11.3430327
20
165.8738752
40
0.5060992
50
188.8100743
51
202.9300012
0
ARC
8
DEFAULT_255_1_234
10
11.2213956
20
165.8243855
40
0.3747967
50
203.2069261
51
215.7876482
0
ARC
8
DEFAULT_255_1_234
10
11.1365353
20
165.7572671
40
0.2667526
50
214.7521006
51
264.2834488
0
ARC
8
DEFAULT_255_1_234
10
11.1501008
20
165.842778
40
0.3532247
50
263.4755397
51
270.0949833
0
ARC
8
DEFAULT_255_1_234
10
11.1543119
20
165.8166374
40
0.3271036
50
269.3649385
51
287.5152008
0
ARC
8
DEFAULT_255_1_234
10
11.1721277
20
165.7519238
40
0.2600406
50
288.0630309
51
323.8113348
0
ARC
8
DEFAULT_255_1_234
10
11.0850119
20
165.8169049
40
0.3687189
50
323.6547608
51
342.6590488
0
ARC
8
DEFAULT_255_1_234
10
10.8818734
20
165.8829952
40
0.5823286
50
342.4091907
51
353.6451149
0
ARC
8
DEFAULT_255_1_234
10
10.5987244
20
165.918219
40
0.8676442
50
353.4029884
51
359.4847795
0
LINE
8
DEFAULT_255_1_234
10
12.1442124
20
165.9321026
11
12.1442124
21
165.8108234
0
LINE
8
DEFAULT_255_1_234
10
12.1442124
20
165.8108234
11
11.7522636
21
165.8108234
0
LINE
8
DEFAULT_255_1_234
10
11.7522636
20
165.8108234
11
11.7522636
21
165.9321026
0
LINE
8
DEFAULT_255_1_234
10
11.7522636
20
165.9321026
11
12.1442124
21
165.9321026
0
LINE
8
DEFAULT_255_1_234
10
12.9947735
20
165.3747
11
12.7409706
21
165.8477694
0
LINE
8
DEFAULT_255_1_234
10
12.7409706
20
165.8477694
11
12.4662851
21
165.8477694
0
LINE
8
DEFAULT_255_1_234
10
12.4662851
20
165.8477694
11
12.4662851
21
165.3747
0
LINE
8
DEFAULT_255_1_234
10
12.4662851
20
165.3747
11
12.3112726
21
165.3747
0
LINE
8
DEFAULT_255_1_234
10
12.3112726
20
165.3747
11
12.3112726
21
166.5441211
0
LINE
8
DEFAULT_255_1_234
10
12.3112726
20
166.5441211
11
12.6984023
21
166.5441211
0
LINE
8
DEFAULT_255_1_234
10
12.8855418
20
165.8806995
11
13.1602273
21
165.3843381
0
LINE
8
DEFAULT_255_1_234
10
13.1602273
20
165.3843381
11
13.1602273
21
165.3747
0
LINE
8
DEFAULT_255_1_234
10
13.1602273
20
165.3747
11
12.9947735
21
165.3747
0
LINE
8
DEFAULT_255_1_234
10
12.4662851
20
166.4172196
11
12.4662851
21
165.9738677
0
LINE
8
DEFAULT_255_1_234
10
12.4662851
20
165.9738677
11
12.7032214
21
165.9738677
0
LINE
8
DEFAULT_255_1_234
10
12.7024182
20
166.4172196
11
12.4662851
21
166.4172196
0
ARC
8
DEFAULT_255_1_234
10
12.7025663
20
165.8479761
40
0.6961575
50
80.653586
51
90.3427061
0
ARC
8
DEFAULT_255_1_234
10
12.7445138
20
166.0942348
40
0.4463577
50
65.6987447
51
80.8329603
0
ARC
8
DEFAULT_255_1_234
10
12.7922778
20
166.2037322
40
0.3269094
50
50.0017161
51
65.4305835
0
ARC
8
DEFAULT_255_1_234
10
12.8141243
20
166.2332482
40
0.2902647
50
11.628416
51
49.5603263
0
ARC
8
DEFAULT_255_1_234
10
12.6605579
20
166.1957299
40
0.4482792
50
359.5655735
51
12.3691
0
ARC
8
DEFAULT_255_1_234
10
12.7682438
20
166.1894644
40
0.3405924
50
341.9983148
51
0.4822259
0
ARC
8
DEFAULT_255_1_234
10
12.8077278
20
166.1787471
40
0.2997359
50
323.8609373
51
341.61416
0
ARC
8
DEFAULT_255_1_234
10
12.7775522
20
166.2020484
40
0.3378487
50
296.7018614
51
323.6876402
0
ARC
8
DEFAULT_255_1_234
10
12.7334418
20
166.2809235
40
0.4281516
50
290.8086567
51
297.2323311
0
ARC
8
DEFAULT_255_1_234
10
12.7057947
20
166.3332351
40
0.3593766
50
269.589728
51
281.8058135
0
ARC
8
DEFAULT_255_1_234
10
12.7308846
20
166.2184743
40
0.2419125
50
281.5501019
51
303.9357432
0
ARC
8
DEFAULT_255_1_234
10
12.7446034
20
166.1946936
40
0.2145323
50
304.4415616
51
311.2106213
0
ARC
8
DEFAULT_255_1_234
10
12.757814
20
166.1807632
40
0.1953505
50
310.9875673
51
356.2715578
0
ARC
8
DEFAULT_255_1_234
10
12.6821788
20
166.1920422
40
0.2716331
50
354.9348262
51
0.0609027
0
ARC
8
DEFAULT_255_1_234
10
12.6634663
20
166.1947435
40
0.2903554
50
359.5239371
51
12.8808918
0
ARC
8
DEFAULT_255_1_234
10
12.7612218
20
166.2186728
40
0.1897315
50
12.4173452
51
43.1022135
0
ARC
8
DEFAULT_255_1_234
10
12.7673823
20
166.2223724
40
0.1827118
50
43.5751728
51
48.203944
0
ARC
8
DEFAULT_255_1_234
10
12.7504315
20
166.2002302
40
0.2105272
50
48.7809703
51
72.6969569
0
ARC
8
DEFAULT_255_1_234
10
12.7149939
20
166.092682
40
0.3237537
50
72.3702241
51
84.8791103
0
ARC
8
DEFAULT_255_1_234
10
12.7002415
20
165.9584769
40
0.4587478
50
84.5400526
51
89.7281406
0
LINE
8
DEFAULT_255_1_234
10
14.507953
20
166.2059849
11
14.3529404
21
166.2059849
0
LINE
8
DEFAULT_255_1_234
10
13.6606046
20
165.7136394
11
13.8156171
21
165.7136394
0
ARC
8
DEFAULT_255_1_234
10
14.4188217
20
167.1006768
40
1.252368
50
248.9199003
51
254.1439814
0
ARC
8
DEFAULT_255_1_234
10
14.2507712
20
166.6680234
40
0.788226
50
241.633709
51
249.0064503
0
ARC
8
DEFAULT_255_1_234
10
14.0979106
20
166.3879317
40
0.4691427
50
230.498225
51
241.8087113
0
ARC
8
DEFAULT_255_1_234
10
14.0194681
20
166.2879906
40
0.3421437
50
227.4064532
51
229.9881192
0
ARC
8
DEFAULT_255_1_234
10
13.9707201
20
166.2404088
40
0.2741476
50
200.6781896
51
228.1763934
0
ARC
8
DEFAULT_255_1_234
10
13.9779512
20
166.2389077
40
0.2804109
50
179.5061581
51
199.8694617
0
ARC
8
DEFAULT_255_1_234
10
13.9770264
20
166.246321
40
0.2795204
50
132.4834203
51
181.0242172
0
ARC
8
DEFAULT_255_1_234
10
14.0365846
20
166.1900704
40
0.3612768
50
129.2532479
51
133.4242687
0
ARC
8
DEFAULT_255_1_234
10
14.0512296
20
166.1680965
40
0.3875675
50
101.98776
51
128.8742646
0
ARC
8
DEFAULT_255_1_234
10
14.0910906
20
165.9959741
40
0.5642249
50
89.5906553
51
102.3169264
0
ARC
8
DEFAULT_255_1_234
10
14.0981398
20
166.0278148
40
0.5323783
50
77.2360837
51
90.3248275
0
ARC
8
DEFAULT_255_1_234
10
14.1188477
20
166.12454
40
0.4334697
50
63.837784
51
77.0809408
0
ARC
8
DEFAULT_255_1_234
10
14.1466239
20
166.1762911
40
0.3747796
50
45.9864267
51
64.1607727
0
ARC
8
DEFAULT_255_1_234
10
14.172712
20
166.2060866
40
0.3352302
50
32.2747395
51
45.6547121
0
ARC
8
DEFAULT_255_1_234
10
14.1793561
20
166.207988
40
0.328603
50
359.6507365
51
32.6130309
0
ARC
8
DEFAULT_255_1_234
10
14.0850656
20
166.208466
40
0.2678863
50
359.469343
51
14.9832209
0
ARC
8
DEFAULT_255_1_234
10
14.1555719
20
166.2273539
40
0.1948938
50
14.9781179
51
48.2004265
0
ARC
8
DEFAULT_255_1_234
10
14.1391363
20
166.2066983
40
0.2212521
50
48.5927837
51
74.1241538
0
ARC
8
DEFAULT_255_1_234
10
14.1057853
20
166.0966248
40
0.3362561
50
73.7888341
51
86.6652678
0
ARC
8
DEFAULT_255_1_234
10
14.0955418
20
165.9758881
40
0.4573953
50
86.2640471
51
90.0526343
0
ARC
8
DEFAULT_255_1_234
10
14.0927131
20
166.0154192
40
0.4178709
50
89.6697524
51
99.2309573
0
ARC
8
DEFAULT_255_1_234
10
14.0684582
20
166.1598964
40
0.2713749
50
99.069534
51
113.7658566
0
ARC
8
DEFAULT_255_1_234
10
14.0410773
20
166.2244677
40
0.2012469
50
114.0401004
51
127.9850673
0
ARC
8
DEFAULT_255_1_234
10
14.0170337
20
166.254073
40
0.1631167
50
127.7287463
51
176.7105154
0
ARC
8
DEFAULT_255_1_234
10
14.0849054
20
166.2439693
40
0.2315392
50
175.1779447
51
180.0581938
0
ARC
8
DEFAULT_255_1_234
10
14.0005901
20
166.2427428
40
0.1472271
50
179.6142195
51
228.1246017
0
ARC
8
DEFAULT_255_1_234
10
14.044757
20
166.2836308
40
0.2072299
50
226.5779593
51
230.8800004
0
ARC
8
DEFAULT_255_1_234
10
14.0918648
20
166.3461636
40
0.2854818
50
231.4635071
51
241.9260842
0
ARC
8
DEFAULT_255_1_234
10
14.2115826
20
166.56648
40
0.53622
50
241.7178533
51
248.3259551
0
ARC
8
DEFAULT_255_1_234
10
14.3501198
20
166.9097064
40
0.9063478
50
248.2007737
51
252.4528373
0
ARC
8
DEFAULT_255_1_234
10
14.4704923
20
167.2818441
40
1.2974635
50
252.3391078
51
254.3469452
0
ARC
8
DEFAULT_255_1_234
10
13.7162626
20
164.5841148
40
1.5037162
50
71.0197183
51
74.4087047
0
ARC
8
DEFAULT_255_1_234
10
13.8857311
20
165.0733111
40
0.9859993
50
66.1847285
51
71.086374
0
ARC
8
DEFAULT_255_1_234
10
14.0413623
20
165.42372
40
0.6025855
50
59.3536294
51
66.2691831
0
ARC
8
DEFAULT_255_1_234
10
14.1302276
20
165.5740609
40
0.4279449
50
49.1020879
51
59.3293958
0
ARC
8
DEFAULT_255_1_234
10
14.2121015
20
165.6673834
40
0.3038015
50
32.7919921
51
49.2505539
0
ARC
8
DEFAULT_255_1_234
10
14.2442105
20
165.6902191
40
0.264448
50
31.1181161
51
32.4005348
0
ARC
8
DEFAULT_255_1_234
10
14.2353643
20
165.6866779
40
0.2738556
50
8.1116974
51
30.7958831
0
ARC
8
DEFAULT_255_1_234
10
14.1543311
20
165.6728753
40
0.3560327
50
359.8389159
51
8.4706516
0
ARC
8
DEFAULT_255_1_234
10
14.2169103
20
165.6680137
40
0.2934776
50
337.4731098
51
0.7537279
0
ARC
8
DEFAULT_255_1_234
10
14.2347798
20
165.6660387
40
0.2762607
50
307.5917067
51
336.4315538
0
ARC
8
DEFAULT_255_1_234
10
14.1887626
20
165.7173102
40
0.3449979
50
307.6551545
51
308.4529766
0
ARC
8
DEFAULT_255_1_234
10
14.1657344
20
165.752825
40
0.3871988
50
284.3734338
51
307.1424381
0
ARC
8
DEFAULT_255_1_234
10
14.1162175
20
165.9349932
40
0.5759636
50
272.4382747
51
284.646547
0
ARC
8
DEFAULT_255_1_234
10
14.1035383
20
166.1149893
40
0.7563528
50
269.9708387
51
272.8178037
0
ARC
8
DEFAULT_255_1_234
10
14.0992423
20
165.9111716
40
0.5525489
50
248.2707594
51
270.4055579
0
ARC
8
DEFAULT_255_1_234
10
14.0938164
20
165.8921192
40
0.5328452
50
246.1383403
51
248.0542782
0
ARC
8
DEFAULT_255_1_234
10
14.0519543
20
165.8041843
40
0.4355005
50
233.1670131
51
246.4950969
0
ARC
8
DEFAULT_255_1_234
10
13.9965448
20
165.7293812
40
0.3424126
50
215.3403242
51
233.0843104
0
ARC
8
DEFAULT_255_1_234
10
13.9692879
20
165.7095549
40
0.3087104
50
179.2419209
51
215.2648451
0
ARC
8
DEFAULT_255_1_234
10
14.0460473
20
165.7109666
40
0.2304457
50
179.335461
51
199.1045811
0
ARC
8
DEFAULT_255_1_234
10
14.012815
20
165.7022766
40
0.1962176
50
199.8828939
51
232.7063202
0
ARC
8
DEFAULT_255_1_234
10
14.0600418
20
165.7616788
40
0.2720938
50
232.3738199
51
255.5136649
0
ARC
8
DEFAULT_255_1_234
10
14.0941285
20
165.8860835
40
0.4010747
50
255.2446292
51
267.5320849
0
ARC
8
DEFAULT_255_1_234
10
14.1028908
20
166.0093702
40
0.5246356
50
267.1557994
51
270.0286766
0
ARC
8
DEFAULT_255_1_234
10
14.105668
20
165.964995
40
0.4802668
50
269.7000017
51
278.1660162
0
ARC
8
DEFAULT_255_1_234
10
14.1312685
20
165.7919515
40
0.3053425
50
278.0231263
51
290.625471
0
ARC
8
DEFAULT_255_1_234
10
14.1660372
20
165.6992025
40
0.206291
50
290.6619762
51
307.0370976
0
ARC
8
DEFAULT_255_1_234
10
14.1960761
20
165.6623504
40
0.1587906
50
306.3943566
51
355.3030547
0
ARC
8
DEFAULT_255_1_234
10
14.1448693
20
165.6700113
40
0.2104809
50
354.3660432
51
0.0698737
0
ARC
8
DEFAULT_255_1_234
10
14.1591038
20
165.6722617
40
0.1962563
50
359.417946
51
16.1971788
0
ARC
8
DEFAULT_255_1_234
10
14.2046348
20
165.6847418
40
0.149053
50
16.4723299
51
52.6262157
0
ARC
8
DEFAULT_255_1_234
10
14.1225402
20
165.5763433
40
0.2850296
50
52.7386432
51
62.4979148
0
ARC
8
DEFAULT_255_1_234
10
13.9840479
20
165.3157283
40
0.5801521
50
62.2515216
51
68.1220564
0
ARC
8
DEFAULT_255_1_234
10
13.812039
20
164.8929872
40
1.0365451
50
68.0062803
51
71.8053402
0
ARC
8
DEFAULT_255_1_234
10
13.6324762
20
164.3544758
40
1.6042013
50
71.7183119
51
73.9258742
0
LINE
8
DEFAULT_255_1_234
10
14.6469021
20
165.7851218
11
14.6469021
21
165.8124297
0
LINE
8
DEFAULT_255_1_234
10
15.3842156
20
165.8284932
11
15.3842156
21
165.7666488
0
LINE
8
DEFAULT_255_1_234
10
15.3842156
20
165.7666488
11
14.7954892
21
165.7666488
0
LINE
8
DEFAULT_255_1_234
10
15.2822125
20
165.5971792
11
15.3729712
21
165.5264999
0
LINE
8
DEFAULT_255_1_234
10
14.8003083
20
165.8887313
11
15.2356285
21
165.8887313
0
LINE
8
DEFAULT_255_1_234
10
15.2356285
20
165.8887313
11
15.2356285
21
165.8999757
0
ARC
8
DEFAULT_255_1_234
10
15.0408386
20
165.7962332
40
0.4376191
50
252.3266134
51
270.5810217
0
ARC
8
DEFAULT_255_1_234
10
15.0203475
20
165.7221644
40
0.3608374
50
223.3000567
51
251.8561855
0
ARC
8
DEFAULT_255_1_234
10
15.0414835
20
165.7426937
40
0.3902993
50
190.9374509
51
223.3654032
0
ARC
8
DEFAULT_255_1_234
10
15.2139808
20
165.7816885
40
0.5670891
50
179.6531105
51
191.4989439
0
ARC
8
DEFAULT_255_1_234
10
15.226182
20
165.8156417
40
0.5792888
50
167.4007466
51
180.3176909
0
ARC
8
DEFAULT_255_1_234
10
15.1209881
20
165.8378885
40
0.471777
50
154.1835823
51
167.250763
0
ARC
8
DEFAULT_255_1_234
10
15.0578349
20
165.8711417
40
0.4004528
50
134.3149965
51
154.5315275
0
ARC
8
DEFAULT_255_1_234
10
15.0360844
20
165.8902228
40
0.371612
50
122.8616532
51
133.9707695
0
ARC
8
DEFAULT_255_1_234
10
15.0257418
20
165.9124703
40
0.3473289
50
89.8249009
51
123.4199222
0
ARC
8
DEFAULT_255_1_234
10
15.0307459
20
165.8477967
40
0.4120197
50
74.7876118
51
90.5482747
0
ARC
8
DEFAULT_255_1_234
10
15.0601202
20
165.956303
40
0.2996077
50
39.8178249
51
74.7633718
0
ARC
8
DEFAULT_255_1_234
10
15.0088523
20
165.9163351
40
0.3645855
50
16.8990863
51
39.4829761
0
ARC
8
DEFAULT_255_1_234
10
14.8193819
20
165.8556526
40
0.5635218
50
4.9636328
51
17.2026414
0
ARC
8
DEFAULT_255_1_234
10
14.5775889
20
165.830134
40
0.8066286
50
359.8834553
51
5.2834307
0
ARC
8
DEFAULT_255_1_234
10
15.1813414
20
165.7732803
40
0.3859091
50
180.9846213
51
194.9401313
0
ARC
8
DEFAULT_255_1_234
10
15.0763691
20
165.7445849
40
0.2770883
50
194.80314
51
222.0412631
0
ARC
8
DEFAULT_255_1_234
10
15.0459573
20
165.7144116
40
0.2343055
50
221.5417084
51
268.8614402
0
ARC
8
DEFAULT_255_1_234
10
15.0532568
20
165.7820686
40
0.3021528
50
267.732405
51
270.0097136
0
ARC
8
DEFAULT_255_1_234
10
15.0550378
20
165.8022105
40
0.3222994
50
269.6924892
51
280.4117579
0
ARC
8
DEFAULT_255_1_234
10
15.0726785
20
165.7103193
40
0.2287344
50
280.2255091
51
298.6338936
0
ARC
8
DEFAULT_255_1_234
10
15.0843577
20
165.6859223
40
0.2017294
50
299.0430333
51
300.4643464
0
ARC
8
DEFAULT_255_1_234
10
15.0163582
20
165.7993038
40
0.3339357
50
300.6577328
51
322.0378878
0
ARC
8
DEFAULT_255_1_234
10
14.9813121
20
165.8297021
40
0.3802736
50
321.6750233
51
322.3046845
0
ARC
8
DEFAULT_255_1_234
10
15.0744083
20
165.713037
40
0.3520454
50
276.9728461
51
328.0035423
0
ARC
8
DEFAULT_255_1_234
10
15.0467135
20
165.8610841
40
0.5024498
50
269.8361028
51
278.0581756
0
ARC
8
DEFAULT_255_1_234
10
15.0239873
20
165.9355757
40
0.202159
50
89.2018686
51
117.2851756
0
ARC
8
DEFAULT_255_1_234
10
15.0293042
20
165.9313752
40
0.2083484
50
118.0551165
51
137.4540413
0
ARC
8
DEFAULT_255_1_234
10
15.0667782
20
165.8973304
40
0.2589774
50
137.5109581
51
158.8516286
0
ARC
8
DEFAULT_255_1_234
10
15.1805617
20
165.8514074
40
0.38167
50
158.5845963
51
170.1721436
0
ARC
8
DEFAULT_255_1_234
10
15.2975007
20
165.8281823
40
0.5008657
50
169.8376422
51
173.0566086
0
ARC
8
DEFAULT_255_1_234
10
14.8278081
20
165.8792509
40
0.4083467
50
2.9091802
51
12.8847116
0
ARC
8
DEFAULT_255_1_234
10
14.9648757
20
165.9115101
40
0.2675383
50
12.6957781
51
28.6404489
0
ARC
8
DEFAULT_255_1_234
10
15.0190428
20
165.9395458
40
0.2065654
50
29.0169854
51
41.1487595
0
ARC
8
DEFAULT_255_1_234
10
15.0393213
20
165.9572003
40
0.1796786
50
41.1646065
51
85.0013516
0
ARC
8
DEFAULT_255_1_234
10
15.027231
20
165.8837431
40
0.2539726
50
83.7280015
51
90.0964893
0
LINE
8
DEFAULT_255_1_234
10
15.9761547
20
166.2485531
11
15.9761547
21
166.1104072
0
LINE
8
DEFAULT_255_1_234
10
15.704682
20
165.9915375
11
15.704682
21
165.3747
0
LINE
8
DEFAULT_255_1_234
10
15.704682
20
165.3747
11
15.5560948
21
165.3747
0
LINE
8
DEFAULT_255_1_234
10
15.5560948
20
165.3747
11
15.5560948
21
166.2437341
0
LINE
8
DEFAULT_255_1_234
10
15.5560948
20
166.2437341
11
15.7006661
21
166.2437341
0
LINE
8
DEFAULT_255_1_234
10
15.7006661
20
166.2437341
11
15.7030756
21
166.1433374
0
ARC
8
DEFAULT_255_1_234
10
15.9094953
20
165.7044342
40
0.4114092
50
80.6754243
51
86.8932892
0
ARC
8
DEFAULT_255_1_234
10
15.9034487
20
165.60767
40
0.5083596
50
86.8038578
51
90.0431435
0
ARC
8
DEFAULT_255_1_234
10
15.8997468
20
165.8533866
40
0.2626638
50
89.2759698
51
106.6213787
0
ARC
8
DEFAULT_255_1_234
10
15.8793032
20
165.927683
40
0.1856317
50
107.1346045
51
157.6458115
0
ARC
8
DEFAULT_255_1_234
10
15.9484633
20
165.8893311
40
0.2643398
50
155.6586782
51
157.2539184
0
ARC
8
DEFAULT_255_1_234
10
15.9279836
20
166.0062157
40
0.2634121
50
127.8165941
51
148.6302098
0
ARC
8
DEFAULT_255_1_234
10
15.9026305
20
166.0322218
40
0.2273596
50
91.3329982
51
126.7875809
0
ARC
8
DEFAULT_255_1_234
10
15.9102245
20
165.9607195
40
0.299078
50
89.986594
51
92.4688449
0
ARC
8
DEFAULT_255_1_234
10
15.911064
20
165.9882078
40
0.2715908
50
85.3589899
51
90.1623399
0
ARC
8
DEFAULT_255_1_234
10
15.9195156
20
166.0886164
40
0.1708278
50
78.401942
51
85.4594656
0
ARC
8
DEFAULT_255_1_234
10
15.934004
20
166.1577236
40
0.1002194
50
67.7858312
51
78.5728455
0
ARC
8
DEFAULT_255_1_234
10
15.9447892
20
166.1856887
40
0.0702548
50
63.4835954
51
67.3062642
0
LINE
8
DEFAULT_255_1_234
10
16.2741322
20
166.2437341
11
16.2741322
21
165.3747
0
LINE
8
DEFAULT_255_1_234
10
16.2741322
20
165.3747
11
16.1255451
21
165.3747
0
LINE
8
DEFAULT_255_1_234
10
16.1255451
20
165.3747
11
16.1255451
21
166.2437341
0
LINE
8
DEFAULT_255_1_234
10
16.1255451
20
166.2437341
11
16.2741322
21
166.2437341
0
ARC
8
DEFAULT_255_1_234
10
16.2113599
20
166.4751889
40
0.097867
50
161.415052
51
180.5526306
0
ARC
8
DEFAULT_255_1_234
10
16.1989378
20
166.4786077
40
0.0850062
50
138.1827368
51
160.9307106
0
ARC
8
DEFAULT_255_1_234
10
16.1879323
20
166.4881588
40
0.0704362
50
104.6368899
51
138.0039868
0
ARC
8
DEFAULT_255_1_234
10
16.1986478
20
166.4514963
40
0.1086221
50
92.0600725
51
105.2189128
0
ARC
8
DEFAULT_255_1_234
10
16.2009826
20
166.4172117
40
0.1429728
50
89.9756393
51
92.5012496
0
ARC
8
DEFAULT_255_1_234
10
16.2019846
20
166.4397731
40
0.1204151
50
78.0235316
51
90.4478182
0
ARC
8
DEFAULT_255_1_234
10
16.2111937
20
166.4811295
40
0.0780493
50
55.051506
51
78.3369085
0
ARC
8
DEFAULT_255_1_234
10
16.2162212
20
166.4895711
40
0.0682538
50
42.0501187
51
54.4513741
0
ARC
8
DEFAULT_255_1_234
10
16.2027079
20
166.4771798
40
0.0865878
50
1.7497075
51
42.1496013
0
ARC
8
DEFAULT_255_1_234
10
16.1772412
20
166.4742738
40
0.1121515
50
359.9852656
51
2.8364544
0
ARC
8
DEFAULT_255_1_234
10
16.1938404
20
166.4733229
40
0.0955566
50
342.1070653
51
0.552888
0
ARC
8
DEFAULT_255_1_234
10
16.2081101
20
166.4693904
40
0.0807713
50
316.7107116
51
341.6516965
0
ARC
8
DEFAULT_255_1_234
10
16.2148138
20
166.4633823
40
0.0717724
50
285.4397031
51
316.5324284
0
ARC
8
DEFAULT_255_1_234
10
16.2038056
20
166.4999554
40
0.1099597
50
272.3547054
51
285.8953117
0
ARC
8
DEFAULT_255_1_234
10
16.2011213
20
166.5365048
40
0.1465932
50
269.9695369
51
272.8160237
0
ARC
8
DEFAULT_255_1_234
10
16.2001395
20
166.5145863
40
0.1246779
50
258.8431134
51
270.4153935
0
ARC
8
DEFAULT_255_1_234
10
16.1911437
20
166.4710414
40
0.0802162
50
238.5431189
51
259.1288175
0
ARC
8
DEFAULT_255_1_234
10
16.1843322
20
166.4586856
40
0.0661247
50
222.5062634
51
237.9906969
0
ARC
8
DEFAULT_255_1_234
10
16.197091
20
166.4702889
40
0.0833707
50
184.1069131
51
222.460413
0
ARC
8
DEFAULT_255_1_234
10
16.224015
20
166.4741349
40
0.1105176
50
179.9429482
51
185.0960898
0
LINE
8
DEFAULT_255_1_234
10
16.4741225
20
165.7851218
11
16.4741225
21
165.8124297
0
LINE
8
DEFAULT_255_1_234
10
17.2114361
20
165.8284932
11
17.2114361
21
165.7666488
0
LINE
8
DEFAULT_255_1_234
10
17.2114361
20
165.7666488
11
16.6227097
21
165.7666488
0
LINE
8
DEFAULT_255_1_234
10
17.109433
20
165.5971792
11
17.2001917
21
165.5264999
0
LINE
8
DEFAULT_255_1_234
10
16.6275287
20
165.8887313
11
17.0628489
21
165.8887313
0
LINE
8
DEFAULT_255_1_234
10
17.0628489
20
165.8887313
11
17.0628489
21
165.8999757
0
ARC
8
DEFAULT_255_1_234
10
16.868059
20
165.7962332
40
0.4376191
50
252.3266134
51
270.5810217
0
ARC
8
DEFAULT_255_1_234
10
16.8475679
20
165.7221644
40
0.3608374
50
223.3000567
51
251.8561855
0
ARC
8
DEFAULT_255_1_234
10
16.868704
20
165.7426937
40
0.3902993
50
190.9374509
51
223.3654032
0
ARC
8
DEFAULT_255_1_234
10
17.0412012
20
165.7816885
40
0.5670891
50
179.6531105
51
191.4989439
0
ARC
8
DEFAULT_255_1_234
10
17.0534024
20
165.8156417
40
0.5792888
50
167.4007466
51
180.3176909
0
ARC
8
DEFAULT_255_1_234
10
16.9482086
20
165.8378885
40
0.471777
50
154.1835823
51
167.250763
0
ARC
8
DEFAULT_255_1_234
10
16.8850553
20
165.8711417
40
0.4004528
50
134.3149965
51
154.5315275
0
ARC
8
DEFAULT_255_1_234
10
16.8633048
20
165.8902228
40
0.371612
50
122.8616532
51
133.9707695
0
ARC
8
DEFAULT_255_1_234
10
16.8529623
20
165.9124703
40
0.3473289
50
89.8249009
51
123.4199222
0
ARC
8
DEFAULT_255_1_234
10
16.8579664
20
165.8477967
40
0.4120197
50
74.7876118
51
90.5482747
0
ARC
8
DEFAULT_255_1_234
10
16.8873407
20
165.956303
40
0.2996077
50
39.8178249
51
74.7633718
0
ARC
8
DEFAULT_255_1_234
10
16.8360727
20
165.9163351
40
0.3645855
50
16.8990863
51
39.4829761
0
ARC
8
DEFAULT_255_1_234
10
16.6466024
20
165.8556526
40
0.5635218
50
4.9636328
51
17.2026414
0
ARC
8
DEFAULT_255_1_234
10
16.4048094
20
165.830134
40
0.8066286
50
359.8834553
51
5.2834307
0
ARC
8
DEFAULT_255_1_234
10
17.0085618
20
165.7732803
40
0.3859091
50
180.9846213
51
194.9401313
0
ARC
8
DEFAULT_255_1_234
10
16.9035896
20
165.7445849
40
0.2770883
50
194.80314
51
222.0412631
0
ARC
8
DEFAULT_255_1_234
10
16.8731778
20
165.7144116
40
0.2343055
50
221.5417084
51
268.8614402
0
ARC
8
DEFAULT_255_1_234
10
16.8804772
20
165.7820686
40
0.3021528
50
267.732405
51
270.0097136
0
ARC
8
DEFAULT_255_1_234
10
16.8822583
20
165.8022105
40
0.3222994
50
269.6924892
51
280.4117579
0
ARC
8
DEFAULT_255_1_234
10
16.8998989
20
165.7103193
40
0.2287344
50
280.2255091
51
298.6338936
0
ARC
8
DEFAULT_255_1_234
10
16.9115781
20
165.6859223
40
0.2017294
50
299.0430333
51
300.4643464
0
ARC
8
DEFAULT_255_1_234
10
16.8435787
20
165.7993038
40
0.3339357
50
300.6577328
51
322.0378878
0
ARC
8
DEFAULT_255_1_234
10
16.8085326
20
165.8297021
40
0.3802736
50
321.6750233
51
322.3046845
0
ARC
8
DEFAULT_255_1_234
10
16.9016287
20
165.713037
40
0.3520454
50
276.9728461
51
328.0035423
0
ARC
8
DEFAULT_255_1_234
10
16.873934
20
165.8610841
40
0.5024498
50
269.8361028
51
278.0581756
0
ARC
8
DEFAULT_255_1_234
10
16.8512077
20
165.9355757
40
0.202159
50
89.2018686
51
117.2851756
0
ARC
8
DEFAULT_255_1_234
10
16.8565246
20
165.9313752
40
0.2083484
50
118.0551165
51
137.4540413
0
ARC
8
DEFAULT_255_1_234
10
16.8939986
20
165.8973304
40
0.2589774
50
137.5109581
51
158.8516286
0
ARC
8
DEFAULT_255_1_234
10
17.0077822
20
165.8514074
40
0.38167
50
158.5845963
51
170.1721436
0
ARC
8
DEFAULT_255_1_234
10
17.1247211
20
165.8281823
40
0.5008657
50
169.8376422
51
173.0566086
0
ARC
8
DEFAULT_255_1_234
10
16.6550285
20
165.8792509
40
0.4083467
50
2.9091802
51
12.8847116
0
ARC
8
DEFAULT_255_1_234
10
16.7920962
20
165.9115101
40
0.2675383
50
12.6957781
51
28.6404489
0
ARC
8
DEFAULT_255_1_234
10
16.8462632
20
165.9395458
40
0.2065654
50
29.0169854
51
41.1487595
0
ARC
8
DEFAULT_255_1_234
10
16.8665418
20
165.9572003
40
0.1796786
50
41.1646065
51
85.0013516
0
ARC
8
DEFAULT_255_1_234
10
16.8544514
20
165.8837431
40
0.2539726
50
83.7280015
51
90.0964893
0
LINE
8
DEFAULT_255_1_234
10
18.0298702
20
165.9883248
11
17.8804799
21
165.9883248
0
LINE
8
DEFAULT_255_1_234
10
17.3471725
20
165.6421569
11
17.4957596
21
165.6421569
0
ARC
8
DEFAULT_255_1_234
10
17.7616617
20
165.6066959
40
0.1276617
50
359.3334982
51
18.5871358
0
ARC
8
DEFAULT_255_1_234
10
17.7825255
20
165.6122133
40
0.1061371
50
19.3540742
51
54.6485071
0
ARC
8
DEFAULT_255_1_234
10
17.7321157
20
165.5426919
40
0.1920087
50
54.3827097
51
65.0622807
0
ARC
8
DEFAULT_255_1_234
10
17.6552553
20
165.38099
40
0.3710447
50
64.8282493
51
71.4200025
0
ARC
8
DEFAULT_255_1_234
10
17.5650428
20
165.1163107
40
0.6506741
50
71.3164301
51
75.8006402
0
ARC
8
DEFAULT_255_1_234
10
17.4809248
20
164.7922561
40
0.9854641
50
75.6809531
51
78.0061883
0
ARC
8
DEFAULT_255_1_234
10
17.9257782
20
166.890177
40
1.1591028
50
254.6901892
51
258.0466452
0
ARC
8
DEFAULT_255_1_234
10
17.821969
20
166.5142781
40
0.7691345
50
249.9010773
51
254.755261
0
ARC
8
DEFAULT_255_1_234
10
17.7216032
20
166.2416982
40
0.478665
50
243.3097214
51
249.9709442
0
ARC
8
DEFAULT_255_1_234
10
17.6587053
20
166.1162778
40
0.3383568
50
234.4047477
51
243.2862168
0
ARC
8
DEFAULT_255_1_234
10
17.5964577
20
166.0303232
40
0.2322322
50
220.8667099
51
234.5493881
0
ARC
8
DEFAULT_255_1_234
10
17.5622518
20
165.9991817
40
0.1859923
50
214.3062465
51
220.5065136
0
ARC
8
DEFAULT_255_1_234
10
17.5596597
20
165.996088
40
0.1821108
50
186.912965
51
213.9618616
0
ARC
8
DEFAULT_255_1_234
10
17.6128692
20
166.0047009
40
0.2359799
50
179.8808832
51
187.4339886
0
ARC
8
DEFAULT_255_1_234
10
17.5973825
20
166.0067088
40
0.2204978
50
132.005434
51
180.3942919
0
ARC
8
DEFAULT_255_1_234
10
17.6630439
20
165.9461083
40
0.3095791
50
129.2319861
51
133.5302299
0
ARC
8
DEFAULT_255_1_234
10
17.6683947
20
165.9366928
40
0.3202615
50
100.4410011
51
128.9081242
0
ARC
8
DEFAULT_255_1_234
10
17.695783
20
165.8081455
40
0.4516583
50
89.6985377
51
100.9026564
0
ARC
8
DEFAULT_255_1_234
10
17.7014872
20
165.7921166
40
0.4676928
50
77.6965325
51
90.4076836
0
ARC
8
DEFAULT_255_1_234
10
17.7345857
20
165.9348413
40
0.3211988
50
50.7276602
51
78.0399361
0
ARC
8
DEFAULT_255_1_234
10
17.7790315
20
165.9866296
40
0.2529778
50
25.7545084
51
51.0957453
0
ARC
8
DEFAULT_255_1_234
10
17.779154
20
165.9916206
40
0.250738
50
359.2468627
51
24.7394243
0
ARC
8
DEFAULT_255_1_234
10
17.7506992
20
165.9887664
40
0.1297815
50
359.8050318
51
45.1544908
0
ARC
8
DEFAULT_255_1_234
10
17.7100133
20
165.9539794
40
0.1831883
50
43.8047702
51
49.6271585
0
ARC
8
DEFAULT_255_1_234
10
17.7108035
20
165.9540678
40
0.18261
50
49.7980766
51
82.1218353
0
ARC
8
DEFAULT_255_1_234
10
17.6989007
20
165.8893998
40
0.2483163
50
81.4465357
51
90.1710293
0
ARC
8
DEFAULT_255_1_234
10
17.696461
20
165.836788
40
0.300932
50
89.6766211
51
99.1264602
0
ARC
8
DEFAULT_255_1_234
10
17.6793071
20
165.9401537
40
0.1961547
50
98.968313
51
113.4570237
0
ARC
8
DEFAULT_255_1_234
10
17.6597156
20
165.9869965
40
0.1453859
50
113.722589
51
127.4763106
0
ARC
8
DEFAULT_255_1_234
10
17.6428803
20
166.0070124
40
0.1192639
50
126.9083309
51
150.3165862
0
ARC
8
DEFAULT_255_1_234
10
17.6381135
20
166.0120981
40
0.112623
50
151.3635175
51
180.0701457
0
ARC
8
DEFAULT_255_1_234
10
17.668992
20
166.009999
40
0.1435149
50
179.2169974
51
179.9954013
0
ARC
8
DEFAULT_255_1_234
10
17.6328977
20
166.0087056
40
0.1074286
50
179.3040112
51
198.4225446
0
ARC
8
DEFAULT_255_1_234
10
17.6137111
20
166.0037127
40
0.0876573
50
199.2895851
51
238.6034594
0
ARC
8
DEFAULT_255_1_234
10
17.6739957
20
166.098345
40
0.1998512
50
237.9846301
51
246.8744712
0
ARC
8
DEFAULT_255_1_234
10
17.7597902
20
166.2946205
40
0.4140547
50
246.6234531
51
251.8168941
0
ARC
8
DEFAULT_255_1_234
10
17.8628446
20
166.6040905
40
0.7402308
50
251.713434
51
255.0778414
0
ARC
8
DEFAULT_255_1_234
10
17.9827709
20
167.0507563
40
1.2027155
50
255.0367487
51
257.4705983
0
ARC
8
DEFAULT_255_1_234
10
17.4719718
20
164.7493863
40
1.1546601
50
73.6837552
51
77.5016755
0
ARC
8
DEFAULT_255_1_234
10
17.5808493
20
165.1193581
40
0.7690009
50
68.7044154
51
73.7249639
0
ARC
8
DEFAULT_255_1_234
10
17.6711514
20
165.3520654
40
0.5193873
50
63.590599
51
68.6626804
0
ARC
8
DEFAULT_255_1_234
10
17.7482533
20
165.5058123
40
0.3473927
50
54.7106439
51
63.7013633
0
ARC
8
DEFAULT_255_1_234
10
17.8106987
20
165.59304
40
0.2401192
50
41.0622434
51
54.8487496
0
ARC
8
DEFAULT_255_1_234
10
17.8448374
20
165.6243592
40
0.1938094
50
34.4950568
51
40.7105546
0
ARC
8
DEFAULT_255_1_234
10
17.8495181
20
165.6292078
40
0.1872106
50
9.3763373
51
34.0833615
0
ARC
8
DEFAULT_255_1_234
10
17.7842052
20
165.6166728
40
0.2536988
50
359.7694872
51
9.7663171
0
ARC
8
DEFAULT_255_1_234
10
17.8039552
20
165.6123764
40
0.2339696
50
335.8654732
51
0.8022045
0
ARC
8
DEFAULT_255_1_234
10
17.8114597
20
165.6137197
40
0.2277108
50
307.7357725
51
334.7849066
0
ARC
8
DEFAULT_255_1_234
10
17.7713773
20
165.6587645
40
0.2878951
50
307.0241536
51
308.5578354
0
ARC
8
DEFAULT_255_1_234
10
17.7456104
20
165.6973801
40
0.3342515
50
282.9362969
51
306.5646424
0
ARC
8
DEFAULT_255_1_234
10
17.7094401
20
165.8441108
40
0.4853615
50
271.1026298
51
283.2200835
0
ARC
8
DEFAULT_255_1_234
10
17.7030645
20
165.9682418
40
0.6096052
50
269.9919117
51
271.4772449
0
ARC
8
DEFAULT_255_1_234
10
17.70044
20
165.8604436
40
0.5018135
50
259.0723564
51
270.289833
0
ARC
8
DEFAULT_255_1_234
10
17.6792133
20
165.7487271
40
0.388099
50
245.4963068
51
259.0227342
0
ARC
8
DEFAULT_255_1_234
10
17.6514089
20
165.6905615
40
0.3236422
50
228.9684658
51
245.7044727
0
ARC
8
DEFAULT_255_1_234
10
17.6248533
20
165.6578575
40
0.2815426
50
214.4011705
51
228.6759915
0
ARC
8
DEFAULT_255_1_234
10
17.5959273
20
165.642029
40
0.2487548
50
179.9705531
51
215.1572795
0
ARC
8
DEFAULT_255_1_234
10
17.6659873
20
165.6493806
40
0.1703809
50
182.4299387
51
203.0329699
0
ARC
8
DEFAULT_255_1_234
10
17.6475531
20
165.6437396
40
0.1512226
50
203.798802
51
232.548466
0
ARC
8
DEFAULT_255_1_234
10
17.6752052
20
165.6788826
40
0.1959374
50
232.3782728
51
256.3934612
0
ARC
8
DEFAULT_255_1_234
10
17.6982414
20
165.7678842
40
0.2878639
50
256.104506
51
268.4626716
0
ARC
8
DEFAULT_255_1_234
10
17.7028898
20
165.8475487
40
0.3676329
50
268.0715632
51
270.0138206
0
ARC
8
DEFAULT_255_1_234
10
17.7047423
20
165.8203083
40
0.3403971
50
269.7031147
51
278.8341955
0
ARC
8
DEFAULT_255_1_234
10
17.7229516
20
165.7072876
40
0.2259217
50
278.6728789
51
292.8232582
0
ARC
8
DEFAULT_255_1_234
10
17.7430054
20
165.6571449
40
0.171929
50
293.1452328
51
303.6655899
0
ARC
8
DEFAULT_255_1_234
10
17.7694933
20
165.6195204
40
0.1259367
50
303.1248165
51
321.742847
0
ARC
8
DEFAULT_255_1_234
10
17.7880813
20
165.6032156
40
0.1012531
50
322.4748573
51
1.1291126
0
LINE
8
DEFAULT_255_2_778
10
9.3932417
20
148.034398
11
10.7161417
21
148.034398
0
LINE
8
DEFAULT_255_2_778
10
10.7161417
20
148.034398
11
10.7161417
21
79.242698
0
LINE
8
DEFAULT_255_2_778
10
10.7161417
20
73.951098
11
10.7161417
21
5.159398
0
LINE
8
DEFAULT_255_2_778
10
10.7161417
20
5.159398
11
9.3932417
21
5.159398
0
LINE
8
DEFAULT_255_2_778
10
9.3932834
20
79.2427333
11
12.0390834
21
79.2427333
0
LINE
8
DEFAULT_255_2_778
10
12.0390834
20
79.2427333
11
12.0390834
21
73.9510333
0
LINE
8
DEFAULT_255_2_778
10
12.0390834
20
73.9510333
11
9.3932834
21
73.9510333
0
LINE
8
DEFAULT_255_2_778
10
9.3932834
20
73.9510333
11
9.3932834
21
79.2427333
0
LINE
8
DEFAULT_255_2_778
10
10.187
20
74.4802666
11
10.187
21
78.7135666
0
LINE
8
DEFAULT_255_2_778
10
9.9224167
20
77.919875
11
10.1870167
21
78.713575
0
LINE
8
DEFAULT_255_2_778
10
10.1870167
20
78.713575
11
10.4516167
21
77.919875
0
LINE
8
DEFAULT_255_2_778
10
10.4516167
20
77.919875
11
9.9224167
21
77.919875
0
LINE
8
DEFAULT_255_2_778
10
11.2453
20
78.7135666
11
11.2453
21
74.4802666
0
LINE
8
DEFAULT_255_2_778
10
10.9807167
20
75.273975
11
11.2453167
21
74.480275
0
LINE
8
DEFAULT_255_2_778
10
11.2453167
20
74.480275
11
11.5099167
21
75.273975
0
LINE
8
DEFAULT_255_2_778
10
11.5099167
20
75.273975
11
10.9807167
21
75.273975
0
LINE
8
DEFAULT_255_2_778
10
19.9765417
20
158.6176998
11
18.6536417
21
158.6176998
0
LINE
8
DEFAULT_255_2_778
10
18.6536417
20
158.6176998
11
18.6536417
21
153.3259998
0
LINE
8
DEFAULT_255_2_778
10
18.6536417
20
148.0343998
11
18.6536417
21
142.7426998
0
LINE
8
DEFAULT_255_2_778
10
18.6536417
20
142.7426998
11
19.9765417
21
142.7426998
0
LINE
8
DEFAULT_255_2_778
10
17.3307834
20
153.3260333
11
19.9765834
21
153.3260333
0
LINE
8
DEFAULT_255_2_778
10
19.9765834
20
153.3260333
11
19.9765834
21
148.0343333
0
LINE
8
DEFAULT_255_2_778
10
19.9765834
20
148.0343333
11
17.3307834
21
148.0343333
0
LINE
8
DEFAULT_255_2_778
10
17.3307834
20
148.0343333
11
17.3307834
21
153.3260333
0
LINE
8
DEFAULT_255_2_778
10
18.1245
20
148.5635666
11
18.1245
21
152.7968666
0
LINE
8
DEFAULT_255_2_778
10
17.8599167
20
152.003175
11
18.1245167
21
152.796875
0
LINE
8
DEFAULT_255_2_778
10
18.1245167
20
152.796875
11
18.3891167
21
152.003175
0
LINE
8
DEFAULT_255_2_778
10
18.3891167
20
152.003175
11
17.8599167
21
152.003175
0
LINE
8
DEFAULT_255_2_778
10
19.1828
20
152.7968666
11
19.1828
21
148.5635666
0
LINE
8
DEFAULT_255_2_778
10
18.9182167
20
149.357275
11
19.1828167
21
148.563575
0
LINE
8
DEFAULT_255_2_778
10
19.1828167
20
148.563575
11
19.4474167
21
149.357275
0
LINE
8
DEFAULT_255_2_778
10
19.4474167
20
149.357275
11
18.9182167
21
149.357275
0
LINE
8
DEFAULT_255_1_234
10
4.9274119
20
163.5116792
11
4.9274119
21
163.3904
0
LINE
8
DEFAULT_255_1_234
10
4.9274119
20
163.3904
11
4.161184
21
163.3904
0
LINE
8
DEFAULT_255_1_234
10
4.161184
20
163.3904
11
4.161184
21
163.4972221
0
LINE
8
DEFAULT_255_1_234
10
4.161184
20
163.4972221
11
4.5659836
21
163.9469995
0
LINE
8
DEFAULT_255_1_234
10
4.2872823
20
164.2152595
11
4.1386952
21
164.2152595
0
LINE
8
DEFAULT_255_1_234
10
4.6535296
20
163.8514218
11
4.3402918
21
163.5116792
0
LINE
8
DEFAULT_255_1_234
10
4.3402918
20
163.5116792
11
4.9274119
21
163.5116792
0
ARC
8
DEFAULT_255_1_234
10
3.216967
20
165.1399527
40
1.8008286
50
318.5132453
51
320.7828378
0
ARC
8
DEFAULT_255_1_234
10
3.7456644
20
164.7096426
40
1.1191493
50
320.7372736
51
323.9737074
0
ARC
8
DEFAULT_255_1_234
10
4.1376501
20
164.4256361
40
0.6350923
50
323.8961724
51
328.6421089
0
ARC
8
DEFAULT_255_1_234
10
4.3423096
20
164.2994031
40
0.3946393
50
328.8299013
51
331.789948
0
ARC
8
DEFAULT_255_1_234
10
4.4420274
20
164.2479509
40
0.2824501
50
331.4255242
51
352.9364833
0
ARC
8
DEFAULT_255_1_234
10
4.4556775
20
164.2448976
40
0.2685315
50
353.2248685
51
0.0169286
0
ARC
8
DEFAULT_255_1_234
10
4.4766652
20
164.247195
40
0.2475536
50
359.4866256
51
15.9339782
0
ARC
8
DEFAULT_255_1_234
10
4.5273637
20
164.2608286
40
0.1950618
50
16.1714718
51
43.5284424
0
ARC
8
DEFAULT_255_1_234
10
4.5350946
20
164.2685573
40
0.184134
50
43.4415429
51
83.1661404
0
ARC
8
DEFAULT_255_1_234
10
4.5216864
20
164.1948771
40
0.258926
50
82.160215
51
90.1505798
0
ARC
8
DEFAULT_255_1_234
10
4.5185291
20
164.1411865
40
0.3126255
50
89.5460705
51
102.5418777
0
ARC
8
DEFAULT_255_1_234
10
4.4942377
20
164.2442665
40
0.2067346
50
102.1739365
51
129.2061916
0
ARC
8
DEFAULT_255_1_234
10
4.4863449
20
164.2567094
40
0.1921118
50
129.7279328
51
135.7542026
0
ARC
8
DEFAULT_255_1_234
10
4.4984977
20
164.2470045
40
0.2075944
50
136.175737
51
166.3674722
0
ARC
8
DEFAULT_255_1_234
10
4.5991896
20
164.2200182
40
0.3118201
50
165.9092917
51
178.8683903
0
ARC
8
DEFAULT_255_1_234
10
4.6856757
20
164.2153179
40
0.3983935
50
178.438168
51
180.0083905
0
ARC
8
DEFAULT_255_1_234
10
4.5455359
20
164.2192231
40
0.4068601
50
163.2878735
51
180.5581814
0
ARC
8
DEFAULT_255_1_234
10
4.4653621
20
164.241284
40
0.3237344
50
133.454115
51
162.9470031
0
ARC
8
DEFAULT_255_1_234
10
4.4832162
20
164.2223
40
0.349795
50
100.7869394
51
133.4384016
0
ARC
8
DEFAULT_255_1_234
10
4.5179934
20
164.0674319
40
0.5084616
50
89.6605301
51
101.3704185
0
ARC
8
DEFAULT_255_1_234
10
4.5246273
20
164.0735496
40
0.502348
50
78.2171172
51
90.4130393
0
ARC
8
DEFAULT_255_1_234
10
4.5601351
20
164.2359637
40
0.3361092
50
55.9268222
51
78.4888551
0
ARC
8
DEFAULT_255_1_234
10
4.5797791
20
164.2698324
40
0.2970617
50
47.9292255
51
55.4054003
0
ARC
8
DEFAULT_255_1_234
10
4.5899352
20
164.2801502
40
0.2825983
50
4.3347696
51
48.0560701
0
ARC
8
DEFAULT_255_1_234
10
4.4803745
20
164.2631601
40
0.393225
50
359.925209
51
5.5967654
0
ARC
8
DEFAULT_255_1_234
10
4.5232637
20
164.2687816
40
0.3503892
50
337.8914096
51
358.9967724
0
ARC
8
DEFAULT_255_1_234
10
4.2519049
20
164.3734706
40
0.6412172
50
326.9135351
51
338.3505194
0
ARC
8
DEFAULT_255_1_234
10
3.8533353
20
164.6289284
40
1.1146189
50
319.6472867
51
327.095818
0
ARC
8
DEFAULT_255_1_234
10
3.4700356
20
164.9451
40
1.6114559
50
317.2586784
51
319.9046139
0
LINE
8
DEFAULT_255_1_234
10
5.7121127
20
164.5598211
11
5.7121127
21
163.783152
0
LINE
8
DEFAULT_255_1_234
10
5.7121127
20
163.783152
11
5.8743538
21
163.783152
0
LINE
8
DEFAULT_255_1_234
10
5.8743538
20
163.783152
11
5.8743538
21
163.6618728
0
LINE
8
DEFAULT_255_1_234
10
5.8743538
20
163.6618728
11
5.7121127
21
163.6618728
0
LINE
8
DEFAULT_255_1_234
10
5.7121127
20
163.6618728
11
5.7121127
21
163.3904
0
LINE
8
DEFAULT_255_1_234
10
5.7121127
20
163.3904
11
5.5627224
21
163.3904
0
LINE
8
DEFAULT_255_1_234
10
5.5627224
20
163.3904
11
5.5627224
21
163.6618728
0
LINE
8
DEFAULT_255_1_234
10
5.5627224
20
163.6618728
11
5.0302181
21
163.6618728
0
LINE
8
DEFAULT_255_1_234
10
5.0302181
20
163.6618728
11
5.0302181
21
163.7494187
0
LINE
8
DEFAULT_255_1_234
10
5.0302181
20
163.7494187
11
5.5538875
21
164.5598211
0
LINE
8
DEFAULT_255_1_234
10
5.5538875
20
164.5598211
11
5.7121127
21
164.5598211
0
LINE
8
DEFAULT_255_1_234
10
5.5450525
20
164.3244912
11
5.1988846
21
163.783152
0
LINE
8
DEFAULT_255_1_234
10
5.1988846
20
163.783152
11
5.5627224
21
163.783152
0
LINE
8
DEFAULT_255_1_234
10
5.5627224
20
163.783152
11
5.5627224
21
164.3566181
0
LINE
8
DEFAULT_255_1_234
10
5.5627224
20
164.3566181
11
5.5450525
21
164.3244912
0
LINE
8
DEFAULT_255_1_234
10
6.101652
20
164.5598211
11
6.434166
21
163.5952093
0
LINE
8
DEFAULT_255_1_234
10
6.434166
20
163.5952093
11
6.7682863
21
164.5598211
0
LINE
8
DEFAULT_255_1_234
10
6.7682863
20
164.5598211
11
6.9369528
21
164.5598211
0
LINE
8
DEFAULT_255_1_234
10
6.9369528
20
164.5598211
11
6.5032389
21
163.3904
0
LINE
8
DEFAULT_255_1_234
10
6.5032389
20
163.3904
11
6.3666994
21
163.3904
0
LINE
8
DEFAULT_255_1_234
10
6.3666994
20
163.3904
11
5.9337887
21
164.5598211
0
LINE
8
DEFAULT_255_1_234
10
5.9337887
20
164.5598211
11
6.101652
21
164.5598211
0
LINE
8
DEFAULT_255_1_234
10
4.5073392
20
4.6404
11
4.1017364
21
4.6404
0
LINE
8
DEFAULT_255_1_234
10
4.1017364
20
4.6404
11
4.1017364
21
5.8098211
0
LINE
8
DEFAULT_255_1_234
10
4.1017364
20
5.8098211
11
4.4840471
21
5.8098211
0
LINE
8
DEFAULT_255_1_234
10
4.5129614
20
5.1873614
11
4.2559458
21
5.1873614
0
LINE
8
DEFAULT_255_1_234
10
4.2559458
20
5.1873614
11
4.2559458
21
4.7664983
0
LINE
8
DEFAULT_255_1_234
10
4.2559458
20
4.7664983
11
4.5105519
21
4.7664983
0
LINE
8
DEFAULT_255_1_234
10
4.2559458
20
5.6829196
11
4.2559458
21
5.3110501
0
LINE
8
DEFAULT_255_1_234
10
4.2559458
20
5.3110501
11
4.4888662
21
5.3110501
0
LINE
8
DEFAULT_255_1_234
10
4.4840471
20
5.6829196
11
4.2559458
21
5.6829196
0
ARC
8
DEFAULT_255_1_234
10
4.487818
20
5.0730901
40
0.7367406
50
82.1257326
51
90.2932599
0
ARC
8
DEFAULT_255_1_234
10
4.5267135
20
5.3449013
40
0.4621653
50
69.9044149
51
82.2857423
0
ARC
8
DEFAULT_255_1_234
10
4.5837813
20
5.4991637
40
0.2976871
50
51.1838526
51
70.0181538
0
ARC
8
DEFAULT_255_1_234
10
4.6092779
20
5.536224
40
0.2528517
50
12.1017251
51
50.4214761
0
ARC
8
DEFAULT_255_1_234
10
4.4708653
20
5.5014676
40
0.3955061
50
359.5251267
51
12.8211707
0
ARC
8
DEFAULT_255_1_234
10
4.6288579
20
5.4945344
40
0.2375281
50
323.4908128
51
0.8817314
0
ARC
8
DEFAULT_255_1_234
10
4.5870266
20
5.526855
40
0.2903817
50
298.6825083
51
323.2756573
0
ARC
8
DEFAULT_255_1_234
10
4.5508629
20
5.5869649
40
0.3604842
50
293.1999386
51
299.1396394
0
ARC
8
DEFAULT_255_1_234
10
4.6181602
20
4.9784126
40
0.2871098
50
54.0011765
51
74.9167975
0
ARC
8
DEFAULT_255_1_234
10
4.6297961
20
4.9981332
40
0.2643248
50
36.3580696
51
53.5291921
0
ARC
8
DEFAULT_255_1_234
10
4.6171203
20
4.9890998
40
0.2798884
50
4.8189881
51
36.3089977
0
ARC
8
DEFAULT_255_1_234
10
4.5392038
20
4.978127
40
0.358478
50
359.9370252
51
5.5204067
0
ARC
8
DEFAULT_255_1_234
10
4.506756
20
4.9740667
40
0.3909429
50
344.7478609
51
0.5373281
0
ARC
8
DEFAULT_255_1_234
10
4.6058531
20
4.9473544
40
0.2883093
50
311.1786488
51
344.6886812
0
ARC
8
DEFAULT_255_1_234
10
4.5766578
20
4.9836987
40
0.3348923
50
286.0418249
51
310.8441291
0
ARC
8
DEFAULT_255_1_234
10
4.525941
20
5.1483807
40
0.5071869
50
274.1042341
51
286.4071509
0
ARC
8
DEFAULT_255_1_234
10
4.5082666
20
5.3367229
40
0.6963234
50
269.9236873
51
274.445647
0
ARC
8
DEFAULT_255_1_234
10
4.5128667
20
5.1027537
40
0.3362634
50
269.6055768
51
281.3740047
0
ARC
8
DEFAULT_255_1_234
10
4.5359305
20
4.9934353
40
0.224546
50
281.1055983
51
302.5132223
0
ARC
8
DEFAULT_255_1_234
10
4.5506204
20
4.9670823
40
0.1944357
50
303.0368945
51
311.8811219
0
ARC
8
DEFAULT_255_1_234
10
4.5577611
20
4.958589
40
0.1833454
50
311.9916004
51
351.7143462
0
ARC
8
DEFAULT_255_1_234
10
4.4760841
20
4.975093
40
0.2665871
50
350.7339597
51
0.2221581
0
ARC
8
DEFAULT_255_1_234
10
4.4653287
20
4.9807467
40
0.2773789
50
359.0456241
51
17.2296242
0
ARC
8
DEFAULT_255_1_234
10
4.5692404
20
5.0116163
40
0.1689915
50
17.6685481
51
78.9940892
0
ARC
8
DEFAULT_255_1_234
10
4.5175568
20
4.8261224
40
0.3612658
50
76.5635957
51
90.6980921
0
LINE
8
DEFAULT_255_1_234
10
4.5131552
20
5.1873613
11
4.5129614
21
5.1873614
0
ARC
8
DEFAULT_255_1_234
10
4.4911228
20
5.6396036
40
0.3285612
50
269.6064736
51
281.4533503
0
ARC
8
DEFAULT_255_1_234
10
4.5134048
20
5.5344688
40
0.2210975
50
281.2041486
51
302.5148063
0
ARC
8
DEFAULT_255_1_234
10
4.5270898
20
5.5098241
40
0.1929674
50
303.021671
51
309.8369575
0
ARC
8
DEFAULT_255_1_234
10
4.5454359
20
5.4892488
40
0.1654181
50
309.5228395
51
356.9509836
0
ARC
8
DEFAULT_255_1_234
10
4.4790942
20
5.4987932
40
0.2322512
50
355.4701227
51
0.0492546
0
ARC
8
DEFAULT_255_1_234
10
4.4512033
20
5.5010094
40
0.2601498
50
359.5558597
51
11.2096359
0
ARC
8
DEFAULT_255_1_234
10
4.5469323
20
5.520823
40
0.1623975
50
10.9182341
51
31.3230275
0
ARC
8
DEFAULT_255_1_234
10
4.5755056
20
5.5367214
40
0.1297302
50
31.8852677
51
52.1412565
0
ARC
8
DEFAULT_255_1_234
10
4.5480789
20
5.497975
40
0.1771663
50
52.8285564
51
71.9850297
0
ARC
8
DEFAULT_255_1_234
10
4.5104965
20
5.3873664
40
0.2939794
50
71.6863486
51
82.8455995
0
ARC
8
DEFAULT_255_1_234
10
4.4865501
20
5.2064149
40
0.476506
50
82.6984714
51
90.1729175
0
ARC
8
DEFAULT_255_1_234
10
4.4843136
20
5.3287623
40
0.3541573
50
89.8708275
51
90.0431131
0
LINE
8
DEFAULT_255_1_234
10
5.8422141
20
5.8098211
11
5.8422141
21
5.726291
0
LINE
8
DEFAULT_255_1_234
10
5.8422141
20
5.726291
11
5.3579002
21
4.6404
0
LINE
8
DEFAULT_255_1_234
10
5.3579002
20
4.6404
11
5.2020845
21
4.6404
0
LINE
8
DEFAULT_255_1_234
10
5.2020845
20
4.6404
11
5.684792
21
5.6877387
0
LINE
8
DEFAULT_255_1_234
10
5.684792
20
5.6877387
11
5.051891
21
5.6877387
0
LINE
8
DEFAULT_255_1_234
10
5.051891
20
5.6877387
11
5.051891
21
5.8098211
0
LINE
8
DEFAULT_255_1_234
10
5.051891
20
5.8098211
11
5.8422141
21
5.8098211
0
LINE
8
DEFAULT_255_1_234
10
4.9677293
20
9.932
11
4.8560881
21
10.2372061
0
LINE
8
DEFAULT_255_1_234
10
4.8560881
20
10.2372061
11
4.3661521
21
10.2372061
0
LINE
8
DEFAULT_255_1_234
10
4.3661521
20
10.2372061
11
4.2561173
21
9.932
0
LINE
8
DEFAULT_255_1_234
10
4.2561173
20
9.932
11
4.0970889
21
9.932
0
LINE
8
DEFAULT_255_1_234
10
4.0970889
20
9.932
11
4.5436535
21
11.1014211
0
LINE
8
DEFAULT_255_1_234
10
4.5436535
20
11.1014211
11
4.6785867
21
11.1014211
0
LINE
8
DEFAULT_255_1_234
10
4.6785867
20
11.1014211
11
5.1259545
21
9.932
0
LINE
8
DEFAULT_255_1_234
10
5.1259545
20
9.932
11
4.9677293
21
9.932
0
LINE
8
DEFAULT_255_1_234
10
4.6111201
20
10.9110689
11
4.4127362
21
10.3641075
0
LINE
8
DEFAULT_255_1_234
10
4.4127362
20
10.3641075
11
4.8103072
21
10.3641075
0
LINE
8
DEFAULT_255_1_234
10
4.8103072
20
10.3641075
11
4.6111201
21
10.9110689
0
LINE
8
DEFAULT_255_1_234
10
5.9998077
20
11.1014211
11
5.9998077
21
11.017891
0
LINE
8
DEFAULT_255_1_234
10
5.9998077
20
11.017891
11
5.5154938
21
9.932
0
LINE
8
DEFAULT_255_1_234
10
5.5154938
20
9.932
11
5.3596781
21
9.932
0
LINE
8
DEFAULT_255_1_234
10
5.3596781
20
9.932
11
5.8423856
21
10.9793387
0
LINE
8
DEFAULT_255_1_234
10
5.8423856
20
10.9793387
11
5.2094846
21
10.9793387
0
LINE
8
DEFAULT_255_1_234
10
5.2094846
20
10.9793387
11
5.2094846
21
11.1014211
0
LINE
8
DEFAULT_255_1_234
10
5.2094846
20
11.1014211
11
5.9998077
21
11.1014211
0
LINE
8
DEFAULT_255_1_234
10
4.5073392
20
15.2237
11
4.1017364
21
15.2237
0
LINE
8
DEFAULT_255_1_234
10
4.1017364
20
15.2237
11
4.1017364
21
16.3931211
0
LINE
8
DEFAULT_255_1_234
10
4.1017364
20
16.3931211
11
4.4840471
21
16.3931211
0
LINE
8
DEFAULT_255_1_234
10
4.5129614
20
15.7706614
11
4.2559458
21
15.7706614
0
LINE
8
DEFAULT_255_1_234
10
4.2559458
20
15.7706614
11
4.2559458
21
15.3497983
0
LINE
8
DEFAULT_255_1_234
10
4.2559458
20
15.3497983
11
4.5105519
21
15.3497983
0
LINE
8
DEFAULT_255_1_234
10
4.2559458
20
16.2662196
11
4.2559458
21
15.8943501
0
LINE
8
DEFAULT_255_1_234
10
4.2559458
20
15.8943501
11
4.4888662
21
15.8943501
0
LINE
8
DEFAULT_255_1_234
10
4.4840471
20
16.2662196
11
4.2559458
21
16.2662196
0
ARC
8
DEFAULT_255_1_234
10
4.487818
20
15.6563901
40
0.7367406
50
82.1257326
51
90.2932599
0
ARC
8
DEFAULT_255_1_234
10
4.5267135
20
15.9282013
40
0.4621653
50
69.9044149
51
82.2857423
0
ARC
8
DEFAULT_255_1_234
10
4.5837813
20
16.0824637
40
0.2976871
50
51.1838526
51
70.0181538
0
ARC
8
DEFAULT_255_1_234
10
4.6092779
20
16.119524
40
0.2528517
50
12.1017251
51
50.4214761
0
ARC
8
DEFAULT_255_1_234
10
4.4708653
20
16.0847676
40
0.3955061
50
359.5251267
51
12.8211707
0
ARC
8
DEFAULT_255_1_234
10
4.6288579
20
16.0778344
40
0.2375281
50
323.4908128
51
0.8817314
0
ARC
8
DEFAULT_255_1_234
10
4.5870266
20
16.110155
40
0.2903817
50
298.6825083
51
323.2756573
0
ARC
8
DEFAULT_255_1_234
10
4.5508629
20
16.1702649
40
0.3604842
50
293.1999386
51
299.1396394
0
ARC
8
DEFAULT_255_1_234
10
4.6181602
20
15.5617126
40
0.2871098
50
54.0011765
51
74.9167975
0
ARC
8
DEFAULT_255_1_234
10
4.6297961
20
15.5814332
40
0.2643248
50
36.3580696
51
53.5291921
0
ARC
8
DEFAULT_255_1_234
10
4.6171203
20
15.5723998
40
0.2798884
50
4.8189881
51
36.3089977
0
ARC
8
DEFAULT_255_1_234
10
4.5392038
20
15.561427
40
0.358478
50
359.9370252
51
5.5204067
0
ARC
8
DEFAULT_255_1_234
10
4.506756
20
15.5573667
40
0.3909429
50
344.7478609
51
0.5373281
0
ARC
8
DEFAULT_255_1_234
10
4.6058531
20
15.5306544
40
0.2883093
50
311.1786488
51
344.6886812
0
ARC
8
DEFAULT_255_1_234
10
4.5766578
20
15.5669987
40
0.3348923
50
286.0418249
51
310.8441291
0
ARC
8
DEFAULT_255_1_234
10
4.525941
20
15.7316807
40
0.5071869
50
274.1042341
51
286.4071509
0
ARC
8
DEFAULT_255_1_234
10
4.5082666
20
15.9200229
40
0.6963234
50
269.9236873
51
274.445647
0
ARC
8
DEFAULT_255_1_234
10
4.5128667
20
15.6860537
40
0.3362634
50
269.6055768
51
281.3740047
0
ARC
8
DEFAULT_255_1_234
10
4.5359305
20
15.5767353
40
0.224546
50
281.1055983
51
302.5132223
0
ARC
8
DEFAULT_255_1_234
10
4.5506204
20
15.5503823
40
0.1944357
50
303.0368945
51
311.8811219
0
ARC
8
DEFAULT_255_1_234
10
4.5577611
20
15.541889
40
0.1833454
50
311.9916004
51
351.7143462
0
ARC
8
DEFAULT_255_1_234
10
4.4760841
20
15.558393
40
0.2665871
50
350.7339597
51
0.2221581
0
ARC
8
DEFAULT_255_1_234
10
4.4653287
20
15.5640467
40
0.2773789
50
359.0456241
51
17.2296242
0
ARC
8
DEFAULT_255_1_234
10
4.5692404
20
15.5949163
40
0.1689915
50
17.6685481
51
78.9940892
0
ARC
8
DEFAULT_255_1_234
10
4.5175568
20
15.4094224
40
0.3612658
50
76.5635957
51
90.6980921
0
LINE
8
DEFAULT_255_1_234
10
4.5131552
20
15.7706613
11
4.5129614
21
15.7706614
0
ARC
8
DEFAULT_255_1_234
10
4.4911228
20
16.2229036
40
0.3285612
50
269.6064736
51
281.4533503
0
ARC
8
DEFAULT_255_1_234
10
4.5134048
20
16.1177688
40
0.2210975
50
281.2041486
51
302.5148063
0
ARC
8
DEFAULT_255_1_234
10
4.5270898
20
16.0931241
40
0.1929674
50
303.021671
51
309.8369575
0
ARC
8
DEFAULT_255_1_234
10
4.5454359
20
16.0725488
40
0.1654181
50
309.5228395
51
356.9509836
0
ARC
8
DEFAULT_255_1_234
10
4.4790942
20
16.0820932
40
0.2322512
50
355.4701227
51
0.0492546
0
ARC
8
DEFAULT_255_1_234
10
4.4512033
20
16.0843094
40
0.2601498
50
359.5558597
51
11.2096359
0
ARC
8
DEFAULT_255_1_234
10
4.5469323
20
16.104123
40
0.1623975
50
10.9182341
51
31.3230275
0
ARC
8
DEFAULT_255_1_234
10
4.5755056
20
16.1200214
40
0.1297302
50
31.8852677
51
52.1412565
0
ARC
8
DEFAULT_255_1_234
10
4.5480789
20
16.081275
40
0.1771663
50
52.8285564
51
71.9850297
0
ARC
8
DEFAULT_255_1_234
10
4.5104965
20
15.9706664
40
0.2939794
50
71.6863486
51
82.8455995
0
ARC
8
DEFAULT_255_1_234
10
4.4865501
20
15.7897149
40
0.476506
50
82.6984714
51
90.1729175
0
ARC
8
DEFAULT_255_1_234
10
4.4843136
20
15.9120623
40
0.3541573
50
89.8708275
51
90.0431131
0
ARC
8
DEFAULT_255_1_234
10
5.514209
20
16.0853703
40
0.2822356
50
338.8763615
51
0.5166041
0
ARC
8
DEFAULT_255_1_234
10
5.5310745
20
16.0808208
40
0.2648703
50
325.8412414
51
338.4795939
0
ARC
8
DEFAULT_255_1_234
10
5.4920112
20
16.1079042
40
0.3124019
50
296.7586019
51
325.753654
0
ARC
8
DEFAULT_255_1_234
10
5.4632221
20
16.1563789
40
0.368668
50
296.0902311
51
297.3618122
0
ARC
8
DEFAULT_255_1_234
10
5.4889678
20
15.5009041
40
0.3518806
50
47.9009248
51
67.1946869
0
ARC
8
DEFAULT_255_1_234
10
5.508592
20
15.5255395
40
0.320451
50
35.236241
51
47.551371
0
ARC
8
DEFAULT_255_1_234
10
5.5347538
20
15.5429993
40
0.2890103
50
359.2759738
51
35.4014081
0
ARC
8
DEFAULT_255_1_234
10
5.4602569
20
15.5356826
40
0.3635026
50
343.1294516
51
0.5776525
0
ARC
8
DEFAULT_255_1_234
10
5.5327114
20
15.515733
40
0.2883832
50
310.8497458
51
342.744803
0
ARC
8
DEFAULT_255_1_234
10
5.4909228
20
15.5634294
40
0.3517954
50
281.5473923
51
310.9169905
0
ARC
8
DEFAULT_255_1_234
10
5.4552677
20
15.7187084
40
0.5110832
50
269.6192722
51
281.9789957
0
ARC
8
DEFAULT_255_1_234
10
5.4480466
20
15.7187828
40
0.5111606
50
257.4584469
51
270.4287458
0
ARC
8
DEFAULT_255_1_234
10
5.4099609
20
15.5584344
40
0.3463762
50
228.7553743
51
257.8484423
0
ARC
8
DEFAULT_255_1_234
10
5.3789807
20
15.5211442
40
0.297916
50
184.0104442
51
228.5071787
0
ARC
8
DEFAULT_255_1_234
10
5.4952751
20
15.5388512
40
0.4152734
50
179.9315461
51
185.3254504
0
ARC
8
DEFAULT_255_1_234
10
5.3776397
20
15.5425992
40
0.2976554
50
145.6795913
51
180.6259649
0
ARC
8
DEFAULT_255_1_234
10
5.3939746
20
15.5311929
40
0.3175776
50
115.5537925
51
145.6416199
0
ARC
8
DEFAULT_255_1_234
10
5.4280677
20
15.4701028
40
0.3874232
50
113.2437915
51
116.2054627
0
ARC
8
DEFAULT_255_1_234
10
5.4127889
20
16.109958
40
0.3154751
50
222.9548379
51
244.1372485
0
ARC
8
DEFAULT_255_1_234
10
5.4005964
20
16.0962834
40
0.2972382
50
213.3439227
51
222.6271327
0
ARC
8
DEFAULT_255_1_234
10
5.3813899
20
16.0832308
40
0.274019
50
180.4316517
51
213.2713999
0
ARC
8
DEFAULT_255_1_234
10
5.43889
20
16.087911
40
0.33158
50
179.9992944
51
181.1655061
0
ARC
8
DEFAULT_255_1_234
10
5.4798317
20
16.0913561
40
0.3725376
50
164.6186108
51
180.5292368
0
ARC
8
DEFAULT_255_1_234
10
5.390018
20
16.1155101
40
0.2795349
50
132.2454369
51
164.5092287
0
ARC
8
DEFAULT_255_1_234
10
5.4187284
20
16.0830028
40
0.3229019
50
100.7052766
51
132.1387266
0
ARC
8
DEFAULT_255_1_234
10
5.4492257
20
15.9452086
40
0.4639835
50
89.6732617
51
101.2449487
0
ARC
8
DEFAULT_255_1_234
10
5.4554455
20
15.962699
40
0.4464999
50
76.2876631
51
90.4586123
0
ARC
8
DEFAULT_255_1_234
10
5.4860686
20
16.084922
40
0.3205023
50
47.8240157
51
76.4266918
0
ARC
8
DEFAULT_255_1_234
10
5.5083236
20
16.110959
40
0.2862661
50
6.9168658
51
47.6261438
0
ARC
8
DEFAULT_255_1_234
10
5.3896639
20
16.089037
40
0.4067708
50
359.8419705
51
7.9694496
0
ARC
8
DEFAULT_255_1_234
10
5.4238536
20
15.5449925
40
0.2513121
50
359.4454068
51
16.9256425
0
ARC
8
DEFAULT_255_1_234
10
5.4707347
20
15.5579033
40
0.2027071
50
17.292259
51
45.462717
0
ARC
8
DEFAULT_255_1_234
10
5.4653283
20
15.5532434
40
0.2098212
50
45.3028762
51
83.1921472
0
ARC
8
DEFAULT_255_1_234
10
5.4509967
20
15.4730895
40
0.2911472
50
82.2614531
51
90.143954
0
ARC
8
DEFAULT_255_1_234
10
5.4479087
20
15.496395
40
0.2678513
50
89.4959189
51
104.8579811
0
ARC
8
DEFAULT_255_1_234
10
5.4302346
20
15.563389
40
0.1985654
50
104.8855873
51
135.2448349
0
ARC
8
DEFAULT_255_1_234
10
5.4352119
20
15.5589336
40
0.2052373
50
135.3398955
51
172.104394
0
ARC
8
DEFAULT_255_1_234
10
5.5159177
20
15.5434925
40
0.2873299
50
171.2651929
51
180.1859362
0
ARC
8
DEFAULT_255_1_234
10
5.4989878
20
15.5402733
40
0.2704083
50
179.515471
51
193.6466734
0
ARC
8
DEFAULT_255_1_234
10
5.4173647
20
15.5194777
40
0.1861855
50
193.3540587
51
225.8256931
0
ARC
8
DEFAULT_255_1_234
10
5.4214405
20
15.5265524
40
0.1941102
50
226.418029
51
255.8553723
0
ARC
8
DEFAULT_255_1_234
10
5.4470837
20
15.6201998
40
0.2911917
50
255.4655572
51
268.7985967
0
ARC
8
DEFAULT_255_1_234
10
5.4518029
20
15.7040491
40
0.3751331
50
268.3464808
51
270.0104874
0
ARC
8
DEFAULT_255_1_234
10
5.4541417
20
15.6356138
40
0.3067064
50
269.575914
51
282.0823146
0
ARC
8
DEFAULT_255_1_234
10
5.4766326
20
15.5361803
40
0.2047712
50
281.7522535
51
306.6056425
0
ARC
8
DEFAULT_255_1_234
10
5.4864753
20
15.5200487
40
0.1859604
50
307.1350025
51
314.0277951
0
ARC
8
DEFAULT_255_1_234
10
5.4828837
20
15.5226766
40
0.1903475
50
314.2553419
51
350.169324
0
ARC
8
DEFAULT_255_1_234
10
5.3977305
20
15.5411409
40
0.2774269
50
349.4145679
51
0.2930737
0
ARC
8
DEFAULT_255_1_234
10
5.4497738
20
16.0570353
40
0.2300764
50
89.477591
51
105.729794
0
ARC
8
DEFAULT_255_1_234
10
5.4361652
20
16.1075637
40
0.1777519
50
105.922966
51
135.1662921
0
ARC
8
DEFAULT_255_1_234
10
5.4382154
20
16.1061419
40
0.1802087
50
135.3053131
51
168.9882338
0
ARC
8
DEFAULT_255_1_234
10
5.5209727
20
16.0871721
40
0.2650806
50
168.3802067
51
180.3602358
0
ARC
8
DEFAULT_255_1_234
10
5.4981306
20
16.0834041
40
0.2422425
50
179.5029707
51
194.9126783
0
ARC
8
DEFAULT_255_1_234
10
5.4395967
20
16.068011
40
0.1817188
50
194.9722181
51
224.1943972
0
ARC
8
DEFAULT_255_1_234
10
5.4367834
20
16.0657169
40
0.1781027
50
224.2961434
51
262.0157375
0
ARC
8
DEFAULT_255_1_234
10
5.4510077
20
16.1388661
40
0.2525492
50
261.1250369
51
270.1959853
0
ARC
8
DEFAULT_255_1_234
10
5.4539832
20
16.1201339
40
0.233825
50
269.4825617
51
285.0988277
0
ARC
8
DEFAULT_255_1_234
10
5.4693991
20
16.062299
40
0.1739712
50
285.1585659
51
315.9484648
0
ARC
8
DEFAULT_255_1_234
10
5.4605003
20
16.0704886
40
0.1860616
50
316.0412958
51
351.9162715
0
ARC
8
DEFAULT_255_1_234
10
5.3871958
20
16.0846245
40
0.2606517
50
351.1056823
51
0.1936567
0
ARC
8
DEFAULT_255_1_234
10
5.4134787
20
16.0876369
40
0.234377
50
359.4789506
51
16.0679113
0
ARC
8
DEFAULT_255_1_234
10
5.4610746
20
16.100481
40
0.1850875
50
16.3251951
51
44.791304
0
ARC
8
DEFAULT_255_1_234
10
5.4593027
20
16.1005339
40
0.186312
50
44.3958661
51
88.2498933
0
ARC
8
DEFAULT_255_1_234
10
5.4519581
20
16.0394154
40
0.2476868
50
86.9833827
51
90.0200148
0
LINE
8
DEFAULT_255_1_234
10
4.9677293
20
20.5154
11
4.8560881
21
20.8206061
0
LINE
8
DEFAULT_255_1_234
10
4.8560881
20
20.8206061
11
4.3661521
21
20.8206061
0
LINE
8
DEFAULT_255_1_234
10
4.3661521
20
20.8206061
11
4.2561173
21
20.5154
0
LINE
8
DEFAULT_255_1_234
10
4.2561173
20
20.5154
11
4.0970889
21
20.5154
0
LINE
8
DEFAULT_255_1_234
10
4.0970889
20
20.5154
11
4.5436535
21
21.6848211
0
LINE
8
DEFAULT_255_1_234
10
4.5436535
20
21.6848211
11
4.6785867
21
21.6848211
0
LINE
8
DEFAULT_255_1_234
10
4.6785867
20
21.6848211
11
5.1259545
21
20.5154
0
LINE
8
DEFAULT_255_1_234
10
5.1259545
20
20.5154
11
4.9677293
21
20.5154
0
LINE
8
DEFAULT_255_1_234
10
4.6111201
20
21.4944689
11
4.4127362
21
20.9475075
0
LINE
8
DEFAULT_255_1_234
10
4.4127362
20
20.9475075
11
4.8103072
21
20.9475075
0
LINE
8
DEFAULT_255_1_234
10
4.8103072
20
20.9475075
11
4.6111201
21
21.4944689
0
ARC
8
DEFAULT_255_1_234
10
5.6718026
20
21.3770703
40
0.2822356
50
338.8763615
51
0.5166041
0
ARC
8
DEFAULT_255_1_234
10
5.6886681
20
21.3725208
40
0.2648703
50
325.8412414
51
338.4795939
0
ARC
8
DEFAULT_255_1_234
10
5.6496048
20
21.3996042
40
0.3124019
50
296.7586019
51
325.753654
0
ARC
8
DEFAULT_255_1_234
10
5.6208157
20
21.4480789
40
0.368668
50
296.0902311
51
297.3618122
0
ARC
8
DEFAULT_255_1_234
10
5.6465614
20
20.7926041
40
0.3518806
50
47.9009248
51
67.1946869
0
ARC
8
DEFAULT_255_1_234
10
5.6661856
20
20.8172395
40
0.320451
50
35.236241
51
47.551371
0
ARC
8
DEFAULT_255_1_234
10
5.6923474
20
20.8346993
40
0.2890103
50
359.2759738
51
35.4014081
0
ARC
8
DEFAULT_255_1_234
10
5.6178505
20
20.8273826
40
0.3635026
50
343.1294516
51
0.5776525
0
ARC
8
DEFAULT_255_1_234
10
5.690305
20
20.807433
40
0.2883832
50
310.8497458
51
342.744803
0
ARC
8
DEFAULT_255_1_234
10
5.6485164
20
20.8551294
40
0.3517954
50
281.5473923
51
310.9169905
0
ARC
8
DEFAULT_255_1_234
10
5.6128613
20
21.0104084
40
0.5110832
50
269.6192722
51
281.9789957
0
ARC
8
DEFAULT_255_1_234
10
5.6056402
20
21.0104828
40
0.5111606
50
257.4584469
51
270.4287458
0
ARC
8
DEFAULT_255_1_234
10
5.5675545
20
20.8501344
40
0.3463762
50
228.7553743
51
257.8484423
0
ARC
8
DEFAULT_255_1_234
10
5.5365743
20
20.8128442
40
0.297916
50
184.0104442
51
228.5071787
0
ARC
8
DEFAULT_255_1_234
10
5.6528687
20
20.8305512
40
0.4152734
50
179.9315461
51
185.3254504
0
ARC
8
DEFAULT_255_1_234
10
5.5352333
20
20.8342992
40
0.2976554
50
145.6795913
51
180.6259649
0
ARC
8
DEFAULT_255_1_234
10
5.5515682
20
20.8228929
40
0.3175776
50
115.5537925
51
145.6416199
0
ARC
8
DEFAULT_255_1_234
10
5.5856613
20
20.7618028
40
0.3874232
50
113.2437915
51
116.2054627
0
ARC
8
DEFAULT_255_1_234
10
5.5703825
20
21.401658
40
0.3154751
50
222.9548379
51
244.1372485
0
ARC
8
DEFAULT_255_1_234
10
5.5581901
20
21.3879834
40
0.2972382
50
213.3439227
51
222.6271327
0
ARC
8
DEFAULT_255_1_234
10
5.5389835
20
21.3749308
40
0.274019
50
180.4316517
51
213.2713999
0
ARC
8
DEFAULT_255_1_234
10
5.5964836
20
21.379611
40
0.33158
50
179.9992944
51
181.1655061
0
ARC
8
DEFAULT_255_1_234
10
5.6374253
20
21.3830561
40
0.3725376
50
164.6186108
51
180.5292368
0
ARC
8
DEFAULT_255_1_234
10
5.5476116
20
21.4072101
40
0.2795349
50
132.2454369
51
164.5092287
0
ARC
8
DEFAULT_255_1_234
10
5.576322
20
21.3747028
40
0.3229019
50
100.7052766
51
132.1387266
0
ARC
8
DEFAULT_255_1_234
10
5.6068193
20
21.2369086
40
0.4639835
50
89.6732617
51
101.2449487
0
ARC
8
DEFAULT_255_1_234
10
5.6130391
20
21.254399
40
0.4464999
50
76.2876631
51
90.4586123
0
ARC
8
DEFAULT_255_1_234
10
5.6436622
20
21.376622
40
0.3205023
50
47.8240157
51
76.4266918
0
ARC
8
DEFAULT_255_1_234
10
5.6659172
20
21.402659
40
0.2862661
50
6.9168658
51
47.6261438
0
ARC
8
DEFAULT_255_1_234
10
5.5472575
20
21.380737
40
0.4067708
50
359.8419705
51
7.9694496
0
ARC
8
DEFAULT_255_1_234
10
5.5814472
20
20.8366925
40
0.2513121
50
359.4454068
51
16.9256425
0
ARC
8
DEFAULT_255_1_234
10
5.6283283
20
20.8496033
40
0.2027071
50
17.292259
51
45.462717
0
ARC
8
DEFAULT_255_1_234
10
5.6229219
20
20.8449434
40
0.2098212
50
45.3028762
51
83.1921472
0
ARC
8
DEFAULT_255_1_234
10
5.6085903
20
20.7647895
40
0.2911472
50
82.2614531
51
90.143954
0
ARC
8
DEFAULT_255_1_234
10
5.6055023
20
20.788095
40
0.2678513
50
89.4959189
51
104.8579811
0
ARC
8
DEFAULT_255_1_234
10
5.5878282
20
20.855089
40
0.1985654
50
104.8855873
51
135.2448349
0
ARC
8
DEFAULT_255_1_234
10
5.5928055
20
20.8506336
40
0.2052373
50
135.3398955
51
172.104394
0
ARC
8
DEFAULT_255_1_234
10
5.6735113
20
20.8351925
40
0.2873299
50
171.2651929
51
180.1859362
0
ARC
8
DEFAULT_255_1_234
10
5.6565814
20
20.8319733
40
0.2704083
50
179.515471
51
193.6466734
0
ARC
8
DEFAULT_255_1_234
10
5.5749583
20
20.8111777
40
0.1861855
50
193.3540587
51
225.8256931
0
ARC
8
DEFAULT_255_1_234
10
5.5790341
20
20.8182524
40
0.1941102
50
226.418029
51
255.8553723
0
ARC
8
DEFAULT_255_1_234
10
5.6046773
20
20.9118998
40
0.2911917
50
255.4655572
51
268.7985967
0
ARC
8
DEFAULT_255_1_234
10
5.6093965
20
20.9957491
40
0.3751331
50
268.3464808
51
270.0104874
0
ARC
8
DEFAULT_255_1_234
10
5.6117353
20
20.9273138
40
0.3067064
50
269.575914
51
282.0823146
0
ARC
8
DEFAULT_255_1_234
10
5.6342262
20
20.8278803
40
0.2047712
50
281.7522535
51
306.6056425
0
ARC
8
DEFAULT_255_1_234
10
5.6440689
20
20.8117487
40
0.1859604
50
307.1350025
51
314.0277951
0
ARC
8
DEFAULT_255_1_234
10
5.6404773
20
20.8143766
40
0.1903475
50
314.2553419
51
350.169324
0
ARC
8
DEFAULT_255_1_234
10
5.5553241
20
20.8328409
40
0.2774269
50
349.4145679
51
0.2930737
0
ARC
8
DEFAULT_255_1_234
10
5.6073674
20
21.3487353
40
0.2300764
50
89.477591
51
105.729794
0
ARC
8
DEFAULT_255_1_234
10
5.5937588
20
21.3992637
40
0.1777519
50
105.922966
51
135.1662921
0
ARC
8
DEFAULT_255_1_234
10
5.595809
20
21.3978419
40
0.1802087
50
135.3053131
51
168.9882338
0
ARC
8
DEFAULT_255_1_234
10
5.6785663
20
21.3788721
40
0.2650806
50
168.3802067
51
180.3602358
0
ARC
8
DEFAULT_255_1_234
10
5.6557242
20
21.3751041
40
0.2422425
50
179.5029707
51
194.9126783
0
ARC
8
DEFAULT_255_1_234
10
5.5971903
20
21.359711
40
0.1817188
50
194.9722181
51
224.1943972
0
ARC
8
DEFAULT_255_1_234
10
5.594377
20
21.3574169
40
0.1781027
50
224.2961434
51
262.0157375
0
ARC
8
DEFAULT_255_1_234
10
5.6086013
20
21.4305661
40
0.2525492
50
261.1250369
51
270.1959853
0
ARC
8
DEFAULT_255_1_234
10
5.6115768
20
21.4118339
40
0.233825
50
269.4825617
51
285.0988277
0
ARC
8
DEFAULT_255_1_234
10
5.6269927
20
21.353999
40
0.1739712
50
285.1585659
51
315.9484648
0
ARC
8
DEFAULT_255_1_234
10
5.6180939
20
21.3621886
40
0.1860616
50
316.0412958
51
351.9162715
0
ARC
8
DEFAULT_255_1_234
10
5.5447894
20
21.3763245
40
0.2606517
50
351.1056823
51
0.1936567
0
ARC
8
DEFAULT_255_1_234
10
5.5710723
20
21.3793369
40
0.234377
50
359.4789506
51
16.0679113
0
ARC
8
DEFAULT_255_1_234
10
5.6186682
20
21.392181
40
0.1850875
50
16.3251951
51
44.791304
0
ARC
8
DEFAULT_255_1_234
10
5.6168963
20
21.3922339
40
0.186312
50
44.3958661
51
88.2498933
0
ARC
8
DEFAULT_255_1_234
10
5.6095517
20
21.3311154
40
0.2476868
50
86.9833827
51
90.0200148
0
LINE
8
DEFAULT_255_1_234
10
4.5073392
20
25.807
11
4.1017364
21
25.807
0
LINE
8
DEFAULT_255_1_234
10
4.1017364
20
25.807
11
4.1017364
21
26.9764211
0
LINE
8
DEFAULT_255_1_234
10
4.1017364
20
26.9764211
11
4.4840471
21
26.9764211
0
LINE
8
DEFAULT_255_1_234
10
4.5129614
20
26.3539614
11
4.2559458
21
26.3539614
0
LINE
8
DEFAULT_255_1_234
10
4.2559458
20
26.3539614
11
4.2559458
21
25.9330983
0
LINE
8
DEFAULT_255_1_234
10
4.2559458
20
25.9330983
11
4.5105519
21
25.9330983
0
LINE
8
DEFAULT_255_1_234
10
4.2559458
20
26.8495196
11
4.2559458
21
26.4776501
0
LINE
8
DEFAULT_255_1_234
10
4.2559458
20
26.4776501
11
4.4888662
21
26.4776501
0
LINE
8
DEFAULT_255_1_234
10
4.4840471
20
26.8495196
11
4.2559458
21
26.8495196
0
ARC
8
DEFAULT_255_1_234
10
4.487818
20
26.2396901
40
0.7367406
50
82.1257326
51
90.2932599
0
ARC
8
DEFAULT_255_1_234
10
4.5267135
20
26.5115013
40
0.4621653
50
69.9044149
51
82.2857423
0
ARC
8
DEFAULT_255_1_234
10
4.5837813
20
26.6657637
40
0.2976871
50
51.1838526
51
70.0181538
0
ARC
8
DEFAULT_255_1_234
10
4.6092779
20
26.702824
40
0.2528517
50
12.1017251
51
50.4214761
0
ARC
8
DEFAULT_255_1_234
10
4.4708653
20
26.6680676
40
0.3955061
50
359.5251267
51
12.8211707
0
ARC
8
DEFAULT_255_1_234
10
4.6288579
20
26.6611344
40
0.2375281
50
323.4908128
51
0.8817314
0
ARC
8
DEFAULT_255_1_234
10
4.5870266
20
26.693455
40
0.2903817
50
298.6825083
51
323.2756573
0
ARC
8
DEFAULT_255_1_234
10
4.5508629
20
26.7535649
40
0.3604842
50
293.1999386
51
299.1396394
0
ARC
8
DEFAULT_255_1_234
10
4.6181602
20
26.1450126
40
0.2871098
50
54.0011765
51
74.9167975
0
ARC
8
DEFAULT_255_1_234
10
4.6297961
20
26.1647332
40
0.2643248
50
36.3580696
51
53.5291921
0
ARC
8
DEFAULT_255_1_234
10
4.6171203
20
26.1556998
40
0.2798884
50
4.8189881
51
36.3089977
0
ARC
8
DEFAULT_255_1_234
10
4.5392038
20
26.144727
40
0.358478
50
359.9370252
51
5.5204067
0
ARC
8
DEFAULT_255_1_234
10
4.506756
20
26.1406667
40
0.3909429
50
344.7478609
51
0.5373281
0
ARC
8
DEFAULT_255_1_234
10
4.6058531
20
26.1139544
40
0.2883093
50
311.1786488
51
344.6886812
0
ARC
8
DEFAULT_255_1_234
10
4.5766578
20
26.1502987
40
0.3348923
50
286.0418249
51
310.8441291
0
ARC
8
DEFAULT_255_1_234
10
4.525941
20
26.3149807
40
0.5071869
50
274.1042341
51
286.4071509
0
ARC
8
DEFAULT_255_1_234
10
4.5082666
20
26.5033229
40
0.6963234
50
269.9236873
51
274.445647
0
ARC
8
DEFAULT_255_1_234
10
4.5128667
20
26.2693537
40
0.3362634
50
269.6055768
51
281.3740047
0
ARC
8
DEFAULT_255_1_234
10
4.5359305
20
26.1600353
40
0.224546
50
281.1055983
51
302.5132223
0
ARC
8
DEFAULT_255_1_234
10
4.5506204
20
26.1336823
40
0.1944357
50
303.0368945
51
311.8811219
0
ARC
8
DEFAULT_255_1_234
10
4.5577611
20
26.125189
40
0.1833454
50
311.9916004
51
351.7143462
0
ARC
8
DEFAULT_255_1_234
10
4.4760841
20
26.141693
40
0.2665871
50
350.7339597
51
0.2221581
0
ARC
8
DEFAULT_255_1_234
10
4.4653287
20
26.1473467
40
0.2773789
50
359.0456241
51
17.2296242
0
ARC
8
DEFAULT_255_1_234
10
4.5692404
20
26.1782163
40
0.1689915
50
17.6685481
51
78.9940892
0
ARC
8
DEFAULT_255_1_234
10
4.5175568
20
25.9927224
40
0.3612658
50
76.5635957
51
90.6980921
0
LINE
8
DEFAULT_255_1_234
10
4.5131552
20
26.3539613
11
4.5129614
21
26.3539614
0
ARC
8
DEFAULT_255_1_234
10
4.4911228
20
26.8062036
40
0.3285612
50
269.6064736
51
281.4533503
0
ARC
8
DEFAULT_255_1_234
10
4.5134048
20
26.7010688
40
0.2210975
50
281.2041486
51
302.5148063
0
ARC
8
DEFAULT_255_1_234
10
4.5270898
20
26.6764241
40
0.1929674
50
303.021671
51
309.8369575
0
ARC
8
DEFAULT_255_1_234
10
4.5454359
20
26.6558488
40
0.1654181
50
309.5228395
51
356.9509836
0
ARC
8
DEFAULT_255_1_234
10
4.4790942
20
26.6653932
40
0.2322512
50
355.4701227
51
0.0492546
0
ARC
8
DEFAULT_255_1_234
10
4.4512033
20
26.6676094
40
0.2601498
50
359.5558597
51
11.2096359
0
ARC
8
DEFAULT_255_1_234
10
4.5469323
20
26.687423
40
0.1623975
50
10.9182341
51
31.3230275
0
ARC
8
DEFAULT_255_1_234
10
4.5755056
20
26.7033214
40
0.1297302
50
31.8852677
51
52.1412565
0
ARC
8
DEFAULT_255_1_234
10
4.5480789
20
26.664575
40
0.1771663
50
52.8285564
51
71.9850297
0
ARC
8
DEFAULT_255_1_234
10
4.5104965
20
26.5539664
40
0.2939794
50
71.6863486
51
82.8455995
0
ARC
8
DEFAULT_255_1_234
10
4.4865501
20
26.3730149
40
0.476506
50
82.6984714
51
90.1729175
0
ARC
8
DEFAULT_255_1_234
10
4.4843136
20
26.4953623
40
0.3541573
50
89.8708275
51
90.0431131
0
LINE
8
DEFAULT_255_1_234
10
5.8060712
20
26.5089739
11
5.8060712
21
26.4656025
0
LINE
8
DEFAULT_255_1_234
10
5.2639289
20
25.8061968
11
5.2350146
21
25.8061968
0
LINE
8
DEFAULT_255_1_234
10
5.2350146
20
25.8061968
11
5.2350146
21
25.9314919
0
LINE
8
DEFAULT_255_1_234
10
5.2350146
20
25.9314919
11
5.2663384
21
25.9314919
0
LINE
8
DEFAULT_255_1_234
10
5.6574841
20
26.4800597
11
5.6574841
21
26.5394945
0
ARC
8
DEFAULT_255_1_234
10
5.378111
20
26.5546403
40
0.3635579
50
297.4037347
51
320.016758
0
ARC
8
DEFAULT_255_1_234
10
5.4071059
20
26.498924
40
0.3007486
50
270.2633101
51
297.3851877
0
ARC
8
DEFAULT_255_1_234
10
5.4037015
20
26.5452904
40
0.3471448
50
269.9966443
51
270.7900392
0
ARC
8
DEFAULT_255_1_234
10
5.4011496
20
26.5451143
40
0.3469779
50
254.5999133
51
270.4180344
0
ARC
8
DEFAULT_255_1_234
10
5.3868856
20
26.4886647
40
0.2887697
50
236.4717942
51
254.3541279
0
ARC
8
DEFAULT_255_1_234
10
5.4025073
20
26.5096711
40
0.3149125
50
208.4727207
51
236.2134933
0
ARC
8
DEFAULT_255_1_234
10
5.4663848
20
26.5487455
40
0.3897115
50
204.3447514
51
209.0453999
0
ARC
8
DEFAULT_255_1_234
10
5.5343424
20
26.5775656
40
0.4635101
50
183.9375985
51
204.1276318
0
ARC
8
DEFAULT_255_1_234
10
5.6251676
20
26.5873482
40
0.5548037
50
179.9652252
51
184.3013875
0
ARC
8
DEFAULT_255_1_234
10
5.6011722
20
26.5906507
40
0.5308164
50
166.7585989
51
180.3201225
0
ARC
8
DEFAULT_255_1_234
10
5.5165335
20
26.6090488
40
0.4442163
50
154.6955053
51
166.5679793
0
ARC
8
DEFAULT_255_1_234
10
5.4312205
20
26.652021
40
0.3487299
50
136.3324195
51
155.0871442
0
ARC
8
DEFAULT_255_1_234
10
5.4031278
20
26.6760954
40
0.3117924
50
121.236733
51
135.9680508
0
ARC
8
DEFAULT_255_1_234
10
5.4171776
20
26.6500743
40
0.3413302
50
96.845628
51
120.9881519
0
ARC
8
DEFAULT_255_1_234
10
5.4317358
20
26.5565515
40
0.4359341
50
89.8870174
51
97.2802754
0
ARC
8
DEFAULT_255_1_234
10
5.4369796
20
26.6203095
40
0.3722009
50
70.6505584
51
90.6749113
0
ARC
8
DEFAULT_255_1_234
10
5.4501075
20
26.6716361
40
0.3194571
50
36.7492984
51
69.8219918
0
ARC
8
DEFAULT_255_1_234
10
5.350224
20
26.5937993
40
0.4460685
50
15.39587
51
37.0840084
0
ARC
8
DEFAULT_255_1_234
10
5.1372674
20
26.5317242
40
0.6678714
50
3.9488873
51
15.6798563
0
ARC
8
DEFAULT_255_1_234
10
4.8971301
20
26.5100964
40
0.9089418
50
359.929245
51
4.2665314
0
ARC
8
DEFAULT_255_1_234
10
4.4365738
20
26.4589513
40
1.3695135
50
352.8366322
51
0.2782669
0
ARC
8
DEFAULT_255_1_234
10
4.9653417
20
26.3902629
40
0.8363105
50
341.8359505
51
352.9884176
0
ARC
8
DEFAULT_255_1_234
10
5.2872136
20
26.28177
40
0.4966642
50
322.8578092
51
342.1527901
0
ARC
8
DEFAULT_255_1_234
10
5.3736092
20
26.2228384
40
0.3922466
50
319.334325
51
322.0998941
0
ARC
8
DEFAULT_255_1_234
10
5.3426429
20
26.2539209
40
0.4360033
50
285.9541367
51
318.8878087
0
ARC
8
DEFAULT_255_1_234
10
5.269969
20
26.48496
40
0.678149
50
272.9281676
51
286.4922826
0
ARC
8
DEFAULT_255_1_234
10
5.2509808
20
26.7100587
40
0.9039547
50
270.8207226
51
273.4012994
0
ARC
8
DEFAULT_255_1_234
10
5.2598659
20
26.5281666
40
0.5967098
50
270.6214993
51
281.4062806
0
ARC
8
DEFAULT_255_1_234
10
5.302864
20
26.3225833
40
0.3866861
50
281.1852553
51
299.0621114
0
ARC
8
DEFAULT_255_1_234
10
5.3402212
20
26.2504798
40
0.3055236
50
299.5067782
51
313.1200873
0
ARC
8
DEFAULT_255_1_234
10
5.3424178
20
26.2425554
40
0.2982623
50
313.8526205
51
338.5989322
0
ARC
8
DEFAULT_255_1_234
10
5.1800252
20
26.3092781
40
0.4738131
50
338.2523585
51
351.2430902
0
ARC
8
DEFAULT_255_1_234
10
4.9389548
20
26.3502447
40
0.7183203
50
350.9409515
51
357.6691871
0
ARC
8
DEFAULT_255_1_234
10
5.4279978
20
26.5504764
40
0.2294452
50
269.9447023
51
306.8248917
0
ARC
8
DEFAULT_255_1_234
10
5.4042893
20
26.5927898
40
0.2775994
50
305.5072438
51
327.0773448
0
ARC
8
DEFAULT_255_1_234
10
5.4161334
20
26.5833025
40
0.2625056
50
327.4104943
51
336.840169
0
ARC
8
DEFAULT_255_1_234
10
5.1067399
20
26.5427302
40
0.5507537
50
359.6633817
51
10.117533
0
ARC
8
DEFAULT_255_1_234
10
5.2821197
20
26.5751777
40
0.372403
50
9.9430141
51
26.7700076
0
ARC
8
DEFAULT_255_1_234
10
5.341841
20
26.6027187
40
0.3066865
50
27.2015464
51
34.6829435
0
ARC
8
DEFAULT_255_1_234
10
5.390789
20
26.6394977
40
0.245519
50
34.1250343
51
50.3070065
0
ARC
8
DEFAULT_255_1_234
10
5.4354569
20
26.6929385
40
0.1758693
50
50.3851167
51
90.6705993
0
ARC
8
DEFAULT_255_1_234
10
5.4307802
20
26.6624799
40
0.2063326
50
89.272901
51
111.9140407
0
ARC
8
DEFAULT_255_1_234
10
5.428833
20
26.676544
40
0.1925887
50
112.9382311
51
142.5320782
0
ARC
8
DEFAULT_255_1_234
10
5.483451
20
26.6321969
40
0.2629232
50
142.1021256
51
166.3835592
0
ARC
8
DEFAULT_255_1_234
10
5.6015816
20
26.6016915
40
0.3849193
50
166.1100289
51
178.665427
0
ARC
8
DEFAULT_255_1_234
10
5.7063405
20
26.5958117
40
0.4897989
50
178.2632126
51
180.0111093
0
ARC
8
DEFAULT_255_1_234
10
5.6261525
20
26.5929728
40
0.40962
50
179.6161962
51
191.8787166
0
ARC
8
DEFAULT_255_1_234
10
5.5041364
20
26.5659896
40
0.2846655
50
191.6191692
51
215.2972286
0
ARC
8
DEFAULT_255_1_234
10
5.4844555
20
26.5544918
40
0.2619665
50
215.7320102
51
216.5355409
0
ARC
8
DEFAULT_255_1_234
10
5.4305642
20
26.5112647
40
0.1929497
50
215.7486685
51
239.9727502
0
ARC
8
DEFAULT_255_1_234
10
5.4235557
20
26.5061894
40
0.1850822
50
241.0650169
51
269.2810483
0
ARC
8
DEFAULT_255_1_234
10
5.4277472
20
26.5552371
40
0.2342059
50
268.4062526
51
270.0071348
0
LINE
8
DEFAULT_255_1_234
10
4.9677293
20
31.0987
11
4.8560881
21
31.4039061
0
LINE
8
DEFAULT_255_1_234
10
4.8560881
20
31.4039061
11
4.3661521
21
31.4039061
0
LINE
8
DEFAULT_255_1_234
10
4.3661521
20
31.4039061
11
4.2561173
21
31.0987
0
LINE
8
DEFAULT_255_1_234
10
4.2561173
20
31.0987
11
4.0970889
21
31.0987
0
LINE
8
DEFAULT_255_1_234
10
4.0970889
20
31.0987
11
4.5436535
21
32.2681211
0
LINE
8
DEFAULT_255_1_234
10
4.5436535
20
32.2681211
11
4.6785867
21
32.2681211
0
LINE
8
DEFAULT_255_1_234
10
4.6785867
20
32.2681211
11
5.1259545
21
31.0987
0
LINE
8
DEFAULT_255_1_234
10
5.1259545
20
31.0987
11
4.9677293
21
31.0987
0
LINE
8
DEFAULT_255_1_234
10
4.6111201
20
32.0777689
11
4.4127362
21
31.5308075
0
LINE
8
DEFAULT_255_1_234
10
4.4127362
20
31.5308075
11
4.8103072
21
31.5308075
0
LINE
8
DEFAULT_255_1_234
10
4.8103072
20
31.5308075
11
4.6111201
21
32.0777689
0
LINE
8
DEFAULT_255_1_234
10
5.9636648
20
31.8006739
11
5.9636648
21
31.7573025
0
LINE
8
DEFAULT_255_1_234
10
5.4215225
20
31.0978968
11
5.3926083
21
31.0978968
0
LINE
8
DEFAULT_255_1_234
10
5.3926083
20
31.0978968
11
5.3926083
21
31.2231919
0
LINE
8
DEFAULT_255_1_234
10
5.3926083
20
31.2231919
11
5.423932
21
31.2231919
0
LINE
8
DEFAULT_255_1_234
10
5.8150777
20
31.7717597
11
5.8150777
21
31.8311945
0
ARC
8
DEFAULT_255_1_234
10
5.5357046
20
31.8463403
40
0.3635579
50
297.4037347
51
320.016758
0
ARC
8
DEFAULT_255_1_234
10
5.5646995
20
31.790624
40
0.3007486
50
270.2633101
51
297.3851877
0
ARC
8
DEFAULT_255_1_234
10
5.5612951
20
31.8369904
40
0.3471448
50
269.9966443
51
270.7900392
0
ARC
8
DEFAULT_255_1_234
10
5.5587432
20
31.8368143
40
0.3469779
50
254.5999133
51
270.4180344
0
ARC
8
DEFAULT_255_1_234
10
5.5444792
20
31.7803647
40
0.2887697
50
236.4717942
51
254.3541279
0
ARC
8
DEFAULT_255_1_234
10
5.5601009
20
31.8013711
40
0.3149125
50
208.4727207
51
236.2134933
0
ARC
8
DEFAULT_255_1_234
10
5.6239784
20
31.8404455
40
0.3897115
50
204.3447514
51
209.0453999
0
ARC
8
DEFAULT_255_1_234
10
5.691936
20
31.8692656
40
0.4635101
50
183.9375985
51
204.1276318
0
ARC
8
DEFAULT_255_1_234
10
5.7827612
20
31.8790482
40
0.5548037
50
179.9652252
51
184.3013875
0
ARC
8
DEFAULT_255_1_234
10
5.7587658
20
31.8823507
40
0.5308164
50
166.7585989
51
180.3201225
0
ARC
8
DEFAULT_255_1_234
10
5.6741271
20
31.9007488
40
0.4442163
50
154.6955053
51
166.5679793
0
ARC
8
DEFAULT_255_1_234
10
5.5888141
20
31.943721
40
0.3487299
50
136.3324195
51
155.0871442
0
ARC
8
DEFAULT_255_1_234
10
5.5607214
20
31.9677954
40
0.3117924
50
121.236733
51
135.9680508
0
ARC
8
DEFAULT_255_1_234
10
5.5747712
20
31.9417743
40
0.3413302
50
96.845628
51
120.9881519
0
ARC
8
DEFAULT_255_1_234
10
5.5893294
20
31.8482515
40
0.4359341
50
89.8870174
51
97.2802754
0
ARC
8
DEFAULT_255_1_234
10
5.5945732
20
31.9120095
40
0.3722009
50
70.6505584
51
90.6749113
0
ARC
8
DEFAULT_255_1_234
10
5.6077011
20
31.9633361
40
0.3194571
50
36.7492984
51
69.8219918
0
ARC
8
DEFAULT_255_1_234
10
5.5078176
20
31.8854993
40
0.4460685
50
15.39587
51
37.0840084
0
ARC
8
DEFAULT_255_1_234
10
5.294861
20
31.8234242
40
0.6678714
50
3.9488873
51
15.6798563
0
ARC
8
DEFAULT_255_1_234
10
5.0547237
20
31.8017964
40
0.9089418
50
359.929245
51
4.2665314
0
ARC
8
DEFAULT_255_1_234
10
4.5941675
20
31.7506513
40
1.3695135
50
352.8366322
51
0.2782669
0
ARC
8
DEFAULT_255_1_234
10
5.1229353
20
31.6819629
40
0.8363105
50
341.8359505
51
352.9884176
0
ARC
8
DEFAULT_255_1_234
10
5.4448072
20
31.57347
40
0.4966642
50
322.8578092
51
342.1527901
0
ARC
8
DEFAULT_255_1_234
10
5.5312028
20
31.5145384
40
0.3922466
50
319.334325
51
322.0998941
0
ARC
8
DEFAULT_255_1_234
10
5.5002365
20
31.5456209
40
0.4360033
50
285.9541367
51
318.8878087
0
ARC
8
DEFAULT_255_1_234
10
5.4275626
20
31.77666
40
0.678149
50
272.9281676
51
286.4922826
0
ARC
8
DEFAULT_255_1_234
10
5.4085744
20
32.0017587
40
0.9039547
50
270.8207226
51
273.4012994
0
ARC
8
DEFAULT_255_1_234
10
5.4174595
20
31.8198666
40
0.5967098
50
270.6214993
51
281.4062806
0
ARC
8
DEFAULT_255_1_234
10
5.4604576
20
31.6142833
40
0.3866861
50
281.1852553
51
299.0621114
0
ARC
8
DEFAULT_255_1_234
10
5.4978148
20
31.5421798
40
0.3055236
50
299.5067782
51
313.1200873
0
ARC
8
DEFAULT_255_1_234
10
5.5000114
20
31.5342554
40
0.2982623
50
313.8526205
51
338.5989322
0
ARC
8
DEFAULT_255_1_234
10
5.3376188
20
31.6009781
40
0.4738131
50
338.2523585
51
351.2430902
0
ARC
8
DEFAULT_255_1_234
10
5.0965484
20
31.6419447
40
0.7183203
50
350.9409515
51
357.6691871
0
ARC
8
DEFAULT_255_1_234
10
5.5855914
20
31.8421764
40
0.2294452
50
269.9447023
51
306.8248917
0
ARC
8
DEFAULT_255_1_234
10
5.5618829
20
31.8844898
40
0.2775994
50
305.5072438
51
327.0773448
0
ARC
8
DEFAULT_255_1_234
10
5.573727
20
31.8750025
40
0.2625056
50
327.4104943
51
336.840169
0
ARC
8
DEFAULT_255_1_234
10
5.2643335
20
31.8344302
40
0.5507537
50
359.6633817
51
10.117533
0
ARC
8
DEFAULT_255_1_234
10
5.4397133
20
31.8668777
40
0.372403
50
9.9430141
51
26.7700076
0
ARC
8
DEFAULT_255_1_234
10
5.4994346
20
31.8944187
40
0.3066865
50
27.2015464
51
34.6829435
0
ARC
8
DEFAULT_255_1_234
10
5.5483826
20
31.9311977
40
0.245519
50
34.1250343
51
50.3070065
0
ARC
8
DEFAULT_255_1_234
10
5.5930505
20
31.9846385
40
0.1758693
50
50.3851167
51
90.6705993
0
ARC
8
DEFAULT_255_1_234
10
5.5883738
20
31.9541799
40
0.2063326
50
89.272901
51
111.9140407
0
ARC
8
DEFAULT_255_1_234
10
5.5864266
20
31.968244
40
0.1925887
50
112.9382311
51
142.5320782
0
ARC
8
DEFAULT_255_1_234
10
5.6410446
20
31.9238969
40
0.2629232
50
142.1021256
51
166.3835592
0
ARC
8
DEFAULT_255_1_234
10
5.7591752
20
31.8933915
40
0.3849193
50
166.1100289
51
178.665427
0
ARC
8
DEFAULT_255_1_234
10
5.8639341
20
31.8875117
40
0.4897989
50
178.2632126
51
180.0111093
0
ARC
8
DEFAULT_255_1_234
10
5.7837461
20
31.8846728
40
0.40962
50
179.6161962
51
191.8787166
0
ARC
8
DEFAULT_255_1_234
10
5.66173
20
31.8576896
40
0.2846655
50
191.6191692
51
215.2972286
0
ARC
8
DEFAULT_255_1_234
10
5.6420491
20
31.8461918
40
0.2619665
50
215.7320102
51
216.5355409
0
ARC
8
DEFAULT_255_1_234
10
5.5881578
20
31.8029647
40
0.1929497
50
215.7486685
51
239.9727502
0
ARC
8
DEFAULT_255_1_234
10
5.5811493
20
31.7978894
40
0.1850822
50
241.0650169
51
269.2810483
0
ARC
8
DEFAULT_255_1_234
10
5.5853408
20
31.8469371
40
0.2342059
50
268.4062526
51
270.0071348
0
LINE
8
DEFAULT_255_1_234
10
4.5670392
20
36.3904
11
4.1614364
21
36.3904
0
LINE
8
DEFAULT_255_1_234
10
4.1614364
20
36.3904
11
4.1614364
21
37.5598211
0
LINE
8
DEFAULT_255_1_234
10
4.1614364
20
37.5598211
11
4.5437471
21
37.5598211
0
LINE
8
DEFAULT_255_1_234
10
4.5726614
20
36.9373614
11
4.3156458
21
36.9373614
0
LINE
8
DEFAULT_255_1_234
10
4.3156458
20
36.9373614
11
4.3156458
21
36.5164983
0
LINE
8
DEFAULT_255_1_234
10
4.3156458
20
36.5164983
11
4.5702519
21
36.5164983
0
LINE
8
DEFAULT_255_1_234
10
4.3156458
20
37.4329196
11
4.3156458
21
37.0610501
0
LINE
8
DEFAULT_255_1_234
10
4.3156458
20
37.0610501
11
4.5485662
21
37.0610501
0
LINE
8
DEFAULT_255_1_234
10
4.5437471
20
37.4329196
11
4.3156458
21
37.4329196
0
ARC
8
DEFAULT_255_1_234
10
4.547518
20
36.8230901
40
0.7367406
50
82.1257326
51
90.2932599
0
ARC
8
DEFAULT_255_1_234
10
4.5864135
20
37.0949013
40
0.4621653
50
69.9044149
51
82.2857423
0
ARC
8
DEFAULT_255_1_234
10
4.6434813
20
37.2491637
40
0.2976871
50
51.1838526
51
70.0181538
0
ARC
8
DEFAULT_255_1_234
10
4.6689779
20
37.286224
40
0.2528517
50
12.1017251
51
50.4214761
0
ARC
8
DEFAULT_255_1_234
10
4.5305653
20
37.2514676
40
0.3955061
50
359.5251267
51
12.8211707
0
ARC
8
DEFAULT_255_1_234
10
4.6885579
20
37.2445344
40
0.2375281
50
323.4908128
51
0.8817314
0
ARC
8
DEFAULT_255_1_234
10
4.6467266
20
37.276855
40
0.2903817
50
298.6825083
51
323.2756573
0
ARC
8
DEFAULT_255_1_234
10
4.6105629
20
37.3369649
40
0.3604842
50
293.1999386
51
299.1396394
0
ARC
8
DEFAULT_255_1_234
10
4.6778602
20
36.7284126
40
0.2871098
50
54.0011765
51
74.9167975
0
ARC
8
DEFAULT_255_1_234
10
4.6894961
20
36.7481332
40
0.2643248
50
36.3580696
51
53.5291921
0
ARC
8
DEFAULT_255_1_234
10
4.6768203
20
36.7390998
40
0.2798884
50
4.8189881
51
36.3089977
0
ARC
8
DEFAULT_255_1_234
10
4.5989038
20
36.728127
40
0.358478
50
359.9370252
51
5.5204067
0
ARC
8
DEFAULT_255_1_234
10
4.566456
20
36.7240667
40
0.3909429
50
344.7478609
51
0.5373281
0
ARC
8
DEFAULT_255_1_234
10
4.6655531
20
36.6973544
40
0.2883093
50
311.1786488
51
344.6886812
0
ARC
8
DEFAULT_255_1_234
10
4.6363578
20
36.7336987
40
0.3348923
50
286.0418249
51
310.8441291
0
ARC
8
DEFAULT_255_1_234
10
4.585641
20
36.8983807
40
0.5071869
50
274.1042341
51
286.4071509
0
ARC
8
DEFAULT_255_1_234
10
4.5679666
20
37.0867229
40
0.6963234
50
269.9236873
51
274.445647
0
ARC
8
DEFAULT_255_1_234
10
4.5725667
20
36.8527537
40
0.3362634
50
269.6055768
51
281.3740047
0
ARC
8
DEFAULT_255_1_234
10
4.5956305
20
36.7434353
40
0.224546
50
281.1055983
51
302.5132223
0
ARC
8
DEFAULT_255_1_234
10
4.6103204
20
36.7170823
40
0.1944357
50
303.0368945
51
311.8811219
0
ARC
8
DEFAULT_255_1_234
10
4.6174611
20
36.708589
40
0.1833454
50
311.9916004
51
351.7143462
0
ARC
8
DEFAULT_255_1_234
10
4.5357841
20
36.725093
40
0.2665871
50
350.7339597
51
0.2221581
0
ARC
8
DEFAULT_255_1_234
10
4.5250287
20
36.7307467
40
0.2773789
50
359.0456241
51
17.2296242
0
ARC
8
DEFAULT_255_1_234
10
4.6289404
20
36.7616163
40
0.1689915
50
17.6685481
51
78.9940892
0
ARC
8
DEFAULT_255_1_234
10
4.5772568
20
36.5761224
40
0.3612658
50
76.5635957
51
90.6980921
0
LINE
8
DEFAULT_255_1_234
10
4.5728552
20
36.9373613
11
4.5726614
21
36.9373614
0
ARC
8
DEFAULT_255_1_234
10
4.5508228
20
37.3896036
40
0.3285612
50
269.6064736
51
281.4533503
0
ARC
8
DEFAULT_255_1_234
10
4.5731048
20
37.2844688
40
0.2210975
50
281.2041486
51
302.5148063
0
ARC
8
DEFAULT_255_1_234
10
4.5867898
20
37.2598241
40
0.1929674
50
303.021671
51
309.8369575
0
ARC
8
DEFAULT_255_1_234
10
4.6051359
20
37.2392488
40
0.1654181
50
309.5228395
51
356.9509836
0
ARC
8
DEFAULT_255_1_234
10
4.5387942
20
37.2487932
40
0.2322512
50
355.4701227
51
0.0492546
0
ARC
8
DEFAULT_255_1_234
10
4.5109033
20
37.2510094
40
0.2601498
50
359.5558597
51
11.2096359
0
ARC
8
DEFAULT_255_1_234
10
4.6066323
20
37.270823
40
0.1623975
50
10.9182341
51
31.3230275
0
ARC
8
DEFAULT_255_1_234
10
4.6352056
20
37.2867214
40
0.1297302
50
31.8852677
51
52.1412565
0
ARC
8
DEFAULT_255_1_234
10
4.6077789
20
37.247975
40
0.1771663
50
52.8285564
51
71.9850297
0
ARC
8
DEFAULT_255_1_234
10
4.5701965
20
37.1373664
40
0.2939794
50
71.6863486
51
82.8455995
0
ARC
8
DEFAULT_255_1_234
10
4.5462501
20
36.9564149
40
0.476506
50
82.6984714
51
90.1729175
0
ARC
8
DEFAULT_255_1_234
10
4.5440136
20
37.0787623
40
0.3541573
50
89.8708275
51
90.0431131
0
LINE
8
DEFAULT_255_1_234
10
5.6352604
20
37.5654433
11
5.6352604
21
36.3904
0
LINE
8
DEFAULT_255_1_234
10
5.6352604
20
36.3904
11
5.48587
21
36.3904
0
LINE
8
DEFAULT_255_1_234
10
5.48587
20
36.3904
11
5.48587
21
37.3807133
0
LINE
8
DEFAULT_255_1_234
10
5.48587
20
37.3807133
11
5.1862862
21
37.2706785
0
LINE
8
DEFAULT_255_1_234
10
5.1862862
20
37.2706785
11
5.1862862
21
37.4056117
0
LINE
8
DEFAULT_255_1_234
10
5.1862862
20
37.4056117
11
5.6119683
21
37.5654433
0
LINE
8
DEFAULT_255_1_234
10
5.6119683
20
37.5654433
11
5.6352604
21
37.5654433
0
LINE
8
DEFAULT_255_1_234
10
6.8038783
20
37.0819327
11
6.8038783
21
36.8891709
0
LINE
8
DEFAULT_255_1_234
10
6.0657615
20
36.8690916
11
6.0657615
21
37.0674755
0
LINE
8
DEFAULT_255_1_234
10
6.6552911
20
36.8490123
11
6.6552911
21
37.0923739
0
LINE
8
DEFAULT_255_1_234
10
6.2143487
20
37.1036184
11
6.2143487
21
36.8658789
0
ARC
8
DEFAULT_255_1_234
10
5.5791672
20
36.8842805
40
1.2247208
50
353.8441951
51
0.2287902
0
ARC
8
DEFAULT_255_1_234
10
6.0431176
20
36.8324806
40
0.7578929
50
344.4934747
51
353.9765454
0
ARC
8
DEFAULT_255_1_234
10
6.3423766
20
36.7473981
40
0.4467846
50
329.2803592
51
344.7472793
0
ARC
8
DEFAULT_255_1_234
10
6.4416591
20
36.6929018
40
0.3336173
50
324.9352394
51
328.6160465
0
ARC
8
DEFAULT_255_1_234
10
6.47937
20
36.6665427
40
0.2876076
50
280.580143
51
324.9173126
0
ARC
8
DEFAULT_255_1_234
10
6.4392492
20
36.8336099
40
0.4592847
50
269.5977311
51
281.6734359
0
ARC
8
DEFAULT_255_1_234
10
6.4320398
20
36.8216173
40
0.4472986
50
256.6228859
51
270.51044
0
ARC
8
DEFAULT_255_1_234
10
6.3918376
20
36.6667877
40
0.2873874
50
215.8618325
51
257.2788573
0
ARC
8
DEFAULT_255_1_234
10
6.4939407
20
36.7352977
40
0.4102928
50
197.9693508
51
215.2623606
0
ARC
8
DEFAULT_255_1_234
10
6.7424523
20
36.8191709
40
0.6725652
50
187.8816417
51
198.2346507
0
ARC
8
DEFAULT_255_1_234
10
7.1382731
20
36.8763079
40
1.0724845
50
180.8976217
51
188.0055519
0
ARC
8
DEFAULT_255_1_234
10
7.4182919
20
36.8866777
40
1.3526448
50
180.7449369
51
181.1510016
0
ARC
8
DEFAULT_255_1_234
10
7.2605648
20
37.0723042
40
1.1948131
50
173.7675579
51
180.231553
0
ARC
8
DEFAULT_255_1_234
10
6.8087795
20
37.1233666
40
0.7401564
50
164.3058563
51
173.9002247
0
ARC
8
DEFAULT_255_1_234
10
6.5175864
20
37.2072656
40
0.4371288
50
148.7922025
51
164.568378
0
ARC
8
DEFAULT_255_1_234
10
6.4224316
20
37.2603929
40
0.3282386
50
144.5883898
51
148.1176286
0
ARC
8
DEFAULT_255_1_234
10
6.3881214
20
37.2843315
40
0.2864044
50
101.6440918
51
144.514236
0
ARC
8
DEFAULT_255_1_234
10
6.4306281
20
37.1154069
40
0.4604934
50
89.5284041
51
102.5819763
0
ARC
8
DEFAULT_255_1_234
10
6.4385368
20
37.1115018
40
0.464401
50
77.0437873
51
90.5081339
0
ARC
8
DEFAULT_255_1_234
10
6.478737
20
37.2757615
40
0.2953195
50
48.2778575
51
77.4994676
0
ARC
8
DEFAULT_255_1_234
10
6.4860002
20
37.2886746
40
0.2808655
50
36.3142134
51
47.6305865
0
ARC
8
DEFAULT_255_1_234
10
6.3991309
20
37.2301515
40
0.3855453
50
18.2931786
51
35.6769206
0
ARC
8
DEFAULT_255_1_234
10
6.1448067
20
37.1428593
40
0.654423
50
8.024666
51
18.5605216
0
ARC
8
DEFAULT_255_1_234
10
5.7284987
20
37.0813792
40
1.0752407
50
1.1274072
51
8.1718305
0
ARC
8
DEFAULT_255_1_234
10
5.4049178
20
37.0686885
40
1.3990231
50
0.5424119
51
1.3863029
0
ARC
8
DEFAULT_255_1_234
10
5.5870556
20
37.0959342
40
1.0682415
50
359.8090433
51
4.9407866
0
ARC
8
DEFAULT_255_1_234
10
6.008057
20
37.1335113
40
0.6455691
50
4.8362157
51
12.2904523
0
ARC
8
DEFAULT_255_1_234
10
6.2835685
20
37.1948965
40
0.3633074
50
12.0805627
51
23.8173984
0
ARC
8
DEFAULT_255_1_234
10
6.400939
20
37.2445919
40
0.2358723
50
24.2871213
51
31.3935614
0
ARC
8
DEFAULT_255_1_234
10
6.4534087
20
37.2789233
40
0.1732111
50
30.7407893
51
82.4657128
0
ARC
8
DEFAULT_255_1_234
10
6.4354221
20
37.1905691
40
0.263235
50
81.1060089
51
90.2184952
0
ARC
8
DEFAULT_255_1_234
10
6.431852
20
37.2163924
40
0.2374236
50
89.3806855
51
105.6762551
0
ARC
8
DEFAULT_255_1_234
10
6.4135151
20
37.2830567
40
0.1682847
50
105.7981136
51
149.7388061
0
ARC
8
DEFAULT_255_1_234
10
6.5199229
20
37.219095
40
0.2924306
50
149.4208916
51
163.6286378
0
ARC
8
DEFAULT_255_1_234
10
6.7290117
20
37.155325
40
0.5110213
50
163.3763315
51
172.1410975
0
ARC
8
DEFAULT_255_1_234
10
7.0590836
20
37.1080518
40
0.8444586
50
172.0259487
51
178.0703232
0
ARC
8
DEFAULT_255_1_234
10
7.3620926
20
37.0936906
40
1.1477868
50
177.8631668
51
179.5044149
0
ARC
8
DEFAULT_255_1_234
10
7.254833
20
36.8622389
40
1.0404907
50
179.7995573
51
185.2460446
0
ARC
8
DEFAULT_255_1_234
10
6.850537
20
36.8239513
40
0.6343885
50
185.1411642
51
193.0079639
0
ARC
8
DEFAULT_255_1_234
10
6.5861842
20
36.7614641
40
0.3627568
50
192.7897626
51
205.2507664
0
ARC
8
DEFAULT_255_1_234
10
6.4815389
20
36.7147415
40
0.2481908
50
205.8005384
51
211.2537509
0
ARC
8
DEFAULT_255_1_234
10
6.429183
20
36.679658
40
0.1852521
50
210.3789793
51
238.4008143
0
ARC
8
DEFAULT_255_1_234
10
6.4272351
20
36.6843376
40
0.1882621
50
239.6520629
51
265.9793761
0
ARC
8
DEFAULT_255_1_234
10
6.4357552
20
36.7515427
40
0.2559272
50
265.1315437
51
270.060332
0
ARC
8
DEFAULT_255_1_234
10
6.438633
20
36.7191534
40
0.2235528
50
269.3314664
51
287.2178029
0
ARC
8
DEFAULT_255_1_234
10
6.4524182
20
36.6688279
40
0.1714108
50
287.7958004
51
329.080874
0
ARC
8
DEFAULT_255_1_234
10
6.3566639
20
36.728593
40
0.2842745
50
328.6634704
51
343.3325132
0
ARC
8
DEFAULT_255_1_234
10
6.1393659
20
36.7962863
40
0.5118644
50
343.0499468
51
351.9393422
0
ARC
8
DEFAULT_255_1_234
10
5.7926959
20
36.8473949
40
0.8622784
50
351.8069023
51
357.7959224
0
ARC
8
DEFAULT_255_1_234
10
5.4691515
20
36.8641721
40
1.1862365
50
357.5871873
51
359.2677531
0
LINE
8
DEFAULT_255_1_234
10
5.0274293
20
41.682
11
4.9157881
21
41.9872061
0
LINE
8
DEFAULT_255_1_234
10
4.9157881
20
41.9872061
11
4.4258521
21
41.9872061
0
LINE
8
DEFAULT_255_1_234
10
4.4258521
20
41.9872061
11
4.3158173
21
41.682
0
LINE
8
DEFAULT_255_1_234
10
4.3158173
20
41.682
11
4.1567889
21
41.682
0
LINE
8
DEFAULT_255_1_234
10
4.1567889
20
41.682
11
4.6033535
21
42.8514211
0
LINE
8
DEFAULT_255_1_234
10
4.6033535
20
42.8514211
11
4.7382867
21
42.8514211
0
LINE
8
DEFAULT_255_1_234
10
4.7382867
20
42.8514211
11
5.1856545
21
41.682
0
LINE
8
DEFAULT_255_1_234
10
5.1856545
20
41.682
11
5.0274293
21
41.682
0
LINE
8
DEFAULT_255_1_234
10
4.6708201
20
42.6610689
11
4.4724362
21
42.1141075
0
LINE
8
DEFAULT_255_1_234
10
4.4724362
20
42.1141075
11
4.8700072
21
42.1141075
0
LINE
8
DEFAULT_255_1_234
10
4.8700072
20
42.1141075
11
4.6708201
21
42.6610689
0
LINE
8
DEFAULT_255_1_234
10
5.792854
20
42.8570433
11
5.792854
21
41.682
0
LINE
8
DEFAULT_255_1_234
10
5.792854
20
41.682
11
5.6434636
21
41.682
0
LINE
8
DEFAULT_255_1_234
10
5.6434636
20
41.682
11
5.6434636
21
42.6723133
0
LINE
8
DEFAULT_255_1_234
10
5.6434636
20
42.6723133
11
5.3438798
21
42.5622785
0
LINE
8
DEFAULT_255_1_234
10
5.3438798
20
42.5622785
11
5.3438798
21
42.6972117
0
LINE
8
DEFAULT_255_1_234
10
5.3438798
20
42.6972117
11
5.7695619
21
42.8570433
0
LINE
8
DEFAULT_255_1_234
10
5.7695619
20
42.8570433
11
5.792854
21
42.8570433
0
LINE
8
DEFAULT_255_1_234
10
6.9614719
20
42.3735327
11
6.9614719
21
42.1807709
0
LINE
8
DEFAULT_255_1_234
10
6.2233551
20
42.1606916
11
6.2233551
21
42.3590755
0
LINE
8
DEFAULT_255_1_234
10
6.8128847
20
42.1406123
11
6.8128847
21
42.3839739
0
LINE
8
DEFAULT_255_1_234
10
6.3719423
20
42.3952184
11
6.3719423
21
42.1574789
0
ARC
8
DEFAULT_255_1_234
10
5.7367608
20
42.1758805
40
1.2247208
50
353.8441951
51
0.2287902
0
ARC
8
DEFAULT_255_1_234
10
6.2007112
20
42.1240806
40
0.7578929
50
344.4934747
51
353.9765454
0
ARC
8
DEFAULT_255_1_234
10
6.4999702
20
42.0389981
40
0.4467846
50
329.2803592
51
344.7472793
0
ARC
8
DEFAULT_255_1_234
10
6.5992527
20
41.9845018
40
0.3336173
50
324.9352394
51
328.6160465
0
ARC
8
DEFAULT_255_1_234
10
6.6369636
20
41.9581427
40
0.2876076
50
280.580143
51
324.9173126
0
ARC
8
DEFAULT_255_1_234
10
6.5968428
20
42.1252099
40
0.4592847
50
269.5977311
51
281.6734359
0
ARC
8
DEFAULT_255_1_234
10
6.5896334
20
42.1132173
40
0.4472986
50
256.6228859
51
270.51044
0
ARC
8
DEFAULT_255_1_234
10
6.5494312
20
41.9583877
40
0.2873874
50
215.8618325
51
257.2788573
0
ARC
8
DEFAULT_255_1_234
10
6.6515343
20
42.0268977
40
0.4102928
50
197.9693508
51
215.2623606
0
ARC
8
DEFAULT_255_1_234
10
6.9000459
20
42.1107709
40
0.6725652
50
187.8816417
51
198.2346507
0
ARC
8
DEFAULT_255_1_234
10
7.2958667
20
42.1679079
40
1.0724845
50
180.8976217
51
188.0055519
0
ARC
8
DEFAULT_255_1_234
10
7.5758855
20
42.1782777
40
1.3526448
50
180.7449369
51
181.1510016
0
ARC
8
DEFAULT_255_1_234
10
7.4181584
20
42.3639042
40
1.1948131
50
173.7675579
51
180.231553
0
ARC
8
DEFAULT_255_1_234
10
6.9663731
20
42.4149666
40
0.7401564
50
164.3058563
51
173.9002247
0
ARC
8
DEFAULT_255_1_234
10
6.67518
20
42.4988656
40
0.4371288
50
148.7922025
51
164.568378
0
ARC
8
DEFAULT_255_1_234
10
6.5800252
20
42.5519929
40
0.3282386
50
144.5883898
51
148.1176286
0
ARC
8
DEFAULT_255_1_234
10
6.545715
20
42.5759315
40
0.2864044
50
101.6440918
51
144.514236
0
ARC
8
DEFAULT_255_1_234
10
6.5882217
20
42.4070069
40
0.4604934
50
89.5284041
51
102.5819763
0
ARC
8
DEFAULT_255_1_234
10
6.5961305
20
42.4031018
40
0.464401
50
77.0437873
51
90.5081339
0
ARC
8
DEFAULT_255_1_234
10
6.6363306
20
42.5673615
40
0.2953195
50
48.2778575
51
77.4994676
0
ARC
8
DEFAULT_255_1_234
10
6.6435938
20
42.5802746
40
0.2808655
50
36.3142134
51
47.6305865
0
ARC
8
DEFAULT_255_1_234
10
6.5567245
20
42.5217515
40
0.3855453
50
18.2931786
51
35.6769206
0
ARC
8
DEFAULT_255_1_234
10
6.3024003
20
42.4344593
40
0.654423
50
8.024666
51
18.5605216
0
ARC
8
DEFAULT_255_1_234
10
5.8860923
20
42.3729792
40
1.0752407
50
1.1274072
51
8.1718305
0
ARC
8
DEFAULT_255_1_234
10
5.5625114
20
42.3602885
40
1.3990231
50
0.5424119
51
1.3863029
0
ARC
8
DEFAULT_255_1_234
10
5.7446492
20
42.3875342
40
1.0682415
50
359.8090433
51
4.9407866
0
ARC
8
DEFAULT_255_1_234
10
6.1656506
20
42.4251113
40
0.6455691
50
4.8362157
51
12.2904523
0
ARC
8
DEFAULT_255_1_234
10
6.4411621
20
42.4864965
40
0.3633074
50
12.0805627
51
23.8173984
0
ARC
8
DEFAULT_255_1_234
10
6.5585326
20
42.5361919
40
0.2358723
50
24.2871213
51
31.3935614
0
ARC
8
DEFAULT_255_1_234
10
6.6110023
20
42.5705233
40
0.1732111
50
30.7407893
51
82.4657128
0
ARC
8
DEFAULT_255_1_234
10
6.5930157
20
42.4821691
40
0.263235
50
81.1060089
51
90.2184952
0
ARC
8
DEFAULT_255_1_234
10
6.5894456
20
42.5079924
40
0.2374236
50
89.3806855
51
105.6762551
0
ARC
8
DEFAULT_255_1_234
10
6.5711087
20
42.5746567
40
0.1682847
50
105.7981136
51
149.7388061
0
ARC
8
DEFAULT_255_1_234
10
6.6775165
20
42.510695
40
0.2924306
50
149.4208916
51
163.6286378
0
ARC
8
DEFAULT_255_1_234
10
6.8866053
20
42.446925
40
0.5110213
50
163.3763315
51
172.1410975
0
ARC
8
DEFAULT_255_1_234
10
7.2166772
20
42.3996518
40
0.8444586
50
172.0259487
51
178.0703232
0
ARC
8
DEFAULT_255_1_234
10
7.5196862
20
42.3852906
40
1.1477868
50
177.8631668
51
179.5044149
0
ARC
8
DEFAULT_255_1_234
10
7.4124266
20
42.1538389
40
1.0404907
50
179.7995573
51
185.2460446
0
ARC
8
DEFAULT_255_1_234
10
7.0081306
20
42.1155513
40
0.6343885
50
185.1411642
51
193.0079639
0
ARC
8
DEFAULT_255_1_234
10
6.7437778
20
42.0530641
40
0.3627568
50
192.7897626
51
205.2507664
0
ARC
8
DEFAULT_255_1_234
10
6.6391325
20
42.0063415
40
0.2481908
50
205.8005384
51
211.2537509
0
ARC
8
DEFAULT_255_1_234
10
6.5867766
20
41.971258
40
0.1852521
50
210.3789793
51
238.4008143
0
ARC
8
DEFAULT_255_1_234
10
6.5848287
20
41.9759376
40
0.1882621
50
239.6520629
51
265.9793761
0
ARC
8
DEFAULT_255_1_234
10
6.5933488
20
42.0431427
40
0.2559272
50
265.1315437
51
270.060332
0
ARC
8
DEFAULT_255_1_234
10
6.5962266
20
42.0107534
40
0.2235528
50
269.3314664
51
287.2178029
0
ARC
8
DEFAULT_255_1_234
10
6.6100118
20
41.9604279
40
0.1714108
50
287.7958004
51
329.080874
0
ARC
8
DEFAULT_255_1_234
10
6.5142575
20
42.020193
40
0.2842745
50
328.6634704
51
343.3325132
0
ARC
8
DEFAULT_255_1_234
10
6.2969595
20
42.0878863
40
0.5118644
50
343.0499468
51
351.9393422
0
ARC
8
DEFAULT_255_1_234
10
5.9502895
20
42.1389949
40
0.8622784
50
351.8069023
51
357.7959224
0
ARC
8
DEFAULT_255_1_234
10
5.6267451
20
42.1557721
40
1.1862365
50
357.5871873
51
359.2677531
0
LINE
8
DEFAULT_255_1_234
10
4.5586392
20
46.9737
11
4.1530364
21
46.9737
0
LINE
8
DEFAULT_255_1_234
10
4.1530364
20
46.9737
11
4.1530364
21
48.1431211
0
LINE
8
DEFAULT_255_1_234
10
4.1530364
20
48.1431211
11
4.5353471
21
48.1431211
0
LINE
8
DEFAULT_255_1_234
10
4.5642614
20
47.5206614
11
4.3072458
21
47.5206614
0
LINE
8
DEFAULT_255_1_234
10
4.3072458
20
47.5206614
11
4.3072458
21
47.0997983
0
LINE
8
DEFAULT_255_1_234
10
4.3072458
20
47.0997983
11
4.5618519
21
47.0997983
0
LINE
8
DEFAULT_255_1_234
10
4.3072458
20
48.0162196
11
4.3072458
21
47.6443501
0
LINE
8
DEFAULT_255_1_234
10
4.3072458
20
47.6443501
11
4.5401662
21
47.6443501
0
LINE
8
DEFAULT_255_1_234
10
4.5353471
20
48.0162196
11
4.3072458
21
48.0162196
0
ARC
8
DEFAULT_255_1_234
10
4.539118
20
47.4063901
40
0.7367406
50
82.1257326
51
90.2932599
0
ARC
8
DEFAULT_255_1_234
10
4.5780135
20
47.6782013
40
0.4621653
50
69.9044149
51
82.2857423
0
ARC
8
DEFAULT_255_1_234
10
4.6350813
20
47.8324637
40
0.2976871
50
51.1838526
51
70.0181538
0
ARC
8
DEFAULT_255_1_234
10
4.6605779
20
47.869524
40
0.2528517
50
12.1017251
51
50.4214761
0
ARC
8
DEFAULT_255_1_234
10
4.5221653
20
47.8347676
40
0.3955061
50
359.5251267
51
12.8211707
0
ARC
8
DEFAULT_255_1_234
10
4.6801579
20
47.8278344
40
0.2375281
50
323.4908128
51
0.8817314
0
ARC
8
DEFAULT_255_1_234
10
4.6383266
20
47.860155
40
0.2903817
50
298.6825083
51
323.2756573
0
ARC
8
DEFAULT_255_1_234
10
4.6021629
20
47.9202649
40
0.3604842
50
293.1999386
51
299.1396394
0
ARC
8
DEFAULT_255_1_234
10
4.6694602
20
47.3117126
40
0.2871098
50
54.0011765
51
74.9167975
0
ARC
8
DEFAULT_255_1_234
10
4.6810961
20
47.3314332
40
0.2643248
50
36.3580696
51
53.5291921
0
ARC
8
DEFAULT_255_1_234
10
4.6684203
20
47.3223998
40
0.2798884
50
4.8189881
51
36.3089977
0
ARC
8
DEFAULT_255_1_234
10
4.5905038
20
47.311427
40
0.358478
50
359.9370252
51
5.5204067
0
ARC
8
DEFAULT_255_1_234
10
4.558056
20
47.3073667
40
0.3909429
50
344.7478609
51
0.5373281
0
ARC
8
DEFAULT_255_1_234
10
4.6571531
20
47.2806544
40
0.2883093
50
311.1786488
51
344.6886812
0
ARC
8
DEFAULT_255_1_234
10
4.6279578
20
47.3169987
40
0.3348923
50
286.0418249
51
310.8441291
0
ARC
8
DEFAULT_255_1_234
10
4.577241
20
47.4816807
40
0.5071869
50
274.1042341
51
286.4071509
0
ARC
8
DEFAULT_255_1_234
10
4.5595666
20
47.6700229
40
0.6963234
50
269.9236873
51
274.445647
0
ARC
8
DEFAULT_255_1_234
10
4.5641667
20
47.4360537
40
0.3362634
50
269.6055768
51
281.3740047
0
ARC
8
DEFAULT_255_1_234
10
4.5872305
20
47.3267353
40
0.224546
50
281.1055983
51
302.5132223
0
ARC
8
DEFAULT_255_1_234
10
4.6019204
20
47.3003823
40
0.1944357
50
303.0368945
51
311.8811219
0
ARC
8
DEFAULT_255_1_234
10
4.6090611
20
47.291889
40
0.1833454
50
311.9916004
51
351.7143462
0
ARC
8
DEFAULT_255_1_234
10
4.5273841
20
47.308393
40
0.2665871
50
350.7339597
51
0.2221581
0
ARC
8
DEFAULT_255_1_234
10
4.5166287
20
47.3140467
40
0.2773789
50
359.0456241
51
17.2296242
0
ARC
8
DEFAULT_255_1_234
10
4.6205404
20
47.3449163
40
0.1689915
50
17.6685481
51
78.9940892
0
ARC
8
DEFAULT_255_1_234
10
4.5688568
20
47.1594224
40
0.3612658
50
76.5635957
51
90.6980921
0
LINE
8
DEFAULT_255_1_234
10
4.5644552
20
47.5206613
11
4.5642614
21
47.5206614
0
ARC
8
DEFAULT_255_1_234
10
4.5424228
20
47.9729036
40
0.3285612
50
269.6064736
51
281.4533503
0
ARC
8
DEFAULT_255_1_234
10
4.5647048
20
47.8677688
40
0.2210975
50
281.2041486
51
302.5148063
0
ARC
8
DEFAULT_255_1_234
10
4.5783898
20
47.8431241
40
0.1929674
50
303.021671
51
309.8369575
0
ARC
8
DEFAULT_255_1_234
10
4.5967359
20
47.8225488
40
0.1654181
50
309.5228395
51
356.9509836
0
ARC
8
DEFAULT_255_1_234
10
4.5303942
20
47.8320932
40
0.2322512
50
355.4701227
51
0.0492546
0
ARC
8
DEFAULT_255_1_234
10
4.5025033
20
47.8343094
40
0.2601498
50
359.5558597
51
11.2096359
0
ARC
8
DEFAULT_255_1_234
10
4.5982323
20
47.854123
40
0.1623975
50
10.9182341
51
31.3230275
0
ARC
8
DEFAULT_255_1_234
10
4.6268056
20
47.8700214
40
0.1297302
50
31.8852677
51
52.1412565
0
ARC
8
DEFAULT_255_1_234
10
4.5993789
20
47.831275
40
0.1771663
50
52.8285564
51
71.9850297
0
ARC
8
DEFAULT_255_1_234
10
4.5617965
20
47.7206664
40
0.2939794
50
71.6863486
51
82.8455995
0
ARC
8
DEFAULT_255_1_234
10
4.5378501
20
47.5397149
40
0.476506
50
82.6984714
51
90.1729175
0
ARC
8
DEFAULT_255_1_234
10
4.5356136
20
47.6620623
40
0.3541573
50
89.8708275
51
90.0431131
0
LINE
8
DEFAULT_255_1_234
10
5.6268604
20
48.1487433
11
5.6268604
21
46.9737
0
LINE
8
DEFAULT_255_1_234
10
5.6268604
20
46.9737
11
5.47747
21
46.9737
0
LINE
8
DEFAULT_255_1_234
10
5.47747
20
46.9737
11
5.47747
21
47.9640133
0
LINE
8
DEFAULT_255_1_234
10
5.47747
20
47.9640133
11
5.1778862
21
47.8539785
0
LINE
8
DEFAULT_255_1_234
10
5.1778862
20
47.8539785
11
5.1778862
21
47.9889117
0
LINE
8
DEFAULT_255_1_234
10
5.1778862
20
47.9889117
11
5.6035683
21
48.1487433
0
LINE
8
DEFAULT_255_1_234
10
5.6035683
20
48.1487433
11
5.6268604
21
48.1487433
0
LINE
8
DEFAULT_255_1_234
10
6.5505103
20
48.1487433
11
6.5505103
21
46.9737
0
LINE
8
DEFAULT_255_1_234
10
6.5505103
20
46.9737
11
6.4011199
21
46.9737
0
LINE
8
DEFAULT_255_1_234
10
6.4011199
20
46.9737
11
6.4011199
21
47.9640133
0
LINE
8
DEFAULT_255_1_234
10
6.4011199
20
47.9640133
11
6.1015361
21
47.8539785
0
LINE
8
DEFAULT_255_1_234
10
6.1015361
20
47.8539785
11
6.1015361
21
47.9889117
0
LINE
8
DEFAULT_255_1_234
10
6.1015361
20
47.9889117
11
6.5272182
21
48.1487433
0
LINE
8
DEFAULT_255_1_234
10
6.5272182
20
48.1487433
11
6.5505103
21
48.1487433
0
LINE
8
DEFAULT_255_1_234
10
5.0195293
20
52.2654
11
4.9078881
21
52.5706061
0
LINE
8
DEFAULT_255_1_234
10
4.9078881
20
52.5706061
11
4.4179521
21
52.5706061
0
LINE
8
DEFAULT_255_1_234
10
4.4179521
20
52.5706061
11
4.3079173
21
52.2654
0
LINE
8
DEFAULT_255_1_234
10
4.3079173
20
52.2654
11
4.1488889
21
52.2654
0
LINE
8
DEFAULT_255_1_234
10
4.1488889
20
52.2654
11
4.5954535
21
53.4348211
0
LINE
8
DEFAULT_255_1_234
10
4.5954535
20
53.4348211
11
4.7303867
21
53.4348211
0
LINE
8
DEFAULT_255_1_234
10
4.7303867
20
53.4348211
11
5.1777545
21
52.2654
0
LINE
8
DEFAULT_255_1_234
10
5.1777545
20
52.2654
11
5.0195293
21
52.2654
0
LINE
8
DEFAULT_255_1_234
10
4.6629201
20
53.2444689
11
4.4645362
21
52.6975075
0
LINE
8
DEFAULT_255_1_234
10
4.4645362
20
52.6975075
11
4.8621072
21
52.6975075
0
LINE
8
DEFAULT_255_1_234
10
4.8621072
20
52.6975075
11
4.6629201
21
53.2444689
0
LINE
8
DEFAULT_255_1_234
10
5.784954
20
53.4404433
11
5.784954
21
52.2654
0
LINE
8
DEFAULT_255_1_234
10
5.784954
20
52.2654
11
5.6355636
21
52.2654
0
LINE
8
DEFAULT_255_1_234
10
5.6355636
20
52.2654
11
5.6355636
21
53.2557133
0
LINE
8
DEFAULT_255_1_234
10
5.6355636
20
53.2557133
11
5.3359798
21
53.1456785
0
LINE
8
DEFAULT_255_1_234
10
5.3359798
20
53.1456785
11
5.3359798
21
53.2806117
0
LINE
8
DEFAULT_255_1_234
10
5.3359798
20
53.2806117
11
5.7616619
21
53.4404433
0
LINE
8
DEFAULT_255_1_234
10
5.7616619
20
53.4404433
11
5.784954
21
53.4404433
0
LINE
8
DEFAULT_255_1_234
10
6.7086039
20
53.4404433
11
6.7086039
21
52.2654
0
LINE
8
DEFAULT_255_1_234
10
6.7086039
20
52.2654
11
6.5592135
21
52.2654
0
LINE
8
DEFAULT_255_1_234
10
6.5592135
20
52.2654
11
6.5592135
21
53.2557133
0
LINE
8
DEFAULT_255_1_234
10
6.5592135
20
53.2557133
11
6.2596297
21
53.1456785
0
LINE
8
DEFAULT_255_1_234
10
6.2596297
20
53.1456785
11
6.2596297
21
53.2806117
0
LINE
8
DEFAULT_255_1_234
10
6.2596297
20
53.2806117
11
6.6853118
21
53.4404433
0
LINE
8
DEFAULT_255_1_234
10
6.6853118
20
53.4404433
11
6.7086039
21
53.4404433
0
LINE
8
DEFAULT_255_1_234
10
4.5670392
20
57.557
11
4.1614364
21
57.557
0
LINE
8
DEFAULT_255_1_234
10
4.1614364
20
57.557
11
4.1614364
21
58.7264211
0
LINE
8
DEFAULT_255_1_234
10
4.1614364
20
58.7264211
11
4.5437471
21
58.7264211
0
LINE
8
DEFAULT_255_1_234
10
4.5726614
20
58.1039614
11
4.3156458
21
58.1039614
0
LINE
8
DEFAULT_255_1_234
10
4.3156458
20
58.1039614
11
4.3156458
21
57.6830983
0
LINE
8
DEFAULT_255_1_234
10
4.3156458
20
57.6830983
11
4.5702519
21
57.6830983
0
LINE
8
DEFAULT_255_1_234
10
4.3156458
20
58.5995196
11
4.3156458
21
58.2276501
0
LINE
8
DEFAULT_255_1_234
10
4.3156458
20
58.2276501
11
4.5485662
21
58.2276501
0
LINE
8
DEFAULT_255_1_234
10
4.5437471
20
58.5995196
11
4.3156458
21
58.5995196
0
ARC
8
DEFAULT_255_1_234
10
4.547518
20
57.9896901
40
0.7367406
50
82.1257326
51
90.2932599
0
ARC
8
DEFAULT_255_1_234
10
4.5864135
20
58.2615013
40
0.4621653
50
69.9044149
51
82.2857423
0
ARC
8
DEFAULT_255_1_234
10
4.6434813
20
58.4157637
40
0.2976871
50
51.1838526
51
70.0181538
0
ARC
8
DEFAULT_255_1_234
10
4.6689779
20
58.452824
40
0.2528517
50
12.1017251
51
50.4214761
0
ARC
8
DEFAULT_255_1_234
10
4.5305653
20
58.4180676
40
0.3955061
50
359.5251267
51
12.8211707
0
ARC
8
DEFAULT_255_1_234
10
4.6885579
20
58.4111344
40
0.2375281
50
323.4908128
51
0.8817314
0
ARC
8
DEFAULT_255_1_234
10
4.6467266
20
58.443455
40
0.2903817
50
298.6825083
51
323.2756573
0
ARC
8
DEFAULT_255_1_234
10
4.6105629
20
58.5035649
40
0.3604842
50
293.1999386
51
299.1396394
0
ARC
8
DEFAULT_255_1_234
10
4.6778602
20
57.8950126
40
0.2871098
50
54.0011765
51
74.9167975
0
ARC
8
DEFAULT_255_1_234
10
4.6894961
20
57.9147332
40
0.2643248
50
36.3580696
51
53.5291921
0
ARC
8
DEFAULT_255_1_234
10
4.6768203
20
57.9056998
40
0.2798884
50
4.8189881
51
36.3089977
0
ARC
8
DEFAULT_255_1_234
10
4.5989038
20
57.894727
40
0.358478
50
359.9370252
51
5.5204067
0
ARC
8
DEFAULT_255_1_234
10
4.566456
20
57.8906667
40
0.3909429
50
344.7478609
51
0.5373281
0
ARC
8
DEFAULT_255_1_234
10
4.6655531
20
57.8639544
40
0.2883093
50
311.1786488
51
344.6886812
0
ARC
8
DEFAULT_255_1_234
10
4.6363578
20
57.9002987
40
0.3348923
50
286.0418249
51
310.8441291
0
ARC
8
DEFAULT_255_1_234
10
4.585641
20
58.0649807
40
0.5071869
50
274.1042341
51
286.4071509
0
ARC
8
DEFAULT_255_1_234
10
4.5679666
20
58.2533229
40
0.6963234
50
269.9236873
51
274.445647
0
ARC
8
DEFAULT_255_1_234
10
4.5725667
20
58.0193537
40
0.3362634
50
269.6055768
51
281.3740047
0
ARC
8
DEFAULT_255_1_234
10
4.5956305
20
57.9100353
40
0.224546
50
281.1055983
51
302.5132223
0
ARC
8
DEFAULT_255_1_234
10
4.6103204
20
57.8836823
40
0.1944357
50
303.0368945
51
311.8811219
0
ARC
8
DEFAULT_255_1_234
10
4.6174611
20
57.875189
40
0.1833454
50
311.9916004
51
351.7143462
0
ARC
8
DEFAULT_255_1_234
10
4.5357841
20
57.891693
40
0.2665871
50
350.7339597
51
0.2221581
0
ARC
8
DEFAULT_255_1_234
10
4.5250287
20
57.8973467
40
0.2773789
50
359.0456241
51
17.2296242
0
ARC
8
DEFAULT_255_1_234
10
4.6289404
20
57.9282163
40
0.1689915
50
17.6685481
51
78.9940892
0
ARC
8
DEFAULT_255_1_234
10
4.5772568
20
57.7427224
40
0.3612658
50
76.5635957
51
90.6980921
0
LINE
8
DEFAULT_255_1_234
10
4.5728552
20
58.1039613
11
4.5726614
21
58.1039614
0
ARC
8
DEFAULT_255_1_234
10
4.5508228
20
58.5562036
40
0.3285612
50
269.6064736
51
281.4533503
0
ARC
8
DEFAULT_255_1_234
10
4.5731048
20
58.4510688
40
0.2210975
50
281.2041486
51
302.5148063
0
ARC
8
DEFAULT_255_1_234
10
4.5867898
20
58.4264241
40
0.1929674
50
303.021671
51
309.8369575
0
ARC
8
DEFAULT_255_1_234
10
4.6051359
20
58.4058488
40
0.1654181
50
309.5228395
51
356.9509836
0
ARC
8
DEFAULT_255_1_234
10
4.5387942
20
58.4153932
40
0.2322512
50
355.4701227
51
0.0492546
0
ARC
8
DEFAULT_255_1_234
10
4.5109033
20
58.4176094
40
0.2601498
50
359.5558597
51
11.2096359
0
ARC
8
DEFAULT_255_1_234
10
4.6066323
20
58.437423
40
0.1623975
50
10.9182341
51
31.3230275
0
ARC
8
DEFAULT_255_1_234
10
4.6352056
20
58.4533214
40
0.1297302
50
31.8852677
51
52.1412565
0
ARC
8
DEFAULT_255_1_234
10
4.6077789
20
58.414575
40
0.1771663
50
52.8285564
51
71.9850297
0
ARC
8
DEFAULT_255_1_234
10
4.5701965
20
58.3039664
40
0.2939794
50
71.6863486
51
82.8455995
0
ARC
8
DEFAULT_255_1_234
10
4.5462501
20
58.1230149
40
0.476506
50
82.6984714
51
90.1729175
0
ARC
8
DEFAULT_255_1_234
10
4.5440136
20
58.2453623
40
0.3541573
50
89.8708275
51
90.0431131
0
LINE
8
DEFAULT_255_1_234
10
5.6352604
20
58.7320433
11
5.6352604
21
57.557
0
LINE
8
DEFAULT_255_1_234
10
5.6352604
20
57.557
11
5.48587
21
57.557
0
LINE
8
DEFAULT_255_1_234
10
5.48587
20
57.557
11
5.48587
21
58.5473133
0
LINE
8
DEFAULT_255_1_234
10
5.48587
20
58.5473133
11
5.1862862
21
58.4372785
0
LINE
8
DEFAULT_255_1_234
10
5.1862862
20
58.4372785
11
5.1862862
21
58.5722117
0
LINE
8
DEFAULT_255_1_234
10
5.1862862
20
58.5722117
11
5.6119683
21
58.7320433
0
LINE
8
DEFAULT_255_1_234
10
5.6119683
20
58.7320433
11
5.6352604
21
58.7320433
0
LINE
8
DEFAULT_255_1_234
10
6.8368084
20
57.6782792
11
6.8368084
21
57.557
0
LINE
8
DEFAULT_255_1_234
10
6.8368084
20
57.557
11
6.0705806
21
57.557
0
LINE
8
DEFAULT_255_1_234
10
6.0705806
20
57.557
11
6.0705806
21
57.6638221
0
LINE
8
DEFAULT_255_1_234
10
6.0705806
20
57.6638221
11
6.4753802
21
58.1135995
0
LINE
8
DEFAULT_255_1_234
10
6.1966789
20
58.3818595
11
6.0480917
21
58.3818595
0
LINE
8
DEFAULT_255_1_234
10
6.5629261
20
58.0180218
11
6.2496883
21
57.6782792
0
LINE
8
DEFAULT_255_1_234
10
6.2496883
20
57.6782792
11
6.8368084
21
57.6782792
0
ARC
8
DEFAULT_255_1_234
10
5.1263635
20
59.3065527
40
1.8008286
50
318.5132453
51
320.7828378
0
ARC
8
DEFAULT_255_1_234
10
5.6550609
20
58.8762426
40
1.1191493
50
320.7372736
51
323.9737074
0
ARC
8
DEFAULT_255_1_234
10
6.0470466
20
58.5922361
40
0.6350923
50
323.8961724
51
328.6421089
0
ARC
8
DEFAULT_255_1_234
10
6.2517061
20
58.4660031
40
0.3946393
50
328.8299013
51
331.789948
0
ARC
8
DEFAULT_255_1_234
10
6.351424
20
58.4145509
40
0.2824501
50
331.4255242
51
352.9364833
0
ARC
8
DEFAULT_255_1_234
10
6.365074
20
58.4114976
40
0.2685315
50
353.2248685
51
0.0169286
0
ARC
8
DEFAULT_255_1_234
10
6.3860617
20
58.413795
40
0.2475536
50
359.4866256
51
15.9339782
0
ARC
8
DEFAULT_255_1_234
10
6.4367603
20
58.4274286
40
0.1950618
50
16.1714718
51
43.5284424
0
ARC
8
DEFAULT_255_1_234
10
6.4444911
20
58.4351573
40
0.184134
50
43.4415429
51
83.1661404
0
ARC
8
DEFAULT_255_1_234
10
6.4310829
20
58.3614771
40
0.258926
50
82.160215
51
90.1505798
0
ARC
8
DEFAULT_255_1_234
10
6.4279257
20
58.3077865
40
0.3126255
50
89.5460705
51
102.5418777
0
ARC
8
DEFAULT_255_1_234
10
6.4036343
20
58.4108665
40
0.2067346
50
102.1739365
51
129.2061916
0
ARC
8
DEFAULT_255_1_234
10
6.3957415
20
58.4233094
40
0.1921118
50
129.7279328
51
135.7542026
0
ARC
8
DEFAULT_255_1_234
10
6.4078942
20
58.4136045
40
0.2075944
50
136.175737
51
166.3674722
0
ARC
8
DEFAULT_255_1_234
10
6.5085861
20
58.3866182
40
0.3118201
50
165.9092917
51
178.8683903
0
ARC
8
DEFAULT_255_1_234
10
6.5950723
20
58.3819179
40
0.3983935
50
178.438168
51
180.0083905
0
ARC
8
DEFAULT_255_1_234
10
6.4549325
20
58.3858231
40
0.4068601
50
163.2878735
51
180.5581814
0
ARC
8
DEFAULT_255_1_234
10
6.3747586
20
58.407884
40
0.3237344
50
133.454115
51
162.9470031
0
ARC
8
DEFAULT_255_1_234
10
6.3926128
20
58.3889
40
0.349795
50
100.7869394
51
133.4384016
0
ARC
8
DEFAULT_255_1_234
10
6.4273899
20
58.2340319
40
0.5084616
50
89.6605301
51
101.3704185
0
ARC
8
DEFAULT_255_1_234
10
6.4340238
20
58.2401496
40
0.502348
50
78.2171172
51
90.4130393
0
ARC
8
DEFAULT_255_1_234
10
6.4695316
20
58.4025637
40
0.3361092
50
55.9268222
51
78.4888551
0
ARC
8
DEFAULT_255_1_234
10
6.4891756
20
58.4364324
40
0.2970617
50
47.9292255
51
55.4054003
0
ARC
8
DEFAULT_255_1_234
10
6.4993317
20
58.4467502
40
0.2825983
50
4.3347696
51
48.0560701
0
ARC
8
DEFAULT_255_1_234
10
6.3897711
20
58.4297601
40
0.393225
50
359.925209
51
5.5967654
0
ARC
8
DEFAULT_255_1_234
10
6.4326602
20
58.4353816
40
0.3503892
50
337.8914096
51
358.9967724
0
ARC
8
DEFAULT_255_1_234
10
6.1613014
20
58.5400706
40
0.6412172
50
326.9135351
51
338.3505194
0
ARC
8
DEFAULT_255_1_234
10
5.7627318
20
58.7955284
40
1.1146189
50
319.6472867
51
327.095818
0
ARC
8
DEFAULT_255_1_234
10
5.3794321
20
59.1117
40
1.6114559
50
317.2586784
51
319.9046139
0
LINE
8
DEFAULT_255_1_234
10
5.0274293
20
62.8487
11
4.9157881
21
63.1539061
0
LINE
8
DEFAULT_255_1_234
10
4.9157881
20
63.1539061
11
4.4258521
21
63.1539061
0
LINE
8
DEFAULT_255_1_234
10
4.4258521
20
63.1539061
11
4.3158173
21
62.8487
0
LINE
8
DEFAULT_255_1_234
10
4.3158173
20
62.8487
11
4.1567889
21
62.8487
0
LINE
8
DEFAULT_255_1_234
10
4.1567889
20
62.8487
11
4.6033535
21
64.0181211
0
LINE
8
DEFAULT_255_1_234
10
4.6033535
20
64.0181211
11
4.7382867
21
64.0181211
0
LINE
8
DEFAULT_255_1_234
10
4.7382867
20
64.0181211
11
5.1856545
21
62.8487
0
LINE
8
DEFAULT_255_1_234
10
5.1856545
20
62.8487
11
5.0274293
21
62.8487
0
LINE
8
DEFAULT_255_1_234
10
4.6708201
20
63.8277689
11
4.4724362
21
63.2808075
0
LINE
8
DEFAULT_255_1_234
10
4.4724362
20
63.2808075
11
4.8700072
21
63.2808075
0
LINE
8
DEFAULT_255_1_234
10
4.8700072
20
63.2808075
11
4.6708201
21
63.8277689
0
LINE
8
DEFAULT_255_1_234
10
5.792854
20
64.0237433
11
5.792854
21
62.8487
0
LINE
8
DEFAULT_255_1_234
10
5.792854
20
62.8487
11
5.6434636
21
62.8487
0
LINE
8
DEFAULT_255_1_234
10
5.6434636
20
62.8487
11
5.6434636
21
63.8390133
0
LINE
8
DEFAULT_255_1_234
10
5.6434636
20
63.8390133
11
5.3438798
21
63.7289785
0
LINE
8
DEFAULT_255_1_234
10
5.3438798
20
63.7289785
11
5.3438798
21
63.8639117
0
LINE
8
DEFAULT_255_1_234
10
5.3438798
20
63.8639117
11
5.7695619
21
64.0237433
0
LINE
8
DEFAULT_255_1_234
10
5.7695619
20
64.0237433
11
5.792854
21
64.0237433
0
LINE
8
DEFAULT_255_1_234
10
6.994402
20
62.9699792
11
6.994402
21
62.8487
0
LINE
8
DEFAULT_255_1_234
10
6.994402
20
62.8487
11
6.2281742
21
62.8487
0
LINE
8
DEFAULT_255_1_234
10
6.2281742
20
62.8487
11
6.2281742
21
62.9555221
0
LINE
8
DEFAULT_255_1_234
10
6.2281742
20
62.9555221
11
6.6329738
21
63.4052995
0
LINE
8
DEFAULT_255_1_234
10
6.3542725
20
63.6735595
11
6.2056853
21
63.6735595
0
LINE
8
DEFAULT_255_1_234
10
6.7205197
20
63.3097218
11
6.4072819
21
62.9699792
0
LINE
8
DEFAULT_255_1_234
10
6.4072819
20
62.9699792
11
6.994402
21
62.9699792
0
ARC
8
DEFAULT_255_1_234
10
5.2839571
20
64.5982527
40
1.8008286
50
318.5132453
51
320.7828378
0
ARC
8
DEFAULT_255_1_234
10
5.8126546
20
64.1679426
40
1.1191493
50
320.7372736
51
323.9737074
0
ARC
8
DEFAULT_255_1_234
10
6.2046402
20
63.8839361
40
0.6350923
50
323.8961724
51
328.6421089
0
ARC
8
DEFAULT_255_1_234
10
6.4092997
20
63.7577031
40
0.3946393
50
328.8299013
51
331.789948
0
ARC
8
DEFAULT_255_1_234
10
6.5090176
20
63.7062509
40
0.2824501
50
331.4255242
51
352.9364833
0
ARC
8
DEFAULT_255_1_234
10
6.5226677
20
63.7031976
40
0.2685315
50
353.2248685
51
0.0169286
0
ARC
8
DEFAULT_255_1_234
10
6.5436553
20
63.705495
40
0.2475536
50
359.4866256
51
15.9339782
0
ARC
8
DEFAULT_255_1_234
10
6.5943539
20
63.7191286
40
0.1950618
50
16.1714718
51
43.5284424
0
ARC
8
DEFAULT_255_1_234
10
6.6020847
20
63.7268573
40
0.184134
50
43.4415429
51
83.1661404
0
ARC
8
DEFAULT_255_1_234
10
6.5886765
20
63.6531771
40
0.258926
50
82.160215
51
90.1505798
0
ARC
8
DEFAULT_255_1_234
10
6.5855193
20
63.5994865
40
0.3126255
50
89.5460705
51
102.5418777
0
ARC
8
DEFAULT_255_1_234
10
6.5612279
20
63.7025665
40
0.2067346
50
102.1739365
51
129.2061916
0
ARC
8
DEFAULT_255_1_234
10
6.5533351
20
63.7150094
40
0.1921118
50
129.7279328
51
135.7542026
0
ARC
8
DEFAULT_255_1_234
10
6.5654878
20
63.7053045
40
0.2075944
50
136.175737
51
166.3674722
0
ARC
8
DEFAULT_255_1_234
10
6.6661797
20
63.6783182
40
0.3118201
50
165.9092917
51
178.8683903
0
ARC
8
DEFAULT_255_1_234
10
6.7526659
20
63.6736179
40
0.3983935
50
178.438168
51
180.0083905
0
ARC
8
DEFAULT_255_1_234
10
6.6125261
20
63.6775231
40
0.4068601
50
163.2878735
51
180.5581814
0
ARC
8
DEFAULT_255_1_234
10
6.5323522
20
63.699584
40
0.3237344
50
133.454115
51
162.9470031
0
ARC
8
DEFAULT_255_1_234
10
6.5502064
20
63.6806
40
0.349795
50
100.7869394
51
133.4384016
0
ARC
8
DEFAULT_255_1_234
10
6.5849835
20
63.5257319
40
0.5084616
50
89.6605301
51
101.3704185
0
ARC
8
DEFAULT_255_1_234
10
6.5916174
20
63.5318496
40
0.502348
50
78.2171172
51
90.4130393
0
ARC
8
DEFAULT_255_1_234
10
6.6271252
20
63.6942637
40
0.3361092
50
55.9268222
51
78.4888551
0
ARC
8
DEFAULT_255_1_234
10
6.6467692
20
63.7281324
40
0.2970617
50
47.9292255
51
55.4054003
0
ARC
8
DEFAULT_255_1_234
10
6.6569253
20
63.7384502
40
0.2825983
50
4.3347696
51
48.0560701
0
ARC
8
DEFAULT_255_1_234
10
6.5473647
20
63.7214601
40
0.393225
50
359.925209
51
5.5967654
0
ARC
8
DEFAULT_255_1_234
10
6.5902538
20
63.7270816
40
0.3503892
50
337.8914096
51
358.9967724
0
ARC
8
DEFAULT_255_1_234
10
6.3188951
20
63.8317706
40
0.6412172
50
326.9135351
51
338.3505194
0
ARC
8
DEFAULT_255_1_234
10
5.9203254
20
64.0872284
40
1.1146189
50
319.6472867
51
327.095818
0
ARC
8
DEFAULT_255_1_234
10
5.5370257
20
64.4034
40
1.6114559
50
317.2586784
51
319.9046139
0
LINE
8
DEFAULT_255_1_234
10
4.5670392
20
68.1404
11
4.1614364
21
68.1404
0
LINE
8
DEFAULT_255_1_234
10
4.1614364
20
68.1404
11
4.1614364
21
69.3098211
0
LINE
8
DEFAULT_255_1_234
10
4.1614364
20
69.3098211
11
4.5437471
21
69.3098211
0
LINE
8
DEFAULT_255_1_234
10
4.5726614
20
68.6873614
11
4.3156458
21
68.6873614
0
LINE
8
DEFAULT_255_1_234
10
4.3156458
20
68.6873614
11
4.3156458
21
68.2664983
0
LINE
8
DEFAULT_255_1_234
10
4.3156458
20
68.2664983
11
4.5702519
21
68.2664983
0
LINE
8
DEFAULT_255_1_234
10
4.3156458
20
69.1829196
11
4.3156458
21
68.8110501
0
LINE
8
DEFAULT_255_1_234
10
4.3156458
20
68.8110501
11
4.5485662
21
68.8110501
0
LINE
8
DEFAULT_255_1_234
10
4.5437471
20
69.1829196
11
4.3156458
21
69.1829196
0
ARC
8
DEFAULT_255_1_234
10
4.547518
20
68.5730901
40
0.7367406
50
82.1257326
51
90.2932599
0
ARC
8
DEFAULT_255_1_234
10
4.5864135
20
68.8449013
40
0.4621653
50
69.9044149
51
82.2857423
0
ARC
8
DEFAULT_255_1_234
10
4.6434813
20
68.9991637
40
0.2976871
50
51.1838526
51
70.0181538
0
ARC
8
DEFAULT_255_1_234
10
4.6689779
20
69.036224
40
0.2528517
50
12.1017251
51
50.4214761
0
ARC
8
DEFAULT_255_1_234
10
4.5305653
20
69.0014676
40
0.3955061
50
359.5251267
51
12.8211707
0
ARC
8
DEFAULT_255_1_234
10
4.6885579
20
68.9945344
40
0.2375281
50
323.4908128
51
0.8817314
0
ARC
8
DEFAULT_255_1_234
10
4.6467266
20
69.026855
40
0.2903817
50
298.6825083
51
323.2756573
0
ARC
8
DEFAULT_255_1_234
10
4.6105629
20
69.0869649
40
0.3604842
50
293.1999386
51
299.1396394
0
ARC
8
DEFAULT_255_1_234
10
4.6778602
20
68.4784126
40
0.2871098
50
54.0011765
51
74.9167975
0
ARC
8
DEFAULT_255_1_234
10
4.6894961
20
68.4981332
40
0.2643248
50
36.3580696
51
53.5291921
0
ARC
8
DEFAULT_255_1_234
10
4.6768203
20
68.4890998
40
0.2798884
50
4.8189881
51
36.3089977
0
ARC
8
DEFAULT_255_1_234
10
4.5989038
20
68.478127
40
0.358478
50
359.9370252
51
5.5204067
0
ARC
8
DEFAULT_255_1_234
10
4.566456
20
68.4740667
40
0.3909429
50
344.7478609
51
0.5373281
0
ARC
8
DEFAULT_255_1_234
10
4.6655531
20
68.4473544
40
0.2883093
50
311.1786488
51
344.6886812
0
ARC
8
DEFAULT_255_1_234
10
4.6363578
20
68.4836987
40
0.3348923
50
286.0418249
51
310.8441291
0
ARC
8
DEFAULT_255_1_234
10
4.585641
20
68.6483807
40
0.5071869
50
274.1042341
51
286.4071509
0
ARC
8
DEFAULT_255_1_234
10
4.5679666
20
68.8367229
40
0.6963234
50
269.9236873
51
274.445647
0
ARC
8
DEFAULT_255_1_234
10
4.5725667
20
68.6027537
40
0.3362634
50
269.6055768
51
281.3740047
0
ARC
8
DEFAULT_255_1_234
10
4.5956305
20
68.4934353
40
0.224546
50
281.1055983
51
302.5132223
0
ARC
8
DEFAULT_255_1_234
10
4.6103204
20
68.4670823
40
0.1944357
50
303.0368945
51
311.8811219
0
ARC
8
DEFAULT_255_1_234
10
4.6174611
20
68.458589
40
0.1833454
50
311.9916004
51
351.7143462
0
ARC
8
DEFAULT_255_1_234
10
4.5357841
20
68.475093
40
0.2665871
50
350.7339597
51
0.2221581
0
ARC
8
DEFAULT_255_1_234
10
4.5250287
20
68.4807467
40
0.2773789
50
359.0456241
51
17.2296242
0
ARC
8
DEFAULT_255_1_234
10
4.6289404
20
68.5116163
40
0.1689915
50
17.6685481
51
78.9940892
0
ARC
8
DEFAULT_255_1_234
10
4.5772568
20
68.3261224
40
0.3612658
50
76.5635957
51
90.6980921
0
LINE
8
DEFAULT_255_1_234
10
4.5728552
20
68.6873613
11
4.5726614
21
68.6873614
0
ARC
8
DEFAULT_255_1_234
10
4.5508228
20
69.1396036
40
0.3285612
50
269.6064736
51
281.4533503
0
ARC
8
DEFAULT_255_1_234
10
4.5731048
20
69.0344688
40
0.2210975
50
281.2041486
51
302.5148063
0
ARC
8
DEFAULT_255_1_234
10
4.5867898
20
69.0098241
40
0.1929674
50
303.021671
51
309.8369575
0
ARC
8
DEFAULT_255_1_234
10
4.6051359
20
68.9892488
40
0.1654181
50
309.5228395
51
356.9509836
0
ARC
8
DEFAULT_255_1_234
10
4.5387942
20
68.9987932
40
0.2322512
50
355.4701227
51
0.0492546
0
ARC
8
DEFAULT_255_1_234
10
4.5109033
20
69.0010094
40
0.2601498
50
359.5558597
51
11.2096359
0
ARC
8
DEFAULT_255_1_234
10
4.6066323
20
69.020823
40
0.1623975
50
10.9182341
51
31.3230275
0
ARC
8
DEFAULT_255_1_234
10
4.6352056
20
69.0367214
40
0.1297302
50
31.8852677
51
52.1412565
0
ARC
8
DEFAULT_255_1_234
10
4.6077789
20
68.997975
40
0.1771663
50
52.8285564
51
71.9850297
0
ARC
8
DEFAULT_255_1_234
10
4.5701965
20
68.8873664
40
0.2939794
50
71.6863486
51
82.8455995
0
ARC
8
DEFAULT_255_1_234
10
4.5462501
20
68.7064149
40
0.476506
50
82.6984714
51
90.1729175
0
ARC
8
DEFAULT_255_1_234
10
4.5440136
20
68.8287623
40
0.3541573
50
89.8708275
51
90.0431131
0
LINE
8
DEFAULT_255_1_234
10
5.6352604
20
69.3154433
11
5.6352604
21
68.1404
0
LINE
8
DEFAULT_255_1_234
10
5.6352604
20
68.1404
11
5.48587
21
68.1404
0
LINE
8
DEFAULT_255_1_234
10
5.48587
20
68.1404
11
5.48587
21
69.1307133
0
LINE
8
DEFAULT_255_1_234
10
5.48587
20
69.1307133
11
5.1862862
21
69.0206785
0
LINE
8
DEFAULT_255_1_234
10
5.1862862
20
69.0206785
11
5.1862862
21
69.1556117
0
LINE
8
DEFAULT_255_1_234
10
5.1862862
20
69.1556117
11
5.6119683
21
69.3154433
0
LINE
8
DEFAULT_255_1_234
10
5.6119683
20
69.3154433
11
5.6352604
21
69.3154433
0
LINE
8
DEFAULT_255_1_234
10
6.2866343
20
68.6761169
11
6.2866343
21
68.7973962
0
LINE
8
DEFAULT_255_1_234
10
6.2866343
20
68.7973962
11
6.3982755
21
68.7973962
0
LINE
8
DEFAULT_255_1_234
10
6.2079233
20
69.0030087
11
6.0593361
21
69.0030087
0
LINE
8
DEFAULT_255_1_234
10
6.0488949
20
68.4488188
11
6.1982852
21
68.4488188
0
LINE
8
DEFAULT_255_1_234
10
6.3982755
20
68.6761169
11
6.2866343
21
68.6761169
0
ARC
8
DEFAULT_255_1_234
10
6.3953621
20
69.1366713
40
0.3392876
50
270.4919872
51
281.8951556
0
ARC
8
DEFAULT_255_1_234
10
6.4194883
20
69.0264702
40
0.2264817
50
281.6691735
51
301.2943132
0
ARC
8
DEFAULT_255_1_234
10
6.4365093
20
68.9953304
40
0.1910381
50
301.7833094
51
311.7545298
0
ARC
8
DEFAULT_255_1_234
10
6.4456669
20
68.9851748
40
0.1773635
50
311.7323931
51
354.2802411
0
ARC
8
DEFAULT_255_1_234
10
6.3730294
20
68.9976722
40
0.2509385
50
353.0937916
51
0.1181479
0
ARC
8
DEFAULT_255_1_234
10
6.3269079
20
69.0024386
40
0.2970898
50
359.1805295
51
15.0453146
0
ARC
8
DEFAULT_255_1_234
10
6.4614916
20
69.0416992
40
0.1569564
50
13.9577229
51
77.6713066
0
ARC
8
DEFAULT_255_1_234
10
6.4228445
20
68.9031949
40
0.3006298
50
76.1116566
51
90.7026153
0
ARC
8
DEFAULT_255_1_234
10
6.4169284
20
68.9305545
40
0.2732568
50
89.5324876
51
103.531937
0
ARC
8
DEFAULT_255_1_234
10
6.3968728
20
69.0104884
40
0.1908508
50
103.2931773
51
133.5619022
0
ARC
8
DEFAULT_255_1_234
10
6.3924216
20
69.0164375
40
0.1834746
50
133.8349307
51
173.5344437
0
ARC
8
DEFAULT_255_1_234
10
6.4647259
20
69.0036213
40
0.2568033
50
172.5096846
51
180.1366907
0
ARC
8
DEFAULT_255_1_234
10
6.3696153
20
69.0070622
40
0.3103056
50
155.3484492
51
180.7484736
0
ARC
8
DEFAULT_255_1_234
10
6.3647242
20
69.0041846
40
0.3070957
50
131.5744599
51
154.4798489
0
ARC
8
DEFAULT_255_1_234
10
6.396039
20
68.972531
40
0.3515643
50
96.9875458
51
131.9690667
0
ARC
8
DEFAULT_255_1_234
10
6.4179869
20
68.8479636
40
0.4779224
50
89.8596053
51
97.7825159
0
ARC
8
DEFAULT_255_1_234
10
6.4227932
20
68.8217616
40
0.5041361
50
78.3655447
51
90.4131539
0
ARC
8
DEFAULT_255_1_234
10
6.458585
20
68.9876887
40
0.3344039
50
56.6229102
51
78.638727
0
ARC
8
DEFAULT_255_1_234
10
6.4800794
20
69.0252805
40
0.2912001
50
47.0253525
51
56.0854072
0
ARC
8
DEFAULT_255_1_234
10
6.4820574
20
69.0292223
40
0.2869704
50
10.9208013
51
46.7778124
0
ARC
8
DEFAULT_255_1_234
10
6.3456641
20
68.9976857
40
0.426899
50
359.6364486
51
11.6087304
0
ARC
8
DEFAULT_255_1_234
10
6.5291485
20
68.9961752
40
0.243409
50
332.3549906
51
359.7179418
0
ARC
8
DEFAULT_255_1_234
10
6.4641086
20
69.0270142
40
0.3153459
50
325.2333722
51
332.8745602
0
ARC
8
DEFAULT_255_1_234
10
6.479371
20
69.0163828
40
0.2967456
50
292.9802137
51
325.2392345
0
ARC
8
DEFAULT_255_1_234
10
6.4519084
20
69.0697863
40
0.3566604
50
292.5402179
51
293.6924929
0
ARC
8
DEFAULT_255_1_234
10
6.491168
20
68.4243091
40
0.3307468
50
57.6435486
51
72.8625112
0
ARC
8
DEFAULT_255_1_234
10
6.5266179
20
68.4817549
40
0.2632492
50
36.7248896
51
57.4697979
0
ARC
8
DEFAULT_255_1_234
10
6.5254812
20
68.483022
40
0.2634081
50
8.0545065
51
36.356114
0
ARC
8
DEFAULT_255_1_234
10
6.4391997
20
68.4675174
40
0.3510261
50
359.8320645
51
8.5869982
0
ARC
8
DEFAULT_255_1_234
10
6.4016774
20
68.4627101
40
0.3885653
50
343.9829931
51
0.5571613
0
ARC
8
DEFAULT_255_1_234
10
6.4902971
20
68.4384438
40
0.2966924
50
311.6359546
51
343.7651759
0
ARC
8
DEFAULT_255_1_234
10
6.452454
20
68.4811102
40
0.3537231
50
279.7829875
51
311.6255694
0
ARC
8
DEFAULT_255_1_234
10
6.4223316
20
68.624828
40
0.5004971
50
269.7286406
51
280.3856417
0
ARC
8
DEFAULT_255_1_234
10
6.4161389
20
68.6206996
40
0.4963778
50
256.6828919
51
270.4412052
0
ARC
8
DEFAULT_255_1_234
10
6.3822685
20
68.4822394
40
0.3538406
50
229.4223008
51
256.8556159
0
ARC
8
DEFAULT_255_1_234
10
6.3408077
20
68.4355736
40
0.2914296
50
181.818294
51
229.6455059
0
ARC
8
DEFAULT_255_1_234
10
6.4448034
20
68.4486496
40
0.3959084
50
179.9755256
51
183.2323064
0
ARC
8
DEFAULT_255_1_234
10
6.4275779
20
68.4466037
40
0.2293034
50
179.4465117
51
196.2869258
0
ARC
8
DEFAULT_255_1_234
10
6.3788187
20
68.4332651
40
0.1787621
50
196.5661473
51
227.705904
0
ARC
8
DEFAULT_255_1_234
10
6.3952282
20
68.4516155
40
0.2033784
50
227.7652068
51
257.8762805
0
ARC
8
DEFAULT_255_1_234
10
6.4177252
20
68.5459156
40
0.3003081
50
257.4584385
51
270.426602
0
ARC
8
DEFAULT_255_1_234
10
6.4222819
20
68.5748996
40
0.329292
50
269.5962073
51
280.8789248
0
ARC
8
DEFAULT_255_1_234
10
6.4452347
20
68.4602685
40
0.2123908
50
280.6346389
51
299.8595945
0
ARC
8
DEFAULT_255_1_234
10
6.4643254
20
68.4240212
40
0.171457
50
300.3576302
51
314.5517981
0
ARC
8
DEFAULT_255_1_234
10
6.4560314
20
68.4300919
40
0.1816095
50
315.0728369
51
345.0431014
0
ARC
8
DEFAULT_255_1_234
10
6.3637129
20
68.4569841
40
0.2777492
50
344.5986631
51
357.9269593
0
ARC
8
DEFAULT_255_1_234
10
6.2741455
20
68.4631276
40
0.3674917
50
357.4748886
51
0.0231117
0
ARC
8
DEFAULT_255_1_234
10
6.3764564
20
68.4655679
40
0.2651907
50
359.5047933
51
13.4239635
0
ARC
8
DEFAULT_255_1_234
10
6.4631208
20
68.4877478
40
0.1757509
50
12.9498199
51
48.7551375
0
ARC
8
DEFAULT_255_1_234
10
6.4448942
20
68.46284
40
0.2065134
50
49.5088623
51
72.1836453
0
ARC
8
DEFAULT_255_1_234
10
6.4091094
20
68.3566291
40
0.3185836
50
71.9010081
51
84.3554254
0
ARC
8
DEFAULT_255_1_234
10
6.3929726
20
68.2205326
40
0.4556151
50
84.0193428
51
89.333121
0
LINE
8
DEFAULT_255_1_234
10
5.0274293
20
73.432
11
4.9157881
21
73.7372061
0
LINE
8
DEFAULT_255_1_234
10
4.9157881
20
73.7372061
11
4.4258521
21
73.7372061
0
LINE
8
DEFAULT_255_1_234
10
4.4258521
20
73.7372061
11
4.3158173
21
73.432
0
LINE
8
DEFAULT_255_1_234
10
4.3158173
20
73.432
11
4.1567889
21
73.432
0
LINE
8
DEFAULT_255_1_234
10
4.1567889
20
73.432
11
4.6033535
21
74.6014211
0
LINE
8
DEFAULT_255_1_234
10
4.6033535
20
74.6014211
11
4.7382867
21
74.6014211
0
LINE
8
DEFAULT_255_1_234
10
4.7382867
20
74.6014211
11
5.1856545
21
73.432
0
LINE
8
DEFAULT_255_1_234
10
5.1856545
20
73.432
11
5.0274293
21
73.432
0
LINE
8
DEFAULT_255_1_234
10
4.6708201
20
74.4110689
11
4.4724362
21
73.8641075
0
LINE
8
DEFAULT_255_1_234
10
4.4724362
20
73.8641075
11
4.8700072
21
73.8641075
0
LINE
8
DEFAULT_255_1_234
10
4.8700072
20
73.8641075
11
4.6708201
21
74.4110689
0
LINE
8
DEFAULT_255_1_234
10
5.792854
20
74.6070433
11
5.792854
21
73.432
0
LINE
8
DEFAULT_255_1_234
10
5.792854
20
73.432
11
5.6434636
21
73.432
0
LINE
8
DEFAULT_255_1_234
10
5.6434636
20
73.432
11
5.6434636
21
74.4223133
0
LINE
8
DEFAULT_255_1_234
10
5.6434636
20
74.4223133
11
5.3438798
21
74.3122785
0
LINE
8
DEFAULT_255_1_234
10
5.3438798
20
74.3122785
11
5.3438798
21
74.4472117
0
LINE
8
DEFAULT_255_1_234
10
5.3438798
20
74.4472117
11
5.7695619
21
74.6070433
0
LINE
8
DEFAULT_255_1_234
10
5.7695619
20
74.6070433
11
5.792854
21
74.6070433
0
LINE
8
DEFAULT_255_1_234
10
6.4442279
20
73.9677169
11
6.4442279
21
74.0889962
0
LINE
8
DEFAULT_255_1_234
10
6.4442279
20
74.0889962
11
6.5558691
21
74.0889962
0
LINE
8
DEFAULT_255_1_234
10
6.3655169
20
74.2946087
11
6.2169297
21
74.2946087
0
LINE
8
DEFAULT_255_1_234
10
6.2064885
20
73.7404188
11
6.3558788
21
73.7404188
0
LINE
8
DEFAULT_255_1_234
10
6.5558691
20
73.9677169
11
6.4442279
21
73.9677169
0
ARC
8
DEFAULT_255_1_234
10
6.5529557
20
74.4282713
40
0.3392876
50
270.4919872
51
281.8951556
0
ARC
8
DEFAULT_255_1_234
10
6.5770819
20
74.3180702
40
0.2264817
50
281.6691735
51
301.2943132
0
ARC
8
DEFAULT_255_1_234
10
6.5941029
20
74.2869304
40
0.1910381
50
301.7833094
51
311.7545298
0
ARC
8
DEFAULT_255_1_234
10
6.6032605
20
74.2767748
40
0.1773635
50
311.7323931
51
354.2802411
0
ARC
8
DEFAULT_255_1_234
10
6.530623
20
74.2892722
40
0.2509385
50
353.0937916
51
0.1181479
0
ARC
8
DEFAULT_255_1_234
10
6.4845015
20
74.2940386
40
0.2970898
50
359.1805295
51
15.0453146
0
ARC
8
DEFAULT_255_1_234
10
6.6190852
20
74.3332992
40
0.1569564
50
13.9577229
51
77.6713066
0
ARC
8
DEFAULT_255_1_234
10
6.5804381
20
74.1947949
40
0.3006298
50
76.1116566
51
90.7026153
0
ARC
8
DEFAULT_255_1_234
10
6.574522
20
74.2221545
40
0.2732568
50
89.5324876
51
103.531937
0
ARC
8
DEFAULT_255_1_234
10
6.5544664
20
74.3020884
40
0.1908508
50
103.2931773
51
133.5619022
0
ARC
8
DEFAULT_255_1_234
10
6.5500152
20
74.3080375
40
0.1834746
50
133.8349307
51
173.5344437
0
ARC
8
DEFAULT_255_1_234
10
6.6223195
20
74.2952213
40
0.2568033
50
172.5096846
51
180.1366907
0
ARC
8
DEFAULT_255_1_234
10
6.5272089
20
74.2986622
40
0.3103056
50
155.3484492
51
180.7484736
0
ARC
8
DEFAULT_255_1_234
10
6.5223178
20
74.2957846
40
0.3070957
50
131.5744599
51
154.4798489
0
ARC
8
DEFAULT_255_1_234
10
6.5536326
20
74.264131
40
0.3515643
50
96.9875458
51
131.9690667
0
ARC
8
DEFAULT_255_1_234
10
6.5755805
20
74.1395636
40
0.4779224
50
89.8596053
51
97.7825159
0
ARC
8
DEFAULT_255_1_234
10
6.5803869
20
74.1133616
40
0.5041361
50
78.3655447
51
90.4131539
0
ARC
8
DEFAULT_255_1_234
10
6.6161786
20
74.2792887
40
0.3344039
50
56.6229102
51
78.638727
0
ARC
8
DEFAULT_255_1_234
10
6.637673
20
74.3168805
40
0.2912001
50
47.0253525
51
56.0854072
0
ARC
8
DEFAULT_255_1_234
10
6.639651
20
74.3208223
40
0.2869704
50
10.9208013
51
46.7778124
0
ARC
8
DEFAULT_255_1_234
10
6.5032577
20
74.2892857
40
0.426899
50
359.6364486
51
11.6087304
0
ARC
8
DEFAULT_255_1_234
10
6.6867421
20
74.2877752
40
0.243409
50
332.3549906
51
359.7179418
0
ARC
8
DEFAULT_255_1_234
10
6.6217022
20
74.3186142
40
0.3153459
50
325.2333722
51
332.8745602
0
ARC
8
DEFAULT_255_1_234
10
6.6369646
20
74.3079828
40
0.2967456
50
292.9802137
51
325.2392345
0
ARC
8
DEFAULT_255_1_234
10
6.609502
20
74.3613863
40
0.3566604
50
292.5402179
51
293.6924929
0
ARC
8
DEFAULT_255_1_234
10
6.6487616
20
73.7159091
40
0.3307468
50
57.6435486
51
72.8625112
0
ARC
8
DEFAULT_255_1_234
10
6.6842115
20
73.7733549
40
0.2632492
50
36.7248896
51
57.4697979
0
ARC
8
DEFAULT_255_1_234
10
6.6830748
20
73.774622
40
0.2634081
50
8.0545065
51
36.356114
0
ARC
8
DEFAULT_255_1_234
10
6.5967933
20
73.7591174
40
0.3510261
50
359.8320645
51
8.5869982
0
ARC
8
DEFAULT_255_1_234
10
6.559271
20
73.7543101
40
0.3885653
50
343.9829931
51
0.5571613
0
ARC
8
DEFAULT_255_1_234
10
6.6478907
20
73.7300438
40
0.2966924
50
311.6359546
51
343.7651759
0
ARC
8
DEFAULT_255_1_234
10
6.6100476
20
73.7727102
40
0.3537231
50
279.7829875
51
311.6255694
0
ARC
8
DEFAULT_255_1_234
10
6.5799252
20
73.916428
40
0.5004971
50
269.7286406
51
280.3856417
0
ARC
8
DEFAULT_255_1_234
10
6.5737325
20
73.9122996
40
0.4963778
50
256.6828919
51
270.4412052
0
ARC
8
DEFAULT_255_1_234
10
6.5398621
20
73.7738394
40
0.3538406
50
229.4223008
51
256.8556159
0
ARC
8
DEFAULT_255_1_234
10
6.4984013
20
73.7271736
40
0.2914296
50
181.818294
51
229.6455059
0
ARC
8
DEFAULT_255_1_234
10
6.602397
20
73.7402496
40
0.3959084
50
179.9755256
51
183.2323064
0
ARC
8
DEFAULT_255_1_234
10
6.5851715
20
73.7382037
40
0.2293034
50
179.4465117
51
196.2869258
0
ARC
8
DEFAULT_255_1_234
10
6.5364123
20
73.7248651
40
0.1787621
50
196.5661473
51
227.705904
0
ARC
8
DEFAULT_255_1_234
10
6.5528218
20
73.7432155
40
0.2033784
50
227.7652068
51
257.8762805
0
ARC
8
DEFAULT_255_1_234
10
6.5753188
20
73.8375156
40
0.3003081
50
257.4584385
51
270.426602
0
ARC
8
DEFAULT_255_1_234
10
6.5798755
20
73.8664996
40
0.329292
50
269.5962073
51
280.8789248
0
ARC
8
DEFAULT_255_1_234
10
6.6028283
20
73.7518685
40
0.2123908
50
280.6346389
51
299.8595945
0
ARC
8
DEFAULT_255_1_234
10
6.621919
20
73.7156212
40
0.171457
50
300.3576302
51
314.5517981
0
ARC
8
DEFAULT_255_1_234
10
6.613625
20
73.7216919
40
0.1816095
50
315.0728369
51
345.0431014
0
ARC
8
DEFAULT_255_1_234
10
6.5213065
20
73.7485841
40
0.2777492
50
344.5986631
51
357.9269593
0
ARC
8
DEFAULT_255_1_234
10
6.4317391
20
73.7547276
40
0.3674917
50
357.4748886
51
0.0231117
0
ARC
8
DEFAULT_255_1_234
10
6.53405
20
73.7571679
40
0.2651907
50
359.5047933
51
13.4239635
0
ARC
8
DEFAULT_255_1_234
10
6.6207144
20
73.7793478
40
0.1757509
50
12.9498199
51
48.7551375
0
ARC
8
DEFAULT_255_1_234
10
6.6024878
20
73.75444
40
0.2065134
50
49.5088623
51
72.1836453
0
ARC
8
DEFAULT_255_1_234
10
6.566703
20
73.6482291
40
0.3185836
50
71.9010081
51
84.3554254
0
ARC
8
DEFAULT_255_1_234
10
6.5505662
20
73.5121326
40
0.4556151
50
84.0193428
51
89.333121
0
LINE
8
DEFAULT_255_1_234
10
4.6728392
20
78.7237
11
4.2672364
21
78.7237
0
LINE
8
DEFAULT_255_1_234
10
4.2672364
20
78.7237
11
4.2672364
21
79.8931211
0
LINE
8
DEFAULT_255_1_234
10
4.2672364
20
79.8931211
11
4.6495471
21
79.8931211
0
LINE
8
DEFAULT_255_1_234
10
4.6784614
20
79.2706614
11
4.4214458
21
79.2706614
0
LINE
8
DEFAULT_255_1_234
10
4.4214458
20
79.2706614
11
4.4214458
21
78.8497983
0
LINE
8
DEFAULT_255_1_234
10
4.4214458
20
78.8497983
11
4.6760519
21
78.8497983
0
LINE
8
DEFAULT_255_1_234
10
4.4214458
20
79.7662196
11
4.4214458
21
79.3943501
0
LINE
8
DEFAULT_255_1_234
10
4.4214458
20
79.3943501
11
4.6543662
21
79.3943501
0
LINE
8
DEFAULT_255_1_234
10
4.6495471
20
79.7662196
11
4.4214458
21
79.7662196
0
ARC
8
DEFAULT_255_1_234
10
4.653318
20
79.1563901
40
0.7367406
50
82.1257326
51
90.2932599
0
ARC
8
DEFAULT_255_1_234
10
4.6922135
20
79.4282013
40
0.4621653
50
69.9044149
51
82.2857423
0
ARC
8
DEFAULT_255_1_234
10
4.7492813
20
79.5824637
40
0.2976871
50
51.1838526
51
70.0181538
0
ARC
8
DEFAULT_255_1_234
10
4.7747779
20
79.619524
40
0.2528517
50
12.1017251
51
50.4214761
0
ARC
8
DEFAULT_255_1_234
10
4.6363653
20
79.5847676
40
0.3955061
50
359.5251267
51
12.8211707
0
ARC
8
DEFAULT_255_1_234
10
4.7943579
20
79.5778344
40
0.2375281
50
323.4908128
51
0.8817314
0
ARC
8
DEFAULT_255_1_234
10
4.7525266
20
79.610155
40
0.2903817
50
298.6825083
51
323.2756573
0
ARC
8
DEFAULT_255_1_234
10
4.7163629
20
79.6702649
40
0.3604842
50
293.1999386
51
299.1396394
0
ARC
8
DEFAULT_255_1_234
10
4.7836602
20
79.0617126
40
0.2871098
50
54.0011765
51
74.9167975
0
ARC
8
DEFAULT_255_1_234
10
4.7952961
20
79.0814332
40
0.2643248
50
36.3580696
51
53.5291921
0
ARC
8
DEFAULT_255_1_234
10
4.7826203
20
79.0723998
40
0.2798884
50
4.8189881
51
36.3089977
0
ARC
8
DEFAULT_255_1_234
10
4.7047038
20
79.061427
40
0.358478
50
359.9370252
51
5.5204067
0
ARC
8
DEFAULT_255_1_234
10
4.672256
20
79.0573667
40
0.3909429
50
344.7478609
51
0.5373281
0
ARC
8
DEFAULT_255_1_234
10
4.7713531
20
79.0306544
40
0.2883093
50
311.1786488
51
344.6886812
0
ARC
8
DEFAULT_255_1_234
10
4.7421578
20
79.0669987
40
0.3348923
50
286.0418249
51
310.8441291
0
ARC
8
DEFAULT_255_1_234
10
4.691441
20
79.2316807
40
0.5071869
50
274.1042341
51
286.4071509
0
ARC
8
DEFAULT_255_1_234
10
4.6737666
20
79.4200229
40
0.6963234
50
269.9236873
51
274.445647
0
ARC
8
DEFAULT_255_1_234
10
4.6783667
20
79.1860537
40
0.3362634
50
269.6055768
51
281.3740047
0
ARC
8
DEFAULT_255_1_234
10
4.7014305
20
79.0767353
40
0.224546
50
281.1055983
51
302.5132223
0
ARC
8
DEFAULT_255_1_234
10
4.7161204
20
79.0503823
40
0.1944357
50
303.0368945
51
311.8811219
0
ARC
8
DEFAULT_255_1_234
10
4.7232611
20
79.041889
40
0.1833454
50
311.9916004
51
351.7143462
0
ARC
8
DEFAULT_255_1_234
10
4.6415841
20
79.058393
40
0.2665871
50
350.7339597
51
0.2221581
0
ARC
8
DEFAULT_255_1_234
10
4.6308287
20
79.0640467
40
0.2773789
50
359.0456241
51
17.2296242
0
ARC
8
DEFAULT_255_1_234
10
4.7347404
20
79.0949163
40
0.1689915
50
17.6685481
51
78.9940892
0
ARC
8
DEFAULT_255_1_234
10
4.6830568
20
78.9094224
40
0.3612658
50
76.5635957
51
90.6980921
0
LINE
8
DEFAULT_255_1_234
10
4.6786552
20
79.2706613
11
4.6784614
21
79.2706614
0
ARC
8
DEFAULT_255_1_234
10
4.6566228
20
79.7229036
40
0.3285612
50
269.6064736
51
281.4533503
0
ARC
8
DEFAULT_255_1_234
10
4.6789048
20
79.6177688
40
0.2210975
50
281.2041486
51
302.5148063
0
ARC
8
DEFAULT_255_1_234
10
4.6925898
20
79.5931241
40
0.1929674
50
303.021671
51
309.8369575
0
ARC
8
DEFAULT_255_1_234
10
4.7109359
20
79.5725488
40
0.1654181
50
309.5228395
51
356.9509836
0
ARC
8
DEFAULT_255_1_234
10
4.6445942
20
79.5820932
40
0.2322512
50
355.4701227
51
0.0492546
0
ARC
8
DEFAULT_255_1_234
10
4.6167033
20
79.5843094
40
0.2601498
50
359.5558597
51
11.2096359
0
ARC
8
DEFAULT_255_1_234
10
4.7124323
20
79.604123
40
0.1623975
50
10.9182341
51
31.3230275
0
ARC
8
DEFAULT_255_1_234
10
4.7410056
20
79.6200214
40
0.1297302
50
31.8852677
51
52.1412565
0
ARC
8
DEFAULT_255_1_234
10
4.7135789
20
79.581275
40
0.1771663
50
52.8285564
51
71.9850297
0
ARC
8
DEFAULT_255_1_234
10
4.6759965
20
79.4706664
40
0.2939794
50
71.6863486
51
82.8455995
0
ARC
8
DEFAULT_255_1_234
10
4.6520501
20
79.2897149
40
0.476506
50
82.6984714
51
90.1729175
0
ARC
8
DEFAULT_255_1_234
10
4.6498136
20
79.4120623
40
0.3541573
50
89.8708275
51
90.0431131
0
LINE
8
DEFAULT_255_1_234
10
5.7410604
20
79.8987433
11
5.7410604
21
78.7237
0
LINE
8
DEFAULT_255_1_234
10
5.7410604
20
78.7237
11
5.59167
21
78.7237
0
LINE
8
DEFAULT_255_1_234
10
5.59167
20
78.7237
11
5.59167
21
79.7140133
0
LINE
8
DEFAULT_255_1_234
10
5.59167
20
79.7140133
11
5.2920862
21
79.6039785
0
LINE
8
DEFAULT_255_1_234
10
5.2920862
20
79.6039785
11
5.2920862
21
79.7389117
0
LINE
8
DEFAULT_255_1_234
10
5.2920862
20
79.7389117
11
5.7177683
21
79.8987433
0
LINE
8
DEFAULT_255_1_234
10
5.7177683
20
79.8987433
11
5.7410604
21
79.8987433
0
LINE
8
DEFAULT_255_1_234
10
6.8036593
20
79.8931211
11
6.8036593
21
79.116452
0
LINE
8
DEFAULT_255_1_234
10
6.8036593
20
79.116452
11
6.9659004
21
79.116452
0
LINE
8
DEFAULT_255_1_234
10
6.9659004
20
79.116452
11
6.9659004
21
78.9951728
0
LINE
8
DEFAULT_255_1_234
10
6.9659004
20
78.9951728
11
6.8036593
21
78.9951728
0
LINE
8
DEFAULT_255_1_234
10
6.8036593
20
78.9951728
11
6.8036593
21
78.7237
0
LINE
8
DEFAULT_255_1_234
10
6.8036593
20
78.7237
11
6.654269
21
78.7237
0
LINE
8
DEFAULT_255_1_234
10
6.654269
20
78.7237
11
6.654269
21
78.9951728
0
LINE
8
DEFAULT_255_1_234
10
6.654269
20
78.9951728
11
6.1217647
21
78.9951728
0
LINE
8
DEFAULT_255_1_234
10
6.1217647
20
78.9951728
11
6.1217647
21
79.0827187
0
LINE
8
DEFAULT_255_1_234
10
6.1217647
20
79.0827187
11
6.6454341
21
79.8931211
0
LINE
8
DEFAULT_255_1_234
10
6.6454341
20
79.8931211
11
6.8036593
21
79.8931211
0
LINE
8
DEFAULT_255_1_234
10
6.6365992
20
79.6577912
11
6.2904313
21
79.116452
0
LINE
8
DEFAULT_255_1_234
10
6.2904313
20
79.116452
11
6.654269
21
79.116452
0
LINE
8
DEFAULT_255_1_234
10
6.654269
20
79.116452
11
6.654269
21
79.6899181
0
LINE
8
DEFAULT_255_1_234
10
6.654269
20
79.6899181
11
6.6365992
21
79.6577912
0
LINE
8
DEFAULT_255_1_234
10
5.1332293
20
84.0154
11
5.0215881
21
84.3206061
0
LINE
8
DEFAULT_255_1_234
10
5.0215881
20
84.3206061
11
4.5316521
21
84.3206061
0
LINE
8
DEFAULT_255_1_234
10
4.5316521
20
84.3206061
11
4.4216173
21
84.0154
0
LINE
8
DEFAULT_255_1_234
10
4.4216173
20
84.0154
11
4.2625889
21
84.0154
0
LINE
8
DEFAULT_255_1_234
10
4.2625889
20
84.0154
11
4.7091535
21
85.1848211
0
LINE
8
DEFAULT_255_1_234
10
4.7091535
20
85.1848211
11
4.8440867
21
85.1848211
0
LINE
8
DEFAULT_255_1_234
10
4.8440867
20
85.1848211
11
5.2914545
21
84.0154
0
LINE
8
DEFAULT_255_1_234
10
5.2914545
20
84.0154
11
5.1332293
21
84.0154
0
LINE
8
DEFAULT_255_1_234
10
4.7766201
20
84.9944689
11
4.5782362
21
84.4475075
0
LINE
8
DEFAULT_255_1_234
10
4.5782362
20
84.4475075
11
4.9758072
21
84.4475075
0
LINE
8
DEFAULT_255_1_234
10
4.9758072
20
84.4475075
11
4.7766201
21
84.9944689
0
LINE
8
DEFAULT_255_1_234
10
5.898654
20
85.1904433
11
5.898654
21
84.0154
0
LINE
8
DEFAULT_255_1_234
10
5.898654
20
84.0154
11
5.7492636
21
84.0154
0
LINE
8
DEFAULT_255_1_234
10
5.7492636
20
84.0154
11
5.7492636
21
85.0057133
0
LINE
8
DEFAULT_255_1_234
10
5.7492636
20
85.0057133
11
5.4496798
21
84.8956785
0
LINE
8
DEFAULT_255_1_234
10
5.4496798
20
84.8956785
11
5.4496798
21
85.0306117
0
LINE
8
DEFAULT_255_1_234
10
5.4496798
20
85.0306117
11
5.8753619
21
85.1904433
0
LINE
8
DEFAULT_255_1_234
10
5.8753619
20
85.1904433
11
5.898654
21
85.1904433
0
LINE
8
DEFAULT_255_1_234
10
6.9612529
20
85.1848211
11
6.9612529
21
84.408152
0
LINE
8
DEFAULT_255_1_234
10
6.9612529
20
84.408152
11
7.123494
21
84.408152
0
LINE
8
DEFAULT_255_1_234
10
7.123494
20
84.408152
11
7.123494
21
84.2868728
0
LINE
8
DEFAULT_255_1_234
10
7.123494
20
84.2868728
11
6.9612529
21
84.2868728
0
LINE
8
DEFAULT_255_1_234
10
6.9612529
20
84.2868728
11
6.9612529
21
84.0154
0
LINE
8
DEFAULT_255_1_234
10
6.9612529
20
84.0154
11
6.8118626
21
84.0154
0
LINE
8
DEFAULT_255_1_234
10
6.8118626
20
84.0154
11
6.8118626
21
84.2868728
0
LINE
8
DEFAULT_255_1_234
10
6.8118626
20
84.2868728
11
6.2793583
21
84.2868728
0
LINE
8
DEFAULT_255_1_234
10
6.2793583
20
84.2868728
11
6.2793583
21
84.3744187
0
LINE
8
DEFAULT_255_1_234
10
6.2793583
20
84.3744187
11
6.8030277
21
85.1848211
0
LINE
8
DEFAULT_255_1_234
10
6.8030277
20
85.1848211
11
6.9612529
21
85.1848211
0
LINE
8
DEFAULT_255_1_234
10
6.7941928
20
84.9494912
11
6.4480249
21
84.408152
0
LINE
8
DEFAULT_255_1_234
10
6.4480249
20
84.408152
11
6.8118626
21
84.408152
0
LINE
8
DEFAULT_255_1_234
10
6.8118626
20
84.408152
11
6.8118626
21
84.9816181
0
LINE
8
DEFAULT_255_1_234
10
6.8118626
20
84.9816181
11
6.7941928
21
84.9494912
0
LINE
8
DEFAULT_255_1_234
10
4.5670392
20
89.307
11
4.1614364
21
89.307
0
LINE
8
DEFAULT_255_1_234
10
4.1614364
20
89.307
11
4.1614364
21
90.4764211
0
LINE
8
DEFAULT_255_1_234
10
4.1614364
20
90.4764211
11
4.5437471
21
90.4764211
0
LINE
8
DEFAULT_255_1_234
10
4.5726614
20
89.8539614
11
4.3156458
21
89.8539614
0
LINE
8
DEFAULT_255_1_234
10
4.3156458
20
89.8539614
11
4.3156458
21
89.4330983
0
LINE
8
DEFAULT_255_1_234
10
4.3156458
20
89.4330983
11
4.5702519
21
89.4330983
0
LINE
8
DEFAULT_255_1_234
10
4.3156458
20
90.3495196
11
4.3156458
21
89.9776501
0
LINE
8
DEFAULT_255_1_234
10
4.3156458
20
89.9776501
11
4.5485662
21
89.9776501
0
LINE
8
DEFAULT_255_1_234
10
4.5437471
20
90.3495196
11
4.3156458
21
90.3495196
0
ARC
8
DEFAULT_255_1_234
10
4.547518
20
89.7396901
40
0.7367406
50
82.1257326
51
90.2932599
0
ARC
8
DEFAULT_255_1_234
10
4.5864135
20
90.0115013
40
0.4621653
50
69.9044149
51
82.2857423
0
ARC
8
DEFAULT_255_1_234
10
4.6434813
20
90.1657637
40
0.2976871
50
51.1838526
51
70.0181538
0
ARC
8
DEFAULT_255_1_234
10
4.6689779
20
90.202824
40
0.2528517
50
12.1017251
51
50.4214761
0
ARC
8
DEFAULT_255_1_234
10
4.5305653
20
90.1680676
40
0.3955061
50
359.5251267
51
12.8211707
0
ARC
8
DEFAULT_255_1_234
10
4.6885579
20
90.1611344
40
0.2375281
50
323.4908128
51
0.8817314
0
ARC
8
DEFAULT_255_1_234
10
4.6467266
20
90.193455
40
0.2903817
50
298.6825083
51
323.2756573
0
ARC
8
DEFAULT_255_1_234
10
4.6105629
20
90.2535649
40
0.3604842
50
293.1999386
51
299.1396394
0
ARC
8
DEFAULT_255_1_234
10
4.6778602
20
89.6450126
40
0.2871098
50
54.0011765
51
74.9167975
0
ARC
8
DEFAULT_255_1_234
10
4.6894961
20
89.6647332
40
0.2643248
50
36.3580696
51
53.5291921
0
ARC
8
DEFAULT_255_1_234
10
4.6768203
20
89.6556998
40
0.2798884
50
4.8189881
51
36.3089977
0
ARC
8
DEFAULT_255_1_234
10
4.5989038
20
89.644727
40
0.358478
50
359.9370252
51
5.5204067
0
ARC
8
DEFAULT_255_1_234
10
4.566456
20
89.6406667
40
0.3909429
50
344.7478609
51
0.5373281
0
ARC
8
DEFAULT_255_1_234
10
4.6655531
20
89.6139544
40
0.2883093
50
311.1786488
51
344.6886812
0
ARC
8
DEFAULT_255_1_234
10
4.6363578
20
89.6502987
40
0.3348923
50
286.0418249
51
310.8441291
0
ARC
8
DEFAULT_255_1_234
10
4.585641
20
89.8149807
40
0.5071869
50
274.1042341
51
286.4071509
0
ARC
8
DEFAULT_255_1_234
10
4.5679666
20
90.0033229
40
0.6963234
50
269.9236873
51
274.445647
0
ARC
8
DEFAULT_255_1_234
10
4.5725667
20
89.7693537
40
0.3362634
50
269.6055768
51
281.3740047
0
ARC
8
DEFAULT_255_1_234
10
4.5956305
20
89.6600353
40
0.224546
50
281.1055983
51
302.5132223
0
ARC
8
DEFAULT_255_1_234
10
4.6103204
20
89.6336823
40
0.1944357
50
303.0368945
51
311.8811219
0
ARC
8
DEFAULT_255_1_234
10
4.6174611
20
89.625189
40
0.1833454
50
311.9916004
51
351.7143462
0
ARC
8
DEFAULT_255_1_234
10
4.5357841
20
89.641693
40
0.2665871
50
350.7339597
51
0.2221581
0
ARC
8
DEFAULT_255_1_234
10
4.5250287
20
89.6473467
40
0.2773789
50
359.0456241
51
17.2296242
0
ARC
8
DEFAULT_255_1_234
10
4.6289404
20
89.6782163
40
0.1689915
50
17.6685481
51
78.9940892
0
ARC
8
DEFAULT_255_1_234
10
4.5772568
20
89.4927224
40
0.3612658
50
76.5635957
51
90.6980921
0
LINE
8
DEFAULT_255_1_234
10
4.5728552
20
89.8539613
11
4.5726614
21
89.8539614
0
ARC
8
DEFAULT_255_1_234
10
4.5508228
20
90.3062036
40
0.3285612
50
269.6064736
51
281.4533503
0
ARC
8
DEFAULT_255_1_234
10
4.5731048
20
90.2010688
40
0.2210975
50
281.2041486
51
302.5148063
0
ARC
8
DEFAULT_255_1_234
10
4.5867898
20
90.1764241
40
0.1929674
50
303.021671
51
309.8369575
0
ARC
8
DEFAULT_255_1_234
10
4.6051359
20
90.1558488
40
0.1654181
50
309.5228395
51
356.9509836
0
ARC
8
DEFAULT_255_1_234
10
4.5387942
20
90.1653932
40
0.2322512
50
355.4701227
51
0.0492546
0
ARC
8
DEFAULT_255_1_234
10
4.5109033
20
90.1676094
40
0.2601498
50
359.5558597
51
11.2096359
0
ARC
8
DEFAULT_255_1_234
10
4.6066323
20
90.187423
40
0.1623975
50
10.9182341
51
31.3230275
0
ARC
8
DEFAULT_255_1_234
10
4.6352056
20
90.2033214
40
0.1297302
50
31.8852677
51
52.1412565
0
ARC
8
DEFAULT_255_1_234
10
4.6077789
20
90.164575
40
0.1771663
50
52.8285564
51
71.9850297
0
ARC
8
DEFAULT_255_1_234
10
4.5701965
20
90.0539664
40
0.2939794
50
71.6863486
51
82.8455995
0
ARC
8
DEFAULT_255_1_234
10
4.5462501
20
89.8730149
40
0.476506
50
82.6984714
51
90.1729175
0
ARC
8
DEFAULT_255_1_234
10
4.5440136
20
89.9953623
40
0.3541573
50
89.8708275
51
90.0431131
0
LINE
8
DEFAULT_255_1_234
10
5.6352604
20
90.4820433
11
5.6352604
21
89.307
0
LINE
8
DEFAULT_255_1_234
10
5.6352604
20
89.307
11
5.48587
21
89.307
0
LINE
8
DEFAULT_255_1_234
10
5.48587
20
89.307
11
5.48587
21
90.2973133
0
LINE
8
DEFAULT_255_1_234
10
5.48587
20
90.2973133
11
5.1862862
21
90.1872785
0
LINE
8
DEFAULT_255_1_234
10
5.1862862
20
90.1872785
11
5.1862862
21
90.3222117
0
LINE
8
DEFAULT_255_1_234
10
5.1862862
20
90.3222117
11
5.6119683
21
90.4820433
0
LINE
8
DEFAULT_255_1_234
10
5.6119683
20
90.4820433
11
5.6352604
21
90.4820433
0
LINE
8
DEFAULT_255_1_234
10
6.2577201
20
89.8627963
11
6.1388503
21
89.8933169
0
LINE
8
DEFAULT_255_1_234
10
6.1388503
20
89.8933169
11
6.1982852
21
90.4764211
0
LINE
8
DEFAULT_255_1_234
10
6.1982852
20
90.4764211
11
6.7974529
21
90.4764211
0
LINE
8
DEFAULT_255_1_234
10
6.7974529
20
90.4764211
11
6.7974529
21
90.3390784
0
LINE
8
DEFAULT_255_1_234
10
6.7974529
20
90.3390784
11
6.3243835
21
90.3390784
0
LINE
8
DEFAULT_255_1_234
10
6.3243835
20
90.3390784
11
6.2890438
21
90.0202184
0
LINE
8
DEFAULT_255_1_234
10
6.0970853
20
89.6146156
11
6.2376407
21
89.6146156
0
LINE
8
DEFAULT_255_1_234
10
6.2970756
20
89.8949232
11
6.2577201
21
89.8627963
0
ARC
8
DEFAULT_255_1_234
10
6.4745222
20
89.702223
40
0.3681349
50
93.7182161
51
120.2538958
0
ARC
8
DEFAULT_255_1_234
10
6.4839485
20
89.6214394
40
0.449379
50
89.9660152
51
94.2496022
0
ARC
8
DEFAULT_255_1_234
10
6.4880219
20
89.6803549
40
0.390482
50
73.8043271
51
90.5585896
0
ARC
8
DEFAULT_255_1_234
10
6.5115116
20
89.7661602
40
0.3015334
50
41.3071453
51
73.5430202
0
ARC
8
DEFAULT_255_1_234
10
6.4698944
20
89.7303324
40
0.3564457
50
13.5075983
51
41.2174222
0
ARC
8
DEFAULT_255_1_234
10
6.3057147
20
89.6873486
40
0.5261351
50
1.1331335
51
13.8829381
0
ARC
8
DEFAULT_255_1_234
10
6.1645516
20
89.6797665
40
0.6674378
50
359.9919444
51
1.544251
0
ARC
8
DEFAULT_255_1_234
10
6.2922343
20
89.675628
40
0.5397702
50
347.8572367
51
0.4293338
0
ARC
8
DEFAULT_255_1_234
10
6.467266
20
89.6359736
40
0.3603188
50
323.673004
51
348.1672506
0
ARC
8
DEFAULT_255_1_234
10
6.4967168
20
89.6180168
40
0.3259678
50
316.8171152
51
323.1492751
0
ARC
8
DEFAULT_255_1_234
10
6.5028357
20
89.614346
40
0.3189975
50
281.8396411
51
316.5457803
0
ARC
8
DEFAULT_255_1_234
10
6.4652621
20
89.7698762
40
0.4789527
50
269.5770101
51
282.4214771
0
ARC
8
DEFAULT_255_1_234
10
6.4581433
20
89.7485125
40
0.45759
50
256.2427136
51
270.4486331
0
ARC
8
DEFAULT_255_1_234
10
6.4282335
20
89.6285229
40
0.3339303
50
228.9023911
51
256.3314342
0
ARC
8
DEFAULT_255_1_234
10
6.4208568
20
89.6168746
40
0.32031
50
193.753695
51
228.5271154
0
ARC
8
DEFAULT_255_1_234
10
6.5446522
20
89.65318
40
0.4492253
50
184.924711
51
194.497588
0
ARC
8
DEFAULT_255_1_234
10
6.5639088
20
89.6567591
40
0.3289787
50
187.3600538
51
198.6732863
0
ARC
8
DEFAULT_255_1_234
10
6.4589382
20
89.6203674
40
0.217884
50
198.4451669
51
217.794479
0
ARC
8
DEFAULT_255_1_234
10
6.4293558
20
89.5994085
40
0.1816698
50
218.2887171
51
228.5612368
0
ARC
8
DEFAULT_255_1_234
10
6.4391345
20
89.6125963
40
0.1980329
50
228.9654866
51
258.1234728
0
ARC
8
DEFAULT_255_1_234
10
6.4597055
20
89.7006833
40
0.2884748
50
257.7258293
51
270.401361
0
ARC
8
DEFAULT_255_1_234
10
6.4641941
20
89.6561821
40
0.2439788
50
269.4204404
51
286.4209037
0
ARC
8
DEFAULT_255_1_234
10
6.4790428
20
89.6022657
40
0.1880666
50
286.7251356
51
320.600362
0
ARC
8
DEFAULT_255_1_234
10
6.4407253
20
89.6333595
40
0.2374121
50
320.6712579
51
344.5441685
0
ARC
8
DEFAULT_255_1_234
10
6.325058
20
89.6673045
40
0.3579479
50
344.2412205
51
356.7357071
0
ARC
8
DEFAULT_255_1_234
10
6.2001728
20
89.6776444
40
0.4832297
50
356.3548756
51
0.0500261
0
ARC
8
DEFAULT_255_1_234
10
6.3338237
20
89.680765
40
0.3495889
50
359.5576869
51
12.953486
0
ARC
8
DEFAULT_255_1_234
10
6.4393135
20
89.7063434
40
0.2410532
50
12.6490276
51
41.6081334
0
ARC
8
DEFAULT_255_1_234
10
6.4623506
20
89.7259321
40
0.2108218
50
41.7850273
51
85.9892764
0
ARC
8
DEFAULT_255_1_234
10
6.4500242
20
89.6446462
40
0.2928454
50
84.6957577
51
90.0676183
0
ARC
8
DEFAULT_255_1_234
10
6.4476726
20
89.5777716
40
0.3597255
50
89.6804936
51
99.1614436
0
ARC
8
DEFAULT_255_1_234
10
6.4271358
20
89.7005131
40
0.235281
50
98.9830931
51
113.8908934
0
ARC
8
DEFAULT_255_1_234
10
6.4041768
20
89.7546587
40
0.176479
50
114.1950727
51
127.3641004
0
LINE
8
DEFAULT_255_1_234
10
5.0274293
20
94.5987
11
4.9157881
21
94.9039061
0
LINE
8
DEFAULT_255_1_234
10
4.9157881
20
94.9039061
11
4.4258521
21
94.9039061
0
LINE
8
DEFAULT_255_1_234
10
4.4258521
20
94.9039061
11
4.3158173
21
94.5987
0
LINE
8
DEFAULT_255_1_234
10
4.3158173
20
94.5987
11
4.1567889
21
94.5987
0
LINE
8
DEFAULT_255_1_234
10
4.1567889
20
94.5987
11
4.6033535
21
95.7681211
0
LINE
8
DEFAULT_255_1_234
10
4.6033535
20
95.7681211
11
4.7382867
21
95.7681211
0
LINE
8
DEFAULT_255_1_234
10
4.7382867
20
95.7681211
11
5.1856545
21
94.5987
0
LINE
8
DEFAULT_255_1_234
10
5.1856545
20
94.5987
11
5.0274293
21
94.5987
0
LINE
8
DEFAULT_255_1_234
10
4.6708201
20
95.5777689
11
4.4724362
21
95.0308075
0
LINE
8
DEFAULT_255_1_234
10
4.4724362
20
95.0308075
11
4.8700072
21
95.0308075
0
LINE
8
DEFAULT_255_1_234
10
4.8700072
20
95.0308075
11
4.6708201
21
95.5777689
0
LINE
8
DEFAULT_255_1_234
10
5.792854
20
95.7737433
11
5.792854
21
94.5987
0
LINE
8
DEFAULT_255_1_234
10
5.792854
20
94.5987
11
5.6434636
21
94.5987
0
LINE
8
DEFAULT_255_1_234
10
5.6434636
20
94.5987
11
5.6434636
21
95.5890133
0
LINE
8
DEFAULT_255_1_234
10
5.6434636
20
95.5890133
11
5.3438798
21
95.4789785
0
LINE
8
DEFAULT_255_1_234
10
5.3438798
20
95.4789785
11
5.3438798
21
95.6139117
0
LINE
8
DEFAULT_255_1_234
10
5.3438798
20
95.6139117
11
5.7695619
21
95.7737433
0
LINE
8
DEFAULT_255_1_234
10
5.7695619
20
95.7737433
11
5.792854
21
95.7737433
0
LINE
8
DEFAULT_255_1_234
10
6.4153137
20
95.1544963
11
6.2964439
21
95.1850169
0
LINE
8
DEFAULT_255_1_234
10
6.2964439
20
95.1850169
11
6.3558788
21
95.7681211
0
LINE
8
DEFAULT_255_1_234
10
6.3558788
20
95.7681211
11
6.9550465
21
95.7681211
0
LINE
8
DEFAULT_255_1_234
10
6.9550465
20
95.7681211
11
6.9550465
21
95.6307784
0
LINE
8
DEFAULT_255_1_234
10
6.9550465
20
95.6307784
11
6.4819771
21
95.6307784
0
LINE
8
DEFAULT_255_1_234
10
6.4819771
20
95.6307784
11
6.4466375
21
95.3119184
0
LINE
8
DEFAULT_255_1_234
10
6.2546789
20
94.9063156
11
6.3952343
21
94.9063156
0
LINE
8
DEFAULT_255_1_234
10
6.4546692
20
95.1866232
11
6.4153137
21
95.1544963
0
ARC
8
DEFAULT_255_1_234
10
6.6321158
20
94.993923
40
0.3681349
50
93.7182161
51
120.2538958
0
ARC
8
DEFAULT_255_1_234
10
6.6415421
20
94.9131394
40
0.449379
50
89.9660152
51
94.2496022
0
ARC
8
DEFAULT_255_1_234
10
6.6456155
20
94.9720549
40
0.390482
50
73.8043271
51
90.5585896
0
ARC
8
DEFAULT_255_1_234
10
6.6691052
20
95.0578602
40
0.3015334
50
41.3071453
51
73.5430202
0
ARC
8
DEFAULT_255_1_234
10
6.627488
20
95.0220324
40
0.3564457
50
13.5075983
51
41.2174222
0
ARC
8
DEFAULT_255_1_234
10
6.4633083
20
94.9790486
40
0.5261351
50
1.1331335
51
13.8829381
0
ARC
8
DEFAULT_255_1_234
10
6.3221452
20
94.9714665
40
0.6674378
50
359.9919444
51
1.544251
0
ARC
8
DEFAULT_255_1_234
10
6.4498279
20
94.967328
40
0.5397702
50
347.8572367
51
0.4293338
0
ARC
8
DEFAULT_255_1_234
10
6.6248596
20
94.9276736
40
0.3603188
50
323.673004
51
348.1672506
0
ARC
8
DEFAULT_255_1_234
10
6.6543104
20
94.9097168
40
0.3259678
50
316.8171152
51
323.1492751
0
ARC
8
DEFAULT_255_1_234
10
6.6604293
20
94.906046
40
0.3189975
50
281.8396411
51
316.5457803
0
ARC
8
DEFAULT_255_1_234
10
6.6228557
20
95.0615762
40
0.4789527
50
269.5770101
51
282.4214771
0
ARC
8
DEFAULT_255_1_234
10
6.6157369
20
95.0402125
40
0.45759
50
256.2427136
51
270.4486331
0
ARC
8
DEFAULT_255_1_234
10
6.5858271
20
94.9202229
40
0.3339303
50
228.9023911
51
256.3314342
0
ARC
8
DEFAULT_255_1_234
10
6.5784504
20
94.9085746
40
0.32031
50
193.753695
51
228.5271154
0
ARC
8
DEFAULT_255_1_234
10
6.7022458
20
94.94488
40
0.4492253
50
184.924711
51
194.497588
0
ARC
8
DEFAULT_255_1_234
10
6.7215024
20
94.9484591
40
0.3289787
50
187.3600538
51
198.6732863
0
ARC
8
DEFAULT_255_1_234
10
6.6165318
20
94.9120674
40
0.217884
50
198.4451669
51
217.794479
0
ARC
8
DEFAULT_255_1_234
10
6.5869494
20
94.8911085
40
0.1816698
50
218.2887171
51
228.5612368
0
ARC
8
DEFAULT_255_1_234
10
6.5967281
20
94.9042963
40
0.1980329
50
228.9654866
51
258.1234728
0
ARC
8
DEFAULT_255_1_234
10
6.6172991
20
94.9923833
40
0.2884748
50
257.7258293
51
270.401361
0
ARC
8
DEFAULT_255_1_234
10
6.6217877
20
94.9478821
40
0.2439788
50
269.4204404
51
286.4209037
0
ARC
8
DEFAULT_255_1_234
10
6.6366364
20
94.8939657
40
0.1880666
50
286.7251356
51
320.600362
0
ARC
8
DEFAULT_255_1_234
10
6.5983189
20
94.9250595
40
0.2374121
50
320.6712579
51
344.5441685
0
ARC
8
DEFAULT_255_1_234
10
6.4826516
20
94.9590045
40
0.3579479
50
344.2412205
51
356.7357071
0
ARC
8
DEFAULT_255_1_234
10
6.3577664
20
94.9693444
40
0.4832297
50
356.3548756
51
0.0500261
0
ARC
8
DEFAULT_255_1_234
10
6.4914173
20
94.972465
40
0.3495889
50
359.5576869
51
12.953486
0
ARC
8
DEFAULT_255_1_234
10
6.5969071
20
94.9980434
40
0.2410532
50
12.6490276
51
41.6081334
0
ARC
8
DEFAULT_255_1_234
10
6.6199442
20
95.0176321
40
0.2108218
50
41.7850273
51
85.9892764
0
ARC
8
DEFAULT_255_1_234
10
6.6076178
20
94.9363462
40
0.2928454
50
84.6957577
51
90.0676183
0
ARC
8
DEFAULT_255_1_234
10
6.6052662
20
94.8694716
40
0.3597255
50
89.6804936
51
99.1614436
0
ARC
8
DEFAULT_255_1_234
10
6.5847294
20
94.9922131
40
0.235281
50
98.9830931
51
113.8908934
0
ARC
8
DEFAULT_255_1_234
10
6.5617704
20
95.0463587
40
0.176479
50
114.1950727
51
127.3641004
0
LINE
8
DEFAULT_255_1_234
10
4.5670392
20
99.8904
11
4.1614364
21
99.8904
0
LINE
8
DEFAULT_255_1_234
10
4.1614364
20
99.8904
11
4.1614364
21
101.0598211
0
LINE
8
DEFAULT_255_1_234
10
4.1614364
20
101.0598211
11
4.5437471
21
101.0598211
0
LINE
8
DEFAULT_255_1_234
10
4.5726614
20
100.4373614
11
4.3156458
21
100.4373614
0
LINE
8
DEFAULT_255_1_234
10
4.3156458
20
100.4373614
11
4.3156458
21
100.0164983
0
LINE
8
DEFAULT_255_1_234
10
4.3156458
20
100.0164983
11
4.5702519
21
100.0164983
0
LINE
8
DEFAULT_255_1_234
10
4.3156458
20
100.9329196
11
4.3156458
21
100.5610501
0
LINE
8
DEFAULT_255_1_234
10
4.3156458
20
100.5610501
11
4.5485662
21
100.5610501
0
LINE
8
DEFAULT_255_1_234
10
4.5437471
20
100.9329196
11
4.3156458
21
100.9329196
0
ARC
8
DEFAULT_255_1_234
10
4.547518
20
100.3230901
40
0.7367406
50
82.1257326
51
90.2932599
0
ARC
8
DEFAULT_255_1_234
10
4.5864135
20
100.5949013
40
0.4621653
50
69.9044149
51
82.2857423
0
ARC
8
DEFAULT_255_1_234
10
4.6434813
20
100.7491637
40
0.2976871
50
51.1838526
51
70.0181538
0
ARC
8
DEFAULT_255_1_234
10
4.6689779
20
100.786224
40
0.2528517
50
12.1017251
51
50.4214761
0
ARC
8
DEFAULT_255_1_234
10
4.5305653
20
100.7514676
40
0.3955061
50
359.5251267
51
12.8211707
0
ARC
8
DEFAULT_255_1_234
10
4.6885579
20
100.7445344
40
0.2375281
50
323.4908128
51
0.8817314
0
ARC
8
DEFAULT_255_1_234
10
4.6467266
20
100.776855
40
0.2903817
50
298.6825083
51
323.2756573
0
ARC
8
DEFAULT_255_1_234
10
4.6105629
20
100.8369649
40
0.3604842
50
293.1999386
51
299.1396394
0
ARC
8
DEFAULT_255_1_234
10
4.6778602
20
100.2284126
40
0.2871098
50
54.0011765
51
74.9167975
0
ARC
8
DEFAULT_255_1_234
10
4.6894961
20
100.2481332
40
0.2643248
50
36.3580696
51
53.5291921
0
ARC
8
DEFAULT_255_1_234
10
4.6768203
20
100.2390998
40
0.2798884
50
4.8189881
51
36.3089977
0
ARC
8
DEFAULT_255_1_234
10
4.5989038
20
100.228127
40
0.358478
50
359.9370252
51
5.5204067
0
ARC
8
DEFAULT_255_1_234
10
4.566456
20
100.2240667
40
0.3909429
50
344.7478609
51
0.5373281
0
ARC
8
DEFAULT_255_1_234
10
4.6655531
20
100.1973544
40
0.2883093
50
311.1786488
51
344.6886812
0
ARC
8
DEFAULT_255_1_234
10
4.6363578
20
100.2336987
40
0.3348923
50
286.0418249
51
310.8441291
0
ARC
8
DEFAULT_255_1_234
10
4.585641
20
100.3983807
40
0.5071869
50
274.1042341
51
286.4071509
0
ARC
8
DEFAULT_255_1_234
10
4.5679666
20
100.5867229
40
0.6963234
50
269.9236873
51
274.445647
0
ARC
8
DEFAULT_255_1_234
10
4.5725667
20
100.3527537
40
0.3362634
50
269.6055768
51
281.3740047
0
ARC
8
DEFAULT_255_1_234
10
4.5956305
20
100.2434353
40
0.224546
50
281.1055983
51
302.5132223
0
ARC
8
DEFAULT_255_1_234
10
4.6103204
20
100.2170823
40
0.1944357
50
303.0368945
51
311.8811219
0
ARC
8
DEFAULT_255_1_234
10
4.6174611
20
100.208589
40
0.1833454
50
311.9916004
51
351.7143462
0
ARC
8
DEFAULT_255_1_234
10
4.5357841
20
100.225093
40
0.2665871
50
350.7339597
51
0.2221581
0
ARC
8
DEFAULT_255_1_234
10
4.5250287
20
100.2307467
40
0.2773789
50
359.0456241
51
17.2296242
0
ARC
8
DEFAULT_255_1_234
10
4.6289404
20
100.2616163
40
0.1689915
50
17.6685481
51
78.9940892
0
ARC
8
DEFAULT_255_1_234
10
4.5772568
20
100.0761224
40
0.3612658
50
76.5635957
51
90.6980921
0
LINE
8
DEFAULT_255_1_234
10
4.5728552
20
100.4373613
11
4.5726614
21
100.4373614
0
ARC
8
DEFAULT_255_1_234
10
4.5508228
20
100.8896036
40
0.3285612
50
269.6064736
51
281.4533503
0
ARC
8
DEFAULT_255_1_234
10
4.5731048
20
100.7844688
40
0.2210975
50
281.2041486
51
302.5148063
0
ARC
8
DEFAULT_255_1_234
10
4.5867898
20
100.7598241
40
0.1929674
50
303.021671
51
309.8369575
0
ARC
8
DEFAULT_255_1_234
10
4.6051359
20
100.7392488
40
0.1654181
50
309.5228395
51
356.9509836
0
ARC
8
DEFAULT_255_1_234
10
4.5387942
20
100.7487932
40
0.2322512
50
355.4701227
51
0.0492546
0
ARC
8
DEFAULT_255_1_234
10
4.5109033
20
100.7510094
40
0.2601498
50
359.5558597
51
11.2096359
0
ARC
8
DEFAULT_255_1_234
10
4.6066323
20
100.770823
40
0.1623975
50
10.9182341
51
31.3230275
0
ARC
8
DEFAULT_255_1_234
10
4.6352056
20
100.7867214
40
0.1297302
50
31.8852677
51
52.1412565
0
ARC
8
DEFAULT_255_1_234
10
4.6077789
20
100.747975
40
0.1771663
50
52.8285564
51
71.9850297
0
ARC
8
DEFAULT_255_1_234
10
4.5701965
20
100.6373664
40
0.2939794
50
71.6863486
51
82.8455995
0
ARC
8
DEFAULT_255_1_234
10
4.5462501
20
100.4564149
40
0.476506
50
82.6984714
51
90.1729175
0
ARC
8
DEFAULT_255_1_234
10
4.5440136
20
100.5787623
40
0.3541573
50
89.8708275
51
90.0431131
0
LINE
8
DEFAULT_255_1_234
10
5.6352604
20
101.0654433
11
5.6352604
21
99.8904
0
LINE
8
DEFAULT_255_1_234
10
5.6352604
20
99.8904
11
5.48587
21
99.8904
0
LINE
8
DEFAULT_255_1_234
10
5.48587
20
99.8904
11
5.48587
21
100.8807133
0
LINE
8
DEFAULT_255_1_234
10
5.48587
20
100.8807133
11
5.1862862
21
100.7706785
0
LINE
8
DEFAULT_255_1_234
10
5.1862862
20
100.7706785
11
5.1862862
21
100.9056117
0
LINE
8
DEFAULT_255_1_234
10
5.1862862
20
100.9056117
11
5.6119683
21
101.0654433
0
LINE
8
DEFAULT_255_1_234
10
5.6119683
20
101.0654433
11
5.6352604
21
101.0654433
0
LINE
8
DEFAULT_255_1_234
10
6.62718
20
101.0606243
11
6.6536848
21
101.0606243
0
LINE
8
DEFAULT_255_1_234
10
6.6536848
20
101.0606243
11
6.6536848
21
100.934526
0
LINE
8
DEFAULT_255_1_234
10
6.6536848
20
100.934526
11
6.6263769
21
100.934526
0
LINE
8
DEFAULT_255_1_234
10
6.0794155
20
100.3353583
11
6.0794155
21
100.3923836
0
LINE
8
DEFAULT_255_1_234
10
6.2288058
20
100.3731075
11
6.2288058
21
100.3184917
0
ARC
8
DEFAULT_255_1_234
10
6.6316116
20
100.4347455
40
0.4998079
50
90.6001036
51
104.514704
0
ARC
8
DEFAULT_255_1_234
10
6.5927632
20
100.5792131
40
0.3502176
50
104.2855254
51
133.862935
0
ARC
8
DEFAULT_255_1_234
10
6.6091389
20
100.568383
40
0.3693984
50
134.5302688
51
161.6210873
0
ARC
8
DEFAULT_255_1_234
10
6.7744578
20
100.5100895
40
0.5446739
50
161.2849839
51
174.2076652
0
ARC
8
DEFAULT_255_1_234
10
6.9151515
20
100.4906787
40
0.6866274
50
173.7810589
51
174.9254635
0
ARC
8
DEFAULT_255_1_234
10
6.4601347
20
100.3523839
40
0.3033419
50
95.8330959
51
138.9954921
0
ARC
8
DEFAULT_255_1_234
10
6.4824703
20
100.2245375
40
0.4328947
50
89.8753725
51
97.0544009
0
ARC
8
DEFAULT_255_1_234
10
6.4872169
20
100.3080748
40
0.3493769
50
71.6407809
51
90.6240094
0
ARC
8
DEFAULT_255_1_234
10
6.5022743
20
100.3635082
40
0.2920396
50
39.6367836
51
71.019018
0
ARC
8
DEFAULT_255_1_234
10
6.4386216
20
100.3084998
40
0.3761538
50
10.658731
51
39.9043955
0
ARC
8
DEFAULT_255_1_234
10
6.2838298
20
100.2748686
40
0.5345136
50
359.682601
51
11.132623
0
ARC
8
DEFAULT_255_1_234
10
6.2798429
20
100.267801
40
0.5385081
50
347.2486944
51
0.4369317
0
ARC
8
DEFAULT_255_1_234
10
6.4465906
20
100.2276807
40
0.3670249
50
318.1409698
51
347.6118597
0
ARC
8
DEFAULT_255_1_234
10
6.4790899
20
100.2009702
40
0.3250007
50
275.6342139
51
317.8248465
0
ARC
8
DEFAULT_255_1_234
10
6.4570011
20
100.3309219
40
0.4565864
50
269.8874292
51
276.7917694
0
ARC
8
DEFAULT_255_1_234
10
6.4515081
20
100.2283743
40
0.3540676
50
246.9140195
51
270.7437342
0
ARC
8
DEFAULT_255_1_234
10
6.4521472
20
100.2141384
40
0.3412781
50
218.1665114
51
245.878116
0
ARC
8
DEFAULT_255_1_234
10
6.5400932
20
100.2877279
40
0.455911
50
191.4115814
51
218.6077802
0
ARC
8
DEFAULT_255_1_234
10
6.7339022
20
100.3311833
40
0.6545001
50
179.6345085
51
191.7836486
0
ARC
8
DEFAULT_255_1_234
10
7.2921358
20
100.3990697
40
1.2127388
50
171.4525249
51
180.3158839
0
ARC
8
DEFAULT_255_1_234
10
6.8526234
20
100.4674608
40
0.7679464
50
157.9802646
51
171.6246686
0
ARC
8
DEFAULT_255_1_234
10
6.6312255
20
100.5557421
40
0.5296008
50
141.4298019
51
157.854097
0
ARC
8
DEFAULT_255_1_234
10
6.5670576
20
100.6011381
40
0.4511509
50
102.8715806
51
140.8564722
0
ARC
8
DEFAULT_255_1_234
10
6.6318191
20
100.3571552
40
0.7034845
50
90.3778349
51
103.5869322
0
ARC
8
DEFAULT_255_1_234
10
6.4579967
20
100.296673
40
0.2370698
50
89.8751008
51
126.2071704
0
ARC
8
DEFAULT_255_1_234
10
6.4625757
20
100.2812303
40
0.2522934
50
124.9745049
51
144.895901
0
ARC
8
DEFAULT_255_1_234
10
6.4449948
20
100.295556
40
0.2296779
50
145.2974905
51
160.2660252
0
ARC
8
DEFAULT_255_1_234
10
6.7522486
20
100.3153071
40
0.5234525
50
179.6514266
51
190.2855912
0
ARC
8
DEFAULT_255_1_234
10
6.5828624
20
100.2833786
40
0.3510893
50
190.0945431
51
207.5098196
0
ARC
8
DEFAULT_255_1_234
10
6.5262893
20
100.2564623
40
0.288489
50
207.9583163
51
216.3251085
0
ARC
8
DEFAULT_255_1_234
10
6.4923001
20
100.2285105
40
0.2445587
50
215.7661442
51
232.5456785
0
ARC
8
DEFAULT_255_1_234
10
6.4539984
20
100.1798482
40
0.1826382
50
232.8005391
51
270.6605633
0
ARC
8
DEFAULT_255_1_234
10
6.4585685
20
100.2162612
40
0.2190529
50
269.35537
51
288.4744281
0
ARC
8
DEFAULT_255_1_234
10
6.4678582
20
100.1813118
40
0.1829749
50
289.1833337
51
322.9683818
0
ARC
8
DEFAULT_255_1_234
10
6.4067105
20
100.2295391
40
0.2608399
50
322.6007884
51
346.5182367
0
ARC
8
DEFAULT_255_1_234
10
6.29097
20
100.2590616
40
0.3802777
50
346.2582162
51
358.7741648
0
ARC
8
DEFAULT_255_1_234
10
6.1891369
20
100.2645965
40
0.4822176
50
358.3755224
51
0.0098023
0
ARC
8
DEFAULT_255_1_234
10
6.2647557
20
100.2673657
40
0.4066078
50
359.6214041
51
11.2839074
0
ARC
8
DEFAULT_255_1_234
10
6.3924703
20
100.2940066
40
0.2761514
50
11.0482309
51
31.8146458
0
ARC
8
DEFAULT_255_1_234
10
6.4233746
20
100.3107584
40
0.2410679
50
32.3035391
51
38.082671
0
ARC
8
DEFAULT_255_1_234
10
6.4654406
20
100.3488662
40
0.1844966
50
36.825067
51
85.7415724
0
ARC
8
DEFAULT_255_1_234
10
6.458724
20
100.2988301
40
0.2349122
50
85.0140713
51
90.0513278
0
LINE
8
DEFAULT_255_1_234
10
5.0274293
20
105.182
11
4.9157881
21
105.4872061
0
LINE
8
DEFAULT_255_1_234
10
4.9157881
20
105.4872061
11
4.4258521
21
105.4872061
0
LINE
8
DEFAULT_255_1_234
10
4.4258521
20
105.4872061
11
4.3158173
21
105.182
0
LINE
8
DEFAULT_255_1_234
10
4.3158173
20
105.182
11
4.1567889
21
105.182
0
LINE
8
DEFAULT_255_1_234
10
4.1567889
20
105.182
11
4.6033535
21
106.3514211
0
LINE
8
DEFAULT_255_1_234
10
4.6033535
20
106.3514211
11
4.7382867
21
106.3514211
0
LINE
8
DEFAULT_255_1_234
10
4.7382867
20
106.3514211
11
5.1856545
21
105.182
0
LINE
8
DEFAULT_255_1_234
10
5.1856545
20
105.182
11
5.0274293
21
105.182
0
LINE
8
DEFAULT_255_1_234
10
4.6708201
20
106.1610689
11
4.4724362
21
105.6141075
0
LINE
8
DEFAULT_255_1_234
10
4.4724362
20
105.6141075
11
4.8700072
21
105.6141075
0
LINE
8
DEFAULT_255_1_234
10
4.8700072
20
105.6141075
11
4.6708201
21
106.1610689
0
LINE
8
DEFAULT_255_1_234
10
5.792854
20
106.3570433
11
5.792854
21
105.182
0
LINE
8
DEFAULT_255_1_234
10
5.792854
20
105.182
11
5.6434636
21
105.182
0
LINE
8
DEFAULT_255_1_234
10
5.6434636
20
105.182
11
5.6434636
21
106.1723133
0
LINE
8
DEFAULT_255_1_234
10
5.6434636
20
106.1723133
11
5.3438798
21
106.0622785
0
LINE
8
DEFAULT_255_1_234
10
5.3438798
20
106.0622785
11
5.3438798
21
106.1972117
0
LINE
8
DEFAULT_255_1_234
10
5.3438798
20
106.1972117
11
5.7695619
21
106.3570433
0
LINE
8
DEFAULT_255_1_234
10
5.7695619
20
106.3570433
11
5.792854
21
106.3570433
0
LINE
8
DEFAULT_255_1_234
10
6.7847736
20
106.3522243
11
6.8112784
21
106.3522243
0
LINE
8
DEFAULT_255_1_234
10
6.8112784
20
106.3522243
11
6.8112784
21
106.226126
0
LINE
8
DEFAULT_255_1_234
10
6.8112784
20
106.226126
11
6.7839705
21
106.226126
0
LINE
8
DEFAULT_255_1_234
10
6.2370091
20
105.6269583
11
6.2370091
21
105.6839836
0
LINE
8
DEFAULT_255_1_234
10
6.3863994
20
105.6647075
11
6.3863994
21
105.6100917
0
ARC
8
DEFAULT_255_1_234
10
6.7892052
20
105.7263455
40
0.4998079
50
90.6001036
51
104.514704
0
ARC
8
DEFAULT_255_1_234
10
6.7503568
20
105.8708131
40
0.3502176
50
104.2855254
51
133.862935
0
ARC
8
DEFAULT_255_1_234
10
6.7667325
20
105.859983
40
0.3693984
50
134.5302688
51
161.6210873
0
ARC
8
DEFAULT_255_1_234
10
6.9320514
20
105.8016895
40
0.5446739
50
161.2849839
51
174.2076652
0
ARC
8
DEFAULT_255_1_234
10
7.0727451
20
105.7822787
40
0.6866274
50
173.7810589
51
174.9254635
0
ARC
8
DEFAULT_255_1_234
10
6.6177283
20
105.6439839
40
0.3033419
50
95.8330959
51
138.9954921
0
ARC
8
DEFAULT_255_1_234
10
6.6400639
20
105.5161375
40
0.4328947
50
89.8753725
51
97.0544009
0
ARC
8
DEFAULT_255_1_234
10
6.6448105
20
105.5996748
40
0.3493769
50
71.6407809
51
90.6240094
0
ARC
8
DEFAULT_255_1_234
10
6.6598679
20
105.6551082
40
0.2920396
50
39.6367836
51
71.019018
0
ARC
8
DEFAULT_255_1_234
10
6.5962152
20
105.6000998
40
0.3761538
50
10.658731
51
39.9043955
0
ARC
8
DEFAULT_255_1_234
10
6.4414235
20
105.5664686
40
0.5345136
50
359.682601
51
11.132623
0
ARC
8
DEFAULT_255_1_234
10
6.4374365
20
105.559401
40
0.5385081
50
347.2486944
51
0.4369317
0
ARC
8
DEFAULT_255_1_234
10
6.6041842
20
105.5192807
40
0.3670249
50
318.1409698
51
347.6118597
0
ARC
8
DEFAULT_255_1_234
10
6.6366835
20
105.4925702
40
0.3250007
50
275.6342139
51
317.8248465
0
ARC
8
DEFAULT_255_1_234
10
6.6145947
20
105.6225219
40
0.4565864
50
269.8874292
51
276.7917694
0
ARC
8
DEFAULT_255_1_234
10
6.6091017
20
105.5199743
40
0.3540676
50
246.9140195
51
270.7437342
0
ARC
8
DEFAULT_255_1_234
10
6.6097408
20
105.5057384
40
0.3412781
50
218.1665114
51
245.878116
0
ARC
8
DEFAULT_255_1_234
10
6.6976868
20
105.5793279
40
0.455911
50
191.4115814
51
218.6077802
0
ARC
8
DEFAULT_255_1_234
10
6.8914958
20
105.6227833
40
0.6545001
50
179.6345085
51
191.7836486
0
ARC
8
DEFAULT_255_1_234
10
7.4497294
20
105.6906697
40
1.2127388
50
171.4525249
51
180.3158839
0
ARC
8
DEFAULT_255_1_234
10
7.010217
20
105.7590608
40
0.7679464
50
157.9802646
51
171.6246686
0
ARC
8
DEFAULT_255_1_234
10
6.7888191
20
105.8473421
40
0.5296008
50
141.4298019
51
157.854097
0
ARC
8
DEFAULT_255_1_234
10
6.7246512
20
105.8927381
40
0.4511509
50
102.8715806
51
140.8564722
0
ARC
8
DEFAULT_255_1_234
10
6.7894127
20
105.6487552
40
0.7034845
50
90.3778349
51
103.5869322
0
ARC
8
DEFAULT_255_1_234
10
6.6155903
20
105.588273
40
0.2370698
50
89.8751008
51
126.2071704
0
ARC
8
DEFAULT_255_1_234
10
6.6201693
20
105.5728303
40
0.2522934
50
124.9745049
51
144.895901
0
ARC
8
DEFAULT_255_1_234
10
6.6025884
20
105.587156
40
0.2296779
50
145.2974905
51
160.2660252
0
ARC
8
DEFAULT_255_1_234
10
6.9098423
20
105.6069071
40
0.5234525
50
179.6514266
51
190.2855912
0
ARC
8
DEFAULT_255_1_234
10
6.740456
20
105.5749786
40
0.3510893
50
190.0945431
51
207.5098196
0
ARC
8
DEFAULT_255_1_234
10
6.683883
20
105.5480623
40
0.288489
50
207.9583163
51
216.3251085
0
ARC
8
DEFAULT_255_1_234
10
6.6498937
20
105.5201105
40
0.2445587
50
215.7661442
51
232.5456785
0
ARC
8
DEFAULT_255_1_234
10
6.611592
20
105.4714482
40
0.1826382
50
232.8005391
51
270.6605633
0
ARC
8
DEFAULT_255_1_234
10
6.6161621
20
105.5078612
40
0.2190529
50
269.35537
51
288.4744281
0
ARC
8
DEFAULT_255_1_234
10
6.6254518
20
105.4729118
40
0.1829749
50
289.1833337
51
322.9683818
0
ARC
8
DEFAULT_255_1_234
10
6.5643041
20
105.5211391
40
0.2608399
50
322.6007884
51
346.5182367
0
ARC
8
DEFAULT_255_1_234
10
6.4485636
20
105.5506616
40
0.3802777
50
346.2582162
51
358.7741648
0
ARC
8
DEFAULT_255_1_234
10
6.3467305
20
105.5561965
40
0.4822176
50
358.3755224
51
0.0098023
0
ARC
8
DEFAULT_255_1_234
10
6.4223493
20
105.5589657
40
0.4066078
50
359.6214041
51
11.2839074
0
ARC
8
DEFAULT_255_1_234
10
6.5500639
20
105.5856066
40
0.2761514
50
11.0482309
51
31.8146458
0
ARC
8
DEFAULT_255_1_234
10
6.5809682
20
105.6023584
40
0.2410679
50
32.3035391
51
38.082671
0
ARC
8
DEFAULT_255_1_234
10
6.6230342
20
105.6404662
40
0.1844966
50
36.825067
51
85.7415724
0
ARC
8
DEFAULT_255_1_234
10
6.6163176
20
105.5904301
40
0.2349122
50
85.0140713
51
90.0513278
0
LINE
8
DEFAULT_255_1_234
10
4.5670392
20
110.4737
11
4.1614364
21
110.4737
0
LINE
8
DEFAULT_255_1_234
10
4.1614364
20
110.4737
11
4.1614364
21
111.6431211
0
LINE
8
DEFAULT_255_1_234
10
4.1614364
20
111.6431211
11
4.5437471
21
111.6431211
0
LINE
8
DEFAULT_255_1_234
10
4.5726614
20
111.0206614
11
4.3156458
21
111.0206614
0
LINE
8
DEFAULT_255_1_234
10
4.3156458
20
111.0206614
11
4.3156458
21
110.5997983
0
LINE
8
DEFAULT_255_1_234
10
4.3156458
20
110.5997983
11
4.5702519
21
110.5997983
0
LINE
8
DEFAULT_255_1_234
10
4.3156458
20
111.5162196
11
4.3156458
21
111.1443501
0
LINE
8
DEFAULT_255_1_234
10
4.3156458
20
111.1443501
11
4.5485662
21
111.1443501
0
LINE
8
DEFAULT_255_1_234
10
4.5437471
20
111.5162196
11
4.3156458
21
111.5162196
0
ARC
8
DEFAULT_255_1_234
10
4.547518
20
110.9063901
40
0.7367406
50
82.1257326
51
90.2932599
0
ARC
8
DEFAULT_255_1_234
10
4.5864135
20
111.1782013
40
0.4621653
50
69.9044149
51
82.2857423
0
ARC
8
DEFAULT_255_1_234
10
4.6434813
20
111.3324637
40
0.2976871
50
51.1838526
51
70.0181538
0
ARC
8
DEFAULT_255_1_234
10
4.6689779
20
111.369524
40
0.2528517
50
12.1017251
51
50.4214761
0
ARC
8
DEFAULT_255_1_234
10
4.5305653
20
111.3347676
40
0.3955061
50
359.5251267
51
12.8211707
0
ARC
8
DEFAULT_255_1_234
10
4.6885579
20
111.3278344
40
0.2375281
50
323.4908128
51
0.8817314
0
ARC
8
DEFAULT_255_1_234
10
4.6467266
20
111.360155
40
0.2903817
50
298.6825083
51
323.2756573
0
ARC
8
DEFAULT_255_1_234
10
4.6105629
20
111.4202649
40
0.3604842
50
293.1999386
51
299.1396394
0
ARC
8
DEFAULT_255_1_234
10
4.6778602
20
110.8117126
40
0.2871098
50
54.0011765
51
74.9167975
0
ARC
8
DEFAULT_255_1_234
10
4.6894961
20
110.8314332
40
0.2643248
50
36.3580696
51
53.5291921
0
ARC
8
DEFAULT_255_1_234
10
4.6768203
20
110.8223998
40
0.2798884
50
4.8189881
51
36.3089977
0
ARC
8
DEFAULT_255_1_234
10
4.5989038
20
110.811427
40
0.358478
50
359.9370252
51
5.5204067
0
ARC
8
DEFAULT_255_1_234
10
4.566456
20
110.8073667
40
0.3909429
50
344.7478609
51
0.5373281
0
ARC
8
DEFAULT_255_1_234
10
4.6655531
20
110.7806544
40
0.2883093
50
311.1786488
51
344.6886812
0
ARC
8
DEFAULT_255_1_234
10
4.6363578
20
110.8169987
40
0.3348923
50
286.0418249
51
310.8441291
0
ARC
8
DEFAULT_255_1_234
10
4.585641
20
110.9816807
40
0.5071869
50
274.1042341
51
286.4071509
0
ARC
8
DEFAULT_255_1_234
10
4.5679666
20
111.1700229
40
0.6963234
50
269.9236873
51
274.445647
0
ARC
8
DEFAULT_255_1_234
10
4.5725667
20
110.9360537
40
0.3362634
50
269.6055768
51
281.3740047
0
ARC
8
DEFAULT_255_1_234
10
4.5956305
20
110.8267353
40
0.224546
50
281.1055983
51
302.5132223
0
ARC
8
DEFAULT_255_1_234
10
4.6103204
20
110.8003823
40
0.1944357
50
303.0368945
51
311.8811219
0
ARC
8
DEFAULT_255_1_234
10
4.6174611
20
110.791889
40
0.1833454
50
311.9916004
51
351.7143462
0
ARC
8
DEFAULT_255_1_234
10
4.5357841
20
110.808393
40
0.2665871
50
350.7339597
51
0.2221581
0
ARC
8
DEFAULT_255_1_234
10
4.5250287
20
110.8140467
40
0.2773789
50
359.0456241
51
17.2296242
0
ARC
8
DEFAULT_255_1_234
10
4.6289404
20
110.8449163
40
0.1689915
50
17.6685481
51
78.9940892
0
ARC
8
DEFAULT_255_1_234
10
4.5772568
20
110.6594224
40
0.3612658
50
76.5635957
51
90.6980921
0
LINE
8
DEFAULT_255_1_234
10
4.5728552
20
111.0206613
11
4.5726614
21
111.0206614
0
ARC
8
DEFAULT_255_1_234
10
4.5508228
20
111.4729036
40
0.3285612
50
269.6064736
51
281.4533503
0
ARC
8
DEFAULT_255_1_234
10
4.5731048
20
111.3677688
40
0.2210975
50
281.2041486
51
302.5148063
0
ARC
8
DEFAULT_255_1_234
10
4.5867898
20
111.3431241
40
0.1929674
50
303.021671
51
309.8369575
0
ARC
8
DEFAULT_255_1_234
10
4.6051359
20
111.3225488
40
0.1654181
50
309.5228395
51
356.9509836
0
ARC
8
DEFAULT_255_1_234
10
4.5387942
20
111.3320932
40
0.2322512
50
355.4701227
51
0.0492546
0
ARC
8
DEFAULT_255_1_234
10
4.5109033
20
111.3343094
40
0.2601498
50
359.5558597
51
11.2096359
0
ARC
8
DEFAULT_255_1_234
10
4.6066323
20
111.354123
40
0.1623975
50
10.9182341
51
31.3230275
0
ARC
8
DEFAULT_255_1_234
10
4.6352056
20
111.3700214
40
0.1297302
50
31.8852677
51
52.1412565
0
ARC
8
DEFAULT_255_1_234
10
4.6077789
20
111.331275
40
0.1771663
50
52.8285564
51
71.9850297
0
ARC
8
DEFAULT_255_1_234
10
4.5701965
20
111.2206664
40
0.2939794
50
71.6863486
51
82.8455995
0
ARC
8
DEFAULT_255_1_234
10
4.5462501
20
111.0397149
40
0.476506
50
82.6984714
51
90.1729175
0
ARC
8
DEFAULT_255_1_234
10
4.5440136
20
111.1620623
40
0.3541573
50
89.8708275
51
90.0431131
0
LINE
8
DEFAULT_255_1_234
10
5.6352604
20
111.6487433
11
5.6352604
21
110.4737
0
LINE
8
DEFAULT_255_1_234
10
5.6352604
20
110.4737
11
5.48587
21
110.4737
0
LINE
8
DEFAULT_255_1_234
10
5.48587
20
110.4737
11
5.48587
21
111.4640133
0
LINE
8
DEFAULT_255_1_234
10
5.48587
20
111.4640133
11
5.1862862
21
111.3539785
0
LINE
8
DEFAULT_255_1_234
10
5.1862862
20
111.3539785
11
5.1862862
21
111.4889117
0
LINE
8
DEFAULT_255_1_234
10
5.1862862
20
111.4889117
11
5.6119683
21
111.6487433
0
LINE
8
DEFAULT_255_1_234
10
5.6119683
20
111.6487433
11
5.6352604
21
111.6487433
0
LINE
8
DEFAULT_255_1_234
10
6.825564
20
111.6431211
11
6.825564
21
111.559591
0
LINE
8
DEFAULT_255_1_234
10
6.825564
20
111.559591
11
6.3412501
21
110.4737
0
LINE
8
DEFAULT_255_1_234
10
6.3412501
20
110.4737
11
6.1854344
21
110.4737
0
LINE
8
DEFAULT_255_1_234
10
6.1854344
20
110.4737
11
6.6681419
21
111.5210387
0
LINE
8
DEFAULT_255_1_234
10
6.6681419
20
111.5210387
11
6.0352409
21
111.5210387
0
LINE
8
DEFAULT_255_1_234
10
6.0352409
20
111.5210387
11
6.0352409
21
111.6431211
0
LINE
8
DEFAULT_255_1_234
10
6.0352409
20
111.6431211
11
6.825564
21
111.6431211
0
LINE
8
DEFAULT_255_1_234
10
5.0274293
20
115.7654
11
4.9157881
21
116.0706061
0
LINE
8
DEFAULT_255_1_234
10
4.9157881
20
116.0706061
11
4.4258521
21
116.0706061
0
LINE
8
DEFAULT_255_1_234
10
4.4258521
20
116.0706061
11
4.3158173
21
115.7654
0
LINE
8
DEFAULT_255_1_234
10
4.3158173
20
115.7654
11
4.1567889
21
115.7654
0
LINE
8
DEFAULT_255_1_234
10
4.1567889
20
115.7654
11
4.6033535
21
116.9348211
0
LINE
8
DEFAULT_255_1_234
10
4.6033535
20
116.9348211
11
4.7382867
21
116.9348211
0
LINE
8
DEFAULT_255_1_234
10
4.7382867
20
116.9348211
11
5.1856545
21
115.7654
0
LINE
8
DEFAULT_255_1_234
10
5.1856545
20
115.7654
11
5.0274293
21
115.7654
0
LINE
8
DEFAULT_255_1_234
10
4.6708201
20
116.7444689
11
4.4724362
21
116.1975075
0
LINE
8
DEFAULT_255_1_234
10
4.4724362
20
116.1975075
11
4.8700072
21
116.1975075
0
LINE
8
DEFAULT_255_1_234
10
4.8700072
20
116.1975075
11
4.6708201
21
116.7444689
0
LINE
8
DEFAULT_255_1_234
10
5.792854
20
116.9404433
11
5.792854
21
115.7654
0
LINE
8
DEFAULT_255_1_234
10
5.792854
20
115.7654
11
5.6434636
21
115.7654
0
LINE
8
DEFAULT_255_1_234
10
5.6434636
20
115.7654
11
5.6434636
21
116.7557133
0
LINE
8
DEFAULT_255_1_234
10
5.6434636
20
116.7557133
11
5.3438798
21
116.6456785
0
LINE
8
DEFAULT_255_1_234
10
5.3438798
20
116.6456785
11
5.3438798
21
116.7806117
0
LINE
8
DEFAULT_255_1_234
10
5.3438798
20
116.7806117
11
5.7695619
21
116.9404433
0
LINE
8
DEFAULT_255_1_234
10
5.7695619
20
116.9404433
11
5.792854
21
116.9404433
0
LINE
8
DEFAULT_255_1_234
10
6.9831576
20
116.9348211
11
6.9831576
21
116.851291
0
LINE
8
DEFAULT_255_1_234
10
6.9831576
20
116.851291
11
6.4988438
21
115.7654
0
LINE
8
DEFAULT_255_1_234
10
6.4988438
20
115.7654
11
6.343028
21
115.7654
0
LINE
8
DEFAULT_255_1_234
10
6.343028
20
115.7654
11
6.8257355
21
116.8127387
0
LINE
8
DEFAULT_255_1_234
10
6.8257355
20
116.8127387
11
6.1928345
21
116.8127387
0
LINE
8
DEFAULT_255_1_234
10
6.1928345
20
116.8127387
11
6.1928345
21
116.9348211
0
LINE
8
DEFAULT_255_1_234
10
6.1928345
20
116.9348211
11
6.9831576
21
116.9348211
0
LINE
8
DEFAULT_255_1_234
10
4.5670392
20
121.057
11
4.1614364
21
121.057
0
LINE
8
DEFAULT_255_1_234
10
4.1614364
20
121.057
11
4.1614364
21
122.2264211
0
LINE
8
DEFAULT_255_1_234
10
4.1614364
20
122.2264211
11
4.5437471
21
122.2264211
0
LINE
8
DEFAULT_255_1_234
10
4.5726614
20
121.6039614
11
4.3156458
21
121.6039614
0
LINE
8
DEFAULT_255_1_234
10
4.3156458
20
121.6039614
11
4.3156458
21
121.1830983
0
LINE
8
DEFAULT_255_1_234
10
4.3156458
20
121.1830983
11
4.5702519
21
121.1830983
0
LINE
8
DEFAULT_255_1_234
10
4.3156458
20
122.0995196
11
4.3156458
21
121.7276501
0
LINE
8
DEFAULT_255_1_234
10
4.3156458
20
121.7276501
11
4.5485662
21
121.7276501
0
LINE
8
DEFAULT_255_1_234
10
4.5437471
20
122.0995196
11
4.3156458
21
122.0995196
0
ARC
8
DEFAULT_255_1_234
10
4.547518
20
121.4896901
40
0.7367406
50
82.1257326
51
90.2932599
0
ARC
8
DEFAULT_255_1_234
10
4.5864135
20
121.7615013
40
0.4621653
50
69.9044149
51
82.2857423
0
ARC
8
DEFAULT_255_1_234
10
4.6434813
20
121.9157637
40
0.2976871
50
51.1838526
51
70.0181538
0
ARC
8
DEFAULT_255_1_234
10
4.6689779
20
121.952824
40
0.2528517
50
12.1017251
51
50.4214761
0
ARC
8
DEFAULT_255_1_234
10
4.5305653
20
121.9180676
40
0.3955061
50
359.5251267
51
12.8211707
0
ARC
8
DEFAULT_255_1_234
10
4.6885579
20
121.9111344
40
0.2375281
50
323.4908128
51
0.8817314
0
ARC
8
DEFAULT_255_1_234
10
4.6467266
20
121.943455
40
0.2903817
50
298.6825083
51
323.2756573
0
ARC
8
DEFAULT_255_1_234
10
4.6105629
20
122.0035649
40
0.3604842
50
293.1999386
51
299.1396394
0
ARC
8
DEFAULT_255_1_234
10
4.6778602
20
121.3950126
40
0.2871098
50
54.0011765
51
74.9167975
0
ARC
8
DEFAULT_255_1_234
10
4.6894961
20
121.4147332
40
0.2643248
50
36.3580696
51
53.5291921
0
ARC
8
DEFAULT_255_1_234
10
4.6768203
20
121.4056998
40
0.2798884
50
4.8189881
51
36.3089977
0
ARC
8
DEFAULT_255_1_234
10
4.5989038
20
121.394727
40
0.358478
50
359.9370252
51
5.5204067
0
ARC
8
DEFAULT_255_1_234
10
4.566456
20
121.3906667
40
0.3909429
50
344.7478609
51
0.5373281
0
ARC
8
DEFAULT_255_1_234
10
4.6655531
20
121.3639544
40
0.2883093
50
311.1786488
51
344.6886812
0
ARC
8
DEFAULT_255_1_234
10
4.6363578
20
121.4002987
40
0.3348923
50
286.0418249
51
310.8441291
0
ARC
8
DEFAULT_255_1_234
10
4.585641
20
121.5649807
40
0.5071869
50
274.1042341
51
286.4071509
0
ARC
8
DEFAULT_255_1_234
10
4.5679666
20
121.7533229
40
0.6963234
50
269.9236873
51
274.445647
0
ARC
8
DEFAULT_255_1_234
10
4.5725667
20
121.5193537
40
0.3362634
50
269.6055768
51
281.3740047
0
ARC
8
DEFAULT_255_1_234
10
4.5956305
20
121.4100353
40
0.224546
50
281.1055983
51
302.5132223
0
ARC
8
DEFAULT_255_1_234
10
4.6103204
20
121.3836823
40
0.1944357
50
303.0368945
51
311.8811219
0
ARC
8
DEFAULT_255_1_234
10
4.6174611
20
121.375189
40
0.1833454
50
311.9916004
51
351.7143462
0
ARC
8
DEFAULT_255_1_234
10
4.5357841
20
121.391693
40
0.2665871
50
350.7339597
51
0.2221581
0
ARC
8
DEFAULT_255_1_234
10
4.5250287
20
121.3973467
40
0.2773789
50
359.0456241
51
17.2296242
0
ARC
8
DEFAULT_255_1_234
10
4.6289404
20
121.4282163
40
0.1689915
50
17.6685481
51
78.9940892
0
ARC
8
DEFAULT_255_1_234
10
4.5772568
20
121.2427224
40
0.3612658
50
76.5635957
51
90.6980921
0
LINE
8
DEFAULT_255_1_234
10
4.5728552
20
121.6039613
11
4.5726614
21
121.6039614
0
ARC
8
DEFAULT_255_1_234
10
4.5508228
20
122.0562036
40
0.3285612
50
269.6064736
51
281.4533503
0
ARC
8
DEFAULT_255_1_234
10
4.5731048
20
121.9510688
40
0.2210975
50
281.2041486
51
302.5148063
0
ARC
8
DEFAULT_255_1_234
10
4.5867898
20
121.9264241
40
0.1929674
50
303.021671
51
309.8369575
0
ARC
8
DEFAULT_255_1_234
10
4.6051359
20
121.9058488
40
0.1654181
50
309.5228395
51
356.9509836
0
ARC
8
DEFAULT_255_1_234
10
4.5387942
20
121.9153932
40
0.2322512
50
355.4701227
51
0.0492546
0
ARC
8
DEFAULT_255_1_234
10
4.5109033
20
121.9176094
40
0.2601498
50
359.5558597
51
11.2096359
0
ARC
8
DEFAULT_255_1_234
10
4.6066323
20
121.937423
40
0.1623975
50
10.9182341
51
31.3230275
0
ARC
8
DEFAULT_255_1_234
10
4.6352056
20
121.9533214
40
0.1297302
50
31.8852677
51
52.1412565
0
ARC
8
DEFAULT_255_1_234
10
4.6077789
20
121.914575
40
0.1771663
50
52.8285564
51
71.9850297
0
ARC
8
DEFAULT_255_1_234
10
4.5701965
20
121.8039664
40
0.2939794
50
71.6863486
51
82.8455995
0
ARC
8
DEFAULT_255_1_234
10
4.5462501
20
121.6230149
40
0.476506
50
82.6984714
51
90.1729175
0
ARC
8
DEFAULT_255_1_234
10
4.5440136
20
121.7453623
40
0.3541573
50
89.8708275
51
90.0431131
0
LINE
8
DEFAULT_255_1_234
10
5.6352604
20
122.2320433
11
5.6352604
21
121.057
0
LINE
8
DEFAULT_255_1_234
10
5.6352604
20
121.057
11
5.48587
21
121.057
0
LINE
8
DEFAULT_255_1_234
10
5.48587
20
121.057
11
5.48587
21
122.0473133
0
LINE
8
DEFAULT_255_1_234
10
5.48587
20
122.0473133
11
5.1862862
21
121.9372785
0
LINE
8
DEFAULT_255_1_234
10
5.1862862
20
121.9372785
11
5.1862862
21
122.0722117
0
LINE
8
DEFAULT_255_1_234
10
5.1862862
20
122.0722117
11
5.6119683
21
122.2320433
0
LINE
8
DEFAULT_255_1_234
10
5.6119683
20
122.2320433
11
5.6352604
21
122.2320433
0
ARC
8
DEFAULT_255_1_234
10
6.4975589
20
121.9186703
40
0.2822356
50
338.8763615
51
0.5166041
0
ARC
8
DEFAULT_255_1_234
10
6.5144244
20
121.9141208
40
0.2648703
50
325.8412414
51
338.4795939
0
ARC
8
DEFAULT_255_1_234
10
6.4753611
20
121.9412042
40
0.3124019
50
296.7586019
51
325.753654
0
ARC
8
DEFAULT_255_1_234
10
6.446572
20
121.9896789
40
0.368668
50
296.0902311
51
297.3618122
0
ARC
8
DEFAULT_255_1_234
10
6.4723177
20
121.3342041
40
0.3518806
50
47.9009248
51
67.1946869
0
ARC
8
DEFAULT_255_1_234
10
6.4919419
20
121.3588395
40
0.320451
50
35.236241
51
47.551371
0
ARC
8
DEFAULT_255_1_234
10
6.5181037
20
121.3762993
40
0.2890103
50
359.2759738
51
35.4014081
0
ARC
8
DEFAULT_255_1_234
10
6.4436068
20
121.3689826
40
0.3635026
50
343.1294516
51
0.5776525
0
ARC
8
DEFAULT_255_1_234
10
6.5160613
20
121.349033
40
0.2883832
50
310.8497458
51
342.744803
0
ARC
8
DEFAULT_255_1_234
10
6.4742727
20
121.3967294
40
0.3517954
50
281.5473923
51
310.9169905
0
ARC
8
DEFAULT_255_1_234
10
6.4386176
20
121.5520084
40
0.5110832
50
269.6192722
51
281.9789957
0
ARC
8
DEFAULT_255_1_234
10
6.4313965
20
121.5520828
40
0.5111606
50
257.4584469
51
270.4287458
0
ARC
8
DEFAULT_255_1_234
10
6.3933108
20
121.3917344
40
0.3463762
50
228.7553743
51
257.8484423
0
ARC
8
DEFAULT_255_1_234
10
6.3623306
20
121.3544442
40
0.297916
50
184.0104442
51
228.5071787
0
ARC
8
DEFAULT_255_1_234
10
6.478625
20
121.3721512
40
0.4152734
50
179.9315461
51
185.3254504
0
ARC
8
DEFAULT_255_1_234
10
6.3609896
20
121.3758992
40
0.2976554
50
145.6795913
51
180.6259649
0
ARC
8
DEFAULT_255_1_234
10
6.3773245
20
121.3644929
40
0.3175776
50
115.5537925
51
145.6416199
0
ARC
8
DEFAULT_255_1_234
10
6.4114176
20
121.3034028
40
0.3874232
50
113.2437915
51
116.2054627
0
ARC
8
DEFAULT_255_1_234
10
6.3961388
20
121.943258
40
0.3154751
50
222.9548379
51
244.1372485
0
ARC
8
DEFAULT_255_1_234
10
6.3839464
20
121.9295834
40
0.2972382
50
213.3439227
51
222.6271327
0
ARC
8
DEFAULT_255_1_234
10
6.3647398
20
121.9165308
40
0.274019
50
180.4316517
51
213.2713999
0
ARC
8
DEFAULT_255_1_234
10
6.4222399
20
121.921211
40
0.33158
50
179.9992944
51
181.1655061
0
ARC
8
DEFAULT_255_1_234
10
6.4631816
20
121.9246561
40
0.3725376
50
164.6186108
51
180.5292368
0
ARC
8
DEFAULT_255_1_234
10
6.3733679
20
121.9488101
40
0.2795349
50
132.2454369
51
164.5092287
0
ARC
8
DEFAULT_255_1_234
10
6.4020783
20
121.9163028
40
0.3229019
50
100.7052766
51
132.1387266
0
ARC
8
DEFAULT_255_1_234
10
6.4325756
20
121.7785086
40
0.4639835
50
89.6732617
51
101.2449487
0
ARC
8
DEFAULT_255_1_234
10
6.4387954
20
121.795999
40
0.4464999
50
76.2876631
51
90.4586123
0
ARC
8
DEFAULT_255_1_234
10
6.4694185
20
121.918222
40
0.3205023
50
47.8240157
51
76.4266918
0
ARC
8
DEFAULT_255_1_234
10
6.4916735
20
121.944259
40
0.2862661
50
6.9168658
51
47.6261438
0
ARC
8
DEFAULT_255_1_234
10
6.3730138
20
121.922337
40
0.4067708
50
359.8419705
51
7.9694496
0
ARC
8
DEFAULT_255_1_234
10
6.4072035
20
121.3782925
40
0.2513121
50
359.4454068
51
16.9256425
0
ARC
8
DEFAULT_255_1_234
10
6.4540846
20
121.3912033
40
0.2027071
50
17.292259
51
45.462717
0
ARC
8
DEFAULT_255_1_234
10
6.4486782
20
121.3865434
40
0.2098212
50
45.3028762
51
83.1921472
0
ARC
8
DEFAULT_255_1_234
10
6.4343466
20
121.3063895
40
0.2911472
50
82.2614531
51
90.143954
0
ARC
8
DEFAULT_255_1_234
10
6.4312586
20
121.329695
40
0.2678513
50
89.4959189
51
104.8579811
0
ARC
8
DEFAULT_255_1_234
10
6.4135845
20
121.396689
40
0.1985654
50
104.8855873
51
135.2448349
0
ARC
8
DEFAULT_255_1_234
10
6.4185618
20
121.3922336
40
0.2052373
50
135.3398955
51
172.104394
0
ARC
8
DEFAULT_255_1_234
10
6.4992676
20
121.3767925
40
0.2873299
50
171.2651929
51
180.1859362
0
ARC
8
DEFAULT_255_1_234
10
6.4823377
20
121.3735733
40
0.2704083
50
179.515471
51
193.6466734
0
ARC
8
DEFAULT_255_1_234
10
6.4007146
20
121.3527777
40
0.1861855
50
193.3540587
51
225.8256931
0
ARC
8
DEFAULT_255_1_234
10
6.4047904
20
121.3598524
40
0.1941102
50
226.418029
51
255.8553723
0
ARC
8
DEFAULT_255_1_234
10
6.4304336
20
121.4534998
40
0.2911917
50
255.4655572
51
268.7985967
0
ARC
8
DEFAULT_255_1_234
10
6.4351528
20
121.5373491
40
0.3751331
50
268.3464808
51
270.0104874
0
ARC
8
DEFAULT_255_1_234
10
6.4374916
20
121.4689138
40
0.3067064
50
269.575914
51
282.0823146
0
ARC
8
DEFAULT_255_1_234
10
6.4599825
20
121.3694803
40
0.2047712
50
281.7522535
51
306.6056425
0
ARC
8
DEFAULT_255_1_234
10
6.4698252
20
121.3533487
40
0.1859604
50
307.1350025
51
314.0277951
0
ARC
8
DEFAULT_255_1_234
10
6.4662336
20
121.3559766
40
0.1903475
50
314.2553419
51
350.169324
0
ARC
8
DEFAULT_255_1_234
10
6.3810804
20
121.3744409
40
0.2774269
50
349.4145679
51
0.2930737
0
ARC
8
DEFAULT_255_1_234
10
6.4331237
20
121.8903353
40
0.2300764
50
89.477591
51
105.729794
0
ARC
8
DEFAULT_255_1_234
10
6.4195151
20
121.9408637
40
0.1777519
50
105.922966
51
135.1662921
0
ARC
8
DEFAULT_255_1_234
10
6.4215653
20
121.9394419
40
0.1802087
50
135.3053131
51
168.9882338
0
ARC
8
DEFAULT_255_1_234
10
6.5043226
20
121.9204721
40
0.2650806
50
168.3802067
51
180.3602358
0
ARC
8
DEFAULT_255_1_234
10
6.4814805
20
121.9167041
40
0.2422425
50
179.5029707
51
194.9126783
0
ARC
8
DEFAULT_255_1_234
10
6.4229466
20
121.901311
40
0.1817188
50
194.9722181
51
224.1943972
0
ARC
8
DEFAULT_255_1_234
10
6.4201333
20
121.8990169
40
0.1781027
50
224.2961434
51
262.0157375
0
ARC
8
DEFAULT_255_1_234
10
6.4343576
20
121.9721661
40
0.2525492
50
261.1250369
51
270.1959853
0
ARC
8
DEFAULT_255_1_234
10
6.4373331
20
121.9534339
40
0.233825
50
269.4825617
51
285.0988277
0
ARC
8
DEFAULT_255_1_234
10
6.452749
20
121.895599
40
0.1739712
50
285.1585659
51
315.9484648
0
ARC
8
DEFAULT_255_1_234
10
6.4438502
20
121.9037886
40
0.1860616
50
316.0412958
51
351.9162715
0
ARC
8
DEFAULT_255_1_234
10
6.3705457
20
121.9179245
40
0.2606517
50
351.1056823
51
0.1936567
0
ARC
8
DEFAULT_255_1_234
10
6.3968286
20
121.9209369
40
0.234377
50
359.4789506
51
16.0679113
0
ARC
8
DEFAULT_255_1_234
10
6.4444245
20
121.933781
40
0.1850875
50
16.3251951
51
44.791304
0
ARC
8
DEFAULT_255_1_234
10
6.4426526
20
121.9338339
40
0.186312
50
44.3958661
51
88.2498933
0
ARC
8
DEFAULT_255_1_234
10
6.435308
20
121.8727154
40
0.2476868
50
86.9833827
51
90.0200148
0
LINE
8
DEFAULT_255_1_234
10
5.0274293
20
126.3487
11
4.9157881
21
126.6539061
0
LINE
8
DEFAULT_255_1_234
10
4.9157881
20
126.6539061
11
4.4258521
21
126.6539061
0
LINE
8
DEFAULT_255_1_234
10
4.4258521
20
126.6539061
11
4.3158173
21
126.3487
0
LINE
8
DEFAULT_255_1_234
10
4.3158173
20
126.3487
11
4.1567889
21
126.3487
0
LINE
8
DEFAULT_255_1_234
10
4.1567889
20
126.3487
11
4.6033535
21
127.5181211
0
LINE
8
DEFAULT_255_1_234
10
4.6033535
20
127.5181211
11
4.7382867
21
127.5181211
0
LINE
8
DEFAULT_255_1_234
10
4.7382867
20
127.5181211
11
5.1856545
21
126.3487
0
LINE
8
DEFAULT_255_1_234
10
5.1856545
20
126.3487
11
5.0274293
21
126.3487
0
LINE
8
DEFAULT_255_1_234
10
4.6708201
20
127.3277689
11
4.4724362
21
126.7808075
0
LINE
8
DEFAULT_255_1_234
10
4.4724362
20
126.7808075
11
4.8700072
21
126.7808075
0
LINE
8
DEFAULT_255_1_234
10
4.8700072
20
126.7808075
11
4.6708201
21
127.3277689
0
LINE
8
DEFAULT_255_1_234
10
5.792854
20
127.5237433
11
5.792854
21
126.3487
0
LINE
8
DEFAULT_255_1_234
10
5.792854
20
126.3487
11
5.6434636
21
126.3487
0
LINE
8
DEFAULT_255_1_234
10
5.6434636
20
126.3487
11
5.6434636
21
127.3390133
0
LINE
8
DEFAULT_255_1_234
10
5.6434636
20
127.3390133
11
5.3438798
21
127.2289785
0
LINE
8
DEFAULT_255_1_234
10
5.3438798
20
127.2289785
11
5.3438798
21
127.3639117
0
LINE
8
DEFAULT_255_1_234
10
5.3438798
20
127.3639117
11
5.7695619
21
127.5237433
0
LINE
8
DEFAULT_255_1_234
10
5.7695619
20
127.5237433
11
5.792854
21
127.5237433
0
ARC
8
DEFAULT_255_1_234
10
6.6551525
20
127.2103703
40
0.2822356
50
338.8763615
51
0.5166041
0
ARC
8
DEFAULT_255_1_234
10
6.672018
20
127.2058208
40
0.2648703
50
325.8412414
51
338.4795939
0
ARC
8
DEFAULT_255_1_234
10
6.6329547
20
127.2329042
40
0.3124019
50
296.7586019
51
325.753654
0
ARC
8
DEFAULT_255_1_234
10
6.6041656
20
127.2813789
40
0.368668
50
296.0902311
51
297.3618122
0
ARC
8
DEFAULT_255_1_234
10
6.6299113
20
126.6259041
40
0.3518806
50
47.9009248
51
67.1946869
0
ARC
8
DEFAULT_255_1_234
10
6.6495355
20
126.6505395
40
0.320451
50
35.236241
51
47.551371
0
ARC
8
DEFAULT_255_1_234
10
6.6756973
20
126.6679993
40
0.2890103
50
359.2759738
51
35.4014081
0
ARC
8
DEFAULT_255_1_234
10
6.6012004
20
126.6606826
40
0.3635026
50
343.1294516
51
0.5776525
0
ARC
8
DEFAULT_255_1_234
10
6.6736549
20
126.640733
40
0.2883832
50
310.8497458
51
342.744803
0
ARC
8
DEFAULT_255_1_234
10
6.6318663
20
126.6884294
40
0.3517954
50
281.5473923
51
310.9169905
0
ARC
8
DEFAULT_255_1_234
10
6.5962112
20
126.8437084
40
0.5110832
50
269.6192722
51
281.9789957
0
ARC
8
DEFAULT_255_1_234
10
6.5889901
20
126.8437828
40
0.5111606
50
257.4584469
51
270.4287458
0
ARC
8
DEFAULT_255_1_234
10
6.5509044
20
126.6834344
40
0.3463762
50
228.7553743
51
257.8484423
0
ARC
8
DEFAULT_255_1_234
10
6.5199242
20
126.6461442
40
0.297916
50
184.0104442
51
228.5071787
0
ARC
8
DEFAULT_255_1_234
10
6.6362186
20
126.6638512
40
0.4152734
50
179.9315461
51
185.3254504
0
ARC
8
DEFAULT_255_1_234
10
6.5185832
20
126.6675992
40
0.2976554
50
145.6795913
51
180.6259649
0
ARC
8
DEFAULT_255_1_234
10
6.5349182
20
126.6561929
40
0.3175776
50
115.5537925
51
145.6416199
0
ARC
8
DEFAULT_255_1_234
10
6.5690112
20
126.5951028
40
0.3874232
50
113.2437915
51
116.2054627
0
ARC
8
DEFAULT_255_1_234
10
6.5537324
20
127.234958
40
0.3154751
50
222.9548379
51
244.1372485
0
ARC
8
DEFAULT_255_1_234
10
6.54154
20
127.2212834
40
0.2972382
50
213.3439227
51
222.6271327
0
ARC
8
DEFAULT_255_1_234
10
6.5223334
20
127.2082308
40
0.274019
50
180.4316517
51
213.2713999
0
ARC
8
DEFAULT_255_1_234
10
6.5798335
20
127.212911
40
0.33158
50
179.9992944
51
181.1655061
0
ARC
8
DEFAULT_255_1_234
10
6.6207752
20
127.2163561
40
0.3725376
50
164.6186108
51
180.5292368
0
ARC
8
DEFAULT_255_1_234
10
6.5309615
20
127.2405101
40
0.2795349
50
132.2454369
51
164.5092287
0
ARC
8
DEFAULT_255_1_234
10
6.5596719
20
127.2080028
40
0.3229019
50
100.7052766
51
132.1387266
0
ARC
8
DEFAULT_255_1_234
10
6.5901692
20
127.0702086
40
0.4639835
50
89.6732617
51
101.2449487
0
ARC
8
DEFAULT_255_1_234
10
6.596389
20
127.087699
40
0.4464999
50
76.2876631
51
90.4586123
0
ARC
8
DEFAULT_255_1_234
10
6.6270121
20
127.209922
40
0.3205023
50
47.8240157
51
76.4266918
0
ARC
8
DEFAULT_255_1_234
10
6.6492671
20
127.235959
40
0.2862661
50
6.9168658
51
47.6261438
0
ARC
8
DEFAULT_255_1_234
10
6.5306074
20
127.214037
40
0.4067708
50
359.8419705
51
7.9694496
0
ARC
8
DEFAULT_255_1_234
10
6.5647971
20
126.6699925
40
0.2513121
50
359.4454068
51
16.9256425
0
ARC
8
DEFAULT_255_1_234
10
6.6116782
20
126.6829033
40
0.2027071
50
17.292259
51
45.462717
0
ARC
8
DEFAULT_255_1_234
10
6.6062718
20
126.6782434
40
0.2098212
50
45.3028762
51
83.1921472
0
ARC
8
DEFAULT_255_1_234
10
6.5919402
20
126.5980895
40
0.2911472
50
82.2614531
51
90.143954
0
ARC
8
DEFAULT_255_1_234
10
6.5888522
20
126.621395
40
0.2678513
50
89.4959189
51
104.8579811
0
ARC
8
DEFAULT_255_1_234
10
6.5711781
20
126.688389
40
0.1985654
50
104.8855873
51
135.2448349
0
ARC
8
DEFAULT_255_1_234
10
6.5761554
20
126.6839336
40
0.2052373
50
135.3398955
51
172.104394
0
ARC
8
DEFAULT_255_1_234
10
6.6568612
20
126.6684925
40
0.2873299
50
171.2651929
51
180.1859362
0
ARC
8
DEFAULT_255_1_234
10
6.6399313
20
126.6652733
40
0.2704083
50
179.515471
51
193.6466734
0
ARC
8
DEFAULT_255_1_234
10
6.5583082
20
126.6444777
40
0.1861855
50
193.3540587
51
225.8256931
0
ARC
8
DEFAULT_255_1_234
10
6.562384
20
126.6515524
40
0.1941102
50
226.418029
51
255.8553723
0
ARC
8
DEFAULT_255_1_234
10
6.5880272
20
126.7451998
40
0.2911917
50
255.4655572
51
268.7985967
0
ARC
8
DEFAULT_255_1_234
10
6.5927464
20
126.8290491
40
0.3751331
50
268.3464808
51
270.0104874
0
ARC
8
DEFAULT_255_1_234
10
6.5950852
20
126.7606138
40
0.3067064
50
269.575914
51
282.0823146
0
ARC
8
DEFAULT_255_1_234
10
6.6175761
20
126.6611803
40
0.2047712
50
281.7522535
51
306.6056425
0
ARC
8
DEFAULT_255_1_234
10
6.6274188
20
126.6450487
40
0.1859604
50
307.1350025
51
314.0277951
0
ARC
8
DEFAULT_255_1_234
10
6.6238272
20
126.6476766
40
0.1903475
50
314.2553419
51
350.169324
0
ARC
8
DEFAULT_255_1_234
10
6.538674
20
126.6661409
40
0.2774269
50
349.4145679
51
0.2930737
0
ARC
8
DEFAULT_255_1_234
10
6.5907173
20
127.1820353
40
0.2300764
50
89.477591
51
105.729794
0
ARC
8
DEFAULT_255_1_234
10
6.5771087
20
127.2325637
40
0.1777519
50
105.922966
51
135.1662921
0
ARC
8
DEFAULT_255_1_234
10
6.5791589
20
127.2311419
40
0.1802087
50
135.3053131
51
168.9882338
0
ARC
8
DEFAULT_255_1_234
10
6.6619162
20
127.2121721
40
0.2650806
50
168.3802067
51
180.3602358
0
ARC
8
DEFAULT_255_1_234
10
6.6390741
20
127.2084041
40
0.2422425
50
179.5029707
51
194.9126783
0
ARC
8
DEFAULT_255_1_234
10
6.5805402
20
127.193011
40
0.1817188
50
194.9722181
51
224.1943972
0
ARC
8
DEFAULT_255_1_234
10
6.5777269
20
127.1907169
40
0.1781027
50
224.2961434
51
262.0157375
0
ARC
8
DEFAULT_255_1_234
10
6.5919512
20
127.2638661
40
0.2525492
50
261.1250369
51
270.1959853
0
ARC
8
DEFAULT_255_1_234
10
6.5949267
20
127.2451339
40
0.233825
50
269.4825617
51
285.0988277
0
ARC
8
DEFAULT_255_1_234
10
6.6103426
20
127.187299
40
0.1739712
50
285.1585659
51
315.9484648
0
ARC
8
DEFAULT_255_1_234
10
6.6014438
20
127.1954886
40
0.1860616
50
316.0412958
51
351.9162715
0
ARC
8
DEFAULT_255_1_234
10
6.5281393
20
127.2096245
40
0.2606517
50
351.1056823
51
0.1936567
0
ARC
8
DEFAULT_255_1_234
10
6.5544222
20
127.2126369
40
0.234377
50
359.4789506
51
16.0679113
0
ARC
8
DEFAULT_255_1_234
10
6.6020181
20
127.225481
40
0.1850875
50
16.3251951
51
44.791304
0
ARC
8
DEFAULT_255_1_234
10
6.6002462
20
127.2255339
40
0.186312
50
44.3958661
51
88.2498933
0
ARC
8
DEFAULT_255_1_234
10
6.5929016
20
127.1644154
40
0.2476868
50
86.9833827
51
90.0200148
0
LINE
8
DEFAULT_255_1_234
10
4.5670392
20
131.6404
11
4.1614364
21
131.6404
0
LINE
8
DEFAULT_255_1_234
10
4.1614364
20
131.6404
11
4.1614364
21
132.8098211
0
LINE
8
DEFAULT_255_1_234
10
4.1614364
20
132.8098211
11
4.5437471
21
132.8098211
0
LINE
8
DEFAULT_255_1_234
10
4.5726614
20
132.1873614
11
4.3156458
21
132.1873614
0
LINE
8
DEFAULT_255_1_234
10
4.3156458
20
132.1873614
11
4.3156458
21
131.7664983
0
LINE
8
DEFAULT_255_1_234
10
4.3156458
20
131.7664983
11
4.5702519
21
131.7664983
0
LINE
8
DEFAULT_255_1_234
10
4.3156458
20
132.6829196
11
4.3156458
21
132.3110501
0
LINE
8
DEFAULT_255_1_234
10
4.3156458
20
132.3110501
11
4.5485662
21
132.3110501
0
LINE
8
DEFAULT_255_1_234
10
4.5437471
20
132.6829196
11
4.3156458
21
132.6829196
0
ARC
8
DEFAULT_255_1_234
10
4.547518
20
132.0730901
40
0.7367406
50
82.1257326
51
90.2932599
0
ARC
8
DEFAULT_255_1_234
10
4.5864135
20
132.3449013
40
0.4621653
50
69.9044149
51
82.2857423
0
ARC
8
DEFAULT_255_1_234
10
4.6434813
20
132.4991637
40
0.2976871
50
51.1838526
51
70.0181538
0
ARC
8
DEFAULT_255_1_234
10
4.6689779
20
132.536224
40
0.2528517
50
12.1017251
51
50.4214761
0
ARC
8
DEFAULT_255_1_234
10
4.5305653
20
132.5014676
40
0.3955061
50
359.5251267
51
12.8211707
0
ARC
8
DEFAULT_255_1_234
10
4.6885579
20
132.4945344
40
0.2375281
50
323.4908128
51
0.8817314
0
ARC
8
DEFAULT_255_1_234
10
4.6467266
20
132.526855
40
0.2903817
50
298.6825083
51
323.2756573
0
ARC
8
DEFAULT_255_1_234
10
4.6105629
20
132.5869649
40
0.3604842
50
293.1999386
51
299.1396394
0
ARC
8
DEFAULT_255_1_234
10
4.6778602
20
131.9784126
40
0.2871098
50
54.0011765
51
74.9167975
0
ARC
8
DEFAULT_255_1_234
10
4.6894961
20
131.9981332
40
0.2643248
50
36.3580696
51
53.5291921
0
ARC
8
DEFAULT_255_1_234
10
4.6768203
20
131.9890998
40
0.2798884
50
4.8189881
51
36.3089977
0
ARC
8
DEFAULT_255_1_234
10
4.5989038
20
131.978127
40
0.358478
50
359.9370252
51
5.5204067
0
ARC
8
DEFAULT_255_1_234
10
4.566456
20
131.9740667
40
0.3909429
50
344.7478609
51
0.5373281
0
ARC
8
DEFAULT_255_1_234
10
4.6655531
20
131.9473544
40
0.2883093
50
311.1786488
51
344.6886812
0
ARC
8
DEFAULT_255_1_234
10
4.6363578
20
131.9836987
40
0.3348923
50
286.0418249
51
310.8441291
0
ARC
8
DEFAULT_255_1_234
10
4.585641
20
132.1483807
40
0.5071869
50
274.1042341
51
286.4071509
0
ARC
8
DEFAULT_255_1_234
10
4.5679666
20
132.3367229
40
0.6963234
50
269.9236873
51
274.445647
0
ARC
8
DEFAULT_255_1_234
10
4.5725667
20
132.1027537
40
0.3362634
50
269.6055768
51
281.3740047
0
ARC
8
DEFAULT_255_1_234
10
4.5956305
20
131.9934353
40
0.224546
50
281.1055983
51
302.5132223
0
ARC
8
DEFAULT_255_1_234
10
4.6103204
20
131.9670823
40
0.1944357
50
303.0368945
51
311.8811219
0
ARC
8
DEFAULT_255_1_234
10
4.6174611
20
131.958589
40
0.1833454
50
311.9916004
51
351.7143462
0
ARC
8
DEFAULT_255_1_234
10
4.5357841
20
131.975093
40
0.2665871
50
350.7339597
51
0.2221581
0
ARC
8
DEFAULT_255_1_234
10
4.5250287
20
131.9807467
40
0.2773789
50
359.0456241
51
17.2296242
0
ARC
8
DEFAULT_255_1_234
10
4.6289404
20
132.0116163
40
0.1689915
50
17.6685481
51
78.9940892
0
ARC
8
DEFAULT_255_1_234
10
4.5772568
20
131.8261224
40
0.3612658
50
76.5635957
51
90.6980921
0
LINE
8
DEFAULT_255_1_234
10
4.5728552
20
132.1873613
11
4.5726614
21
132.1873614
0
ARC
8
DEFAULT_255_1_234
10
4.5508228
20
132.6396036
40
0.3285612
50
269.6064736
51
281.4533503
0
ARC
8
DEFAULT_255_1_234
10
4.5731048
20
132.5344688
40
0.2210975
50
281.2041486
51
302.5148063
0
ARC
8
DEFAULT_255_1_234
10
4.5867898
20
132.5098241
40
0.1929674
50
303.021671
51
309.8369575
0
ARC
8
DEFAULT_255_1_234
10
4.6051359
20
132.4892488
40
0.1654181
50
309.5228395
51
356.9509836
0
ARC
8
DEFAULT_255_1_234
10
4.5387942
20
132.4987932
40
0.2322512
50
355.4701227
51
0.0492546
0
ARC
8
DEFAULT_255_1_234
10
4.5109033
20
132.5010094
40
0.2601498
50
359.5558597
51
11.2096359
0
ARC
8
DEFAULT_255_1_234
10
4.6066323
20
132.520823
40
0.1623975
50
10.9182341
51
31.3230275
0
ARC
8
DEFAULT_255_1_234
10
4.6352056
20
132.5367214
40
0.1297302
50
31.8852677
51
52.1412565
0
ARC
8
DEFAULT_255_1_234
10
4.6077789
20
132.497975
40
0.1771663
50
52.8285564
51
71.9850297
0
ARC
8
DEFAULT_255_1_234
10
4.5701965
20
132.3873664
40
0.2939794
50
71.6863486
51
82.8455995
0
ARC
8
DEFAULT_255_1_234
10
4.5462501
20
132.2064149
40
0.476506
50
82.6984714
51
90.1729175
0
ARC
8
DEFAULT_255_1_234
10
4.5440136
20
132.3287623
40
0.3541573
50
89.8708275
51
90.0431131
0
LINE
8
DEFAULT_255_1_234
10
5.6352604
20
132.8154433
11
5.6352604
21
131.6404
0
LINE
8
DEFAULT_255_1_234
10
5.6352604
20
131.6404
11
5.48587
21
131.6404
0
LINE
8
DEFAULT_255_1_234
10
5.48587
20
131.6404
11
5.48587
21
132.6307133
0
LINE
8
DEFAULT_255_1_234
10
5.48587
20
132.6307133
11
5.1862862
21
132.5206785
0
LINE
8
DEFAULT_255_1_234
10
5.1862862
20
132.5206785
11
5.1862862
21
132.6556117
0
LINE
8
DEFAULT_255_1_234
10
5.1862862
20
132.6556117
11
5.6119683
21
132.8154433
0
LINE
8
DEFAULT_255_1_234
10
5.6119683
20
132.8154433
11
5.6352604
21
132.8154433
0
LINE
8
DEFAULT_255_1_234
10
6.7894211
20
132.3423739
11
6.7894211
21
132.2990025
0
LINE
8
DEFAULT_255_1_234
10
6.2472788
20
131.6395968
11
6.2183646
21
131.6395968
0
LINE
8
DEFAULT_255_1_234
10
6.2183646
20
131.6395968
11
6.2183646
21
131.7648919
0
LINE
8
DEFAULT_255_1_234
10
6.2183646
20
131.7648919
11
6.2496883
21
131.7648919
0
LINE
8
DEFAULT_255_1_234
10
6.640834
20
132.3134597
11
6.640834
21
132.3728945
0
ARC
8
DEFAULT_255_1_234
10
6.3614609
20
132.3880403
40
0.3635579
50
297.4037347
51
320.016758
0
ARC
8
DEFAULT_255_1_234
10
6.3904558
20
132.332324
40
0.3007486
50
270.2633101
51
297.3851877
0
ARC
8
DEFAULT_255_1_234
10
6.3870514
20
132.3786904
40
0.3471448
50
269.9966443
51
270.7900392
0
ARC
8
DEFAULT_255_1_234
10
6.3844995
20
132.3785143
40
0.3469779
50
254.5999133
51
270.4180344
0
ARC
8
DEFAULT_255_1_234
10
6.3702355
20
132.3220647
40
0.2887697
50
236.4717942
51
254.3541279
0
ARC
8
DEFAULT_255_1_234
10
6.3858572
20
132.3430711
40
0.3149125
50
208.4727207
51
236.2134933
0
ARC
8
DEFAULT_255_1_234
10
6.4497347
20
132.3821455
40
0.3897115
50
204.3447514
51
209.0453999
0
ARC
8
DEFAULT_255_1_234
10
6.5176923
20
132.4109656
40
0.4635101
50
183.9375985
51
204.1276318
0
ARC
8
DEFAULT_255_1_234
10
6.6085175
20
132.4207482
40
0.5548037
50
179.9652252
51
184.3013875
0
ARC
8
DEFAULT_255_1_234
10
6.5845221
20
132.4240507
40
0.5308164
50
166.7585989
51
180.3201225
0
ARC
8
DEFAULT_255_1_234
10
6.4998834
20
132.4424488
40
0.4442163
50
154.6955053
51
166.5679793
0
ARC
8
DEFAULT_255_1_234
10
6.4145704
20
132.485421
40
0.3487299
50
136.3324195
51
155.0871442
0
ARC
8
DEFAULT_255_1_234
10
6.3864777
20
132.5094954
40
0.3117924
50
121.236733
51
135.9680508
0
ARC
8
DEFAULT_255_1_234
10
6.4005275
20
132.4834743
40
0.3413302
50
96.845628
51
120.9881519
0
ARC
8
DEFAULT_255_1_234
10
6.4150857
20
132.3899515
40
0.4359341
50
89.8870174
51
97.2802754
0
ARC
8
DEFAULT_255_1_234
10
6.4203295
20
132.4537095
40
0.3722009
50
70.6505584
51
90.6749113
0
ARC
8
DEFAULT_255_1_234
10
6.4334574
20
132.5050361
40
0.3194571
50
36.7492984
51
69.8219918
0
ARC
8
DEFAULT_255_1_234
10
6.3335739
20
132.4271993
40
0.4460685
50
15.39587
51
37.0840084
0
ARC
8
DEFAULT_255_1_234
10
6.1206173
20
132.3651242
40
0.6678714
50
3.9488873
51
15.6798563
0
ARC
8
DEFAULT_255_1_234
10
5.88048
20
132.3434964
40
0.9089418
50
359.929245
51
4.2665314
0
ARC
8
DEFAULT_255_1_234
10
5.4199237
20
132.2923513
40
1.3695135
50
352.8366322
51
0.2782669
0
ARC
8
DEFAULT_255_1_234
10
5.9486916
20
132.2236629
40
0.8363105
50
341.8359505
51
352.9884176
0
ARC
8
DEFAULT_255_1_234
10
6.2705635
20
132.11517
40
0.4966642
50
322.8578092
51
342.1527901
0
ARC
8
DEFAULT_255_1_234
10
6.3569591
20
132.0562384
40
0.3922466
50
319.334325
51
322.0998941
0
ARC
8
DEFAULT_255_1_234
10
6.3259928
20
132.0873209
40
0.4360033
50
285.9541367
51
318.8878087
0
ARC
8
DEFAULT_255_1_234
10
6.2533189
20
132.31836
40
0.678149
50
272.9281676
51
286.4922826
0
ARC
8
DEFAULT_255_1_234
10
6.2343307
20
132.5434587
40
0.9039547
50
270.8207226
51
273.4012994
0
ARC
8
DEFAULT_255_1_234
10
6.2432158
20
132.3615666
40
0.5967098
50
270.6214993
51
281.4062806
0
ARC
8
DEFAULT_255_1_234
10
6.2862139
20
132.1559833
40
0.3866861
50
281.1852553
51
299.0621114
0
ARC
8
DEFAULT_255_1_234
10
6.3235711
20
132.0838798
40
0.3055236
50
299.5067782
51
313.1200873
0
ARC
8
DEFAULT_255_1_234
10
6.3257677
20
132.0759554
40
0.2982623
50
313.8526205
51
338.5989322
0
ARC
8
DEFAULT_255_1_234
10
6.1633751
20
132.1426781
40
0.4738131
50
338.2523585
51
351.2430902
0
ARC
8
DEFAULT_255_1_234
10
5.9223047
20
132.1836447
40
0.7183203
50
350.9409515
51
357.6691871
0
ARC
8
DEFAULT_255_1_234
10
6.4113477
20
132.3838764
40
0.2294452
50
269.9447023
51
306.8248917
0
ARC
8
DEFAULT_255_1_234
10
6.3876392
20
132.4261898
40
0.2775994
50
305.5072438
51
327.0773448
0
ARC
8
DEFAULT_255_1_234
10
6.3994833
20
132.4167025
40
0.2625056
50
327.4104943
51
336.840169
0
ARC
8
DEFAULT_255_1_234
10
6.0900898
20
132.3761302
40
0.5507537
50
359.6633817
51
10.117533
0
ARC
8
DEFAULT_255_1_234
10
6.2654696
20
132.4085777
40
0.372403
50
9.9430141
51
26.7700076
0
ARC
8
DEFAULT_255_1_234
10
6.3251909
20
132.4361187
40
0.3066865
50
27.2015464
51
34.6829435
0
ARC
8
DEFAULT_255_1_234
10
6.3741389
20
132.4728977
40
0.245519
50
34.1250343
51
50.3070065
0
ARC
8
DEFAULT_255_1_234
10
6.4188068
20
132.5263385
40
0.1758693
50
50.3851167
51
90.6705993
0
ARC
8
DEFAULT_255_1_234
10
6.4141301
20
132.4958799
40
0.2063326
50
89.272901
51
111.9140407
0
ARC
8
DEFAULT_255_1_234
10
6.4121829
20
132.509944
40
0.1925887
50
112.9382311
51
142.5320782
0
ARC
8
DEFAULT_255_1_234
10
6.4668009
20
132.4655969
40
0.2629232
50
142.1021256
51
166.3835592
0
ARC
8
DEFAULT_255_1_234
10
6.5849315
20
132.4350915
40
0.3849193
50
166.1100289
51
178.665427
0
ARC
8
DEFAULT_255_1_234
10
6.6896904
20
132.4292117
40
0.4897989
50
178.2632126
51
180.0111093
0
ARC
8
DEFAULT_255_1_234
10
6.6095024
20
132.4263728
40
0.40962
50
179.6161962
51
191.8787166
0
ARC
8
DEFAULT_255_1_234
10
6.4874863
20
132.3993896
40
0.2846655
50
191.6191692
51
215.2972286
0
ARC
8
DEFAULT_255_1_234
10
6.4678054
20
132.3878918
40
0.2619665
50
215.7320102
51
216.5355409
0
ARC
8
DEFAULT_255_1_234
10
6.4139141
20
132.3446647
40
0.1929497
50
215.7486685
51
239.9727502
0
ARC
8
DEFAULT_255_1_234
10
6.4069056
20
132.3395894
40
0.1850822
50
241.0650169
51
269.2810483
0
ARC
8
DEFAULT_255_1_234
10
6.4110971
20
132.3886371
40
0.2342059
50
268.4062526
51
270.0071348
0
LINE
8
DEFAULT_255_1_234
10
5.0274293
20
136.932
11
4.9157881
21
137.2372061
0
LINE
8
DEFAULT_255_1_234
10
4.9157881
20
137.2372061
11
4.4258521
21
137.2372061
0
LINE
8
DEFAULT_255_1_234
10
4.4258521
20
137.2372061
11
4.3158173
21
136.932
0
LINE
8
DEFAULT_255_1_234
10
4.3158173
20
136.932
11
4.1567889
21
136.932
0
LINE
8
DEFAULT_255_1_234
10
4.1567889
20
136.932
11
4.6033535
21
138.1014211
0
LINE
8
DEFAULT_255_1_234
10
4.6033535
20
138.1014211
11
4.7382867
21
138.1014211
0
LINE
8
DEFAULT_255_1_234
10
4.7382867
20
138.1014211
11
5.1856545
21
136.932
0
LINE
8
DEFAULT_255_1_234
10
5.1856545
20
136.932
11
5.0274293
21
136.932
0
LINE
8
DEFAULT_255_1_234
10
4.6708201
20
137.9110689
11
4.4724362
21
137.3641075
0
LINE
8
DEFAULT_255_1_234
10
4.4724362
20
137.3641075
11
4.8700072
21
137.3641075
0
LINE
8
DEFAULT_255_1_234
10
4.8700072
20
137.3641075
11
4.6708201
21
137.9110689
0
LINE
8
DEFAULT_255_1_234
10
5.792854
20
138.1070433
11
5.792854
21
136.932
0
LINE
8
DEFAULT_255_1_234
10
5.792854
20
136.932
11
5.6434636
21
136.932
0
LINE
8
DEFAULT_255_1_234
10
5.6434636
20
136.932
11
5.6434636
21
137.9223133
0
LINE
8
DEFAULT_255_1_234
10
5.6434636
20
137.9223133
11
5.3438798
21
137.8122785
0
LINE
8
DEFAULT_255_1_234
10
5.3438798
20
137.8122785
11
5.3438798
21
137.9472117
0
LINE
8
DEFAULT_255_1_234
10
5.3438798
20
137.9472117
11
5.7695619
21
138.1070433
0
LINE
8
DEFAULT_255_1_234
10
5.7695619
20
138.1070433
11
5.792854
21
138.1070433
0
LINE
8
DEFAULT_255_1_234
10
6.9470147
20
137.6339739
11
6.9470147
21
137.5906025
0
LINE
8
DEFAULT_255_1_234
10
6.4048724
20
136.9311968
11
6.3759582
21
136.9311968
0
LINE
8
DEFAULT_255_1_234
10
6.3759582
20
136.9311968
11
6.3759582
21
137.0564919
0
LINE
8
DEFAULT_255_1_234
10
6.3759582
20
137.0564919
11
6.4072819
21
137.0564919
0
LINE
8
DEFAULT_255_1_234
10
6.7984276
20
137.6050597
11
6.7984276
21
137.6644945
0
ARC
8
DEFAULT_255_1_234
10
6.5190546
20
137.6796403
40
0.3635579
50
297.4037347
51
320.016758
0
ARC
8
DEFAULT_255_1_234
10
6.5480494
20
137.623924
40
0.3007486
50
270.2633101
51
297.3851877
0
ARC
8
DEFAULT_255_1_234
10
6.544645
20
137.6702904
40
0.3471448
50
269.9966443
51
270.7900392
0
ARC
8
DEFAULT_255_1_234
10
6.5420931
20
137.6701143
40
0.3469779
50
254.5999133
51
270.4180344
0
ARC
8
DEFAULT_255_1_234
10
6.5278291
20
137.6136647
40
0.2887697
50
236.4717942
51
254.3541279
0
ARC
8
DEFAULT_255_1_234
10
6.5434508
20
137.6346711
40
0.3149125
50
208.4727207
51
236.2134933
0
ARC
8
DEFAULT_255_1_234
10
6.6073283
20
137.6737455
40
0.3897115
50
204.3447514
51
209.0453999
0
ARC
8
DEFAULT_255_1_234
10
6.6752859
20
137.7025656
40
0.4635101
50
183.9375985
51
204.1276318
0
ARC
8
DEFAULT_255_1_234
10
6.7661111
20
137.7123482
40
0.5548037
50
179.9652252
51
184.3013875
0
ARC
8
DEFAULT_255_1_234
10
6.7421157
20
137.7156507
40
0.5308164
50
166.7585989
51
180.3201225
0
ARC
8
DEFAULT_255_1_234
10
6.657477
20
137.7340488
40
0.4442163
50
154.6955053
51
166.5679793
0
ARC
8
DEFAULT_255_1_234
10
6.572164
20
137.777021
40
0.3487299
50
136.3324195
51
155.0871442
0
ARC
8
DEFAULT_255_1_234
10
6.5440713
20
137.8010954
40
0.3117924
50
121.236733
51
135.9680508
0
ARC
8
DEFAULT_255_1_234
10
6.5581211
20
137.7750743
40
0.3413302
50
96.845628
51
120.9881519
0
ARC
8
DEFAULT_255_1_234
10
6.5726793
20
137.6815515
40
0.4359341
50
89.8870174
51
97.2802754
0
ARC
8
DEFAULT_255_1_234
10
6.5779231
20
137.7453095
40
0.3722009
50
70.6505584
51
90.6749113
0
ARC
8
DEFAULT_255_1_234
10
6.591051
20
137.7966361
40
0.3194571
50
36.7492984
51
69.8219918
0
ARC
8
DEFAULT_255_1_234
10
6.4911675
20
137.7187993
40
0.4460685
50
15.39587
51
37.0840084
0
ARC
8
DEFAULT_255_1_234
10
6.2782109
20
137.6567242
40
0.6678714
50
3.9488873
51
15.6798563
0
ARC
8
DEFAULT_255_1_234
10
6.0380736
20
137.6350964
40
0.9089418
50
359.929245
51
4.2665314
0
ARC
8
DEFAULT_255_1_234
10
5.5775174
20
137.5839513
40
1.3695135
50
352.8366322
51
0.2782669
0
ARC
8
DEFAULT_255_1_234
10
6.1062852
20
137.5152629
40
0.8363105
50
341.8359505
51
352.9884176
0
ARC
8
DEFAULT_255_1_234
10
6.4281571
20
137.40677
40
0.4966642
50
322.8578092
51
342.1527901
0
ARC
8
DEFAULT_255_1_234
10
6.5145527
20
137.3478384
40
0.3922466
50
319.334325
51
322.0998941
0
ARC
8
DEFAULT_255_1_234
10
6.4835864
20
137.3789209
40
0.4360033
50
285.9541367
51
318.8878087
0
ARC
8
DEFAULT_255_1_234
10
6.4109125
20
137.60996
40
0.678149
50
272.9281676
51
286.4922826
0
ARC
8
DEFAULT_255_1_234
10
6.3919243
20
137.8350587
40
0.9039547
50
270.8207226
51
273.4012994
0
ARC
8
DEFAULT_255_1_234
10
6.4008094
20
137.6531666
40
0.5967098
50
270.6214993
51
281.4062806
0
ARC
8
DEFAULT_255_1_234
10
6.4438075
20
137.4475833
40
0.3866861
50
281.1852553
51
299.0621114
0
ARC
8
DEFAULT_255_1_234
10
6.4811647
20
137.3754798
40
0.3055236
50
299.5067782
51
313.1200873
0
ARC
8
DEFAULT_255_1_234
10
6.4833613
20
137.3675554
40
0.2982623
50
313.8526205
51
338.5989322
0
ARC
8
DEFAULT_255_1_234
10
6.3209687
20
137.4342781
40
0.4738131
50
338.2523585
51
351.2430902
0
ARC
8
DEFAULT_255_1_234
10
6.0798983
20
137.4752447
40
0.7183203
50
350.9409515
51
357.6691871
0
ARC
8
DEFAULT_255_1_234
10
6.5689413
20
137.6754764
40
0.2294452
50
269.9447023
51
306.8248917
0
ARC
8
DEFAULT_255_1_234
10
6.5452328
20
137.7177898
40
0.2775994
50
305.5072438
51
327.0773448
0
ARC
8
DEFAULT_255_1_234
10
6.5570769
20
137.7083025
40
0.2625056
50
327.4104943
51
336.840169
0
ARC
8
DEFAULT_255_1_234
10
6.2476834
20
137.6677302
40
0.5507537
50
359.6633817
51
10.117533
0
ARC
8
DEFAULT_255_1_234
10
6.4230632
20
137.7001777
40
0.372403
50
9.9430141
51
26.7700076
0
ARC
8
DEFAULT_255_1_234
10
6.4827845
20
137.7277187
40
0.3066865
50
27.2015464
51
34.6829435
0
ARC
8
DEFAULT_255_1_234
10
6.5317325
20
137.7644977
40
0.245519
50
34.1250343
51
50.3070065
0
ARC
8
DEFAULT_255_1_234
10
6.5764004
20
137.8179385
40
0.1758693
50
50.3851167
51
90.6705993
0
ARC
8
DEFAULT_255_1_234
10
6.5717237
20
137.7874799
40
0.2063326
50
89.272901
51
111.9140407
0
ARC
8
DEFAULT_255_1_234
10
6.5697765
20
137.801544
40
0.1925887
50
112.9382311
51
142.5320782
0
ARC
8
DEFAULT_255_1_234
10
6.6243945
20
137.7571969
40
0.2629232
50
142.1021256
51
166.3835592
0
ARC
8
DEFAULT_255_1_234
10
6.7425251
20
137.7266915
40
0.3849193
50
166.1100289
51
178.665427
0
ARC
8
DEFAULT_255_1_234
10
6.847284
20
137.7208117
40
0.4897989
50
178.2632126
51
180.0111093
0
ARC
8
DEFAULT_255_1_234
10
6.767096
20
137.7179728
40
0.40962
50
179.6161962
51
191.8787166
0
ARC
8
DEFAULT_255_1_234
10
6.6450799
20
137.6909896
40
0.2846655
50
191.6191692
51
215.2972286
0
ARC
8
DEFAULT_255_1_234
10
6.625399
20
137.6794918
40
0.2619665
50
215.7320102
51
216.5355409
0
ARC
8
DEFAULT_255_1_234
10
6.5715077
20
137.6362647
40
0.1929497
50
215.7486685
51
239.9727502
0
ARC
8
DEFAULT_255_1_234
10
6.5644992
20
137.6311894
40
0.1850822
50
241.0650169
51
269.2810483
0
ARC
8
DEFAULT_255_1_234
10
6.5686907
20
137.6802371
40
0.2342059
50
268.4062526
51
270.0071348
0
LINE
8
DEFAULT_255_1_234
10
4.5670392
20
142.2237
11
4.1614364
21
142.2237
0
LINE
8
DEFAULT_255_1_234
10
4.1614364
20
142.2237
11
4.1614364
21
143.3931211
0
LINE
8
DEFAULT_255_1_234
10
4.1614364
20
143.3931211
11
4.5437471
21
143.3931211
0
LINE
8
DEFAULT_255_1_234
10
4.5726614
20
142.7706614
11
4.3156458
21
142.7706614
0
LINE
8
DEFAULT_255_1_234
10
4.3156458
20
142.7706614
11
4.3156458
21
142.3497983
0
LINE
8
DEFAULT_255_1_234
10
4.3156458
20
142.3497983
11
4.5702519
21
142.3497983
0
LINE
8
DEFAULT_255_1_234
10
4.3156458
20
143.2662196
11
4.3156458
21
142.8943501
0
LINE
8
DEFAULT_255_1_234
10
4.3156458
20
142.8943501
11
4.5485662
21
142.8943501
0
LINE
8
DEFAULT_255_1_234
10
4.5437471
20
143.2662196
11
4.3156458
21
143.2662196
0
ARC
8
DEFAULT_255_1_234
10
4.547518
20
142.6563901
40
0.7367406
50
82.1257326
51
90.2932599
0
ARC
8
DEFAULT_255_1_234
10
4.5864135
20
142.9282013
40
0.4621653
50
69.9044149
51
82.2857423
0
ARC
8
DEFAULT_255_1_234
10
4.6434813
20
143.0824637
40
0.2976871
50
51.1838526
51
70.0181538
0
ARC
8
DEFAULT_255_1_234
10
4.6689779
20
143.119524
40
0.2528517
50
12.1017251
51
50.4214761
0
ARC
8
DEFAULT_255_1_234
10
4.5305653
20
143.0847676
40
0.3955061
50
359.5251267
51
12.8211707
0
ARC
8
DEFAULT_255_1_234
10
4.6885579
20
143.0778344
40
0.2375281
50
323.4908128
51
0.8817314
0
ARC
8
DEFAULT_255_1_234
10
4.6467266
20
143.110155
40
0.2903817
50
298.6825083
51
323.2756573
0
ARC
8
DEFAULT_255_1_234
10
4.6105629
20
143.1702649
40
0.3604842
50
293.1999386
51
299.1396394
0
ARC
8
DEFAULT_255_1_234
10
4.6778602
20
142.5617126
40
0.2871098
50
54.0011765
51
74.9167975
0
ARC
8
DEFAULT_255_1_234
10
4.6894961
20
142.5814332
40
0.2643248
50
36.3580696
51
53.5291921
0
ARC
8
DEFAULT_255_1_234
10
4.6768203
20
142.5723998
40
0.2798884
50
4.8189881
51
36.3089977
0
ARC
8
DEFAULT_255_1_234
10
4.5989038
20
142.561427
40
0.358478
50
359.9370252
51
5.5204067
0
ARC
8
DEFAULT_255_1_234
10
4.566456
20
142.5573667
40
0.3909429
50
344.7478609
51
0.5373281
0
ARC
8
DEFAULT_255_1_234
10
4.6655531
20
142.5306544
40
0.2883093
50
311.1786488
51
344.6886812
0
ARC
8
DEFAULT_255_1_234
10
4.6363578
20
142.5669987
40
0.3348923
50
286.0418249
51
310.8441291
0
ARC
8
DEFAULT_255_1_234
10
4.585641
20
142.7316807
40
0.5071869
50
274.1042341
51
286.4071509
0
ARC
8
DEFAULT_255_1_234
10
4.5679666
20
142.9200229
40
0.6963234
50
269.9236873
51
274.445647
0
ARC
8
DEFAULT_255_1_234
10
4.5725667
20
142.6860537
40
0.3362634
50
269.6055768
51
281.3740047
0
ARC
8
DEFAULT_255_1_234
10
4.5956305
20
142.5767353
40
0.224546
50
281.1055983
51
302.5132223
0
ARC
8
DEFAULT_255_1_234
10
4.6103204
20
142.5503823
40
0.1944357
50
303.0368945
51
311.8811219
0
ARC
8
DEFAULT_255_1_234
10
4.6174611
20
142.541889
40
0.1833454
50
311.9916004
51
351.7143462
0
ARC
8
DEFAULT_255_1_234
10
4.5357841
20
142.558393
40
0.2665871
50
350.7339597
51
0.2221581
0
ARC
8
DEFAULT_255_1_234
10
4.5250287
20
142.5640467
40
0.2773789
50
359.0456241
51
17.2296242
0
ARC
8
DEFAULT_255_1_234
10
4.6289404
20
142.5949163
40
0.1689915
50
17.6685481
51
78.9940892
0
ARC
8
DEFAULT_255_1_234
10
4.5772568
20
142.4094224
40
0.3612658
50
76.5635957
51
90.6980921
0
LINE
8
DEFAULT_255_1_234
10
4.5728552
20
142.7706613
11
4.5726614
21
142.7706614
0
ARC
8
DEFAULT_255_1_234
10
4.5508228
20
143.2229036
40
0.3285612
50
269.6064736
51
281.4533503
0
ARC
8
DEFAULT_255_1_234
10
4.5731048
20
143.1177688
40
0.2210975
50
281.2041486
51
302.5148063
0
ARC
8
DEFAULT_255_1_234
10
4.5867898
20
143.0931241
40
0.1929674
50
303.021671
51
309.8369575
0
ARC
8
DEFAULT_255_1_234
10
4.6051359
20
143.0725488
40
0.1654181
50
309.5228395
51
356.9509836
0
ARC
8
DEFAULT_255_1_234
10
4.5387942
20
143.0820932
40
0.2322512
50
355.4701227
51
0.0492546
0
ARC
8
DEFAULT_255_1_234
10
4.5109033
20
143.0843094
40
0.2601498
50
359.5558597
51
11.2096359
0
ARC
8
DEFAULT_255_1_234
10
4.6066323
20
143.104123
40
0.1623975
50
10.9182341
51
31.3230275
0
ARC
8
DEFAULT_255_1_234
10
4.6352056
20
143.1200214
40
0.1297302
50
31.8852677
51
52.1412565
0
ARC
8
DEFAULT_255_1_234
10
4.6077789
20
143.081275
40
0.1771663
50
52.8285564
51
71.9850297
0
ARC
8
DEFAULT_255_1_234
10
4.5701965
20
142.9706664
40
0.2939794
50
71.6863486
51
82.8455995
0
ARC
8
DEFAULT_255_1_234
10
4.5462501
20
142.7897149
40
0.476506
50
82.6984714
51
90.1729175
0
ARC
8
DEFAULT_255_1_234
10
4.5440136
20
142.9120623
40
0.3541573
50
89.8708275
51
90.0431131
0
LINE
8
DEFAULT_255_1_234
10
5.9131585
20
142.3449792
11
5.9131585
21
142.2237
0
LINE
8
DEFAULT_255_1_234
10
5.9131585
20
142.2237
11
5.1469307
21
142.2237
0
LINE
8
DEFAULT_255_1_234
10
5.1469307
20
142.2237
11
5.1469307
21
142.3305221
0
LINE
8
DEFAULT_255_1_234
10
5.1469307
20
142.3305221
11
5.5517303
21
142.7802995
0
LINE
8
DEFAULT_255_1_234
10
5.273029
20
143.0485595
11
5.1244418
21
143.0485595
0
LINE
8
DEFAULT_255_1_234
10
5.6392762
20
142.6847218
11
5.3260384
21
142.3449792
0
LINE
8
DEFAULT_255_1_234
10
5.3260384
20
142.3449792
11
5.9131585
21
142.3449792
0
ARC
8
DEFAULT_255_1_234
10
4.2027136
20
143.9732527
40
1.8008286
50
318.5132453
51
320.7828378
0
ARC
8
DEFAULT_255_1_234
10
4.731411
20
143.5429426
40
1.1191493
50
320.7372736
51
323.9737074
0
ARC
8
DEFAULT_255_1_234
10
5.1233967
20
143.2589361
40
0.6350923
50
323.8961724
51
328.6421089
0
ARC
8
DEFAULT_255_1_234
10
5.3280562
20
143.1327031
40
0.3946393
50
328.8299013
51
331.789948
0
ARC
8
DEFAULT_255_1_234
10
5.4277741
20
143.0812509
40
0.2824501
50
331.4255242
51
352.9364833
0
ARC
8
DEFAULT_255_1_234
10
5.4414241
20
143.0781976
40
0.2685315
50
353.2248685
51
0.0169286
0
ARC
8
DEFAULT_255_1_234
10
5.4624118
20
143.080495
40
0.2475536
50
359.4866256
51
15.9339782
0
ARC
8
DEFAULT_255_1_234
10
5.5131104
20
143.0941286
40
0.1950618
50
16.1714718
51
43.5284424
0
ARC
8
DEFAULT_255_1_234
10
5.5208412
20
143.1018573
40
0.184134
50
43.4415429
51
83.1661404
0
ARC
8
DEFAULT_255_1_234
10
5.507433
20
143.0281771
40
0.258926
50
82.160215
51
90.1505798
0
ARC
8
DEFAULT_255_1_234
10
5.5042758
20
142.9744865
40
0.3126255
50
89.5460705
51
102.5418777
0
ARC
8
DEFAULT_255_1_234
10
5.4799844
20
143.0775665
40
0.2067346
50
102.1739365
51
129.2061916
0
ARC
8
DEFAULT_255_1_234
10
5.4720916
20
143.0900094
40
0.1921118
50
129.7279328
51
135.7542026
0
ARC
8
DEFAULT_255_1_234
10
5.4842443
20
143.0803045
40
0.2075944
50
136.175737
51
166.3674722
0
ARC
8
DEFAULT_255_1_234
10
5.5849362
20
143.0533182
40
0.3118201
50
165.9092917
51
178.8683903
0
ARC
8
DEFAULT_255_1_234
10
5.6714224
20
143.0486179
40
0.3983935
50
178.438168
51
180.0083905
0
ARC
8
DEFAULT_255_1_234
10
5.5312826
20
143.0525231
40
0.4068601
50
163.2878735
51
180.5581814
0
ARC
8
DEFAULT_255_1_234
10
5.4511087
20
143.074584
40
0.3237344
50
133.454115
51
162.9470031
0
ARC
8
DEFAULT_255_1_234
10
5.4689629
20
143.0556
40
0.349795
50
100.7869394
51
133.4384016
0
ARC
8
DEFAULT_255_1_234
10
5.50374
20
142.9007319
40
0.5084616
50
89.6605301
51
101.3704185
0
ARC
8
DEFAULT_255_1_234
10
5.5103739
20
142.9068496
40
0.502348
50
78.2171172
51
90.4130393
0
ARC
8
DEFAULT_255_1_234
10
5.5458817
20
143.0692637
40
0.3361092
50
55.9268222
51
78.4888551
0
ARC
8
DEFAULT_255_1_234
10
5.5655257
20
143.1031324
40
0.2970617
50
47.9292255
51
55.4054003
0
ARC
8
DEFAULT_255_1_234
10
5.5756818
20
143.1134502
40
0.2825983
50
4.3347696
51
48.0560701
0
ARC
8
DEFAULT_255_1_234
10
5.4661212
20
143.0964601
40
0.393225
50
359.925209
51
5.5967654
0
ARC
8
DEFAULT_255_1_234
10
5.5090103
20
143.1020816
40
0.3503892
50
337.8914096
51
358.9967724
0
ARC
8
DEFAULT_255_1_234
10
5.2376515
20
143.2067706
40
0.6412172
50
326.9135351
51
338.3505194
0
ARC
8
DEFAULT_255_1_234
10
4.8390819
20
143.4622284
40
1.1146189
50
319.6472867
51
327.095818
0
ARC
8
DEFAULT_255_1_234
10
4.4557822
20
143.7784
40
1.6114559
50
317.2586784
51
319.9046139
0
LINE
8
DEFAULT_255_1_234
10
6.8038783
20
142.9152327
11
6.8038783
21
142.7224709
0
LINE
8
DEFAULT_255_1_234
10
6.0657615
20
142.7023916
11
6.0657615
21
142.9007755
0
LINE
8
DEFAULT_255_1_234
10
6.6552911
20
142.6823123
11
6.6552911
21
142.9256739
0
LINE
8
DEFAULT_255_1_234
10
6.2143487
20
142.9369184
11
6.2143487
21
142.6991789
0
ARC
8
DEFAULT_255_1_234
10
5.5791672
20
142.7175805
40
1.2247208
50
353.8441951
51
0.2287902
0
ARC
8
DEFAULT_255_1_234
10
6.0431176
20
142.6657806
40
0.7578929
50
344.4934747
51
353.9765454
0
ARC
8
DEFAULT_255_1_234
10
6.3423766
20
142.5806981
40
0.4467846
50
329.2803592
51
344.7472793
0
ARC
8
DEFAULT_255_1_234
10
6.4416591
20
142.5262018
40
0.3336173
50
324.9352394
51
328.6160465
0
ARC
8
DEFAULT_255_1_234
10
6.47937
20
142.4998427
40
0.2876076
50
280.580143
51
324.9173126
0
ARC
8
DEFAULT_255_1_234
10
6.4392492
20
142.6669099
40
0.4592847
50
269.5977311
51
281.6734359
0
ARC
8
DEFAULT_255_1_234
10
6.4320398
20
142.6549173
40
0.4472986
50
256.6228859
51
270.51044
0
ARC
8
DEFAULT_255_1_234
10
6.3918376
20
142.5000877
40
0.2873874
50
215.8618325
51
257.2788573
0
ARC
8
DEFAULT_255_1_234
10
6.4939407
20
142.5685977
40
0.4102928
50
197.9693508
51
215.2623606
0
ARC
8
DEFAULT_255_1_234
10
6.7424523
20
142.6524709
40
0.6725652
50
187.8816417
51
198.2346507
0
ARC
8
DEFAULT_255_1_234
10
7.1382731
20
142.7096079
40
1.0724845
50
180.8976217
51
188.0055519
0
ARC
8
DEFAULT_255_1_234
10
7.4182919
20
142.7199777
40
1.3526448
50
180.7449369
51
181.1510016
0
ARC
8
DEFAULT_255_1_234
10
7.2605648
20
142.9056042
40
1.1948131
50
173.7675579
51
180.231553
0
ARC
8
DEFAULT_255_1_234
10
6.8087795
20
142.9566666
40
0.7401564
50
164.3058563
51
173.9002247
0
ARC
8
DEFAULT_255_1_234
10
6.5175864
20
143.0405656
40
0.4371288
50
148.7922025
51
164.568378
0
ARC
8
DEFAULT_255_1_234
10
6.4224316
20
143.0936929
40
0.3282386
50
144.5883898
51
148.1176286
0
ARC
8
DEFAULT_255_1_234
10
6.3881214
20
143.1176315
40
0.2864044
50
101.6440918
51
144.514236
0
ARC
8
DEFAULT_255_1_234
10
6.4306281
20
142.9487069
40
0.4604934
50
89.5284041
51
102.5819763
0
ARC
8
DEFAULT_255_1_234
10
6.4385368
20
142.9448018
40
0.464401
50
77.0437873
51
90.5081339
0
ARC
8
DEFAULT_255_1_234
10
6.478737
20
143.1090615
40
0.2953195
50
48.2778575
51
77.4994676
0
ARC
8
DEFAULT_255_1_234
10
6.4860002
20
143.1219746
40
0.2808655
50
36.3142134
51
47.6305865
0
ARC
8
DEFAULT_255_1_234
10
6.3991309
20
143.0634515
40
0.3855453
50
18.2931786
51
35.6769206
0
ARC
8
DEFAULT_255_1_234
10
6.1448067
20
142.9761593
40
0.654423
50
8.024666
51
18.5605216
0
ARC
8
DEFAULT_255_1_234
10
5.7284987
20
142.9146792
40
1.0752407
50
1.1274072
51
8.1718305
0
ARC
8
DEFAULT_255_1_234
10
5.4049178
20
142.9019885
40
1.3990231
50
0.5424119
51
1.3863029
0
ARC
8
DEFAULT_255_1_234
10
5.5870556
20
142.9292342
40
1.0682415
50
359.8090433
51
4.9407866
0
ARC
8
DEFAULT_255_1_234
10
6.008057
20
142.9668113
40
0.6455691
50
4.8362157
51
12.2904523
0
ARC
8
DEFAULT_255_1_234
10
6.2835685
20
143.0281965
40
0.3633074
50
12.0805627
51
23.8173984
0
ARC
8
DEFAULT_255_1_234
10
6.400939
20
143.0778919
40
0.2358723
50
24.2871213
51
31.3935614
0
ARC
8
DEFAULT_255_1_234
10
6.4534087
20
143.1122233
40
0.1732111
50
30.7407893
51
82.4657128
0
ARC
8
DEFAULT_255_1_234
10
6.4354221
20
143.0238691
40
0.263235
50
81.1060089
51
90.2184952
0
ARC
8
DEFAULT_255_1_234
10
6.431852
20
143.0496924
40
0.2374236
50
89.3806855
51
105.6762551
0
ARC
8
DEFAULT_255_1_234
10
6.4135151
20
143.1163567
40
0.1682847
50
105.7981136
51
149.7388061
0
ARC
8
DEFAULT_255_1_234
10
6.5199229
20
143.052395
40
0.2924306
50
149.4208916
51
163.6286378
0
ARC
8
DEFAULT_255_1_234
10
6.7290117
20
142.988625
40
0.5110213
50
163.3763315
51
172.1410975
0
ARC
8
DEFAULT_255_1_234
10
7.0590836
20
142.9413518
40
0.8444586
50
172.0259487
51
178.0703232
0
ARC
8
DEFAULT_255_1_234
10
7.3620926
20
142.9269906
40
1.1477868
50
177.8631668
51
179.5044149
0
ARC
8
DEFAULT_255_1_234
10
7.254833
20
142.6955389
40
1.0404907
50
179.7995573
51
185.2460446
0
ARC
8
DEFAULT_255_1_234
10
6.850537
20
142.6572513
40
0.6343885
50
185.1411642
51
193.0079639
0
ARC
8
DEFAULT_255_1_234
10
6.5861842
20
142.5947641
40
0.3627568
50
192.7897626
51
205.2507664
0
ARC
8
DEFAULT_255_1_234
10
6.4815389
20
142.5480415
40
0.2481908
50
205.8005384
51
211.2537509
0
ARC
8
DEFAULT_255_1_234
10
6.429183
20
142.512958
40
0.1852521
50
210.3789793
51
238.4008143
0
ARC
8
DEFAULT_255_1_234
10
6.4272351
20
142.5176376
40
0.1882621
50
239.6520629
51
265.9793761
0
ARC
8
DEFAULT_255_1_234
10
6.4357552
20
142.5848427
40
0.2559272
50
265.1315437
51
270.060332
0
ARC
8
DEFAULT_255_1_234
10
6.438633
20
142.5524534
40
0.2235528
50
269.3314664
51
287.2178029
0
ARC
8
DEFAULT_255_1_234
10
6.4524182
20
142.5021279
40
0.1714108
50
287.7958004
51
329.080874
0
ARC
8
DEFAULT_255_1_234
10
6.3566639
20
142.561893
40
0.2842745
50
328.6634704
51
343.3325132
0
ARC
8
DEFAULT_255_1_234
10
6.1393659
20
142.6295863
40
0.5118644
50
343.0499468
51
351.9393422
0
ARC
8
DEFAULT_255_1_234
10
5.7926959
20
142.6806949
40
0.8622784
50
351.8069023
51
357.7959224
0
ARC
8
DEFAULT_255_1_234
10
5.4691515
20
142.6974721
40
1.1862365
50
357.5871873
51
359.2677531
0
LINE
8
DEFAULT_255_1_234
10
5.0274293
20
147.5154
11
4.9157881
21
147.8206061
0
LINE
8
DEFAULT_255_1_234
10
4.9157881
20
147.8206061
11
4.4258521
21
147.8206061
0
LINE
8
DEFAULT_255_1_234
10
4.4258521
20
147.8206061
11
4.3158173
21
147.5154
0
LINE
8
DEFAULT_255_1_234
10
4.3158173
20
147.5154
11
4.1567889
21
147.5154
0
LINE
8
DEFAULT_255_1_234
10
4.1567889
20
147.5154
11
4.6033535
21
148.6848211
0
LINE
8
DEFAULT_255_1_234
10
4.6033535
20
148.6848211
11
4.7382867
21
148.6848211
0
LINE
8
DEFAULT_255_1_234
10
4.7382867
20
148.6848211
11
5.1856545
21
147.5154
0
LINE
8
DEFAULT_255_1_234
10
5.1856545
20
147.5154
11
5.0274293
21
147.5154
0
LINE
8
DEFAULT_255_1_234
10
4.6708201
20
148.4944689
11
4.4724362
21
147.9475075
0
LINE
8
DEFAULT_255_1_234
10
4.4724362
20
147.9475075
11
4.8700072
21
147.9475075
0
LINE
8
DEFAULT_255_1_234
10
4.8700072
20
147.9475075
11
4.6708201
21
148.4944689
0
LINE
8
DEFAULT_255_1_234
10
6.0707521
20
147.6366792
11
6.0707521
21
147.5154
0
LINE
8
DEFAULT_255_1_234
10
6.0707521
20
147.5154
11
5.3045243
21
147.5154
0
LINE
8
DEFAULT_255_1_234
10
5.3045243
20
147.5154
11
5.3045243
21
147.6222221
0
LINE
8
DEFAULT_255_1_234
10
5.3045243
20
147.6222221
11
5.7093239
21
148.0719995
0
LINE
8
DEFAULT_255_1_234
10
5.4306226
20
148.3402595
11
5.2820354
21
148.3402595
0
LINE
8
DEFAULT_255_1_234
10
5.7968698
20
147.9764218
11
5.483632
21
147.6366792
0
LINE
8
DEFAULT_255_1_234
10
5.483632
20
147.6366792
11
6.0707521
21
147.6366792
0
ARC
8
DEFAULT_255_1_234
10
4.3603072
20
149.2649527
40
1.8008286
50
318.5132453
51
320.7828378
0
ARC
8
DEFAULT_255_1_234
10
4.8890047
20
148.8346426
40
1.1191493
50
320.7372736
51
323.9737074
0
ARC
8
DEFAULT_255_1_234
10
5.2809903
20
148.5506361
40
0.6350923
50
323.8961724
51
328.6421089
0
ARC
8
DEFAULT_255_1_234
10
5.4856498
20
148.4244031
40
0.3946393
50
328.8299013
51
331.789948
0
ARC
8
DEFAULT_255_1_234
10
5.5853677
20
148.3729509
40
0.2824501
50
331.4255242
51
352.9364833
0
ARC
8
DEFAULT_255_1_234
10
5.5990177
20
148.3698976
40
0.2685315
50
353.2248685
51
0.0169286
0
ARC
8
DEFAULT_255_1_234
10
5.6200054
20
148.372195
40
0.2475536
50
359.4866256
51
15.9339782
0
ARC
8
DEFAULT_255_1_234
10
5.670704
20
148.3858286
40
0.1950618
50
16.1714718
51
43.5284424
0
ARC
8
DEFAULT_255_1_234
10
5.6784348
20
148.3935573
40
0.184134
50
43.4415429
51
83.1661404
0
ARC
8
DEFAULT_255_1_234
10
5.6650266
20
148.3198771
40
0.258926
50
82.160215
51
90.1505798
0
ARC
8
DEFAULT_255_1_234
10
5.6618694
20
148.2661865
40
0.3126255
50
89.5460705
51
102.5418777
0
ARC
8
DEFAULT_255_1_234
10
5.637578
20
148.3692665
40
0.2067346
50
102.1739365
51
129.2061916
0
ARC
8
DEFAULT_255_1_234
10
5.6296852
20
148.3817094
40
0.1921118
50
129.7279328
51
135.7542026
0
ARC
8
DEFAULT_255_1_234
10
5.6418379
20
148.3720045
40
0.2075944
50
136.175737
51
166.3674722
0
ARC
8
DEFAULT_255_1_234
10
5.7425298
20
148.3450182
40
0.3118201
50
165.9092917
51
178.8683903
0
ARC
8
DEFAULT_255_1_234
10
5.829016
20
148.3403179
40
0.3983935
50
178.438168
51
180.0083905
0
ARC
8
DEFAULT_255_1_234
10
5.6888762
20
148.3442231
40
0.4068601
50
163.2878735
51
180.5581814
0
ARC
8
DEFAULT_255_1_234
10
5.6087023
20
148.366284
40
0.3237344
50
133.454115
51
162.9470031
0
ARC
8
DEFAULT_255_1_234
10
5.6265565
20
148.3473
40
0.349795
50
100.7869394
51
133.4384016
0
ARC
8
DEFAULT_255_1_234
10
5.6613336
20
148.1924319
40
0.5084616
50
89.6605301
51
101.3704185
0
ARC
8
DEFAULT_255_1_234
10
5.6679675
20
148.1985496
40
0.502348
50
78.2171172
51
90.4130393
0
ARC
8
DEFAULT_255_1_234
10
5.7034753
20
148.3609637
40
0.3361092
50
55.9268222
51
78.4888551
0
ARC
8
DEFAULT_255_1_234
10
5.7231193
20
148.3948324
40
0.2970617
50
47.9292255
51
55.4054003
0
ARC
8
DEFAULT_255_1_234
10
5.7332754
20
148.4051502
40
0.2825983
50
4.3347696
51
48.0560701
0
ARC
8
DEFAULT_255_1_234
10
5.6237148
20
148.3881601
40
0.393225
50
359.925209
51
5.5967654
0
ARC
8
DEFAULT_255_1_234
10
5.6666039
20
148.3937816
40
0.3503892
50
337.8914096
51
358.9967724
0
ARC
8
DEFAULT_255_1_234
10
5.3952451
20
148.4984706
40
0.6412172
50
326.9135351
51
338.3505194
0
ARC
8
DEFAULT_255_1_234
10
4.9966755
20
148.7539284
40
1.1146189
50
319.6472867
51
327.095818
0
ARC
8
DEFAULT_255_1_234
10
4.6133758
20
149.0701
40
1.6114559
50
317.2586784
51
319.9046139
0
LINE
8
DEFAULT_255_1_234
10
6.9614719
20
148.2069327
11
6.9614719
21
148.0141709
0
LINE
8
DEFAULT_255_1_234
10
6.2233551
20
147.9940916
11
6.2233551
21
148.1924755
0
LINE
8
DEFAULT_255_1_234
10
6.8128847
20
147.9740123
11
6.8128847
21
148.2173739
0
LINE
8
DEFAULT_255_1_234
10
6.3719423
20
148.2286184
11
6.3719423
21
147.9908789
0
ARC
8
DEFAULT_255_1_234
10
5.7367608
20
148.0092805
40
1.2247208
50
353.8441951
51
0.2287902
0
ARC
8
DEFAULT_255_1_234
10
6.2007112
20
147.9574806
40
0.7578929
50
344.4934747
51
353.9765454
0
ARC
8
DEFAULT_255_1_234
10
6.4999702
20
147.8723981
40
0.4467846
50
329.2803592
51
344.7472793
0
ARC
8
DEFAULT_255_1_234
10
6.5992527
20
147.8179018
40
0.3336173
50
324.9352394
51
328.6160465
0
ARC
8
DEFAULT_255_1_234
10
6.6369636
20
147.7915427
40
0.2876076
50
280.580143
51
324.9173126
0
ARC
8
DEFAULT_255_1_234
10
6.5968428
20
147.9586099
40
0.4592847
50
269.5977311
51
281.6734359
0
ARC
8
DEFAULT_255_1_234
10
6.5896334
20
147.9466173
40
0.4472986
50
256.6228859
51
270.51044
0
ARC
8
DEFAULT_255_1_234
10
6.5494312
20
147.7917877
40
0.2873874
50
215.8618325
51
257.2788573
0
ARC
8
DEFAULT_255_1_234
10
6.6515343
20
147.8602977
40
0.4102928
50
197.9693508
51
215.2623606
0
ARC
8
DEFAULT_255_1_234
10
6.9000459
20
147.9441709
40
0.6725652
50
187.8816417
51
198.2346507
0
ARC
8
DEFAULT_255_1_234
10
7.2958667
20
148.0013079
40
1.0724845
50
180.8976217
51
188.0055519
0
ARC
8
DEFAULT_255_1_234
10
7.5758855
20
148.0116777
40
1.3526448
50
180.7449369
51
181.1510016
0
ARC
8
DEFAULT_255_1_234
10
7.4181584
20
148.1973042
40
1.1948131
50
173.7675579
51
180.231553
0
ARC
8
DEFAULT_255_1_234
10
6.9663731
20
148.2483666
40
0.7401564
50
164.3058563
51
173.9002247
0
ARC
8
DEFAULT_255_1_234
10
6.67518
20
148.3322656
40
0.4371288
50
148.7922025
51
164.568378
0
ARC
8
DEFAULT_255_1_234
10
6.5800252
20
148.3853929
40
0.3282386
50
144.5883898
51
148.1176286
0
ARC
8
DEFAULT_255_1_234
10
6.545715
20
148.4093315
40
0.2864044
50
101.6440918
51
144.514236
0
ARC
8
DEFAULT_255_1_234
10
6.5882217
20
148.2404069
40
0.4604934
50
89.5284041
51
102.5819763
0
ARC
8
DEFAULT_255_1_234
10
6.5961305
20
148.2365018
40
0.464401
50
77.0437873
51
90.5081339
0
ARC
8
DEFAULT_255_1_234
10
6.6363306
20
148.4007615
40
0.2953195
50
48.2778575
51
77.4994676
0
ARC
8
DEFAULT_255_1_234
10
6.6435938
20
148.4136746
40
0.2808655
50
36.3142134
51
47.6305865
0
ARC
8
DEFAULT_255_1_234
10
6.5567245
20
148.3551515
40
0.3855453
50
18.2931786
51
35.6769206
0
ARC
8
DEFAULT_255_1_234
10
6.3024003
20
148.2678593
40
0.654423
50
8.024666
51
18.5605216
0
ARC
8
DEFAULT_255_1_234
10
5.8860923
20
148.2063792
40
1.0752407
50
1.1274072
51
8.1718305
0
ARC
8
DEFAULT_255_1_234
10
5.5625114
20
148.1936885
40
1.3990231
50
0.5424119
51
1.3863029
0
ARC
8
DEFAULT_255_1_234
10
5.7446492
20
148.2209342
40
1.0682415
50
359.8090433
51
4.9407866
0
ARC
8
DEFAULT_255_1_234
10
6.1656506
20
148.2585113
40
0.6455691
50
4.8362157
51
12.2904523
0
ARC
8
DEFAULT_255_1_234
10
6.4411621
20
148.3198965
40
0.3633074
50
12.0805627
51
23.8173984
0
ARC
8
DEFAULT_255_1_234
10
6.5585326
20
148.3695919
40
0.2358723
50
24.2871213
51
31.3935614
0
ARC
8
DEFAULT_255_1_234
10
6.6110023
20
148.4039233
40
0.1732111
50
30.7407893
51
82.4657128
0
ARC
8
DEFAULT_255_1_234
10
6.5930157
20
148.3155691
40
0.263235
50
81.1060089
51
90.2184952
0
ARC
8
DEFAULT_255_1_234
10
6.5894456
20
148.3413924
40
0.2374236
50
89.3806855
51
105.6762551
0
ARC
8
DEFAULT_255_1_234
10
6.5711087
20
148.4080567
40
0.1682847
50
105.7981136
51
149.7388061
0
ARC
8
DEFAULT_255_1_234
10
6.6775165
20
148.344095
40
0.2924306
50
149.4208916
51
163.6286378
0
ARC
8
DEFAULT_255_1_234
10
6.8866053
20
148.280325
40
0.5110213
50
163.3763315
51
172.1410975
0
ARC
8
DEFAULT_255_1_234
10
7.2166772
20
148.2330518
40
0.8444586
50
172.0259487
51
178.0703232
0
ARC
8
DEFAULT_255_1_234
10
7.5196862
20
148.2186906
40
1.1477868
50
177.8631668
51
179.5044149
0
ARC
8
DEFAULT_255_1_234
10
7.4124266
20
147.9872389
40
1.0404907
50
179.7995573
51
185.2460446
0
ARC
8
DEFAULT_255_1_234
10
7.0081306
20
147.9489513
40
0.6343885
50
185.1411642
51
193.0079639
0
ARC
8
DEFAULT_255_1_234
10
6.7437778
20
147.8864641
40
0.3627568
50
192.7897626
51
205.2507664
0
ARC
8
DEFAULT_255_1_234
10
6.6391325
20
147.8397415
40
0.2481908
50
205.8005384
51
211.2537509
0
ARC
8
DEFAULT_255_1_234
10
6.5867766
20
147.804658
40
0.1852521
50
210.3789793
51
238.4008143
0
ARC
8
DEFAULT_255_1_234
10
6.5848287
20
147.8093376
40
0.1882621
50
239.6520629
51
265.9793761
0
ARC
8
DEFAULT_255_1_234
10
6.5933488
20
147.8765427
40
0.2559272
50
265.1315437
51
270.060332
0
ARC
8
DEFAULT_255_1_234
10
6.5962266
20
147.8441534
40
0.2235528
50
269.3314664
51
287.2178029
0
ARC
8
DEFAULT_255_1_234
10
6.6100118
20
147.7938279
40
0.1714108
50
287.7958004
51
329.080874
0
ARC
8
DEFAULT_255_1_234
10
6.5142575
20
147.853593
40
0.2842745
50
328.6634704
51
343.3325132
0
ARC
8
DEFAULT_255_1_234
10
6.2969595
20
147.9212863
40
0.5118644
50
343.0499468
51
351.9393422
0
ARC
8
DEFAULT_255_1_234
10
5.9502895
20
147.9723949
40
0.8622784
50
351.8069023
51
357.7959224
0
ARC
8
DEFAULT_255_1_234
10
5.6267451
20
147.9891721
40
1.1862365
50
357.5871873
51
359.2677531
0
LINE
8
DEFAULT_255_1_234
10
4.2885235
20
153.3627963
11
4.1696538
21
153.3933169
0
LINE
8
DEFAULT_255_1_234
10
4.1696538
20
153.3933169
11
4.2290887
21
153.9764211
0
LINE
8
DEFAULT_255_1_234
10
4.2290887
20
153.9764211
11
4.8282563
21
153.9764211
0
LINE
8
DEFAULT_255_1_234
10
4.8282563
20
153.9764211
11
4.8282563
21
153.8390784
0
LINE
8
DEFAULT_255_1_234
10
4.8282563
20
153.8390784
11
4.355187
21
153.8390784
0
LINE
8
DEFAULT_255_1_234
10
4.355187
20
153.8390784
11
4.3198473
21
153.5202184
0
LINE
8
DEFAULT_255_1_234
10
4.1278888
20
153.1146156
11
4.2684442
21
153.1146156
0
LINE
8
DEFAULT_255_1_234
10
4.3278791
20
153.3949232
11
4.2885235
21
153.3627963
0
ARC
8
DEFAULT_255_1_234
10
4.5053257
20
153.202223
40
0.3681349
50
93.7182161
51
120.2538958
0
ARC
8
DEFAULT_255_1_234
10
4.514752
20
153.1214394
40
0.449379
50
89.9660152
51
94.2496022
0
ARC
8
DEFAULT_255_1_234
10
4.5188254
20
153.1803549
40
0.390482
50
73.8043271
51
90.5585896
0
ARC
8
DEFAULT_255_1_234
10
4.5423151
20
153.2661602
40
0.3015334
50
41.3071453
51
73.5430202
0
ARC
8
DEFAULT_255_1_234
10
4.5006978
20
153.2303324
40
0.3564457
50
13.5075983
51
41.2174222
0
ARC
8
DEFAULT_255_1_234
10
4.3365182
20
153.1873486
40
0.5261351
50
1.1331335
51
13.8829381
0
ARC
8
DEFAULT_255_1_234
10
4.1953551
20
153.1797665
40
0.6674378
50
359.9919444
51
1.544251
0
ARC
8
DEFAULT_255_1_234
10
4.3230377
20
153.175628
40
0.5397702
50
347.8572367
51
0.4293338
0
ARC
8
DEFAULT_255_1_234
10
4.4980695
20
153.1359736
40
0.3603188
50
323.673004
51
348.1672506
0
ARC
8
DEFAULT_255_1_234
10
4.5275203
20
153.1180168
40
0.3259678
50
316.8171152
51
323.1492751
0
ARC
8
DEFAULT_255_1_234
10
4.5336392
20
153.114346
40
0.3189975
50
281.8396411
51
316.5457803
0
ARC
8
DEFAULT_255_1_234
10
4.4960656
20
153.2698762
40
0.4789527
50
269.5770101
51
282.4214771
0
ARC
8
DEFAULT_255_1_234
10
4.4889467
20
153.2485125
40
0.45759
50
256.2427136
51
270.4486331
0
ARC
8
DEFAULT_255_1_234
10
4.459037
20
153.1285229
40
0.3339303
50
228.9023911
51
256.3314342
0
ARC
8
DEFAULT_255_1_234
10
4.4516602
20
153.1168746
40
0.32031
50
193.753695
51
228.5271154
0
ARC
8
DEFAULT_255_1_234
10
4.5754556
20
153.15318
40
0.4492253
50
184.924711
51
194.497588
0
ARC
8
DEFAULT_255_1_234
10
4.5947123
20
153.1567591
40
0.3289787
50
187.3600538
51
198.6732863
0
ARC
8
DEFAULT_255_1_234
10
4.4897417
20
153.1203674
40
0.217884
50
198.4451669
51
217.794479
0
ARC
8
DEFAULT_255_1_234
10
4.4601592
20
153.0994085
40
0.1816698
50
218.2887171
51
228.5612368
0
ARC
8
DEFAULT_255_1_234
10
4.4699379
20
153.1125963
40
0.1980329
50
228.9654866
51
258.1234728
0
ARC
8
DEFAULT_255_1_234
10
4.4905089
20
153.2006833
40
0.2884748
50
257.7258293
51
270.401361
0
ARC
8
DEFAULT_255_1_234
10
4.4949975
20
153.1561821
40
0.2439788
50
269.4204404
51
286.4209037
0
ARC
8
DEFAULT_255_1_234
10
4.5098463
20
153.1022657
40
0.1880666
50
286.7251356
51
320.600362
0
ARC
8
DEFAULT_255_1_234
10
4.4715288
20
153.1333595
40
0.2374121
50
320.6712579
51
344.5441685
0
ARC
8
DEFAULT_255_1_234
10
4.3558614
20
153.1673045
40
0.3579479
50
344.2412205
51
356.7357071
0
ARC
8
DEFAULT_255_1_234
10
4.2309763
20
153.1776444
40
0.4832297
50
356.3548756
51
0.0500261
0
ARC
8
DEFAULT_255_1_234
10
4.3646272
20
153.180765
40
0.3495889
50
359.5576869
51
12.953486
0
ARC
8
DEFAULT_255_1_234
10
4.4701169
20
153.2063434
40
0.2410532
50
12.6490276
51
41.6081334
0
ARC
8
DEFAULT_255_1_234
10
4.493154
20
153.2259321
40
0.2108218
50
41.7850273
51
85.9892764
0
ARC
8
DEFAULT_255_1_234
10
4.4808277
20
153.1446462
40
0.2928454
50
84.6957577
51
90.0676183
0
ARC
8
DEFAULT_255_1_234
10
4.4784761
20
153.0777716
40
0.3597255
50
89.6804936
51
99.1614436
0
ARC
8
DEFAULT_255_1_234
10
4.4579392
20
153.2005131
40
0.235281
50
98.9830931
51
113.8908934
0
ARC
8
DEFAULT_255_1_234
10
4.4349802
20
153.2546587
40
0.176479
50
114.1950727
51
127.3641004
0
LINE
8
DEFAULT_255_1_234
10
5.1182021
20
153.9764211
11
5.4507161
21
153.0118093
0
LINE
8
DEFAULT_255_1_234
10
5.4507161
20
153.0118093
11
5.7848364
21
153.9764211
0
LINE
8
DEFAULT_255_1_234
10
5.7848364
20
153.9764211
11
5.9535029
21
153.9764211
0
LINE
8
DEFAULT_255_1_234
10
5.9535029
20
153.9764211
11
5.519789
21
152.807
0
LINE
8
DEFAULT_255_1_234
10
5.519789
20
152.807
11
5.3832495
21
152.807
0
LINE
8
DEFAULT_255_1_234
10
5.3832495
20
152.807
11
4.9503388
21
153.9764211
0
LINE
8
DEFAULT_255_1_234
10
4.9503388
20
153.9764211
11
5.1182021
21
153.9764211
0
LINE
8
DEFAULT_255_1_234
10
4.6495137
20
159.2737433
11
4.6495137
21
158.0987
0
LINE
8
DEFAULT_255_1_234
10
4.6495137
20
158.0987
11
4.5001234
21
158.0987
0
LINE
8
DEFAULT_255_1_234
10
4.5001234
20
158.0987
11
4.5001234
21
159.0890133
0
LINE
8
DEFAULT_255_1_234
10
4.5001234
20
159.0890133
11
4.2005396
21
158.9789785
0
LINE
8
DEFAULT_255_1_234
10
4.2005396
20
158.9789785
11
4.2005396
21
159.1139117
0
LINE
8
DEFAULT_255_1_234
10
4.2005396
20
159.1139117
11
4.6262217
21
159.2737433
0
LINE
8
DEFAULT_255_1_234
10
4.6262217
20
159.2737433
11
4.6495137
21
159.2737433
0
LINE
8
DEFAULT_255_1_234
10
5.8510618
20
158.2199792
11
5.8510618
21
158.0987
0
LINE
8
DEFAULT_255_1_234
10
5.8510618
20
158.0987
11
5.0848339
21
158.0987
0
LINE
8
DEFAULT_255_1_234
10
5.0848339
20
158.0987
11
5.0848339
21
158.2055221
0
LINE
8
DEFAULT_255_1_234
10
5.0848339
20
158.2055221
11
5.4896335
21
158.6552995
0
LINE
8
DEFAULT_255_1_234
10
5.2109322
20
158.9235595
11
5.0623451
21
158.9235595
0
LINE
8
DEFAULT_255_1_234
10
5.5771795
20
158.5597218
11
5.2639417
21
158.2199792
0
LINE
8
DEFAULT_255_1_234
10
5.2639417
20
158.2199792
11
5.8510618
21
158.2199792
0
ARC
8
DEFAULT_255_1_234
10
4.1406169
20
159.8482527
40
1.8008286
50
318.5132453
51
320.7828378
0
ARC
8
DEFAULT_255_1_234
10
4.6693143
20
159.4179426
40
1.1191493
50
320.7372736
51
323.9737074
0
ARC
8
DEFAULT_255_1_234
10
5.0613
20
159.1339361
40
0.6350923
50
323.8961724
51
328.6421089
0
ARC
8
DEFAULT_255_1_234
10
5.2659595
20
159.0077031
40
0.3946393
50
328.8299013
51
331.789948
0
ARC
8
DEFAULT_255_1_234
10
5.3656774
20
158.9562509
40
0.2824501
50
331.4255242
51
352.9364833
0
ARC
8
DEFAULT_255_1_234
10
5.3793274
20
158.9531976
40
0.2685315
50
353.2248685
51
0.0169286
0
ARC
8
DEFAULT_255_1_234
10
5.4003151
20
158.955495
40
0.2475536
50
359.4866256
51
15.9339782
0
ARC
8
DEFAULT_255_1_234
10
5.4510136
20
158.9691286
40
0.1950618
50
16.1714718
51
43.5284424
0
ARC
8
DEFAULT_255_1_234
10
5.4587445
20
158.9768573
40
0.184134
50
43.4415429
51
83.1661404
0
ARC
8
DEFAULT_255_1_234
10
5.4453363
20
158.9031771
40
0.258926
50
82.160215
51
90.1505798
0
ARC
8
DEFAULT_255_1_234
10
5.442179
20
158.8494865
40
0.3126255
50
89.5460705
51
102.5418777
0
ARC
8
DEFAULT_255_1_234
10
5.4178876
20
158.9525665
40
0.2067346
50
102.1739365
51
129.2061916
0
ARC
8
DEFAULT_255_1_234
10
5.4099948
20
158.9650094
40
0.1921118
50
129.7279328
51
135.7542026
0
ARC
8
DEFAULT_255_1_234
10
5.4221476
20
158.9553045
40
0.2075944
50
136.175737
51
166.3674722
0
ARC
8
DEFAULT_255_1_234
10
5.5228395
20
158.9283182
40
0.3118201
50
165.9092917
51
178.8683903
0
ARC
8
DEFAULT_255_1_234
10
5.6093256
20
158.9236179
40
0.3983935
50
178.438168
51
180.0083905
0
ARC
8
DEFAULT_255_1_234
10
5.4691859
20
158.9275231
40
0.4068601
50
163.2878735
51
180.5581814
0
ARC
8
DEFAULT_255_1_234
10
5.389012
20
158.949584
40
0.3237344
50
133.454115
51
162.9470031
0
ARC
8
DEFAULT_255_1_234
10
5.4068661
20
158.9306
40
0.349795
50
100.7869394
51
133.4384016
0
ARC
8
DEFAULT_255_1_234
10
5.4416433
20
158.7757319
40
0.5084616
50
89.6605301
51
101.3704185
0
ARC
8
DEFAULT_255_1_234
10
5.4482772
20
158.7818496
40
0.502348
50
78.2171172
51
90.4130393
0
ARC
8
DEFAULT_255_1_234
10
5.483785
20
158.9442637
40
0.3361092
50
55.9268222
51
78.4888551
0
ARC
8
DEFAULT_255_1_234
10
5.503429
20
158.9781324
40
0.2970617
50
47.9292255
51
55.4054003
0
ARC
8
DEFAULT_255_1_234
10
5.5135851
20
158.9884502
40
0.2825983
50
4.3347696
51
48.0560701
0
ARC
8
DEFAULT_255_1_234
10
5.4040244
20
158.9714601
40
0.393225
50
359.925209
51
5.5967654
0
ARC
8
DEFAULT_255_1_234
10
5.4469136
20
158.9770816
40
0.3503892
50
337.8914096
51
358.9967724
0
ARC
8
DEFAULT_255_1_234
10
5.1755548
20
159.0817706
40
0.6412172
50
326.9135351
51
338.3505194
0
ARC
8
DEFAULT_255_1_234
10
4.7769852
20
159.3372284
40
1.1146189
50
319.6472867
51
327.095818
0
ARC
8
DEFAULT_255_1_234
10
4.3936855
20
159.6534
40
1.6114559
50
317.2586784
51
319.9046139
0
LINE
8
DEFAULT_255_1_234
10
6.101652
20
159.2681211
11
6.434166
21
158.3035093
0
LINE
8
DEFAULT_255_1_234
10
6.434166
20
158.3035093
11
6.7682863
21
159.2681211
0
LINE
8
DEFAULT_255_1_234
10
6.7682863
20
159.2681211
11
6.9369528
21
159.2681211
0
LINE
8
DEFAULT_255_1_234
10
6.9369528
20
159.2681211
11
6.5032389
21
158.0987
0
LINE
8
DEFAULT_255_1_234
10
6.5032389
20
158.0987
11
6.3666994
21
158.0987
0
LINE
8
DEFAULT_255_1_234
10
6.3666994
20
158.0987
11
5.9337887
21
159.2681211
0
LINE
8
DEFAULT_255_1_234
10
5.9337887
20
159.2681211
11
6.101652
21
159.2681211
0
LINE
8
DEFAULT_255_1_234
10
21.8620482
20
163.972701
11
21.8620482
21
163.5438062
0
LINE
8
DEFAULT_255_1_234
10
20.9608872
20
163.9188884
11
20.9608872
21
164.0208915
0
LINE
8
DEFAULT_255_1_234
10
21.8620482
20
164.2168659
11
21.7078389
21
164.2168659
0
LINE
8
DEFAULT_255_1_234
10
21.1158998
20
164.0249073
11
21.1158998
21
163.9293296
0
LINE
8
DEFAULT_255_1_234
10
21.708642
20
163.5847681
11
21.708642
21
163.8474059
0
LINE
8
DEFAULT_255_1_234
10
21.708642
20
163.8474059
11
21.4379725
21
163.8474059
0
LINE
8
DEFAULT_255_1_234
10
21.4379725
20
163.8474059
11
21.4379725
21
163.972701
0
LINE
8
DEFAULT_255_1_234
10
21.4379725
20
163.972701
11
21.8620482
21
163.972701
0
ARC
8
DEFAULT_255_1_234
10
21.5788989
20
163.7431396
40
0.3462765
50
295.8437914
51
324.8549609
0
ARC
8
DEFAULT_255_1_234
10
21.5372956
20
163.8184567
40
0.4322211
50
291.5695085
51
296.4549398
0
ARC
8
DEFAULT_255_1_234
10
21.4862207
20
163.9549275
40
0.5779178
50
278.6622409
51
291.3045483
0
ARC
8
DEFAULT_255_1_234
10
21.4522699
20
164.1697408
40
0.7953952
50
270.020006
51
278.7494541
0
ARC
8
DEFAULT_255_1_234
10
21.4484623
20
164.3014036
40
0.927067
50
269.9969998
51
270.2524872
0
ARC
8
DEFAULT_255_1_234
10
21.4446336
20
163.8930589
40
0.5187361
50
253.5786322
51
270.4175299
0
ARC
8
DEFAULT_255_1_234
10
21.4272992
20
163.8259236
40
0.4494451
50
238.8203306
51
253.2788235
0
ARC
8
DEFAULT_255_1_234
10
21.4253365
20
163.8208231
40
0.4440665
50
206.7883783
51
238.6962764
0
ARC
8
DEFAULT_255_1_234
10
21.5027275
20
163.8672405
40
0.5341121
50
206.1129412
51
207.4916643
0
ARC
8
DEFAULT_255_1_234
10
21.562419
20
163.8926488
40
0.5989041
50
188.6921119
51
205.7821245
0
ARC
8
DEFAULT_255_1_234
10
21.7480552
20
163.924223
40
0.7871862
50
180.3882829
51
188.9219216
0
ARC
8
DEFAULT_255_1_234
10
21.8708366
20
164.0265464
40
0.909967
50
170.2024264
51
180.3560651
0
ARC
8
DEFAULT_255_1_234
10
21.5544884
20
164.0831237
40
0.5886083
50
154.2857445
51
170.3893044
0
ARC
8
DEFAULT_255_1_234
10
21.4263087
20
164.141795
40
0.4476743
50
139.8401567
51
153.9332699
0
ARC
8
DEFAULT_255_1_234
10
21.3903823
20
164.1705577
40
0.4016697
50
98.4190291
51
139.6707122
0
ARC
8
DEFAULT_255_1_234
10
21.4283341
20
163.9860328
40
0.5898566
50
89.7659205
51
99.4415478
0
ARC
8
DEFAULT_255_1_234
10
21.434859
20
163.9925844
40
0.5833147
50
78.0551672
51
90.4042112
0
ARC
8
DEFAULT_255_1_234
10
21.47531
20
164.1744644
40
0.3970055
50
54.6380464
51
78.3339173
0
ARC
8
DEFAULT_255_1_234
10
21.4943156
20
164.2064795
40
0.3599102
50
50.031736
51
54.1558201
0
ARC
8
DEFAULT_255_1_234
10
21.4835944
20
164.1968766
40
0.3741624
50
18.1092409
51
49.7180913
0
ARC
8
DEFAULT_255_1_234
10
21.3379144
20
164.1435089
40
0.5292424
50
7.9672797
51
18.6984571
0
ARC
8
DEFAULT_255_1_234
10
21.3529622
20
164.1558504
40
0.3600838
50
9.7557294
51
27.3215714
0
ARC
8
DEFAULT_255_1_234
10
21.4657094
20
164.2121912
40
0.2340608
50
27.7361077
51
84.5257964
0
ARC
8
DEFAULT_255_1_234
10
21.4329481
20
164.047864
40
0.4011215
50
82.106034
51
90.2001166
0
ARC
8
DEFAULT_255_1_234
10
21.4279698
20
164.0986215
40
0.3503799
50
89.4150119
51
105.5823402
0
ARC
8
DEFAULT_255_1_234
10
21.4022696
20
164.1921867
40
0.2533503
50
105.6678618
51
144.2648758
0
ARC
8
DEFAULT_255_1_234
10
21.4915951
20
164.1286289
40
0.3629787
50
144.3561283
51
162.8564086
0
ARC
8
DEFAULT_255_1_234
10
21.699986
20
164.0617017
40
0.5818441
50
162.6076014
51
173.6780284
0
ARC
8
DEFAULT_255_1_234
10
22.0061004
20
164.024489
40
0.8902007
50
173.4670142
51
179.9730753
0
ARC
8
DEFAULT_255_1_234
10
21.8152675
20
163.925126
40
0.6993804
50
179.6556203
51
190.0080463
0
ARC
8
DEFAULT_255_1_234
10
21.5836504
20
163.8826375
40
0.4639066
50
189.8116607
51
206.6796816
0
ARC
8
DEFAULT_255_1_234
10
21.4991656
20
163.8432503
40
0.3707421
50
207.1031645
51
217.7074368
0
ARC
8
DEFAULT_255_1_234
10
21.4357345
20
163.7880559
40
0.2868417
50
216.7345547
51
265.6812148
0
ARC
8
DEFAULT_255_1_234
10
21.4488136
20
163.8784855
40
0.3780509
50
264.7366618
51
270.0611241
0
ARC
8
DEFAULT_255_1_234
10
21.4511399
20
164.1625111
40
0.662079
50
269.8335834
51
276.0539546
0
ARC
8
DEFAULT_255_1_234
10
21.4718404
20
163.972356
40
0.4708016
50
275.9894168
51
284.4615085
0
ARC
8
DEFAULT_255_1_234
10
21.4916411
20
163.8890663
40
0.3852094
50
284.7034461
51
286.4953897
0
ARC
8
DEFAULT_255_1_234
10
21.5323424
20
163.7579965
40
0.2479842
50
286.0770838
51
304.2625829
0
ARC
8
DEFAULT_255_1_234
10
21.5456838
20
163.7361594
40
0.2224291
50
304.5891602
51
317.1073298
0
LINE
8
DEFAULT_255_1_234
10
23.0178154
20
164.5598211
11
23.0178154
21
163.3904
0
LINE
8
DEFAULT_255_1_234
10
23.0178154
20
163.3904
11
22.8628028
21
163.3904
0
LINE
8
DEFAULT_255_1_234
10
22.8628028
20
163.3904
11
22.2740764
21
164.291561
0
LINE
8
DEFAULT_255_1_234
10
22.2740764
20
164.291561
11
22.2740764
21
163.3904
0
LINE
8
DEFAULT_255_1_234
10
22.2740764
20
163.3904
11
22.1190639
21
163.3904
0
LINE
8
DEFAULT_255_1_234
10
22.1190639
20
163.3904
11
22.1190639
21
164.5598211
0
LINE
8
DEFAULT_255_1_234
10
22.1190639
20
164.5598211
11
22.2740764
21
164.5598211
0
LINE
8
DEFAULT_255_1_234
10
22.2740764
20
164.5598211
11
22.8644092
21
163.6546442
0
LINE
8
DEFAULT_255_1_234
10
22.8644092
20
163.6546442
11
22.8644092
21
164.5598211
0
LINE
8
DEFAULT_255_1_234
10
22.8644092
20
164.5598211
11
23.0178154
21
164.5598211
0
LINE
8
DEFAULT_255_1_234
10
23.6153767
20
163.3904
11
23.2916977
21
163.3904
0
LINE
8
DEFAULT_255_1_234
10
23.2916977
20
163.3904
11
23.2916977
21
164.5598211
0
LINE
8
DEFAULT_255_1_234
10
23.2916977
20
164.5598211
11
23.6218021
21
164.5598211
0
LINE
8
DEFAULT_255_1_234
10
24.1374397
20
164.0144661
11
24.1374397
21
163.9397709
0
LINE
8
DEFAULT_255_1_234
10
23.625818
20
164.4329196
11
23.445907
21
164.4329196
0
LINE
8
DEFAULT_255_1_234
10
23.445907
20
164.4329196
11
23.445907
21
163.5164983
0
LINE
8
DEFAULT_255_1_234
10
23.445907
20
163.5164983
11
23.6081481
21
163.5164983
0
LINE
8
DEFAULT_255_1_234
10
23.9848367
20
163.9429836
11
23.9848367
21
164.0112534
0
ARC
8
DEFAULT_255_1_234
10
23.6256963
20
163.9732894
40
0.5865446
50
75.4101064
51
90.3804066
0
ARC
8
DEFAULT_255_1_234
10
23.6486477
20
164.0689492
40
0.4881916
50
60.145586
51
75.1888407
0
ARC
8
DEFAULT_255_1_234
10
23.6645252
20
164.0966199
40
0.4562893
50
26.5253612
51
60.1450928
0
ARC
8
DEFAULT_255_1_234
10
23.5525002
20
164.0372158
40
0.5830602
50
7.4030428
51
26.8320788
0
ARC
8
DEFAULT_255_1_234
10
23.3930758
20
164.0123804
40
0.7443669
50
0.1605367
51
7.7176192
0
ARC
8
DEFAULT_255_1_234
10
23.4094663
20
163.9359434
40
0.7279835
50
348.7289388
51
0.3012466
0
ARC
8
DEFAULT_255_1_234
10
23.5751093
20
163.9030386
40
0.559104
50
333.0706509
51
348.7181832
0
ARC
8
DEFAULT_255_1_234
10
23.6717851
20
163.8505319
40
0.4491417
50
299.2531685
51
333.4571258
0
ARC
8
DEFAULT_255_1_234
10
23.6356991
20
163.9190828
40
0.5265881
50
278.107187
51
299.0339503
0
ARC
8
DEFAULT_255_1_234
10
23.610107
20
164.0698216
40
0.679442
50
270.4443897
51
278.4511052
0
ARC
8
DEFAULT_255_1_234
10
23.61219
20
163.9769213
40
0.4604407
50
269.4970433
51
284.0205042
0
ARC
8
DEFAULT_255_1_234
10
23.6477201
20
163.8403978
40
0.3193797
50
283.7700273
51
318.1555492
0
ARC
8
DEFAULT_255_1_234
10
23.6139959
20
163.8656367
40
0.3613588
50
318.7415601
51
343.6873628
0
ARC
8
DEFAULT_255_1_234
10
23.4335982
20
163.9219832
40
0.5503313
50
343.3325091
51
355.8548958
0
ARC
8
DEFAULT_255_1_234
10
23.2237666
20
163.9419319
40
0.7610708
50
355.4988528
51
0.0791727
0
ARC
8
DEFAULT_255_1_234
10
23.3020289
20
164.015478
40
0.6828208
50
359.6455037
51
9.8607896
0
ARC
8
DEFAULT_255_1_234
10
23.5380987
20
164.0581099
40
0.4429406
50
9.6571907
51
26.1932807
0
ARC
8
DEFAULT_255_1_234
10
23.6308975
20
164.1012118
40
0.3406537
50
26.5777228
51
40.1532208
0
ARC
8
DEFAULT_255_1_234
10
23.6564702
20
164.1211619
40
0.308246
50
40.3840491
51
80.1431104
0
ARC
8
DEFAULT_255_1_234
10
23.623782
20
163.9762333
40
0.4566909
50
79.2152159
51
89.7445637
0
LINE
8
DEFAULT_255_1_234
10
22.9355392
20
142.2237
11
22.5299364
21
142.2237
0
LINE
8
DEFAULT_255_1_234
10
22.5299364
20
142.2237
11
22.5299364
21
143.3931211
0
LINE
8
DEFAULT_255_1_234
10
22.5299364
20
143.3931211
11
22.9122471
21
143.3931211
0
LINE
8
DEFAULT_255_1_234
10
22.9411614
20
142.7706614
11
22.6841458
21
142.7706614
0
LINE
8
DEFAULT_255_1_234
10
22.6841458
20
142.7706614
11
22.6841458
21
142.3497983
0
LINE
8
DEFAULT_255_1_234
10
22.6841458
20
142.3497983
11
22.9387519
21
142.3497983
0
LINE
8
DEFAULT_255_1_234
10
22.6841458
20
143.2662196
11
22.6841458
21
142.8943501
0
LINE
8
DEFAULT_255_1_234
10
22.6841458
20
142.8943501
11
22.9170662
21
142.8943501
0
LINE
8
DEFAULT_255_1_234
10
22.9122471
20
143.2662196
11
22.6841458
21
143.2662196
0
ARC
8
DEFAULT_255_1_234
10
22.916018
20
142.6563901
40
0.7367406
50
82.1257326
51
90.2932599
0
ARC
8
DEFAULT_255_1_234
10
22.9549135
20
142.9282013
40
0.4621653
50
69.9044149
51
82.2857423
0
ARC
8
DEFAULT_255_1_234
10
23.0119813
20
143.0824637
40
0.2976871
50
51.1838526
51
70.0181538
0
ARC
8
DEFAULT_255_1_234
10
23.0374779
20
143.119524
40
0.2528517
50
12.1017251
51
50.4214761
0
ARC
8
DEFAULT_255_1_234
10
22.8990653
20
143.0847676
40
0.3955061
50
359.5251267
51
12.8211707
0
ARC
8
DEFAULT_255_1_234
10
23.0570579
20
143.0778344
40
0.2375281
50
323.4908128
51
0.8817314
0
ARC
8
DEFAULT_255_1_234
10
23.0152266
20
143.110155
40
0.2903817
50
298.6825083
51
323.2756573
0
ARC
8
DEFAULT_255_1_234
10
22.9790629
20
143.1702649
40
0.3604842
50
293.1999386
51
299.1396394
0
ARC
8
DEFAULT_255_1_234
10
23.0463602
20
142.5617126
40
0.2871098
50
54.0011765
51
74.9167975
0
ARC
8
DEFAULT_255_1_234
10
23.0579961
20
142.5814332
40
0.2643248
50
36.3580696
51
53.5291921
0
ARC
8
DEFAULT_255_1_234
10
23.0453203
20
142.5723998
40
0.2798884
50
4.8189881
51
36.3089977
0
ARC
8
DEFAULT_255_1_234
10
22.9674038
20
142.561427
40
0.358478
50
359.9370252
51
5.5204067
0
ARC
8
DEFAULT_255_1_234
10
22.934956
20
142.5573667
40
0.3909429
50
344.7478609
51
0.5373281
0
ARC
8
DEFAULT_255_1_234
10
23.0340531
20
142.5306544
40
0.2883093
50
311.1786488
51
344.6886812
0
ARC
8
DEFAULT_255_1_234
10
23.0048578
20
142.5669987
40
0.3348923
50
286.0418249
51
310.8441291
0
ARC
8
DEFAULT_255_1_234
10
22.954141
20
142.7316807
40
0.5071869
50
274.1042341
51
286.4071509
0
ARC
8
DEFAULT_255_1_234
10
22.9364666
20
142.9200229
40
0.6963234
50
269.9236873
51
274.445647
0
ARC
8
DEFAULT_255_1_234
10
22.9410667
20
142.6860537
40
0.3362634
50
269.6055768
51
281.3740047
0
ARC
8
DEFAULT_255_1_234
10
22.9641305
20
142.5767353
40
0.224546
50
281.1055983
51
302.5132223
0
ARC
8
DEFAULT_255_1_234
10
22.9788204
20
142.5503823
40
0.1944357
50
303.0368945
51
311.8811219
0
ARC
8
DEFAULT_255_1_234
10
22.9859611
20
142.541889
40
0.1833454
50
311.9916004
51
351.7143462
0
ARC
8
DEFAULT_255_1_234
10
22.9042841
20
142.558393
40
0.2665871
50
350.7339597
51
0.2221581
0
ARC
8
DEFAULT_255_1_234
10
22.8935287
20
142.5640467
40
0.2773789
50
359.0456241
51
17.2296242
0
ARC
8
DEFAULT_255_1_234
10
22.9974404
20
142.5949163
40
0.1689915
50
17.6685481
51
78.9940892
0
ARC
8
DEFAULT_255_1_234
10
22.9457568
20
142.4094224
40
0.3612658
50
76.5635957
51
90.6980921
0
LINE
8
DEFAULT_255_1_234
10
22.9413552
20
142.7706613
11
22.9411614
21
142.7706614
0
ARC
8
DEFAULT_255_1_234
10
22.9193228
20
143.2229036
40
0.3285612
50
269.6064736
51
281.4533503
0
ARC
8
DEFAULT_255_1_234
10
22.9416048
20
143.1177688
40
0.2210975
50
281.2041486
51
302.5148063
0
ARC
8
DEFAULT_255_1_234
10
22.9552898
20
143.0931241
40
0.1929674
50
303.021671
51
309.8369575
0
ARC
8
DEFAULT_255_1_234
10
22.9736359
20
143.0725488
40
0.1654181
50
309.5228395
51
356.9509836
0
ARC
8
DEFAULT_255_1_234
10
22.9072942
20
143.0820932
40
0.2322512
50
355.4701227
51
0.0492546
0
ARC
8
DEFAULT_255_1_234
10
22.8794033
20
143.0843094
40
0.2601498
50
359.5558597
51
11.2096359
0
ARC
8
DEFAULT_255_1_234
10
22.9751323
20
143.104123
40
0.1623975
50
10.9182341
51
31.3230275
0
ARC
8
DEFAULT_255_1_234
10
23.0037056
20
143.1200214
40
0.1297302
50
31.8852677
51
52.1412565
0
ARC
8
DEFAULT_255_1_234
10
22.9762789
20
143.081275
40
0.1771663
50
52.8285564
51
71.9850297
0
ARC
8
DEFAULT_255_1_234
10
22.9386965
20
142.9706664
40
0.2939794
50
71.6863486
51
82.8455995
0
ARC
8
DEFAULT_255_1_234
10
22.9147501
20
142.7897149
40
0.476506
50
82.6984714
51
90.1729175
0
ARC
8
DEFAULT_255_1_234
10
22.9125136
20
142.9120623
40
0.3541573
50
89.8708275
51
90.0431131
0
LINE
8
DEFAULT_255_1_234
10
23.7025702
20
142.7794963
11
23.5837004
21
142.8100169
0
LINE
8
DEFAULT_255_1_234
10
23.5837004
20
142.8100169
11
23.6431353
21
143.3931211
0
LINE
8
DEFAULT_255_1_234
10
23.6431353
20
143.3931211
11
24.242303
21
143.3931211
0
LINE
8
DEFAULT_255_1_234
10
24.242303
20
143.3931211
11
24.242303
21
143.2557784
0
LINE
8
DEFAULT_255_1_234
10
24.242303
20
143.2557784
11
23.7692336
21
143.2557784
0
LINE
8
DEFAULT_255_1_234
10
23.7692336
20
143.2557784
11
23.7338939
21
142.9369184
0
LINE
8
DEFAULT_255_1_234
10
23.5419354
20
142.5313156
11
23.6824908
21
142.5313156
0
LINE
8
DEFAULT_255_1_234
10
23.7419257
20
142.8116232
11
23.7025702
21
142.7794963
0
ARC
8
DEFAULT_255_1_234
10
23.9193723
20
142.618923
40
0.3681349
50
93.7182161
51
120.2538958
0
ARC
8
DEFAULT_255_1_234
10
23.9287986
20
142.5381394
40
0.449379
50
89.9660152
51
94.2496022
0
ARC
8
DEFAULT_255_1_234
10
23.932872
20
142.5970549
40
0.390482
50
73.8043271
51
90.5585896
0
ARC
8
DEFAULT_255_1_234
10
23.9563617
20
142.6828602
40
0.3015334
50
41.3071453
51
73.5430202
0
ARC
8
DEFAULT_255_1_234
10
23.9147445
20
142.6470324
40
0.3564457
50
13.5075983
51
41.2174222
0
ARC
8
DEFAULT_255_1_234
10
23.7505648
20
142.6040486
40
0.5261351
50
1.1331335
51
13.8829381
0
ARC
8
DEFAULT_255_1_234
10
23.6094017
20
142.5964665
40
0.6674378
50
359.9919444
51
1.544251
0
ARC
8
DEFAULT_255_1_234
10
23.7370844
20
142.592328
40
0.5397702
50
347.8572367
51
0.4293338
0
ARC
8
DEFAULT_255_1_234
10
23.9121161
20
142.5526736
40
0.3603188
50
323.673004
51
348.1672506
0
ARC
8
DEFAULT_255_1_234
10
23.9415669
20
142.5347168
40
0.3259678
50
316.8171152
51
323.1492751
0
ARC
8
DEFAULT_255_1_234
10
23.9476858
20
142.531046
40
0.3189975
50
281.8396411
51
316.5457803
0
ARC
8
DEFAULT_255_1_234
10
23.9101122
20
142.6865762
40
0.4789527
50
269.5770101
51
282.4214771
0
ARC
8
DEFAULT_255_1_234
10
23.9029934
20
142.6652125
40
0.45759
50
256.2427136
51
270.4486331
0
ARC
8
DEFAULT_255_1_234
10
23.8730836
20
142.5452229
40
0.3339303
50
228.9023911
51
256.3314342
0
ARC
8
DEFAULT_255_1_234
10
23.8657069
20
142.5335746
40
0.32031
50
193.753695
51
228.5271154
0
ARC
8
DEFAULT_255_1_234
10
23.9895022
20
142.56988
40
0.4492253
50
184.924711
51
194.497588
0
ARC
8
DEFAULT_255_1_234
10
24.0087589
20
142.5734591
40
0.3289787
50
187.3600538
51
198.6732863
0
ARC
8
DEFAULT_255_1_234
10
23.9037883
20
142.5370674
40
0.217884
50
198.4451669
51
217.794479
0
ARC
8
DEFAULT_255_1_234
10
23.8742059
20
142.5161085
40
0.1816698
50
218.2887171
51
228.5612368
0
ARC
8
DEFAULT_255_1_234
10
23.8839846
20
142.5292963
40
0.1980329
50
228.9654866
51
258.1234728
0
ARC
8
DEFAULT_255_1_234
10
23.9045555
20
142.6173833
40
0.2884748
50
257.7258293
51
270.401361
0
ARC
8
DEFAULT_255_1_234
10
23.9090442
20
142.5728821
40
0.2439788
50
269.4204404
51
286.4209037
0
ARC
8
DEFAULT_255_1_234
10
23.9238929
20
142.5189657
40
0.1880666
50
286.7251356
51
320.600362
0
ARC
8
DEFAULT_255_1_234
10
23.8855754
20
142.5500595
40
0.2374121
50
320.6712579
51
344.5441685
0
ARC
8
DEFAULT_255_1_234
10
23.769908
20
142.5840045
40
0.3579479
50
344.2412205
51
356.7357071
0
ARC
8
DEFAULT_255_1_234
10
23.6450229
20
142.5943444
40
0.4832297
50
356.3548756
51
0.0500261
0
ARC
8
DEFAULT_255_1_234
10
23.7786738
20
142.597465
40
0.3495889
50
359.5576869
51
12.953486
0
ARC
8
DEFAULT_255_1_234
10
23.8841636
20
142.6230434
40
0.2410532
50
12.6490276
51
41.6081334
0
ARC
8
DEFAULT_255_1_234
10
23.9072007
20
142.6426321
40
0.2108218
50
41.7850273
51
85.9892764
0
ARC
8
DEFAULT_255_1_234
10
23.8948743
20
142.5613462
40
0.2928454
50
84.6957577
51
90.0676183
0
ARC
8
DEFAULT_255_1_234
10
23.8925227
20
142.4944716
40
0.3597255
50
89.6804936
51
99.1614436
0
ARC
8
DEFAULT_255_1_234
10
23.8719859
20
142.6172131
40
0.235281
50
98.9830931
51
113.8908934
0
ARC
8
DEFAULT_255_1_234
10
23.8490269
20
142.6713587
40
0.176479
50
114.1950727
51
127.3641004
0
LINE
8
DEFAULT_255_1_234
10
23.1291293
20
147.5154
11
23.0174881
21
147.8206061
0
LINE
8
DEFAULT_255_1_234
10
23.0174881
20
147.8206061
11
22.5275521
21
147.8206061
0
LINE
8
DEFAULT_255_1_234
10
22.5275521
20
147.8206061
11
22.4175173
21
147.5154
0
LINE
8
DEFAULT_255_1_234
10
22.4175173
20
147.5154
11
22.2584889
21
147.5154
0
LINE
8
DEFAULT_255_1_234
10
22.2584889
20
147.5154
11
22.7050535
21
148.6848211
0
LINE
8
DEFAULT_255_1_234
10
22.7050535
20
148.6848211
11
22.8399867
21
148.6848211
0
LINE
8
DEFAULT_255_1_234
10
22.8399867
20
148.6848211
11
23.2873545
21
147.5154
0
LINE
8
DEFAULT_255_1_234
10
23.2873545
20
147.5154
11
23.1291293
21
147.5154
0
LINE
8
DEFAULT_255_1_234
10
22.7725201
20
148.4944689
11
22.5741362
21
147.9475075
0
LINE
8
DEFAULT_255_1_234
10
22.5741362
20
147.9475075
11
22.9717072
21
147.9475075
0
LINE
8
DEFAULT_255_1_234
10
22.9717072
20
147.9475075
11
22.7725201
21
148.4944689
0
LINE
8
DEFAULT_255_1_234
10
23.5933638
20
148.0711963
11
23.474494
21
148.1017169
0
LINE
8
DEFAULT_255_1_234
10
23.474494
20
148.1017169
11
23.5339289
21
148.6848211
0
LINE
8
DEFAULT_255_1_234
10
23.5339289
20
148.6848211
11
24.1330966
21
148.6848211
0
LINE
8
DEFAULT_255_1_234
10
24.1330966
20
148.6848211
11
24.1330966
21
148.5474784
0
LINE
8
DEFAULT_255_1_234
10
24.1330966
20
148.5474784
11
23.6600272
21
148.5474784
0
LINE
8
DEFAULT_255_1_234
10
23.6600272
20
148.5474784
11
23.6246875
21
148.2286184
0
LINE
8
DEFAULT_255_1_234
10
23.432729
20
147.8230156
11
23.5732844
21
147.8230156
0
LINE
8
DEFAULT_255_1_234
10
23.6327193
20
148.1033232
11
23.5933638
21
148.0711963
0
ARC
8
DEFAULT_255_1_234
10
23.8101659
20
147.910623
40
0.3681349
50
93.7182161
51
120.2538958
0
ARC
8
DEFAULT_255_1_234
10
23.8195922
20
147.8298394
40
0.449379
50
89.9660152
51
94.2496022
0
ARC
8
DEFAULT_255_1_234
10
23.8236656
20
147.8887549
40
0.390482
50
73.8043271
51
90.5585896
0
ARC
8
DEFAULT_255_1_234
10
23.8471553
20
147.9745602
40
0.3015334
50
41.3071453
51
73.5430202
0
ARC
8
DEFAULT_255_1_234
10
23.8055381
20
147.9387324
40
0.3564457
50
13.5075983
51
41.2174222
0
ARC
8
DEFAULT_255_1_234
10
23.6413584
20
147.8957486
40
0.5261351
50
1.1331335
51
13.8829381
0
ARC
8
DEFAULT_255_1_234
10
23.5001953
20
147.8881665
40
0.6674378
50
359.9919444
51
1.544251
0
ARC
8
DEFAULT_255_1_234
10
23.627878
20
147.884028
40
0.5397702
50
347.8572367
51
0.4293338
0
ARC
8
DEFAULT_255_1_234
10
23.8029097
20
147.8443736
40
0.3603188
50
323.673004
51
348.1672506
0
ARC
8
DEFAULT_255_1_234
10
23.8323605
20
147.8264168
40
0.3259678
50
316.8171152
51
323.1492751
0
ARC
8
DEFAULT_255_1_234
10
23.8384794
20
147.822746
40
0.3189975
50
281.8396411
51
316.5457803
0
ARC
8
DEFAULT_255_1_234
10
23.8009058
20
147.9782762
40
0.4789527
50
269.5770101
51
282.4214771
0
ARC
8
DEFAULT_255_1_234
10
23.793787
20
147.9569125
40
0.45759
50
256.2427136
51
270.4486331
0
ARC
8
DEFAULT_255_1_234
10
23.7638772
20
147.8369229
40
0.3339303
50
228.9023911
51
256.3314342
0
ARC
8
DEFAULT_255_1_234
10
23.7565005
20
147.8252746
40
0.32031
50
193.753695
51
228.5271154
0
ARC
8
DEFAULT_255_1_234
10
23.8802959
20
147.86158
40
0.4492253
50
184.924711
51
194.497588
0
ARC
8
DEFAULT_255_1_234
10
23.8995525
20
147.8651591
40
0.3289787
50
187.3600538
51
198.6732863
0
ARC
8
DEFAULT_255_1_234
10
23.7945819
20
147.8287674
40
0.217884
50
198.4451669
51
217.794479
0
ARC
8
DEFAULT_255_1_234
10
23.7649995
20
147.8078085
40
0.1816698
50
218.2887171
51
228.5612368
0
ARC
8
DEFAULT_255_1_234
10
23.7747782
20
147.8209963
40
0.1980329
50
228.9654866
51
258.1234728
0
ARC
8
DEFAULT_255_1_234
10
23.7953492
20
147.9090833
40
0.2884748
50
257.7258293
51
270.401361
0
ARC
8
DEFAULT_255_1_234
10
23.7998378
20
147.8645821
40
0.2439788
50
269.4204404
51
286.4209037
0
ARC
8
DEFAULT_255_1_234
10
23.8146865
20
147.8106657
40
0.1880666
50
286.7251356
51
320.600362
0
ARC
8
DEFAULT_255_1_234
10
23.776369
20
147.8417595
40
0.2374121
50
320.6712579
51
344.5441685
0
ARC
8
DEFAULT_255_1_234
10
23.6607017
20
147.8757045
40
0.3579479
50
344.2412205
51
356.7357071
0
ARC
8
DEFAULT_255_1_234
10
23.5358165
20
147.8860444
40
0.4832297
50
356.3548756
51
0.0500261
0
ARC
8
DEFAULT_255_1_234
10
23.6694674
20
147.889165
40
0.3495889
50
359.5576869
51
12.953486
0
ARC
8
DEFAULT_255_1_234
10
23.7749572
20
147.9147434
40
0.2410532
50
12.6490276
51
41.6081334
0
ARC
8
DEFAULT_255_1_234
10
23.7979943
20
147.9343321
40
0.2108218
50
41.7850273
51
85.9892764
0
ARC
8
DEFAULT_255_1_234
10
23.7856679
20
147.8530462
40
0.2928454
50
84.6957577
51
90.0676183
0
ARC
8
DEFAULT_255_1_234
10
23.7833163
20
147.7861716
40
0.3597255
50
89.6804936
51
99.1614436
0
ARC
8
DEFAULT_255_1_234
10
23.7627795
20
147.9089131
40
0.235281
50
98.9830931
51
113.8908934
0
ARC
8
DEFAULT_255_1_234
10
23.7398205
20
147.9630587
40
0.176479
50
114.1950727
51
127.3641004
0
LINE
8
DEFAULT_255_1_234
10
22.9355392
20
152.807
11
22.5299364
21
152.807
0
LINE
8
DEFAULT_255_1_234
10
22.5299364
20
152.807
11
22.5299364
21
153.9764211
0
LINE
8
DEFAULT_255_1_234
10
22.5299364
20
153.9764211
11
22.9122471
21
153.9764211
0
LINE
8
DEFAULT_255_1_234
10
22.9411614
20
153.3539614
11
22.6841458
21
153.3539614
0
LINE
8
DEFAULT_255_1_234
10
22.6841458
20
153.3539614
11
22.6841458
21
152.9330983
0
LINE
8
DEFAULT_255_1_234
10
22.6841458
20
152.9330983
11
22.9387519
21
152.9330983
0
LINE
8
DEFAULT_255_1_234
10
22.6841458
20
153.8495196
11
22.6841458
21
153.4776501
0
LINE
8
DEFAULT_255_1_234
10
22.6841458
20
153.4776501
11
22.9170662
21
153.4776501
0
LINE
8
DEFAULT_255_1_234
10
22.9122471
20
153.8495196
11
22.6841458
21
153.8495196
0
ARC
8
DEFAULT_255_1_234
10
22.916018
20
153.2396901
40
0.7367406
50
82.1257326
51
90.2932599
0
ARC
8
DEFAULT_255_1_234
10
22.9549135
20
153.5115013
40
0.4621653
50
69.9044149
51
82.2857423
0
ARC
8
DEFAULT_255_1_234
10
23.0119813
20
153.6657637
40
0.2976871
50
51.1838526
51
70.0181538
0
ARC
8
DEFAULT_255_1_234
10
23.0374779
20
153.702824
40
0.2528517
50
12.1017251
51
50.4214761
0
ARC
8
DEFAULT_255_1_234
10
22.8990653
20
153.6680676
40
0.3955061
50
359.5251267
51
12.8211707
0
ARC
8
DEFAULT_255_1_234
10
23.0570579
20
153.6611344
40
0.2375281
50
323.4908128
51
0.8817314
0
ARC
8
DEFAULT_255_1_234
10
23.0152266
20
153.693455
40
0.2903817
50
298.6825083
51
323.2756573
0
ARC
8
DEFAULT_255_1_234
10
22.9790629
20
153.7535649
40
0.3604842
50
293.1999386
51
299.1396394
0
ARC
8
DEFAULT_255_1_234
10
23.0463602
20
153.1450126
40
0.2871098
50
54.0011765
51
74.9167975
0
ARC
8
DEFAULT_255_1_234
10
23.0579961
20
153.1647332
40
0.2643248
50
36.3580696
51
53.5291921
0
ARC
8
DEFAULT_255_1_234
10
23.0453203
20
153.1556998
40
0.2798884
50
4.8189881
51
36.3089977
0
ARC
8
DEFAULT_255_1_234
10
22.9674038
20
153.144727
40
0.358478
50
359.9370252
51
5.5204067
0
ARC
8
DEFAULT_255_1_234
10
22.934956
20
153.1406667
40
0.3909429
50
344.7478609
51
0.5373281
0
ARC
8
DEFAULT_255_1_234
10
23.0340531
20
153.1139544
40
0.2883093
50
311.1786488
51
344.6886812
0
ARC
8
DEFAULT_255_1_234
10
23.0048578
20
153.1502987
40
0.3348923
50
286.0418249
51
310.8441291
0
ARC
8
DEFAULT_255_1_234
10
22.954141
20
153.3149807
40
0.5071869
50
274.1042341
51
286.4071509
0
ARC
8
DEFAULT_255_1_234
10
22.9364666
20
153.5033229
40
0.6963234
50
269.9236873
51
274.445647
0
ARC
8
DEFAULT_255_1_234
10
22.9410667
20
153.2693537
40
0.3362634
50
269.6055768
51
281.3740047
0
ARC
8
DEFAULT_255_1_234
10
22.9641305
20
153.1600353
40
0.224546
50
281.1055983
51
302.5132223
0
ARC
8
DEFAULT_255_1_234
10
22.9788204
20
153.1336823
40
0.1944357
50
303.0368945
51
311.8811219
0
ARC
8
DEFAULT_255_1_234
10
22.9859611
20
153.125189
40
0.1833454
50
311.9916004
51
351.7143462
0
ARC
8
DEFAULT_255_1_234
10
22.9042841
20
153.141693
40
0.2665871
50
350.7339597
51
0.2221581
0
ARC
8
DEFAULT_255_1_234
10
22.8935287
20
153.1473467
40
0.2773789
50
359.0456241
51
17.2296242
0
ARC
8
DEFAULT_255_1_234
10
22.9974404
20
153.1782163
40
0.1689915
50
17.6685481
51
78.9940892
0
ARC
8
DEFAULT_255_1_234
10
22.9457568
20
152.9927224
40
0.3612658
50
76.5635957
51
90.6980921
0
LINE
8
DEFAULT_255_1_234
10
22.9413552
20
153.3539613
11
22.9411614
21
153.3539614
0
ARC
8
DEFAULT_255_1_234
10
22.9193228
20
153.8062036
40
0.3285612
50
269.6064736
51
281.4533503
0
ARC
8
DEFAULT_255_1_234
10
22.9416048
20
153.7010688
40
0.2210975
50
281.2041486
51
302.5148063
0
ARC
8
DEFAULT_255_1_234
10
22.9552898
20
153.6764241
40
0.1929674
50
303.021671
51
309.8369575
0
ARC
8
DEFAULT_255_1_234
10
22.9736359
20
153.6558488
40
0.1654181
50
309.5228395
51
356.9509836
0
ARC
8
DEFAULT_255_1_234
10
22.9072942
20
153.6653932
40
0.2322512
50
355.4701227
51
0.0492546
0
ARC
8
DEFAULT_255_1_234
10
22.8794033
20
153.6676094
40
0.2601498
50
359.5558597
51
11.2096359
0
ARC
8
DEFAULT_255_1_234
10
22.9751323
20
153.687423
40
0.1623975
50
10.9182341
51
31.3230275
0
ARC
8
DEFAULT_255_1_234
10
23.0037056
20
153.7033214
40
0.1297302
50
31.8852677
51
52.1412565
0
ARC
8
DEFAULT_255_1_234
10
22.9762789
20
153.664575
40
0.1771663
50
52.8285564
51
71.9850297
0
ARC
8
DEFAULT_255_1_234
10
22.9386965
20
153.5539664
40
0.2939794
50
71.6863486
51
82.8455995
0
ARC
8
DEFAULT_255_1_234
10
22.9147501
20
153.3730149
40
0.476506
50
82.6984714
51
90.1729175
0
ARC
8
DEFAULT_255_1_234
10
22.9125136
20
153.4953623
40
0.3541573
50
89.8708275
51
90.0431131
0
LINE
8
DEFAULT_255_1_234
10
24.0720301
20
153.9772243
11
24.0985349
21
153.9772243
0
LINE
8
DEFAULT_255_1_234
10
24.0985349
20
153.9772243
11
24.0985349
21
153.851126
0
LINE
8
DEFAULT_255_1_234
10
24.0985349
20
153.851126
11
24.071227
21
153.851126
0
LINE
8
DEFAULT_255_1_234
10
23.5242656
20
153.2519583
11
23.5242656
21
153.3089836
0
LINE
8
DEFAULT_255_1_234
10
23.6736559
20
153.2897075
11
23.6736559
21
153.2350917
0
ARC
8
DEFAULT_255_1_234
10
24.0764617
20
153.3513455
40
0.4998079
50
90.6001036
51
104.514704
0
ARC
8
DEFAULT_255_1_234
10
24.0376133
20
153.4958131
40
0.3502176
50
104.2855254
51
133.862935
0
ARC
8
DEFAULT_255_1_234
10
24.053989
20
153.484983
40
0.3693984
50
134.5302688
51
161.6210873
0
ARC
8
DEFAULT_255_1_234
10
24.2193079
20
153.4266895
40
0.5446739
50
161.2849839
51
174.2076652
0
ARC
8
DEFAULT_255_1_234
10
24.3600016
20
153.4072787
40
0.6866274
50
173.7810589
51
174.9254635
0
ARC
8
DEFAULT_255_1_234
10
23.9049848
20
153.2689839
40
0.3033419
50
95.8330959
51
138.9954921
0
ARC
8
DEFAULT_255_1_234
10
23.9273204
20
153.1411375
40
0.4328947
50
89.8753725
51
97.0544009
0
ARC
8
DEFAULT_255_1_234
10
23.932067
20
153.2246748
40
0.3493769
50
71.6407809
51
90.6240094
0
ARC
8
DEFAULT_255_1_234
10
23.9471244
20
153.2801082
40
0.2920396
50
39.6367836
51
71.019018
0
ARC
8
DEFAULT_255_1_234
10
23.8834717
20
153.2250998
40
0.3761538
50
10.658731
51
39.9043955
0
ARC
8
DEFAULT_255_1_234
10
23.7286799
20
153.1914686
40
0.5345136
50
359.682601
51
11.132623
0
ARC
8
DEFAULT_255_1_234
10
23.724693
20
153.184401
40
0.5385081
50
347.2486944
51
0.4369317
0
ARC
8
DEFAULT_255_1_234
10
23.8914407
20
153.1442807
40
0.3670249
50
318.1409698
51
347.6118597
0
ARC
8
DEFAULT_255_1_234
10
23.92394
20
153.1175702
40
0.3250007
50
275.6342139
51
317.8248465
0
ARC
8
DEFAULT_255_1_234
10
23.9018512
20
153.2475219
40
0.4565864
50
269.8874292
51
276.7917694
0
ARC
8
DEFAULT_255_1_234
10
23.8963582
20
153.1449743
40
0.3540676
50
246.9140195
51
270.7437342
0
ARC
8
DEFAULT_255_1_234
10
23.8969973
20
153.1307384
40
0.3412781
50
218.1665114
51
245.878116
0
ARC
8
DEFAULT_255_1_234
10
23.9849433
20
153.2043279
40
0.455911
50
191.4115814
51
218.6077802
0
ARC
8
DEFAULT_255_1_234
10
24.1787523
20
153.2477833
40
0.6545001
50
179.6345085
51
191.7836486
0
ARC
8
DEFAULT_255_1_234
10
24.7369859
20
153.3156697
40
1.2127388
50
171.4525249
51
180.3158839
0
ARC
8
DEFAULT_255_1_234
10
24.2974735
20
153.3840608
40
0.7679464
50
157.9802646
51
171.6246686
0
ARC
8
DEFAULT_255_1_234
10
24.0760756
20
153.4723421
40
0.5296008
50
141.4298019
51
157.854097
0
ARC
8
DEFAULT_255_1_234
10
24.0119077
20
153.5177381
40
0.4511509
50
102.8715806
51
140.8564722
0
ARC
8
DEFAULT_255_1_234
10
24.0766692
20
153.2737552
40
0.7034845
50
90.3778349
51
103.5869322
0
ARC
8
DEFAULT_255_1_234
10
23.9028468
20
153.213273
40
0.2370698
50
89.8751008
51
126.2071704
0
ARC
8
DEFAULT_255_1_234
10
23.9074258
20
153.1978303
40
0.2522934
50
124.9745049
51
144.895901
0
ARC
8
DEFAULT_255_1_234
10
23.8898449
20
153.212156
40
0.2296779
50
145.2974905
51
160.2660252
0
ARC
8
DEFAULT_255_1_234
10
24.1970987
20
153.2319071
40
0.5234525
50
179.6514266
51
190.2855912
0
ARC
8
DEFAULT_255_1_234
10
24.0277125
20
153.1999786
40
0.3510893
50
190.0945431
51
207.5098196
0
ARC
8
DEFAULT_255_1_234
10
23.9711394
20
153.1730623
40
0.288489
50
207.9583163
51
216.3251085
0
ARC
8
DEFAULT_255_1_234
10
23.9371502
20
153.1451105
40
0.2445587
50
215.7661442
51
232.5456785
0
ARC
8
DEFAULT_255_1_234
10
23.8988485
20
153.0964482
40
0.1826382
50
232.8005391
51
270.6605633
0
ARC
8
DEFAULT_255_1_234
10
23.9034186
20
153.1328612
40
0.2190529
50
269.35537
51
288.4744281
0
ARC
8
DEFAULT_255_1_234
10
23.9127083
20
153.0979118
40
0.1829749
50
289.1833337
51
322.9683818
0
ARC
8
DEFAULT_255_1_234
10
23.8515606
20
153.1461391
40
0.2608399
50
322.6007884
51
346.5182367
0
ARC
8
DEFAULT_255_1_234
10
23.7358201
20
153.1756616
40
0.3802777
50
346.2582162
51
358.7741648
0
ARC
8
DEFAULT_255_1_234
10
23.633987
20
153.1811965
40
0.4822176
50
358.3755224
51
0.0098023
0
ARC
8
DEFAULT_255_1_234
10
23.7096058
20
153.1839657
40
0.4066078
50
359.6214041
51
11.2839074
0
ARC
8
DEFAULT_255_1_234
10
23.8373204
20
153.2106066
40
0.2761514
50
11.0482309
51
31.8146458
0
ARC
8
DEFAULT_255_1_234
10
23.8682247
20
153.2273584
40
0.2410679
50
32.3035391
51
38.082671
0
ARC
8
DEFAULT_255_1_234
10
23.9102907
20
153.2654662
40
0.1844966
50
36.825067
51
85.7415724
0
ARC
8
DEFAULT_255_1_234
10
23.9035741
20
153.2154301
40
0.2349122
50
85.0140713
51
90.0513278
0
LINE
8
DEFAULT_255_1_234
10
23.1291293
20
158.0987
11
23.0174881
21
158.4039061
0
LINE
8
DEFAULT_255_1_234
10
23.0174881
20
158.4039061
11
22.5275521
21
158.4039061
0
LINE
8
DEFAULT_255_1_234
10
22.5275521
20
158.4039061
11
22.4175173
21
158.0987
0
LINE
8
DEFAULT_255_1_234
10
22.4175173
20
158.0987
11
22.2584889
21
158.0987
0
LINE
8
DEFAULT_255_1_234
10
22.2584889
20
158.0987
11
22.7050535
21
159.2681211
0
LINE
8
DEFAULT_255_1_234
10
22.7050535
20
159.2681211
11
22.8399867
21
159.2681211
0
LINE
8
DEFAULT_255_1_234
10
22.8399867
20
159.2681211
11
23.2873545
21
158.0987
0
LINE
8
DEFAULT_255_1_234
10
23.2873545
20
158.0987
11
23.1291293
21
158.0987
0
LINE
8
DEFAULT_255_1_234
10
22.7725201
20
159.0777689
11
22.5741362
21
158.5308075
0
LINE
8
DEFAULT_255_1_234
10
22.5741362
20
158.5308075
11
22.9717072
21
158.5308075
0
LINE
8
DEFAULT_255_1_234
10
22.9717072
20
158.5308075
11
22.7725201
21
159.0777689
0
LINE
8
DEFAULT_255_1_234
10
23.9628237
20
159.2689243
11
23.9893285
21
159.2689243
0
LINE
8
DEFAULT_255_1_234
10
23.9893285
20
159.2689243
11
23.9893285
21
159.142826
0
LINE
8
DEFAULT_255_1_234
10
23.9893285
20
159.142826
11
23.9620206
21
159.142826
0
LINE
8
DEFAULT_255_1_234
10
23.4150592
20
158.5436583
11
23.4150592
21
158.6006836
0
LINE
8
DEFAULT_255_1_234
10
23.5644495
20
158.5814075
11
23.5644495
21
158.5267917
0
ARC
8
DEFAULT_255_1_234
10
23.9672553
20
158.6430455
40
0.4998079
50
90.6001036
51
104.514704
0
ARC
8
DEFAULT_255_1_234
10
23.9284069
20
158.7875131
40
0.3502176
50
104.2855254
51
133.862935
0
ARC
8
DEFAULT_255_1_234
10
23.9447826
20
158.776683
40
0.3693984
50
134.5302688
51
161.6210873
0
ARC
8
DEFAULT_255_1_234
10
24.1101015
20
158.7183895
40
0.5446739
50
161.2849839
51
174.2076652
0
ARC
8
DEFAULT_255_1_234
10
24.2507952
20
158.6989787
40
0.6866274
50
173.7810589
51
174.9254635
0
ARC
8
DEFAULT_255_1_234
10
23.7957784
20
158.5606839
40
0.3033419
50
95.8330959
51
138.9954921
0
ARC
8
DEFAULT_255_1_234
10
23.818114
20
158.4328375
40
0.4328947
50
89.8753725
51
97.0544009
0
ARC
8
DEFAULT_255_1_234
10
23.8228606
20
158.5163748
40
0.3493769
50
71.6407809
51
90.6240094
0
ARC
8
DEFAULT_255_1_234
10
23.837918
20
158.5718082
40
0.2920396
50
39.6367836
51
71.019018
0
ARC
8
DEFAULT_255_1_234
10
23.7742653
20
158.5167998
40
0.3761538
50
10.658731
51
39.9043955
0
ARC
8
DEFAULT_255_1_234
10
23.6194735
20
158.4831686
40
0.5345136
50
359.682601
51
11.132623
0
ARC
8
DEFAULT_255_1_234
10
23.6154866
20
158.476101
40
0.5385081
50
347.2486944
51
0.4369317
0
ARC
8
DEFAULT_255_1_234
10
23.7822343
20
158.4359807
40
0.3670249
50
318.1409698
51
347.6118597
0
ARC
8
DEFAULT_255_1_234
10
23.8147336
20
158.4092702
40
0.3250007
50
275.6342139
51
317.8248465
0
ARC
8
DEFAULT_255_1_234
10
23.7926448
20
158.5392219
40
0.4565864
50
269.8874292
51
276.7917694
0
ARC
8
DEFAULT_255_1_234
10
23.7871518
20
158.4366743
40
0.3540676
50
246.9140195
51
270.7437342
0
ARC
8
DEFAULT_255_1_234
10
23.7877909
20
158.4224384
40
0.3412781
50
218.1665114
51
245.878116
0
ARC
8
DEFAULT_255_1_234
10
23.8757369
20
158.4960279
40
0.455911
50
191.4115814
51
218.6077802
0
ARC
8
DEFAULT_255_1_234
10
24.0695459
20
158.5394833
40
0.6545001
50
179.6345085
51
191.7836486
0
ARC
8
DEFAULT_255_1_234
10
24.6277795
20
158.6073697
40
1.2127388
50
171.4525249
51
180.3158839
0
ARC
8
DEFAULT_255_1_234
10
24.1882671
20
158.6757608
40
0.7679464
50
157.9802646
51
171.6246686
0
ARC
8
DEFAULT_255_1_234
10
23.9668692
20
158.7640421
40
0.5296008
50
141.4298019
51
157.854097
0
ARC
8
DEFAULT_255_1_234
10
23.9027013
20
158.8094381
40
0.4511509
50
102.8715806
51
140.8564722
0
ARC
8
DEFAULT_255_1_234
10
23.9674628
20
158.5654552
40
0.7034845
50
90.3778349
51
103.5869322
0
ARC
8
DEFAULT_255_1_234
10
23.7936404
20
158.504973
40
0.2370698
50
89.8751008
51
126.2071704
0
ARC
8
DEFAULT_255_1_234
10
23.7982194
20
158.4895303
40
0.2522934
50
124.9745049
51
144.895901
0
ARC
8
DEFAULT_255_1_234
10
23.7806385
20
158.503856
40
0.2296779
50
145.2974905
51
160.2660252
0
ARC
8
DEFAULT_255_1_234
10
24.0878923
20
158.5236071
40
0.5234525
50
179.6514266
51
190.2855912
0
ARC
8
DEFAULT_255_1_234
10
23.9185061
20
158.4916786
40
0.3510893
50
190.0945431
51
207.5098196
0
ARC
8
DEFAULT_255_1_234
10
23.861933
20
158.4647623
40
0.288489
50
207.9583163
51
216.3251085
0
ARC
8
DEFAULT_255_1_234
10
23.8279438
20
158.4368105
40
0.2445587
50
215.7661442
51
232.5456785
0
ARC
8
DEFAULT_255_1_234
10
23.7896421
20
158.3881482
40
0.1826382
50
232.8005391
51
270.6605633
0
ARC
8
DEFAULT_255_1_234
10
23.7942122
20
158.4245612
40
0.2190529
50
269.35537
51
288.4744281
0
ARC
8
DEFAULT_255_1_234
10
23.8035019
20
158.3896118
40
0.1829749
50
289.1833337
51
322.9683818
0
ARC
8
DEFAULT_255_1_234
10
23.7423542
20
158.4378391
40
0.2608399
50
322.6007884
51
346.5182367
0
ARC
8
DEFAULT_255_1_234
10
23.6266137
20
158.4673616
40
0.3802777
50
346.2582162
51
358.7741648
0
ARC
8
DEFAULT_255_1_234
10
23.5247806
20
158.4728965
40
0.4822176
50
358.3755224
51
0.0098023
0
ARC
8
DEFAULT_255_1_234
10
23.6003994
20
158.4756657
40
0.4066078
50
359.6214041
51
11.2839074
0
ARC
8
DEFAULT_255_1_234
10
23.728114
20
158.5023066
40
0.2761514
50
11.0482309
51
31.8146458
0
ARC
8
DEFAULT_255_1_234
10
23.7590183
20
158.5190584
40
0.2410679
50
32.3035391
51
38.082671
0
ARC
8
DEFAULT_255_1_234
10
23.8010843
20
158.5571662
40
0.1844966
50
36.825067
51
85.7415724
0
ARC
8
DEFAULT_255_1_234
10
23.7943677
20
158.5071301
40
0.2349122
50
85.0140713
51
90.0513278
0
ENDSEC
0
EOF