0
SECTION
2
HEADER
9
$MEASUREMENT
70
1
0
ENDSEC
0
SECTION
2
TABLES
0
TABLE
2
LTYPE
0
LTYPE
72
65
70
64
2
CONTINUOUS
3
______
73
0
40
0
0
ENDTAB
0
TABLE
2
LAYER
0
LAYER
2
DEFAULT_255_2_778
70
0
62
255
6
CONTINUOUS
0
ENDTAB
0
ENDSEC
0
SECTION
2
ENTITIES
0
ARC
8
DEFAULT_255_2_778
10
27.5551284
20
0.3188632
40
0.5000543
50
270.0062229
51
359.9937886
0
ARC
8
DEFAULT_255_2_778
10
0.7551549
20
0.3187261
40
0.4999171
50
225.0198434
51
270.0146404
0
ARC
8
DEFAULT_255_2_778
10
0.7551871
20
0.3188174
40
0.5000044
50
180.0009694
51
225.0246354
0
LINE
8
DEFAULT_255_2_778
10
28.0469827
20
80.5828089
11
28.0551827
21
19.8189089
0
LINE
8
DEFAULT_255_2_778
10
28.0551827
20
19.8189089
11
28.0551827
21
13.8189089
0
LINE
8
DEFAULT_255_2_778
10
28.0551827
20
13.8189089
11
28.0551827
21
0.3188089
0
LINE
8
DEFAULT_255_2_778
10
27.5551827
20
-0.1811911
11
0.7552827
21
-0.1811911
0
LINE
8
DEFAULT_255_2_778
10
0.2551827
20
0.3188089
11
0.2551827
21
13.8189089
0
LINE
8
DEFAULT_255_2_778
10
0.2551827
20
13.8189089
11
0.2551827
21
19.8189089
0
LINE
8
DEFAULT_255_2_778
10
0.2551827
20
19.8189089
11
0.2551827
21
80.1188089
0
LINE
8
DEFAULT_255_2_778
10
0.2551827
20
80.1188089
11
0.2657827
21
80.5580089
0
LINE
8
DEFAULT_255_2_778
10
0.6215827
20
105.8188089
11
27.5564827
21
105.8188089
0
LINE
8
DEFAULT_255_2_778
10
27.5564827
20
105.8188089
11
27.6636827
21
105.8072089
0
LINE
8
DEFAULT_255_2_778
10
27.6636827
20
105.8072089
11
27.7445827
21
105.7818089
0
LINE
8
DEFAULT_255_2_778
10
27.7445827
20
105.7818089
11
27.9041827
21
105.6540089
0
LINE
8
DEFAULT_255_2_778
10
27.9041827
20
105.6540089
11
27.9969827
21
105.5071089
0
LINE
8
DEFAULT_255_2_778
10
27.9969827
20
105.5071089
11
28.0443827
21
105.2846089
0
LINE
8
DEFAULT_255_2_778
10
28.0443827
20
105.2846089
11
28.0443827
21
80.5191089
0
LINE
8
DEFAULT_255_2_778
10
28.0443827
20
80.5191089
11
28.0334827
21
80.4529089
0
LINE
8
DEFAULT_255_2_778
10
28.0334827
20
80.4529089
11
27.9990827
21
80.3902089
0
LINE
8
DEFAULT_255_2_778
10
27.9990827
20
80.3902089
11
27.9403827
21
80.3415089
0
LINE
8
DEFAULT_255_2_778
10
27.9403827
20
80.3415089
11
27.8509827
21
80.3188089
0
LINE
8
DEFAULT_255_2_778
10
27.8509827
20
80.3188089
11
27.7585827
21
80.3188089
0
LINE
8
DEFAULT_255_2_778
10
0.5512827
20
80.3188089
11
0.4591827
21
80.3188089
0
LINE
8
DEFAULT_255_2_778
10
0.4591827
20
80.3188089
11
0.3697827
21
80.3415089
0
LINE
8
DEFAULT_255_2_778
10
0.3697827
20
80.3415089
11
0.3109827
21
80.3902089
0
LINE
8
DEFAULT_255_2_778
10
0.3109827
20
80.3902089
11
0.2765827
21
80.4529089
0
LINE
8
DEFAULT_255_2_778
10
0.2765827
20
80.4529089
11
0.2657827
21
80.5191089
0
LINE
8
DEFAULT_255_2_778
10
0.2657827
20
80.5191089
11
0.2657827
21
105.2846089
0
LINE
8
DEFAULT_255_2_778
10
0.2657827
20
105.2846089
11
0.2834827
21
105.4214089
0
LINE
8
DEFAULT_255_2_778
10
0.2834827
20
105.4214089
11
0.3461827
21
105.5709089
0
LINE
8
DEFAULT_255_2_778
10
0.3461827
20
105.5709089
11
0.4334827
21
105.6833089
0
LINE
8
DEFAULT_255_2_778
10
0.4334827
20
105.6833089
11
0.5218827
21
105.7841089
0
LINE
8
DEFAULT_255_2_778
10
0.5218827
20
105.7841089
11
0.5631827
21
105.8005089
0
LINE
8
DEFAULT_255_2_778
10
0.5631827
20
105.8005089
11
0.6210827
21
105.8169089
0
ARC
8
DEFAULT_255_2_778
10
23.8941355
20
3.0953918
40
0.700042
50
359.9952423
51
90.0047495
0
ARC
8
DEFAULT_255_2_778
10
4.2944755
20
3.0951358
40
0.7002979
50
90.0161982
51
179.9838117
0
LINE
8
DEFAULT_255_2_778
10
0.4797775
20
52.9949336
11
0.3874775
21
52.9949336
0
LINE
8
DEFAULT_255_2_778
10
27.8009775
20
52.9949336
11
27.7085775
21
52.9949336
0
LINE
8
DEFAULT_255_2_778
10
1.0441775
20
52.4949336
11
1.0441775
21
52.9949336
0
LINE
8
DEFAULT_255_2_778
10
27.1442775
20
52.9949336
11
27.1442775
21
52.4949336
0
LINE
8
DEFAULT_255_2_778
10
0.2551775
20
53.1947336
11
0.2551775
21
52.4946336
0
LINE
8
DEFAULT_255_2_778
10
0.2551775
20
52.4946336
11
0.6946775
21
52.4946336
0
LINE
8
DEFAULT_255_2_778
10
27.4945775
20
52.4949336
11
27.9945775
21
52.4949336
0
LINE
8
DEFAULT_255_2_778
10
27.9945775
20
52.4949336
11
27.9945775
21
52.9836336
0
LINE
8
DEFAULT_255_2_778
10
24.5941775
20
0.2952336
11
24.5941775
21
3.0953336
0
LINE
8
DEFAULT_255_2_778
10
23.8940775
20
3.7954336
11
4.2942775
21
3.7954336
0
ARC
8
DEFAULT_255_2_778
10
9.178054
20
17.0669602
40
0.2000087
50
90.0025383
51
179.9974963
0
ARC
8
DEFAULT_255_2_778
10
9.1780754
20
14.1559992
40
0.2000302
50
179.9800103
51
269.9913489
0
ARC
8
DEFAULT_255_2_778
10
9.178054
20
26.1228777
40
0.2000087
50
180.0025037
51
269.9974617
0
ARC
8
DEFAULT_255_2_778
10
9.1490498
20
29.0340463
40
0.1708049
50
179.9689991
51
180.0930159
0
ARC
8
DEFAULT_255_2_778
10
9.1779768
20
29.0341372
40
0.1997319
50
89.9803786
51
179.9995791
0
ARC
8
DEFAULT_255_2_778
10
13.7952754
20
15.0441992
40
0.2000302
50
179.9800103
51
269.9913489
0
ARC
8
DEFAULT_255_2_778
10
21.9146594
20
27.7537857
40
0.1795833
50
44.9543102
51
90.0364359
0
ARC
8
DEFAULT_255_2_778
10
21.9148619
20
27.7535832
40
0.1795833
50
359.9635641
51
45.0456898
0
ARC
8
DEFAULT_255_2_778
10
21.9144858
20
15.4374712
40
0.1800022
50
270.0188852
51
314.9903574
0
ARC
8
DEFAULT_255_2_778
10
21.9146884
20
15.4373268
40
0.1797568
50
314.9772282
51
0.0134614
0
ARC
8
DEFAULT_255_2_778
10
13.7945395
20
28.1455748
40
0.2000942
50
90.0270066
51
180.0016544
0
ARC
8
DEFAULT_255_2_778
10
17.7944149
20
28.1456387
40
0.2000303
50
359.9800233
51
89.991336
0
ARC
8
DEFAULT_255_2_778
10
17.7944362
20
15.0444778
40
0.200009
50
270.0025728
51
359.9974618
0
ARC
8
DEFAULT_255_2_778
10
21.9148619
20
15.4594832
40
0.1795833
50
359.9635641
51
45.0456898
0
ARC
8
DEFAULT_255_2_778
10
21.9144858
20
15.4592668
40
0.1800022
50
45.0096426
51
89.9811148
0
ARC
8
DEFAULT_255_2_778
10
21.9146594
20
27.7309523
40
0.1795833
50
269.9635641
51
315.0456898
0
ARC
8
DEFAULT_255_2_778
10
21.9148619
20
27.7311548
40
0.1795833
50
314.9543102
51
0.0364359
0
ARC
8
DEFAULT_255_2_778
10
2.5593259
20
28.9296925
40
0.9962817
50
138.352397
51
180.0818679
0
ARC
8
DEFAULT_255_2_778
10
2.5620908
20
28.9305883
40
0.9977557
50
91.7308645
51
138.4963478
0
ARC
8
DEFAULT_255_2_778
10
2.5632355
20
28.9092452
40
1.0191238
50
89.9994553
51
91.7589451
0
ARC
8
DEFAULT_255_2_778
10
2.5618006
20
25.9247449
40
0.996477
50
228.3575081
51
270.0830578
0
ARC
8
DEFAULT_255_2_778
10
2.5606651
20
25.9272475
40
0.9975959
50
181.7327121
51
228.5017548
0
ARC
8
DEFAULT_255_2_778
10
2.5818044
20
25.9283593
40
1.0187592
50
179.9994554
51
181.7592612
0
LINE
8
DEFAULT_255_2_778
10
27.4943452
20
52.495169
11
0.6944452
21
52.495169
0
LINE
8
DEFAULT_255_2_778
10
25.2448452
20
70.694869
11
3.1698452
21
70.694869
0
LINE
8
DEFAULT_255_2_778
10
3.1698452
20
70.694869
11
2.9457452
21
70.753869
0
LINE
8
DEFAULT_255_2_778
10
2.9457452
20
70.753869
11
3.0868452
21
70.894869
0
LINE
8
DEFAULT_255_2_778
10
3.0868452
20
70.894869
11
25.1628452
21
70.894869
0
LINE
8
DEFAULT_255_2_778
10
25.1628452
20
70.894869
11
25.2448452
21
70.694869
0
LINE
8
DEFAULT_255_2_778
10
17.0946452
20
26.717669
11
17.4946452
21
26.775869
0
LINE
8
DEFAULT_255_2_778
10
17.4946452
20
26.775869
11
17.4946452
21
26.835969
0
LINE
8
DEFAULT_255_2_778
10
17.4946452
20
26.835969
11
17.4946452
21
26.932769
0
LINE
8
DEFAULT_255_2_778
10
17.4946452
20
26.932769
11
17.4946452
21
27.825469
0
LINE
8
DEFAULT_255_2_778
10
17.4946452
20
27.825469
11
17.4946452
21
28.295369
0
LINE
8
DEFAULT_255_2_778
10
14.0948452
20
28.295369
11
14.0948452
21
27.825469
0
LINE
8
DEFAULT_255_2_778
10
14.0948452
20
27.825469
11
14.0948452
21
26.932769
0
LINE
8
DEFAULT_255_2_778
10
14.0948452
20
26.932769
11
14.0948452
21
26.835969
0
LINE
8
DEFAULT_255_2_778
10
14.0948452
20
26.835969
11
14.0948452
21
26.775569
0
LINE
8
DEFAULT_255_2_778
10
14.0948452
20
26.775569
11
14.4948452
21
26.717369
0
LINE
8
DEFAULT_255_2_778
10
17.4949452
20
14.894469
11
17.4949452
21
15.364369
0
LINE
8
DEFAULT_255_2_778
10
17.4949452
20
15.364369
11
17.4949452
21
16.257369
0
LINE
8
DEFAULT_255_2_778
10
17.4949452
20
16.257369
11
17.4949452
21
16.354169
0
LINE
8
DEFAULT_255_2_778
10
17.4949452
20
16.354169
11
17.4949452
21
16.414469
0
LINE
8
DEFAULT_255_2_778
10
17.4949452
20
16.414469
11
17.0951452
21
16.472769
0
LINE
8
DEFAULT_255_2_778
10
17.0951452
20
16.472769
11
14.4951452
21
16.472769
0
LINE
8
DEFAULT_255_2_778
10
14.4951452
20
16.472769
11
14.0953452
21
16.414469
0
LINE
8
DEFAULT_255_2_778
10
14.0953452
20
16.414469
11
14.0953452
21
16.354169
0
LINE
8
DEFAULT_255_2_778
10
14.0953452
20
16.354169
11
14.0953452
21
16.257369
0
LINE
8
DEFAULT_255_2_778
10
14.0953452
20
16.257369
11
14.0953452
21
15.364369
0
LINE
8
DEFAULT_255_2_778
10
14.0953452
20
15.364369
11
14.0953452
21
14.894469
0
LINE
8
DEFAULT_255_2_778
10
22.0727452
20
13.607069
11
22.0727452
21
13.427069
0
LINE
8
DEFAULT_255_2_778
10
22.0727452
20
13.807069
11
22.0727452
21
13.627169
0
LINE
8
DEFAULT_255_2_778
10
22.0502452
20
13.717069
11
21.5502452
21
13.717069
0
LINE
8
DEFAULT_255_2_778
10
22.0727452
20
29.762969
11
22.0727452
21
29.583069
0
LINE
8
DEFAULT_255_2_778
10
22.0727452
20
29.562969
11
22.0727452
21
29.383069
0
LINE
8
DEFAULT_255_2_778
10
22.0502452
20
29.473069
11
21.5502452
21
29.473069
0
LINE
8
DEFAULT_255_2_778
10
11.3121452
20
17.266969
11
9.1780452
21
17.266969
0
LINE
8
DEFAULT_255_2_778
10
8.9780452
20
17.066969
11
8.9780452
21
14.156069
0
LINE
8
DEFAULT_255_2_778
10
9.1780452
20
13.955969
11
11.3121452
21
13.955969
0
LINE
8
DEFAULT_255_2_778
10
11.3121452
20
25.922869
11
9.1780452
21
25.922869
0
LINE
8
DEFAULT_255_2_778
10
8.9780452
20
26.122869
11
8.9782452
21
29.033769
0
LINE
8
DEFAULT_255_2_778
10
9.1780452
20
29.233869
11
11.3121452
21
29.233869
0
LINE
8
DEFAULT_255_2_778
10
8.6502452
20
19.308769
11
9.0502452
21
19.308769
0
LINE
8
DEFAULT_255_2_778
10
9.0502452
20
19.308769
11
10.4612452
21
19.308769
0
LINE
8
DEFAULT_255_2_778
10
10.4612452
20
19.308769
11
10.4612452
21
18.191169
0
LINE
8
DEFAULT_255_2_778
10
10.4612452
20
18.191169
11
12.1122452
21
18.191169
0
LINE
8
DEFAULT_255_2_778
10
12.1122452
20
18.191169
11
12.1122452
21
15.384269
0
LINE
8
DEFAULT_255_2_778
10
12.1122452
20
15.384269
11
13.5952452
21
15.384269
0
LINE
8
DEFAULT_255_2_778
10
13.5952452
20
15.384269
11
13.5952452
21
15.044269
0
LINE
8
DEFAULT_255_2_778
10
13.7952452
20
14.844169
11
14.0953452
21
14.844169
0
LINE
8
DEFAULT_255_2_778
10
14.0953452
20
14.844169
11
14.0953452
21
14.894269
0
LINE
8
DEFAULT_255_2_778
10
14.0953452
20
14.894269
11
13.8452452
21
14.894769
0
LINE
8
DEFAULT_255_2_778
10
8.6504452
20
25.798769
11
9.0505452
21
25.798769
0
LINE
8
DEFAULT_255_2_778
10
9.0505452
20
25.798769
11
11.3124452
21
25.798769
0
LINE
8
DEFAULT_255_2_778
10
11.3124452
20
25.798769
11
11.3124452
21
29.272769
0
LINE
8
DEFAULT_255_2_778
10
11.3124452
20
29.272769
11
11.3124452
21
29.672769
0
LINE
8
DEFAULT_255_2_778
10
19.4753452
20
17.149769
11
19.4753452
21
26.039769
0
LINE
8
DEFAULT_255_2_778
10
19.2253452
20
17.149769
11
19.2253452
21
26.039769
0
LINE
8
DEFAULT_255_2_778
10
15.2372452
20
26.717169
11
15.2372452
21
16.472469
0
LINE
8
DEFAULT_255_2_778
10
14.7292452
20
26.717169
11
14.7292452
21
16.472469
0
LINE
8
DEFAULT_255_2_778
10
22.5950452
20
13.392969
11
22.5950452
21
29.796869
0
LINE
8
DEFAULT_255_2_778
10
8.8502452
20
25.799069
11
8.8502452
21
29.532569
0
LINE
8
DEFAULT_255_2_778
10
8.8502452
20
29.532569
11
8.6502452
21
29.532569
0
LINE
8
DEFAULT_255_2_778
10
8.6502452
20
29.532569
11
8.6502452
21
13.657569
0
LINE
8
DEFAULT_255_2_778
10
8.6502452
20
13.657569
11
8.8502452
21
13.657569
0
LINE
8
DEFAULT_255_2_778
10
8.8502452
20
13.657569
11
8.8502452
21
17.391069
0
LINE
8
DEFAULT_255_2_778
10
9.2981452
20
23.877069
11
9.2981452
21
19.313069
0
LINE
8
DEFAULT_255_2_778
10
9.2981452
20
19.313069
11
9.5482452
21
19.563069
0
LINE
8
DEFAULT_255_2_778
10
9.5482452
20
19.563069
11
9.5482452
21
23.627069
0
LINE
8
DEFAULT_255_2_778
10
8.8872452
20
23.881069
11
8.8872452
21
19.309069
0
LINE
8
DEFAULT_255_2_778
10
8.8502452
20
23.881069
11
8.8502452
21
19.309069
0
LINE
8
DEFAULT_255_2_778
10
11.6291452
20
24.744669
11
11.6291452
21
18.445769
0
LINE
8
DEFAULT_255_2_778
10
21.4449452
20
30.295369
11
21.4449452
21
30.095369
0
LINE
8
DEFAULT_255_2_778
10
21.4449452
20
30.095369
11
20.7448452
21
30.095369
0
LINE
8
DEFAULT_255_2_778
10
20.7448452
20
30.095369
11
20.7448452
21
30.295369
0
LINE
8
DEFAULT_255_2_778
10
21.9447452
20
30.295369
11
21.9447452
21
30.095369
0
LINE
8
DEFAULT_255_2_778
10
21.9447452
20
30.095369
11
21.4446452
21
30.095369
0
LINE
8
DEFAULT_255_2_778
10
21.9497452
20
26.440669
11
22.0944452
21
26.440669
0
LINE
8
DEFAULT_255_2_778
10
21.9497452
20
21.303269
11
22.0944452
21
21.303269
0
LINE
8
DEFAULT_255_2_778
10
21.9497452
20
16.604769
11
22.0944452
21
16.604769
0
LINE
8
DEFAULT_255_2_778
10
21.9497452
20
19.271269
11
22.0944452
21
19.271269
0
LINE
8
DEFAULT_255_2_778
10
21.9497452
20
18.839169
11
22.0944452
21
18.839169
0
LINE
8
DEFAULT_255_2_778
10
21.9497452
20
20.871169
11
22.0944452
21
20.871169
0
LINE
8
DEFAULT_255_2_778
10
21.9497452
20
24.935169
11
22.0944452
21
24.935169
0
LINE
8
DEFAULT_255_2_778
10
21.9497452
20
25.367269
11
22.0944452
21
25.367269
0
LINE
8
DEFAULT_255_2_778
10
21.9497452
20
22.903169
11
22.0944452
21
22.903169
0
LINE
8
DEFAULT_255_2_778
10
21.9497452
20
23.335269
11
22.0944452
21
23.335269
0
LINE
8
DEFAULT_255_2_778
10
21.9497452
20
18.255269
11
22.0944452
21
18.255269
0
LINE
8
DEFAULT_255_2_778
10
21.9497452
20
17.823169
11
22.0944452
21
17.823169
0
LINE
8
DEFAULT_255_2_778
10
21.9497452
20
20.287269
11
22.0944452
21
20.287269
0
LINE
8
DEFAULT_255_2_778
10
21.9497452
20
19.855169
11
22.0944452
21
19.855169
0
LINE
8
DEFAULT_255_2_778
10
21.9497452
20
21.887169
11
22.0944452
21
21.887169
0
LINE
8
DEFAULT_255_2_778
10
21.9497452
20
22.319269
11
22.0944452
21
22.319269
0
LINE
8
DEFAULT_255_2_778
10
21.9497452
20
24.351269
11
22.0944452
21
24.351269
0
LINE
8
DEFAULT_255_2_778
10
21.9497452
20
23.919169
11
22.0944452
21
23.919169
0
LINE
8
DEFAULT_255_2_778
10
22.0944452
20
17.161169
11
21.9497452
21
17.157469
0
LINE
8
DEFAULT_255_2_778
10
21.7137452
20
27.551369
11
22.0944452
21
27.551369
0
LINE
8
DEFAULT_255_2_778
10
21.7137452
20
27.933369
11
21.9145452
21
27.933369
0
LINE
8
DEFAULT_255_2_778
10
21.7137452
20
28.313069
11
22.0944452
21
28.313069
0
LINE
8
DEFAULT_255_2_778
10
21.7137452
20
29.393169
11
22.0944452
21
29.393169
0
LINE
8
DEFAULT_255_2_778
10
21.7137452
20
15.257469
11
21.9145452
21
15.257469
0
LINE
8
DEFAULT_255_2_778
10
21.7137452
20
15.639269
11
22.0944452
21
15.639269
0
LINE
8
DEFAULT_255_2_778
10
21.7137452
20
14.877769
11
22.0944452
21
14.877769
0
LINE
8
DEFAULT_255_2_778
10
21.7137452
20
13.797769
11
22.0944452
21
13.797769
0
LINE
8
DEFAULT_255_2_778
10
17.0946452
20
26.717669
11
14.4945452
21
26.717669
0
LINE
8
DEFAULT_255_2_778
10
13.8445452
20
28.295069
11
14.0945452
21
28.295069
0
LINE
8
DEFAULT_255_2_778
10
14.0945452
20
28.295069
11
14.0945452
21
28.345669
0
LINE
8
DEFAULT_255_2_778
10
14.0945452
20
28.345669
11
13.7944452
21
28.345669
0
LINE
8
DEFAULT_255_2_778
10
13.5944452
20
28.145569
11
13.5944452
21
27.805669
0
LINE
8
DEFAULT_255_2_778
10
13.5944452
20
27.805669
11
12.1114452
21
27.805669
0
LINE
8
DEFAULT_255_2_778
10
12.1114452
20
27.805669
11
12.1114452
21
24.998669
0
LINE
8
DEFAULT_255_2_778
10
12.1114452
20
24.998669
11
10.4604452
21
24.998669
0
LINE
8
DEFAULT_255_2_778
10
10.4604452
20
24.998669
11
10.4604452
21
23.881069
0
LINE
8
DEFAULT_255_2_778
10
10.4604452
20
23.881069
11
9.0494452
21
23.881069
0
LINE
8
DEFAULT_255_2_778
10
9.0494452
20
23.881069
11
8.6496452
21
23.881069
0
LINE
8
DEFAULT_255_2_778
10
17.7444452
20
28.295069
11
17.4944452
21
28.295069
0
LINE
8
DEFAULT_255_2_778
10
17.4944452
20
28.295069
11
17.4944452
21
28.345669
0
LINE
8
DEFAULT_255_2_778
10
17.4944452
20
28.345669
11
17.7944452
21
28.345669
0
LINE
8
DEFAULT_255_2_778
10
17.9944452
20
28.145569
11
17.9944452
21
27.805669
0
LINE
8
DEFAULT_255_2_778
10
17.9944452
20
27.805669
11
19.4774452
21
27.805669
0
LINE
8
DEFAULT_255_2_778
10
19.4774452
20
27.805669
11
19.4774452
21
15.384469
0
LINE
8
DEFAULT_255_2_778
10
19.4774452
20
15.384469
11
17.9944452
21
15.384469
0
LINE
8
DEFAULT_255_2_778
10
17.9944452
20
15.384469
11
17.9944452
21
15.044469
0
LINE
8
DEFAULT_255_2_778
10
17.7944452
20
14.844469
11
17.4944452
21
14.844469
0
LINE
8
DEFAULT_255_2_778
10
17.4944452
20
14.844469
11
17.4944452
21
14.894469
0
LINE
8
DEFAULT_255_2_778
10
17.4944452
20
14.894469
11
17.7444452
21
14.894969
0
LINE
8
DEFAULT_255_2_778
10
17.7444452
20
27.945069
11
17.4944452
21
27.945069
0
LINE
8
DEFAULT_255_2_778
10
13.8445452
20
15.245069
11
14.0945452
21
15.245069
0
LINE
8
DEFAULT_255_2_778
10
17.4944452
20
15.245069
11
17.7444452
21
15.245069
0
LINE
8
DEFAULT_255_2_778
10
19.2245452
20
23.919169
11
15.8984452
21
23.919169
0
LINE
8
DEFAULT_255_2_778
10
15.8984452
20
23.919169
11
15.8984452
21
24.350969
0
LINE
8
DEFAULT_255_2_778
10
15.8984452
20
24.350969
11
19.2245452
21
24.350969
0
LINE
8
DEFAULT_255_2_778
10
19.2245452
20
23.334969
11
15.8984452
21
23.334969
0
LINE
8
DEFAULT_255_2_778
10
15.8984452
20
23.334969
11
15.8984452
21
22.903169
0
LINE
8
DEFAULT_255_2_778
10
15.8984452
20
22.903169
11
19.2245452
21
22.903169
0
LINE
8
DEFAULT_255_2_778
10
19.2245452
20
21.887169
11
15.8984452
21
21.887169
0
LINE
8
DEFAULT_255_2_778
10
15.8984452
20
21.887169
11
15.8984452
21
22.318969
0
LINE
8
DEFAULT_255_2_778
10
15.8984452
20
22.318969
11
19.2245452
21
22.318969
0
LINE
8
DEFAULT_255_2_778
10
19.2245452
20
17.823169
11
15.8984452
21
17.823169
0
LINE
8
DEFAULT_255_2_778
10
15.8984452
20
17.823169
11
15.8984452
21
18.254969
0
LINE
8
DEFAULT_255_2_778
10
15.8984452
20
18.254969
11
19.2245452
21
18.254969
0
LINE
8
DEFAULT_255_2_778
10
19.2245452
20
19.270969
11
15.8984452
21
19.270969
0
LINE
8
DEFAULT_255_2_778
10
15.8984452
20
19.270969
11
15.8984452
21
18.839169
0
LINE
8
DEFAULT_255_2_778
10
15.8984452
20
18.839169
11
19.2245452
21
18.839169
0
LINE
8
DEFAULT_255_2_778
10
19.2245452
20
19.855169
11
15.8984452
21
19.855169
0
LINE
8
DEFAULT_255_2_778
10
15.8984452
20
19.855169
11
15.8984452
21
20.286969
0
LINE
8
DEFAULT_255_2_778
10
15.8984452
20
20.286969
11
19.2245452
21
20.286969
0
LINE
8
DEFAULT_255_2_778
10
19.2245452
20
20.871169
11
15.8984452
21
20.871169
0
LINE
8
DEFAULT_255_2_778
10
15.8984452
20
20.871169
11
15.8984452
21
21.302969
0
LINE
8
DEFAULT_255_2_778
10
15.8984452
20
21.302969
11
19.2245452
21
21.302969
0
LINE
8
DEFAULT_255_2_778
10
19.2245452
20
25.366969
11
15.8984452
21
25.366969
0
LINE
8
DEFAULT_255_2_778
10
15.8984452
20
25.366969
11
15.8984452
21
24.935169
0
LINE
8
DEFAULT_255_2_778
10
15.8984452
20
24.935169
11
19.2245452
21
24.935169
0
LINE
8
DEFAULT_255_2_778
10
19.5341452
20
30.295069
11
19.6476452
21
29.960369
0
LINE
8
DEFAULT_255_2_778
10
19.6476452
20
29.960369
11
19.7275452
21
29.748969
0
LINE
8
DEFAULT_255_2_778
10
19.7275452
20
29.748969
11
19.8275452
21
29.673069
0
LINE
8
DEFAULT_255_2_778
10
17.5730452
20
30.295069
11
17.4595452
21
29.960369
0
LINE
8
DEFAULT_255_2_778
10
17.4595452
20
29.960369
11
17.3796452
21
29.748969
0
LINE
8
DEFAULT_255_2_778
10
17.3796452
20
29.748969
11
17.2785452
21
29.673069
0
LINE
8
DEFAULT_255_2_778
10
17.5730452
20
12.895069
11
17.4595452
21
13.229769
0
LINE
8
DEFAULT_255_2_778
10
17.4595452
20
13.229769
11
17.3796452
21
13.441169
0
LINE
8
DEFAULT_255_2_778
10
17.3796452
20
13.441169
11
17.2785452
21
13.517069
0
LINE
8
DEFAULT_255_2_778
10
19.5338452
20
12.895069
11
19.6473452
21
13.229769
0
LINE
8
DEFAULT_255_2_778
10
19.6473452
20
13.229769
11
19.7272452
21
13.441169
0
LINE
8
DEFAULT_255_2_778
10
19.7272452
20
13.441169
11
19.8272452
21
13.517069
0
LINE
8
DEFAULT_255_2_778
10
10.9687452
20
12.895069
11
10.8552452
21
13.229769
0
LINE
8
DEFAULT_255_2_778
10
10.8552452
20
13.229769
11
10.7753452
21
13.441169
0
LINE
8
DEFAULT_255_2_778
10
10.7753452
20
13.441169
11
10.6742452
21
13.517069
0
LINE
8
DEFAULT_255_2_778
10
12.9295452
20
12.895069
11
13.0430452
21
13.229769
0
LINE
8
DEFAULT_255_2_778
10
13.0430452
20
13.229769
11
13.1229452
21
13.441169
0
LINE
8
DEFAULT_255_2_778
10
13.1229452
20
13.441169
11
13.2229452
21
13.517069
0
LINE
8
DEFAULT_255_2_778
10
12.9293452
20
30.295069
11
13.0428452
21
29.960369
0
LINE
8
DEFAULT_255_2_778
10
13.0428452
20
29.960369
11
13.1227452
21
29.748969
0
LINE
8
DEFAULT_255_2_778
10
13.1227452
20
29.748969
11
13.2227452
21
29.673069
0
LINE
8
DEFAULT_255_2_778
10
10.9682452
20
30.295069
11
10.8547452
21
29.960369
0
LINE
8
DEFAULT_255_2_778
10
10.8547452
20
29.960369
11
10.7748452
21
29.748969
0
LINE
8
DEFAULT_255_2_778
10
10.7748452
20
29.748969
11
10.6737452
21
29.673069
0
LINE
8
DEFAULT_255_2_778
10
8.1935452
20
25.611969
11
8.3853452
21
25.553269
0
LINE
8
DEFAULT_255_2_778
10
8.3853452
20
25.553269
11
8.6470452
21
25.395269
0
LINE
8
DEFAULT_255_2_778
10
8.1937452
20
27.740269
11
8.3856452
21
27.799269
0
LINE
8
DEFAULT_255_2_778
10
8.3856452
20
27.799269
11
8.6472452
21
27.957269
0
LINE
8
DEFAULT_255_2_778
10
8.1940452
20
15.404369
11
8.3858452
21
15.345369
0
LINE
8
DEFAULT_255_2_778
10
8.3858452
20
15.345369
11
8.6475452
21
15.187369
0
LINE
8
DEFAULT_255_2_778
10
8.1943452
20
17.532069
11
8.3861452
21
17.590869
0
LINE
8
DEFAULT_255_2_778
10
8.3861452
20
17.590869
11
8.6478452
21
17.748769
0
LINE
8
DEFAULT_255_2_778
10
8.1945452
20
20.507869
11
8.3864452
21
20.449169
0
LINE
8
DEFAULT_255_2_778
10
8.3864452
20
20.449169
11
8.6480452
21
20.291169
0
LINE
8
DEFAULT_255_2_778
10
8.1948452
20
22.636169
11
8.3866452
21
22.694969
0
LINE
8
DEFAULT_255_2_778
10
8.3866452
20
22.694969
11
8.6483452
21
22.852869
0
LINE
8
DEFAULT_255_2_778
10
13.5952452
20
27.805669
11
13.5952452
21
27.801169
0
LINE
8
DEFAULT_255_2_778
10
13.5952452
20
27.801169
11
13.8452452
21
27.551069
0
LINE
8
DEFAULT_255_2_778
10
13.8452452
20
27.551069
11
13.8452452
21
28.345669
0
LINE
8
DEFAULT_255_2_778
10
17.7452452
20
28.345669
11
17.7452452
21
27.551069
0
LINE
8
DEFAULT_255_2_778
10
13.5952452
20
15.384469
11
13.5952452
21
15.388969
0
LINE
8
DEFAULT_255_2_778
10
13.5952452
20
15.388969
11
13.8452452
21
15.639069
0
LINE
8
DEFAULT_255_2_778
10
13.8452452
20
15.639069
11
13.8452452
21
14.844469
0
LINE
8
DEFAULT_255_2_778
10
17.7452452
20
15.639069
11
17.7452452
21
14.844469
0
LINE
8
DEFAULT_255_2_778
10
8.1951452
20
28.749669
11
8.6504452
21
28.749669
0
LINE
8
DEFAULT_255_2_778
10
8.1951452
20
25.285469
11
8.6504452
21
25.285469
0
LINE
8
DEFAULT_255_2_778
10
22.2283452
20
12.763569
11
22.5823452
21
12.913069
0
LINE
8
DEFAULT_255_2_778
10
22.5823452
20
12.913069
11
22.7263452
21
13.261769
0
LINE
8
DEFAULT_255_2_778
10
22.7263452
20
13.261769
11
22.7263452
21
29.928369
0
LINE
8
DEFAULT_255_2_778
10
22.7263452
20
29.928369
11
22.5773452
21
30.282369
0
LINE
8
DEFAULT_255_2_778
10
22.5773452
20
30.282369
11
22.2283452
21
30.426569
0
LINE
8
DEFAULT_255_2_778
10
22.2283452
20
30.426569
11
8.5610452
21
30.426569
0
LINE
8
DEFAULT_255_2_778
10
8.5610452
20
30.426569
11
8.2075452
21
30.277069
0
LINE
8
DEFAULT_255_2_778
10
8.2075452
20
30.277069
11
8.0625452
21
29.928369
0
LINE
8
DEFAULT_255_2_778
10
8.0625452
20
29.928369
11
8.0630452
21
13.261969
0
LINE
8
DEFAULT_255_2_778
10
8.0630452
20
13.261969
11
8.2075452
21
12.913269
0
LINE
8
DEFAULT_255_2_778
10
8.2075452
20
12.913269
11
8.2125452
21
12.907969
0
LINE
8
DEFAULT_255_2_778
10
8.2125452
20
12.907969
11
8.5615452
21
12.763769
0
LINE
8
DEFAULT_255_2_778
10
8.5615452
20
12.763769
11
22.2283452
21
12.763569
0
LINE
8
DEFAULT_255_2_778
10
22.5953452
20
29.796569
11
22.4514452
21
30.145369
0
LINE
8
DEFAULT_255_2_778
10
22.4514452
20
30.145369
11
22.0973452
21
30.294869
0
LINE
8
DEFAULT_255_2_778
10
22.0973452
20
30.294869
11
8.6922452
21
30.294869
0
LINE
8
DEFAULT_255_2_778
10
8.6922452
20
30.294869
11
8.3435452
21
30.150669
0
LINE
8
DEFAULT_255_2_778
10
8.3435452
20
30.150669
11
8.1945452
21
29.796569
0
LINE
8
DEFAULT_255_2_778
10
8.1945452
20
29.796569
11
8.1943452
21
13.392669
0
LINE
8
DEFAULT_255_2_778
10
8.1943452
20
13.392669
11
8.3385452
21
13.043969
0
LINE
8
DEFAULT_255_2_778
10
8.3385452
20
13.043969
11
8.6925452
21
12.894769
0
LINE
8
DEFAULT_255_2_778
10
8.6925452
20
12.894769
11
22.0960452
21
12.894769
0
LINE
8
DEFAULT_255_2_778
10
22.0960452
20
12.894769
11
22.4445452
21
13.038969
0
LINE
8
DEFAULT_255_2_778
10
22.4445452
20
13.038969
11
22.4506452
21
13.044269
0
LINE
8
DEFAULT_255_2_778
10
22.4506452
20
13.044269
11
22.5945452
21
13.392969
0
LINE
8
DEFAULT_255_2_778
10
8.8494452
20
29.532269
11
9.0113452
21
29.532269
0
LINE
8
DEFAULT_255_2_778
10
8.8494452
20
13.657269
11
9.0113452
21
13.657269
0
LINE
8
DEFAULT_255_2_778
10
9.0113452
20
13.716869
11
9.0113452
21
13.797269
0
LINE
8
DEFAULT_255_2_778
10
9.0113452
20
29.472769
11
9.0113452
21
29.392369
0
LINE
8
DEFAULT_255_2_778
10
22.0944452
20
24.694869
11
22.0915452
21
24.727769
0
LINE
8
DEFAULT_255_2_778
10
22.0915452
20
24.727769
11
21.9505452
21
24.886969
0
LINE
8
DEFAULT_255_2_778
10
21.9505452
20
18.303069
11
22.0944452
21
18.495169
0
LINE
8
DEFAULT_255_2_778
10
11.3113452
20
13.517069
11
11.3113452
21
13.917069
0
LINE
8
DEFAULT_255_2_778
10
11.3113452
20
13.917069
11
11.3113452
21
17.391069
0
LINE
8
DEFAULT_255_2_778
10
11.3113452
20
17.391069
11
9.0494452
21
17.391069
0
LINE
8
DEFAULT_255_2_778
10
9.0494452
20
17.391069
11
8.6496452
21
17.391069
0
LINE
8
DEFAULT_255_2_778
10
22.0497452
20
13.517069
11
21.5497452
21
13.517069
0
LINE
8
DEFAULT_255_2_778
10
21.5497452
20
13.517069
11
21.5497452
21
13.917069
0
LINE
8
DEFAULT_255_2_778
10
21.5497452
20
13.917069
11
21.5497452
21
15.995169
0
LINE
8
DEFAULT_255_2_778
10
21.5497452
20
15.995169
11
21.9497452
21
15.995169
0
LINE
8
DEFAULT_255_2_778
10
21.9497452
20
15.995169
11
21.9497452
21
27.195269
0
LINE
8
DEFAULT_255_2_778
10
21.9497452
20
27.195269
11
21.5497452
21
27.195269
0
LINE
8
DEFAULT_255_2_778
10
21.5497452
20
27.195269
11
21.5497452
21
29.273269
0
LINE
8
DEFAULT_255_2_778
10
21.5497452
20
29.273269
11
21.5497452
21
29.673269
0
LINE
8
DEFAULT_255_2_778
10
21.5497452
20
29.673269
11
22.0497452
21
29.673269
0
LINE
8
DEFAULT_255_2_778
10
8.8944452
20
30.095369
11
8.3943452
21
30.095369
0
LINE
8
DEFAULT_255_2_778
10
8.3943452
20
30.095369
11
8.3943452
21
30.195369
0
LINE
8
DEFAULT_255_2_778
10
8.3943452
20
30.195369
11
9.2444452
21
30.195369
0
LINE
8
DEFAULT_255_2_778
10
9.2444452
20
30.195369
11
9.2444452
21
30.295369
0
LINE
8
DEFAULT_255_2_778
10
8.8944452
20
30.195369
11
8.8944452
21
30.095369
0
LINE
8
DEFAULT_255_2_778
10
8.8944452
20
30.095369
11
9.5945452
21
30.095369
0
LINE
8
DEFAULT_255_2_778
10
9.5945452
20
30.095369
11
9.5945452
21
30.295369
0
LINE
8
DEFAULT_255_2_778
10
22.0944452
20
30.296169
11
22.0944452
21
12.895869
0
LINE
8
DEFAULT_255_2_778
10
8.3927452
20
12.995569
11
9.2444452
21
12.995569
0
LINE
8
DEFAULT_255_2_778
10
9.2444452
20
12.995569
11
9.2444452
21
12.895569
0
LINE
8
DEFAULT_255_2_778
10
11.3116452
20
13.798069
11
8.8867452
21
13.798069
0
LINE
8
DEFAULT_255_2_778
10
8.8867452
20
13.798069
11
8.8867452
21
17.391669
0
LINE
8
DEFAULT_255_2_778
10
8.8867452
20
25.799769
11
8.8867452
21
29.393369
0
LINE
8
DEFAULT_255_2_778
10
8.8867452
20
29.393369
11
11.3116452
21
29.393369
0
LINE
8
DEFAULT_255_2_778
10
13.3317452
20
15.639769
11
13.3317452
21
17.277869
0
LINE
8
DEFAULT_255_2_778
10
13.3317452
20
17.277869
11
12.3668452
21
17.277869
0
LINE
8
DEFAULT_255_2_778
10
12.3668452
20
25.913869
11
13.3317452
21
25.913869
0
LINE
8
DEFAULT_255_2_778
10
13.3317452
20
25.913869
11
13.3317452
21
27.551869
0
LINE
8
DEFAULT_255_2_778
10
14.0948452
20
27.945869
11
13.8447452
21
27.945869
0
LINE
8
DEFAULT_255_2_778
10
10.6904452
20
18.445469
11
10.6904452
21
19.563069
0
LINE
8
DEFAULT_255_2_778
10
14.0945452
20
15.639069
11
12.3665452
21
15.639069
0
LINE
8
DEFAULT_255_2_778
10
12.3665452
20
27.551069
11
14.0945452
21
27.551069
0
LINE
8
DEFAULT_255_2_778
10
10.4406452
20
19.313069
11
10.6906452
21
19.563069
0
LINE
8
DEFAULT_255_2_778
10
10.6906452
20
19.563069
11
9.5476452
21
19.563069
0
LINE
8
DEFAULT_255_2_778
10
12.3665452
20
24.744669
11
12.3665452
21
27.551069
0
LINE
8
DEFAULT_255_2_778
10
12.3665452
20
27.551069
11
12.1165452
21
27.801169
0
LINE
8
DEFAULT_255_2_778
10
12.1165452
20
15.389269
11
12.3665452
21
15.639269
0
LINE
8
DEFAULT_255_2_778
10
12.3665452
20
15.639269
11
12.3665452
21
18.445769
0
LINE
8
DEFAULT_255_2_778
10
13.5944452
20
15.389269
11
12.1165452
21
15.389269
0
LINE
8
DEFAULT_255_2_778
10
12.1165452
20
15.389269
11
12.1165452
21
18.195669
0
LINE
8
DEFAULT_255_2_778
10
10.4403452
20
19.309369
11
10.4403452
21
19.313269
0
LINE
8
DEFAULT_255_2_778
10
10.4403452
20
19.313269
11
9.2973452
21
19.313269
0
LINE
8
DEFAULT_255_2_778
10
10.4403452
20
23.877369
11
10.4403452
21
23.881369
0
LINE
8
DEFAULT_255_2_778
10
12.1165452
20
24.994969
11
12.1165452
21
27.801169
0
LINE
8
DEFAULT_255_2_778
10
12.1165452
20
27.801169
11
13.5944452
21
27.801169
0
LINE
8
DEFAULT_255_2_778
10
10.4604452
20
24.994669
11
12.1165452
21
24.994669
0
LINE
8
DEFAULT_255_2_778
10
12.1165452
20
24.994669
11
12.3665452
21
24.744669
0
LINE
8
DEFAULT_255_2_778
10
12.3665452
20
24.744669
11
10.6904452
21
24.744669
0
LINE
8
DEFAULT_255_2_778
10
10.6904452
20
24.744669
11
10.4604452
21
24.974569
0
LINE
8
DEFAULT_255_2_778
10
10.4604452
20
18.195669
11
12.1165452
21
18.195669
0
LINE
8
DEFAULT_255_2_778
10
12.1165452
20
18.195669
11
12.3665452
21
18.445769
0
LINE
8
DEFAULT_255_2_778
10
12.3665452
20
18.445769
11
10.6904452
21
18.445769
0
LINE
8
DEFAULT_255_2_778
10
10.6904452
20
18.445769
11
10.4604452
21
18.215769
0
LINE
8
DEFAULT_255_2_778
10
21.5494452
20
13.797769
11
21.7134452
21
13.797769
0
LINE
8
DEFAULT_255_2_778
10
21.7134452
20
13.797769
11
21.7134452
21
15.995369
0
LINE
8
DEFAULT_255_2_778
10
21.7134452
20
27.195469
11
21.7134452
21
29.393169
0
LINE
8
DEFAULT_255_2_778
10
21.7134452
20
29.393169
11
21.5494452
21
29.393169
0
LINE
8
DEFAULT_255_2_778
10
17.9944452
20
27.806169
11
17.9944452
21
27.801669
0
LINE
8
DEFAULT_255_2_778
10
19.4745452
20
27.801669
11
19.4745452
21
26.040569
0
LINE
8
DEFAULT_255_2_778
10
19.4745452
20
26.040569
11
19.2245452
21
26.040569
0
LINE
8
DEFAULT_255_2_778
10
19.2245452
20
26.040569
11
19.2245452
21
27.551669
0
LINE
8
DEFAULT_255_2_778
10
19.2245452
20
27.551669
11
19.4745452
21
27.801669
0
LINE
8
DEFAULT_255_2_778
10
19.4745452
20
27.801669
11
17.9944452
21
27.801669
0
LINE
8
DEFAULT_255_2_778
10
17.9944452
20
27.801669
11
17.7444452
21
27.551669
0
LINE
8
DEFAULT_255_2_778
10
17.7444452
20
27.551669
11
19.2245452
21
27.551669
0
LINE
8
DEFAULT_255_2_778
10
19.4761452
20
26.130569
11
19.4761452
21
25.950669
0
LINE
8
DEFAULT_255_2_778
10
19.4761452
20
17.240569
11
19.4761452
21
17.060669
0
LINE
8
DEFAULT_255_2_778
10
19.4745452
20
15.389569
11
17.9944452
21
15.389569
0
LINE
8
DEFAULT_255_2_778
10
17.9944452
20
15.389569
11
17.9944452
21
15.385069
0
LINE
8
DEFAULT_255_2_778
10
10.6904452
20
24.744669
11
10.6904452
21
23.627069
0
LINE
8
DEFAULT_255_2_778
10
10.6904452
20
23.627069
11
10.4403452
21
23.877069
0
LINE
8
DEFAULT_255_2_778
10
10.4403452
20
23.877069
11
9.2973452
21
23.877069
0
LINE
8
DEFAULT_255_2_778
10
9.2973452
20
23.877069
11
9.5474452
21
23.627069
0
LINE
8
DEFAULT_255_2_778
10
9.5474452
20
23.627069
11
10.6904452
21
23.627069
0
LINE
8
DEFAULT_255_2_778
10
17.9944452
20
15.388969
11
17.7444452
21
15.639069
0
LINE
8
DEFAULT_255_2_778
10
17.7444452
20
15.639069
11
19.2245452
21
15.639069
0
LINE
8
DEFAULT_255_2_778
10
19.2245452
20
15.639069
11
19.4745452
21
15.388969
0
LINE
8
DEFAULT_255_2_778
10
19.4745452
20
15.388969
11
19.4745452
21
17.150069
0
LINE
8
DEFAULT_255_2_778
10
19.4745452
20
17.150069
11
19.2245452
21
17.150069
0
LINE
8
DEFAULT_255_2_778
10
19.2245452
20
17.150069
11
19.2245452
21
15.639069
0
LINE
8
DEFAULT_255_2_778
10
11.3116452
20
13.717069
11
9.0121452
21
13.717069
0
LINE
8
DEFAULT_255_2_778
10
9.0121452
20
13.717069
11
9.0121452
21
13.517069
0
LINE
8
DEFAULT_255_2_778
10
9.0121452
20
13.517069
11
21.5497452
21
13.517069
0
LINE
8
DEFAULT_255_2_778
10
21.5497452
20
29.673069
11
9.0118452
21
29.673069
0
LINE
8
DEFAULT_255_2_778
10
9.0118452
20
29.673069
11
9.0118452
21
29.473069
0
LINE
8
DEFAULT_255_2_778
10
9.0118452
20
29.473069
11
11.3113452
21
29.473069
0
LINE
8
DEFAULT_255_2_778
10
19.6240452
20
13.140269
11
22.0942452
21
13.140269
0
LINE
8
DEFAULT_255_2_778
10
13.0203452
20
13.140269
11
17.4825452
21
13.140269
0
LINE
8
DEFAULT_255_2_778
10
8.2628452
20
13.140269
11
10.8785452
21
13.140269
0
LINE
8
DEFAULT_255_2_778
10
19.6618452
20
29.904269
11
22.0939452
21
29.904269
0
LINE
8
DEFAULT_255_2_778
10
13.0581452
20
29.904269
11
17.4441452
21
29.904269
0
LINE
8
DEFAULT_255_2_778
10
8.2057452
20
29.904269
11
10.8404452
21
29.904269
0
LINE
8
DEFAULT_255_2_778
10
2.5632452
20
29.928369
11
7.5630452
21
29.928369
0
LINE
8
DEFAULT_255_2_778
10
7.5630452
20
29.928369
11
7.5630452
21
24.928269
0
LINE
8
DEFAULT_255_2_778
10
7.5630452
20
24.928269
11
2.5632452
21
24.928269
0
LINE
8
DEFAULT_255_2_778
10
1.5630452
20
25.928369
11
1.5630452
21
28.928269
0
ARC
8
DEFAULT_255_2_778
10
6.5543634
20
27.8426453
40
0.2007295
50
356.5165437
51
77.3764805
0
ARC
8
DEFAULT_255_2_778
10
6.4473236
20
27.5110937
40
0.5485932
50
74.0331231
51
90.1111139
0
ARC
8
DEFAULT_255_2_778
10
6.4311352
20
27.1786157
40
0.8811999
50
89.0165475
51
90.0066308
0
ARC
8
DEFAULT_255_2_778
10
6.4326484
20
27.0049308
40
1.0548863
50
90.0877298
51
93.6806348
0
ARC
8
DEFAULT_255_2_778
10
6.4482644
20
26.7416251
40
1.318652
50
93.6233198
51
95.4805879
0
LINE
8
DEFAULT_255_2_778
10
6.322322
20
28.0542489
11
6.322322
21
27.6068489
0
ARC
8
DEFAULT_255_2_778
10
6.4607837
20
28.79452
40
1.195715
50
263.3503306
51
267.0640548
0
ARC
8
DEFAULT_255_2_778
10
6.4458545
20
28.519501
40
0.9202926
50
267.1153078
51
269.9497103
0
ARC
8
DEFAULT_255_2_778
10
6.4552807
20
28.1364823
40
0.5373711
50
268.908769
51
285.0420307
0
ARC
8
DEFAULT_255_2_778
10
6.5530364
20
27.814921
40
0.201755
50
281.9302118
51
2.2761525
0
ARC
8
DEFAULT_255_2_778
10
6.4167269
20
27.830716
40
0.337995
50
358.6806868
51
0.0055919
0
ARC
8
DEFAULT_255_2_778
10
6.3605127
20
26.4070446
40
0.815186
50
90.0304078
51
92.1646595
0
ARC
8
DEFAULT_255_2_778
10
6.3713599
20
26.7713314
40
0.4510402
50
73.2046446
51
91.4330276
0
ARC
8
DEFAULT_255_2_778
10
6.4584252
20
27.045178
40
0.1637719
50
28.1525335
51
74.6819505
0
ARC
8
DEFAULT_255_2_778
10
6.7711468
20
27.1881302
40
0.2517258
50
23.3123336
51
67.1191084
0
ARC
8
DEFAULT_255_2_778
10
6.7607497
20
27.8177394
40
0.4121657
50
285.2298013
51
351.3529444
0
ARC
8
DEFAULT_255_2_778
10
6.412839
20
27.9016351
40
0.7693455
50
349.0708743
51
0.4237559
0
ARC
8
DEFAULT_255_2_778
10
6.186579
20
27.907258
40
0.9955845
50
0.0038592
51
0.9663625
0
ARC
8
DEFAULT_255_2_778
10
6.59721
20
27.9119981
40
0.5849362
50
1.180491
51
24.7104669
0
ARC
8
DEFAULT_255_2_778
10
6.7316047
20
27.9586598
40
0.4435561
50
26.4923742
51
73.4081725
0
ARC
8
DEFAULT_255_2_778
10
6.5856651
20
27.5472809
40
0.879765
50
71.9496304
51
87.0179542
0
ARC
8
DEFAULT_255_2_778
10
6.5441258
20
27.0700245
40
1.3586383
50
86.315584
51
90.0667696
0
ARC
8
DEFAULT_255_2_778
10
6.5428519
20
26.8425889
40
1.586073
50
90.0111761
51
91.4570493
0
LINE
8
DEFAULT_255_2_778
10
6.502522
20
28.4281489
11
5.896322
21
28.4281489
0
ARC
8
DEFAULT_255_2_778
10
2.5593436
20
17.263368
40
0.9963226
50
138.3541388
51
180.0816049
0
ARC
8
DEFAULT_255_2_778
10
2.5620056
20
17.2643875
40
0.9976376
50
91.732932
51
138.4994886
0
ARC
8
DEFAULT_255_2_778
10
2.5631123
20
17.2432897
40
1.0187592
50
89.9994554
51
91.7592612
0
ARC
8
DEFAULT_255_2_778
10
2.5617029
20
14.2582705
40
0.9963226
50
228.3541388
51
270.0816049
0
ARC
8
DEFAULT_255_2_778
10
2.5606834
20
14.2609326
40
0.9976376
50
181.732932
51
228.4994886
0
ARC
8
DEFAULT_255_2_778
10
2.5817812
20
14.2620393
40
1.0187592
50
179.9994554
51
181.7592612
0
LINE
8
DEFAULT_255_2_778
10
2.926922
20
26.7437489
11
2.926922
21
28.4284489
0
LINE
8
DEFAULT_255_2_778
10
2.926922
20
28.4284489
11
2.562622
21
28.4284489
0
LINE
8
DEFAULT_255_2_778
10
2.562622
20
28.4284489
11
2.562622
21
26.4284489
0
LINE
8
DEFAULT_255_2_778
10
2.562622
20
26.4284489
11
3.632022
21
26.4284489
0
LINE
8
DEFAULT_255_2_778
10
3.632022
20
26.4284489
11
3.632022
21
26.7437489
0
LINE
8
DEFAULT_255_2_778
10
3.632022
20
26.7437489
11
2.926922
21
26.7437489
0
LINE
8
DEFAULT_255_2_778
10
4.881122
20
26.7437489
11
4.881122
21
27.3052489
0
LINE
8
DEFAULT_255_2_778
10
4.881122
20
27.3052489
11
5.529122
21
27.3052489
0
LINE
8
DEFAULT_255_2_778
10
5.529122
20
27.3052489
11
5.529122
21
27.6203489
0
LINE
8
DEFAULT_255_2_778
10
5.529122
20
27.6203489
11
4.881122
21
27.6203489
0
LINE
8
DEFAULT_255_2_778
10
4.881122
20
27.6203489
11
4.881122
21
28.1132489
0
LINE
8
DEFAULT_255_2_778
10
4.881122
20
28.1132489
11
5.589422
21
28.1132489
0
LINE
8
DEFAULT_255_2_778
10
5.589422
20
28.1132489
11
5.589422
21
28.4284489
0
LINE
8
DEFAULT_255_2_778
10
5.589422
20
28.4284489
11
4.516822
21
28.4284489
0
LINE
8
DEFAULT_255_2_778
10
4.516822
20
28.4284489
11
4.516822
21
26.4284489
0
LINE
8
DEFAULT_255_2_778
10
4.516822
20
26.4284489
11
5.594522
21
26.4284489
0
LINE
8
DEFAULT_255_2_778
10
5.594522
20
26.4284489
11
5.594522
21
26.7437489
0
LINE
8
DEFAULT_255_2_778
10
5.594522
20
26.7437489
11
4.881122
21
26.7437489
0
LINE
8
DEFAULT_255_2_778
10
6.754722
20
27.8307489
11
6.754722
21
27.8304489
0
LINE
8
DEFAULT_255_2_778
10
5.896622
20
28.4278489
11
5.896622
21
26.4284489
0
LINE
8
DEFAULT_255_2_778
10
5.896622
20
26.4284489
11
6.329722
21
26.4284489
0
LINE
8
DEFAULT_255_2_778
10
6.329722
20
26.4284489
11
6.329722
21
27.2216489
0
LINE
8
DEFAULT_255_2_778
10
6.602822
20
27.1224489
11
6.809222
21
26.4366489
0
LINE
8
DEFAULT_255_2_778
10
6.809222
20
26.4366489
11
7.255522
21
26.4284489
0
LINE
8
DEFAULT_255_2_778
10
7.255522
20
26.4284489
11
7.002322
21
27.2877489
0
LINE
8
DEFAULT_255_2_778
10
5.896322
20
28.4281489
11
5.896622
21
28.4278489
0
LINE
8
DEFAULT_255_2_778
10
2.563122
20
18.2620489
11
7.563022
21
18.2620489
0
LINE
8
DEFAULT_255_2_778
10
7.563022
20
18.2620489
11
7.563022
21
13.2619489
0
LINE
8
DEFAULT_255_2_778
10
7.563022
20
13.2619489
11
2.563122
21
13.2619489
0
LINE
8
DEFAULT_255_2_778
10
1.563022
20
14.2620489
11
1.563022
21
17.2622489
0
LINE
8
DEFAULT_255_2_778
10
6.2525003
20
14.7621603
11
6.0614003
21
14.7621603
0
LINE
8
DEFAULT_255_2_778
10
6.0614003
20
14.7621603
11
6.0413003
21
14.7663603
0
LINE
8
DEFAULT_255_2_778
10
6.0413003
20
14.7663603
11
6.0413003
21
16.7570603
0
LINE
8
DEFAULT_255_2_778
10
6.0413003
20
16.7570603
11
6.0604003
21
16.7621603
0
LINE
8
DEFAULT_255_2_778
10
6.0604003
20
16.7621603
11
6.2525003
21
16.7621603
0
LINE
8
DEFAULT_255_2_778
10
6.2525003
20
16.7621603
11
6.2525003
21
15.7797603
0
LINE
8
DEFAULT_255_2_778
10
6.2525003
20
15.7797603
11
6.2615003
21
15.7813603
0
LINE
8
DEFAULT_255_2_778
10
6.2615003
20
15.7813603
11
7.0415003
21
16.7544603
0
LINE
8
DEFAULT_255_2_778
10
7.0415003
20
16.7544603
11
7.0624003
21
16.7621603
0
LINE
8
DEFAULT_255_2_778
10
7.0624003
20
16.7621603
11
7.3254003
21
16.7621603
0
LINE
8
DEFAULT_255_2_778
10
7.3254003
20
16.7621603
11
7.3254003
21
16.7504603
0
LINE
8
DEFAULT_255_2_778
10
7.3254003
20
16.7504603
11
6.6673003
21
15.9561603
0
LINE
8
DEFAULT_255_2_778
10
6.6673003
20
15.9561603
11
6.6724003
21
15.9360603
0
LINE
8
DEFAULT_255_2_778
10
6.6724003
20
15.9360603
11
7.3545003
21
14.7787603
0
LINE
8
DEFAULT_255_2_778
10
7.3545003
20
14.7787603
11
7.3595003
21
14.7621603
0
LINE
8
DEFAULT_255_2_778
10
7.3595003
20
14.7621603
11
7.0954003
21
14.7621603
0
LINE
8
DEFAULT_255_2_778
10
7.0954003
20
14.7621603
11
7.0785003
21
14.7732603
0
LINE
8
DEFAULT_255_2_778
10
7.0785003
20
14.7732603
11
6.5255003
21
15.7553603
0
LINE
8
DEFAULT_255_2_778
10
6.5255003
20
15.7553603
11
6.5136003
21
15.7720603
0
LINE
8
DEFAULT_255_2_778
10
6.5136003
20
15.7720603
11
6.2546003
21
15.4571603
0
LINE
8
DEFAULT_255_2_778
10
6.2546003
20
15.4571603
11
6.2525003
21
14.7621603
0
LINE
8
DEFAULT_255_2_778
10
4.6364003
20
14.7621603
11
4.4393003
21
14.7621603
0
LINE
8
DEFAULT_255_2_778
10
4.4393003
20
14.7621603
11
4.4332003
21
14.7893603
0
LINE
8
DEFAULT_255_2_778
10
4.4332003
20
14.7893603
11
4.4343003
21
16.7621603
0
LINE
8
DEFAULT_255_2_778
10
4.4343003
20
16.7621603
11
4.6314003
21
16.7621603
0
LINE
8
DEFAULT_255_2_778
10
4.6314003
20
16.7621603
11
4.6573003
21
16.7499603
0
LINE
8
DEFAULT_255_2_778
10
4.6573003
20
16.7499603
11
5.4794003
21
15.2127603
0
LINE
8
DEFAULT_255_2_778
10
5.4794003
20
15.2127603
11
5.4913003
21
15.2010603
0
LINE
8
DEFAULT_255_2_778
10
5.4913003
20
15.2010603
11
5.4913003
21
16.7470603
0
LINE
8
DEFAULT_255_2_778
10
5.4913003
20
16.7470603
11
5.5093003
21
16.7621603
0
LINE
8
DEFAULT_255_2_778
10
5.5093003
20
16.7621603
11
5.6733003
21
16.7621603
0
LINE
8
DEFAULT_255_2_778
10
5.6733003
20
16.7621603
11
5.6942003
21
16.7499603
0
LINE
8
DEFAULT_255_2_778
10
5.6942003
20
16.7499603
11
5.6942003
21
14.7761603
0
LINE
8
DEFAULT_255_2_778
10
5.6942003
20
14.7761603
11
5.6752003
21
14.7621603
0
LINE
8
DEFAULT_255_2_778
10
5.6752003
20
14.7621603
11
5.4780003
21
14.7621603
0
LINE
8
DEFAULT_255_2_778
10
5.4780003
20
14.7621603
11
4.6390003
21
16.3276603
0
LINE
8
DEFAULT_255_2_778
10
4.6390003
20
16.3276603
11
4.6361003
21
16.3083603
0
LINE
8
DEFAULT_255_2_778
10
4.6361003
20
16.3083603
11
4.6361003
21
14.7621603
0
LINE
8
DEFAULT_255_2_778
10
4.0625003
20
14.7621603
11
3.8675003
21
14.7621603
0
LINE
8
DEFAULT_255_2_778
10
3.8675003
20
14.7621603
11
3.8506003
21
14.7727603
0
LINE
8
DEFAULT_255_2_778
10
3.8506003
20
14.7727603
11
3.8506003
21
16.7480603
0
LINE
8
DEFAULT_255_2_778
10
3.8506003
20
16.7480603
11
3.8646003
21
16.7621603
0
LINE
8
DEFAULT_255_2_778
10
3.8646003
20
16.7621603
11
4.0596003
21
16.7621603
0
LINE
8
DEFAULT_255_2_778
10
4.0596003
20
16.7621603
11
4.0625003
21
16.7377603
0
LINE
8
DEFAULT_255_2_778
10
4.0625003
20
16.7377603
11
4.0625003
21
14.7621603
0
LINE
8
DEFAULT_255_2_778
10
3.5627003
20
14.7621603
11
2.5676003
21
14.7621603
0
LINE
8
DEFAULT_255_2_778
10
2.5676003
20
14.7621603
11
2.5626003
21
14.7846603
0
LINE
8
DEFAULT_255_2_778
10
2.5626003
20
14.7846603
11
2.5626003
21
16.7486603
0
LINE
8
DEFAULT_255_2_778
10
2.5626003
20
16.7486603
11
2.5766003
21
16.7621603
0
LINE
8
DEFAULT_255_2_778
10
2.5766003
20
16.7621603
11
2.7647003
21
16.7621603
0
LINE
8
DEFAULT_255_2_778
10
2.7647003
20
16.7621603
11
2.7748003
21
16.7451603
0
LINE
8
DEFAULT_255_2_778
10
2.7748003
20
16.7451603
11
2.7769003
21
14.9981603
0
LINE
8
DEFAULT_255_2_778
10
2.7769003
20
14.9981603
11
3.5569003
21
14.9981603
0
LINE
8
DEFAULT_255_2_778
10
3.5569003
20
14.9981603
11
3.5630003
21
14.9775603
0
LINE
8
DEFAULT_255_2_778
10
3.5630003
20
14.9775603
11
3.5630003
21
14.7621603
0
LINE
8
DEFAULT_255_2_778
10
25.2448003
20
94.0947603
11
3.1698003
21
94.0947603
0
LINE
8
DEFAULT_255_2_778
10
3.1698003
20
94.0947603
11
2.9457003
21
94.1527603
0
LINE
8
DEFAULT_255_2_778
10
2.9457003
20
94.1527603
11
3.0867003
21
94.2948603
0
LINE
8
DEFAULT_255_2_778
10
3.0867003
20
94.2948603
11
25.1617003
21
94.2948603
0
LINE
8
DEFAULT_255_2_778
10
25.1617003
20
94.2948603
11
25.2448003
21
94.0947603
0
LINE
8
DEFAULT_255_2_778
10
25.2448003
20
99.0946603
11
3.1698003
21
99.0946603
0
LINE
8
DEFAULT_255_2_778
10
3.1698003
20
99.0946603
11
2.9457003
21
99.1536603
0
LINE
8
DEFAULT_255_2_778
10
2.9457003
20
99.1536603
11
3.0867003
21
99.2946603
0
LINE
8
DEFAULT_255_2_778
10
3.0867003
20
99.2946603
11
25.1628003
21
99.2946603
0
LINE
8
DEFAULT_255_2_778
10
25.1628003
20
99.2946603
11
25.2448003
21
99.0946603
0
ARC
8
DEFAULT_255_2_778
10
21.2619453
20
101.69537
40
0.2015625
50
357.7856309
51
78.5582684
0
ARC
8
DEFAULT_255_2_778
10
21.1382926
20
101.3260833
40
0.5899904
50
73.8975776
51
88.5618771
0
ARC
8
DEFAULT_255_2_778
10
21.112527
20
100.9327061
40
0.9840185
50
87.6369288
51
90.0358819
0
ARC
8
DEFAULT_255_2_778
10
21.1136898
20
100.6708081
40
1.2459176
50
90.0818091
51
93.4094771
0
ARC
8
DEFAULT_255_2_778
10
21.1307768
20
100.3597902
40
1.5574018
50
93.3565043
51
95.0769289
0
LINE
8
DEFAULT_255_2_778
10
20.9929573
20
101.911082
11
20.9929573
21
101.463982
0
ARC
8
DEFAULT_255_2_778
10
21.145072
20
102.8865683
40
1.4306959
50
263.896652
51
267.0267187
0
ARC
8
DEFAULT_255_2_778
10
21.1276979
20
102.5600661
40
1.1037321
50
267.0482593
51
269.9420214
0
ARC
8
DEFAULT_255_2_778
10
21.1369952
20
102.1017132
40
0.6454626
50
269.0755259
51
283.1335916
0
ARC
8
DEFAULT_255_2_778
10
21.2320008
20
101.7223726
40
0.2545356
50
281.7094987
51
315.6846217
0
ARC
8
DEFAULT_255_2_778
10
21.2581171
20
101.6782427
40
0.2054525
50
319.4046714
51
2.6054026
0
ARC
8
DEFAULT_255_2_778
10
21.0344366
20
100.1127549
40
0.9668104
50
90.027943
51
91.9903978
0
ARC
8
DEFAULT_255_2_778
10
21.0451825
20
100.5316777
40
0.5480023
50
75.619134
51
91.1729042
0
ARC
8
DEFAULT_255_2_778
10
21.1444315
20
100.8859999
40
0.180316
50
31.4505561
51
78.2057013
0
ARC
8
DEFAULT_255_2_778
10
21.4956319
20
101.0298522
40
0.2644913
50
25.899881
51
69.4309188
0
ARC
8
DEFAULT_255_2_778
10
21.4750914
20
101.7289574
40
0.4655154
50
284.1075396
51
317.2672916
0
ARC
8
DEFAULT_255_2_778
10
21.4669198
20
101.7089172
40
0.4583671
50
319.8012499
51
354.0568136
0
ARC
8
DEFAULT_255_2_778
10
21.1648707
20
101.7616728
40
0.764549
50
352.4680839
51
0.1929453
0
ARC
8
DEFAULT_255_2_778
10
21.0144126
20
101.7641675
40
0.9150028
50
0.005001
51
1.0654743
0
ARC
8
DEFAULT_255_2_778
10
21.3924194
20
101.7695774
40
0.5369633
50
1.2383407
51
28.3988214
0
ARC
8
DEFAULT_255_2_778
10
21.4686122
20
101.7909461
40
0.4601072
50
30.5711703
51
70.7550447
0
ARC
8
DEFAULT_255_2_778
10
21.3077543
20
101.3836133
40
0.89787
50
69.6313015
51
84.749485
0
ARC
8
DEFAULT_255_2_778
10
21.2374911
20
100.7873236
40
1.4981666
50
84.1604575
51
90.1776196
0
ARC
8
DEFAULT_255_2_778
10
21.2331845
20
100.4046911
40
1.8807921
50
90.0102894
51
91.3230684
0
LINE
8
DEFAULT_255_2_778
10
21.1897573
20
102.284982
11
20.5299573
21
102.284982
0
LINE
8
DEFAULT_255_2_778
10
21.4633573
20
101.687582
11
21.4633573
21
101.687582
0
LINE
8
DEFAULT_255_2_778
10
20.5296573
20
102.284682
11
20.5296573
21
100.286282
0
LINE
8
DEFAULT_255_2_778
10
20.5296573
20
100.286282
11
21.0008573
21
100.286282
0
LINE
8
DEFAULT_255_2_778
10
21.0008573
20
100.286282
11
21.0008573
21
101.078982
0
LINE
8
DEFAULT_255_2_778
10
21.2982573
20
100.980082
11
21.5231573
21
100.294782
0
LINE
8
DEFAULT_255_2_778
10
21.5231573
20
100.294782
11
22.0089573
21
100.286582
0
LINE
8
DEFAULT_255_2_778
10
22.0089573
20
100.286582
11
21.7335573
21
101.145382
0
LINE
8
DEFAULT_255_2_778
10
20.5299573
20
102.284982
11
20.5296573
21
102.284682
0
ARC
8
DEFAULT_255_2_778
10
23.0124453
20
101.69537
40
0.2015625
50
357.7856309
51
78.5582684
0
ARC
8
DEFAULT_255_2_778
10
22.8887926
20
101.3260833
40
0.5899904
50
73.8975776
51
88.5618771
0
ARC
8
DEFAULT_255_2_778
10
22.863027
20
100.9327061
40
0.9840185
50
87.6369288
51
90.0358819
0
ARC
8
DEFAULT_255_2_778
10
22.8641898
20
100.6708081
40
1.2459176
50
90.0818091
51
93.4094771
0
ARC
8
DEFAULT_255_2_778
10
22.8812768
20
100.3597902
40
1.5574018
50
93.3565043
51
95.0769289
0
LINE
8
DEFAULT_255_2_778
10
22.7434573
20
101.911082
11
22.7434573
21
101.463982
0
ARC
8
DEFAULT_255_2_778
10
22.895572
20
102.8865683
40
1.4306959
50
263.896652
51
267.0267187
0
ARC
8
DEFAULT_255_2_778
10
22.8781979
20
102.5600661
40
1.1037321
50
267.0482593
51
269.9420214
0
ARC
8
DEFAULT_255_2_778
10
22.8874952
20
102.1017132
40
0.6454626
50
269.0755259
51
283.1335916
0
ARC
8
DEFAULT_255_2_778
10
22.9825008
20
101.7223726
40
0.2545356
50
281.7094987
51
315.6846217
0
ARC
8
DEFAULT_255_2_778
10
23.0086171
20
101.6782427
40
0.2054525
50
319.4046714
51
2.6054026
0
ARC
8
DEFAULT_255_2_778
10
22.7849366
20
100.1127549
40
0.9668104
50
90.027943
51
91.9903978
0
ARC
8
DEFAULT_255_2_778
10
22.7956825
20
100.5316777
40
0.5480023
50
75.619134
51
91.1729042
0
ARC
8
DEFAULT_255_2_778
10
22.8949315
20
100.8859999
40
0.180316
50
31.4505561
51
78.2057013
0
ARC
8
DEFAULT_255_2_778
10
23.2461319
20
101.0298522
40
0.2644913
50
25.899881
51
69.4309188
0
ARC
8
DEFAULT_255_2_778
10
23.2255914
20
101.7289574
40
0.4655154
50
284.1075396
51
317.2672916
0
ARC
8
DEFAULT_255_2_778
10
23.2174198
20
101.7089172
40
0.4583671
50
319.8012499
51
354.0568136
0
ARC
8
DEFAULT_255_2_778
10
22.9153707
20
101.7616728
40
0.764549
50
352.4680839
51
0.1929453
0
ARC
8
DEFAULT_255_2_778
10
22.7649126
20
101.7641675
40
0.9150028
50
0.005001
51
1.0654743
0
ARC
8
DEFAULT_255_2_778
10
23.1429194
20
101.7695774
40
0.5369633
50
1.2383407
51
28.3988214
0
ARC
8
DEFAULT_255_2_778
10
23.2191122
20
101.7909461
40
0.4601072
50
30.5711703
51
70.7550447
0
ARC
8
DEFAULT_255_2_778
10
23.0582543
20
101.3836133
40
0.89787
50
69.6313015
51
84.749485
0
ARC
8
DEFAULT_255_2_778
10
22.9879911
20
100.7873236
40
1.4981666
50
84.1604575
51
90.1776196
0
ARC
8
DEFAULT_255_2_778
10
22.9836845
20
100.4046911
40
1.8807921
50
90.0102894
51
91.3230684
0
LINE
8
DEFAULT_255_2_778
10
22.9402573
20
102.284982
11
22.2804573
21
102.284982
0
LINE
8
DEFAULT_255_2_778
10
23.2138573
20
101.687582
11
23.2138573
21
101.687582
0
LINE
8
DEFAULT_255_2_778
10
22.2801573
20
102.284682
11
22.2801573
21
100.286282
0
LINE
8
DEFAULT_255_2_778
10
22.2801573
20
100.286282
11
22.7513573
21
100.286282
0
LINE
8
DEFAULT_255_2_778
10
22.7513573
20
100.286282
11
22.7513573
21
101.078982
0
LINE
8
DEFAULT_255_2_778
10
23.0487573
20
100.980082
11
23.2736573
21
100.294782
0
LINE
8
DEFAULT_255_2_778
10
23.2736573
20
100.294782
11
23.7594573
21
100.286582
0
LINE
8
DEFAULT_255_2_778
10
23.7594573
20
100.286582
11
23.4840573
21
101.145382
0
LINE
8
DEFAULT_255_2_778
10
22.2804573
20
102.284982
11
22.2801573
21
102.284682
0
LINE
8
DEFAULT_255_2_778
10
20.1566656
20
100.6011635
11
20.1566656
21
100.2863635
0
LINE
8
DEFAULT_255_2_778
10
20.1566656
20
100.2863635
11
18.9715656
21
100.2863635
0
LINE
8
DEFAULT_255_2_778
10
18.9715656
20
100.2863635
11
18.9715656
21
102.2852635
0
LINE
8
DEFAULT_255_2_778
10
18.9715656
20
102.2852635
11
20.1510656
21
102.2852635
0
LINE
8
DEFAULT_255_2_778
10
20.1510656
20
102.2852635
11
20.1510656
21
101.9703635
0
LINE
8
DEFAULT_255_2_778
10
20.1510656
20
101.9703635
11
19.3721656
21
101.9703635
0
LINE
8
DEFAULT_255_2_778
10
19.3721656
20
101.9703635
11
19.3721656
21
101.4777635
0
LINE
8
DEFAULT_255_2_778
10
19.3721656
20
101.4777635
11
20.0851656
21
101.4777635
0
LINE
8
DEFAULT_255_2_778
10
20.0851656
20
101.4777635
11
20.0851656
21
101.1628635
0
LINE
8
DEFAULT_255_2_778
10
20.0851656
20
101.1628635
11
19.3721656
21
101.1628635
0
LINE
8
DEFAULT_255_2_778
10
19.3721656
20
101.1628635
11
19.3721656
21
100.6014635
0
LINE
8
DEFAULT_255_2_778
10
19.3721656
20
100.6014635
11
20.1566656
21
100.6014635
0
ARC
8
DEFAULT_255_2_778
10
15.5812361
20
87.8047288
40
1.573445
50
72.7548772
51
86.4413553
0
ARC
8
DEFAULT_255_2_778
10
15.5713849
20
87.9165512
40
1.1464875
50
67.5879586
51
86.5567465
0
ARC
8
DEFAULT_255_2_778
10
15.5817088
20
88.0365032
40
1.0261368
50
86.7298957
51
89.983738
0
ARC
8
DEFAULT_255_2_778
10
15.5820802
20
88.5669889
40
0.4956509
50
90.0092656
51
95.2730927
0
ARC
8
DEFAULT_255_2_778
10
15.5638377
20
88.67386
40
0.3876453
50
94.0397796
51
121.2564913
0
ARC
8
DEFAULT_255_2_778
10
15.4939123
20
88.8033038
40
0.2408211
50
123.0146479
51
151.1403554
0
ARC
8
DEFAULT_255_2_778
10
15.5324409
20
88.7907396
40
0.2807316
50
152.6901603
51
180.0102478
0
ARC
8
DEFAULT_255_2_778
10
15.5334242
20
88.7906997
40
0.281715
50
180.0020965
51
181.4563398
0
ARC
8
DEFAULT_255_2_778
10
15.4291308
20
88.7848991
40
0.1773359
50
180.4391658
51
218.941031
0
ARC
8
DEFAULT_255_2_778
10
15.5348632
20
88.8869966
40
0.3240035
50
221.2327036
51
244.4655011
0
ARC
8
DEFAULT_255_2_778
10
15.2269515
20
87.2033067
40
1.3543274
50
61.1760353
51
69.0543228
0
ARC
8
DEFAULT_255_2_778
10
15.5486699
20
87.7890722
40
0.6860286
50
45.7935901
51
61.1300781
0
ARC
8
DEFAULT_255_2_778
10
15.679423
20
87.9327494
40
0.4919114
50
34.297968
51
45.0422896
0
ARC
8
DEFAULT_255_2_778
10
15.6979762
20
87.9479395
40
0.4680294
50
22.3004955
51
34.0416019
0
ARC
8
DEFAULT_255_2_778
10
15.6654493
20
87.9356501
40
0.5027879
50
10.3220302
51
22.1896619
0
ARC
8
DEFAULT_255_2_778
10
15.5685091
20
87.8918088
40
0.6009363
50
346.9816376
51
354.0427601
0
ARC
8
DEFAULT_255_2_778
10
15.6087906
20
87.8811358
40
0.5592875
50
339.9554747
51
347.1173458
0
ARC
8
DEFAULT_255_2_778
10
15.5939061
20
87.891679
40
0.576904
50
332.8404686
51
339.4784644
0
ARC
8
DEFAULT_255_2_778
10
15.6630966
20
87.8620457
40
0.5018428
50
317.5517499
51
332.2447792
0
ARC
8
DEFAULT_255_2_778
10
15.6346029
20
87.8921333
40
0.543183
50
303.7018993
51
317.2384436
0
ARC
8
DEFAULT_255_2_778
10
15.5660023
20
87.9939086
40
0.6659185
50
292.310312
51
303.753442
0
ARC
8
DEFAULT_255_2_778
10
15.4780115
20
88.2035742
40
0.8932939
50
283.4111827
51
292.4264154
0
ARC
8
DEFAULT_255_2_778
10
15.3939207
20
88.6016645
40
1.300075
50
270.0319086
51
282.9469111
0
ARC
8
DEFAULT_255_2_778
10
15.3946681
20
88.5887752
40
1.2871856
50
269.4939737
51
269.9989583
0
ARC
8
DEFAULT_255_2_778
10
15.3721767
20
89.020059
40
1.7184551
50
270.0000158
51
270.3708713
0
ARC
8
DEFAULT_255_2_778
10
15.3731405
20
89.0558789
40
1.7542753
50
261.267377
51
269.9685377
0
ARC
8
DEFAULT_255_2_778
10
15.5875986
20
90.0762304
40
2.7959405
50
255.7359151
51
260.0980242
0
ARC
8
DEFAULT_255_2_778
10
12.0390381
20
75.5485387
40
12.159013
50
76.3972448
51
76.653104
0
ARC
8
DEFAULT_255_2_778
10
15.3754351
20
88.6349693
40
1.0173358
50
248.1314883
51
267.9044645
0
ARC
8
DEFAULT_255_2_778
10
15.359558
20
88.4484487
40
0.8304088
50
268.5286335
51
269.9959994
0
ARC
8
DEFAULT_255_2_778
10
15.3579448
20
88.1698735
40
0.5518358
50
270.1614806
51
283.3005966
0
ARC
8
DEFAULT_255_2_778
10
15.3832235
20
88.0758095
40
0.454489
50
282.9273995
51
299.2938744
0
ARC
8
DEFAULT_255_2_778
10
15.4965215
20
87.899349
40
0.2439143
50
310.9553255
51
325.1130214
0
ARC
8
DEFAULT_255_2_778
10
15.529353
20
87.8754013
40
0.203288
50
325.3569916
51
342.2836887
0
ARC
8
DEFAULT_255_2_778
10
15.5337009
20
87.8743267
40
0.1988195
50
342.1973816
51
351.2378281
0
ARC
8
DEFAULT_255_2_778
10
15.5451637
20
87.8825824
40
0.1869459
50
8.8177887
51
18.7388811
0
ARC
8
DEFAULT_255_2_778
10
15.5370318
20
87.880081
40
0.1954505
50
18.667472
51
37.0124074
0
ARC
8
DEFAULT_255_2_778
10
15.4829213
20
87.8377677
40
0.2641329
50
37.2756499
51
51.3467977
0
ARC
8
DEFAULT_255_2_778
10
15.0682663
20
87.1363533
40
1.0811629
50
61.1951898
51
69.7881346
0
ARC
8
DEFAULT_255_2_778
10
15.7971245
20
89.5746345
40
1.4567486
50
241.5973393
51
248.9126654
0
ARC
8
DEFAULT_255_2_778
10
15.4331994
20
88.901955
40
0.6919354
50
226.4883105
51
241.6095906
0
ARC
8
DEFAULT_255_2_778
10
15.2930514
20
88.7444695
40
0.4812774
50
214.8519389
51
225.6800515
0
ARC
8
DEFAULT_255_2_778
10
15.2758567
20
88.7299019
40
0.458847
50
202.7799069
51
214.5861485
0
ARC
8
DEFAULT_255_2_778
10
15.3091009
20
88.7411467
40
0.4938585
50
190.6189927
51
202.4893727
0
ARC
8
DEFAULT_255_2_778
10
15.5657213
20
88.7652322
40
0.7525267
50
172.36976
51
173.7973016
0
ARC
8
DEFAULT_255_2_778
10
15.4404526
20
88.7830852
40
0.6259975
50
167.2876621
51
172.4669389
0
ARC
8
DEFAULT_255_2_778
10
15.3557844
20
88.8060573
40
0.5383629
50
160.1526403
51
167.6896625
0
ARC
8
DEFAULT_255_2_778
10
15.3585502
20
88.8075801
40
0.5404525
50
154.9944261
51
160.4040381
0
ARC
8
DEFAULT_255_2_778
10
15.5081668
20
88.7388239
40
0.7051094
50
153.7451009
51
155.0701941
0
ARC
8
DEFAULT_255_2_778
10
15.3267882
20
88.8221764
40
0.5056002
50
138.5540573
51
153.1238378
0
ARC
8
DEFAULT_255_2_778
10
15.3506471
20
88.8007427
40
0.5376718
50
125.1368514
51
138.5248822
0
ARC
8
DEFAULT_255_2_778
10
15.4075524
20
88.7200248
40
0.6364322
50
113.6645943
51
125.1440807
0
ARC
8
DEFAULT_255_2_778
10
15.4761639
20
88.5660214
40
0.8050256
50
104.4045585
51
113.7377471
0
ARC
8
DEFAULT_255_2_778
10
15.5394496
20
88.2974976
40
1.0808655
50
90.0120698
51
104.1128146
0
ARC
8
DEFAULT_255_2_778
10
15.5392213
20
88.2984018
40
1.0799614
50
89.6244437
51
89.9999689
0
LINE
8
DEFAULT_255_2_778
10
15.5460001
20
89.3796399
11
15.6789001
21
89.3751399
0
LINE
8
DEFAULT_255_2_778
10
16.0477001
20
89.3074399
11
16.0085001
21
88.9764399
0
LINE
8
DEFAULT_255_2_778
10
15.3952001
20
88.5946399
11
15.4648001
21
88.5620399
0
LINE
8
DEFAULT_255_2_778
10
15.4648001
20
88.5620399
11
15.5423001
21
88.5313399
0
LINE
8
DEFAULT_255_2_778
10
15.5423001
20
88.5313399
11
15.7111001
21
88.4681399
0
LINE
8
DEFAULT_255_2_778
10
16.1601001
20
88.0257399
11
16.1678001
21
87.9696399
0
LINE
8
DEFAULT_255_2_778
10
16.1678001
20
87.9696399
11
16.1704001
21
87.9088399
0
LINE
8
DEFAULT_255_2_778
10
16.1704001
20
87.9088399
11
16.1694001
21
87.8683399
0
LINE
8
DEFAULT_255_2_778
10
16.1694001
20
87.8683399
11
16.1662001
21
87.8294399
0
LINE
8
DEFAULT_255_2_778
10
14.8459001
20
87.3791399
11
14.8848001
21
87.7416399
0
LINE
8
DEFAULT_255_2_778
10
14.8848001
20
87.7416399
11
14.9965001
21
87.6908399
0
LINE
8
DEFAULT_255_2_778
10
15.6056001
20
87.6794399
11
15.6564001
21
87.7151399
0
LINE
8
DEFAULT_255_2_778
10
15.7302001
20
87.8440399
11
15.7326001
21
87.8768399
0
LINE
8
DEFAULT_255_2_778
10
15.7326001
20
87.8768399
11
15.7299001
21
87.9112399
0
LINE
8
DEFAULT_255_2_778
10
15.6479001
20
88.0440399
11
15.5892001
21
88.0837399
0
LINE
8
DEFAULT_255_2_778
10
15.4418001
20
88.1509399
11
15.2730001
21
88.2154399
0
LINE
8
DEFAULT_255_2_778
10
14.8237001
20
88.6501399
11
14.8160001
21
88.7054399
0
LINE
8
DEFAULT_255_2_778
10
14.8160001
20
88.7054399
11
14.8134001
21
88.7655399
0
LINE
8
DEFAULT_255_2_778
10
14.8134001
20
88.7655399
11
14.8145001
21
88.8068399
0
LINE
8
DEFAULT_255_2_778
10
14.8145001
20
88.8068399
11
14.8176001
21
88.8465399
0
LINE
8
DEFAULT_255_2_778
10
19.3346001
20
89.3796399
11
18.6012001
21
87.3026399
0
LINE
8
DEFAULT_255_2_778
10
18.6012001
20
87.3026399
11
18.2890001
21
87.3026399
0
LINE
8
DEFAULT_255_2_778
10
18.2890001
20
87.3026399
11
19.0219001
21
89.3796399
0
LINE
8
DEFAULT_255_2_778
10
19.0219001
20
89.3796399
11
19.3346001
21
89.3796399
0
LINE
8
DEFAULT_255_2_778
10
21.4003668
20
87.3441896
11
22.0620668
21
87.3441896
0
ARC
8
DEFAULT_255_2_778
10
22.0747916
20
89.0054523
40
1.6613114
50
269.5611377
51
280.4773257
0
ARC
8
DEFAULT_255_2_778
10
22.2008626
20
88.3519952
40
0.9958373
50
280.1815843
51
298.7998726
0
ARC
8
DEFAULT_255_2_778
10
22.3116188
20
88.1287247
40
0.7469006
50
299.6057105
51
345.7121116
0
ARC
8
DEFAULT_255_2_778
10
21.8216284
20
88.2821171
40
1.259896
50
344.45136
51
357.1507399
0
ARC
8
DEFAULT_255_2_778
10
21.0308736
20
88.4001815
40
2.0570446
50
354.9606132
51
357.3609769
0
ARC
8
DEFAULT_255_2_778
10
21.2765104
20
88.3889158
40
1.8111496
50
357.3591991
51
359.9720134
0
ARC
8
DEFAULT_255_2_778
10
21.7637322
20
88.3999639
40
1.3239814
50
359.4835956
51
12.5226397
0
ARC
8
DEFAULT_255_2_778
10
22.2578086
20
88.5157695
40
0.8165707
50
12.1070893
51
37.9322229
0
ARC
8
DEFAULT_255_2_778
10
22.3000616
20
88.5258244
40
0.7772725
50
39.2623916
51
69.21203
0
ARC
8
DEFAULT_255_2_778
10
22.1220243
20
88.0861773
40
1.2515292
50
68.7353746
51
82.5690712
0
ARC
8
DEFAULT_255_2_778
10
22.0192597
20
87.3702675
40
1.9747391
50
82.2988789
51
90.2377115
0
LINE
8
DEFAULT_255_2_778
10
22.0110668
20
89.3449896
11
21.4003668
21
89.3449896
0
LINE
8
DEFAULT_255_2_778
10
21.4003668
20
89.3449896
11
21.4003668
21
87.3441896
0
ARC
8
DEFAULT_255_2_778
10
21.7860904
20
88.3837703
40
0.8867123
50
359.4843085
51
15.3226946
0
ARC
8
DEFAULT_255_2_778
10
22.1412049
20
88.4864075
40
0.5171245
50
14.7523105
51
74.3425995
0
ARC
8
DEFAULT_255_2_778
10
21.9976892
20
88.0684717
40
0.9586209
50
72.8245474
51
86.9920348
0
ARC
8
DEFAULT_255_2_778
10
21.9598348
20
87.6205059
40
1.4080285
50
86.4103147
51
90.0584237
0
ARC
8
DEFAULT_255_2_778
10
21.9595858
20
87.3395889
40
1.6889453
50
90.0402578
51
92.8594049
0
ARC
8
DEFAULT_255_2_778
10
21.9724939
20
87.0690138
40
1.9598276
50
92.8416996
51
94.8273723
0
LINE
8
DEFAULT_255_2_778
10
21.8075668
20
89.0218896
11
21.8075668
21
87.6360896
0
ARC
8
DEFAULT_255_2_778
10
21.9012705
20
89.6541661
40
2.0202508
50
267.341542
51
269.2078842
0
ARC
8
DEFAULT_255_2_778
10
21.8984887
20
89.4917547
40
1.8578164
50
269.2244223
51
269.9964471
0
ARC
8
DEFAULT_255_2_778
10
21.9094476
20
89.0149307
40
1.3810368
50
269.540558
51
280.134271
0
ARC
8
DEFAULT_255_2_778
10
22.0199002
20
88.4249898
40
0.7808809
50
279.7728356
51
298.3118503
0
ARC
8
DEFAULT_255_2_778
10
22.1303005
20
88.2058973
40
0.535679
50
299.030093
51
351.8204994
0
ARC
8
DEFAULT_255_2_778
10
21.7413477
20
88.2943919
40
0.9338227
50
349.8409896
51
0.3379885
0
ARC
8
DEFAULT_255_2_778
10
21.4593027
20
88.2992992
40
1.2158518
50
0.0283383
51
2.6933886
0
ARC
8
DEFAULT_255_2_778
10
21.3529871
20
88.2948578
40
1.3222587
50
2.6691483
51
3.5091075
0
LINE
8
DEFAULT_255_2_778
10
21.4003668
20
87.3441896
11
21.4003668
21
87.3441896
0
LINE
8
DEFAULT_255_2_778
10
22.6727668
20
88.3757896
11
22.6727668
21
88.3757896
0
ARC
8
DEFAULT_255_2_778
10
20.3451805
20
88.7499485
40
0.2019971
50
358.4881014
51
78.2366313
0
ARC
8
DEFAULT_255_2_778
10
20.2100385
20
88.3636
40
0.6101365
50
73.2025151
51
87.6315565
0
ARC
8
DEFAULT_255_2_778
10
20.1751736
20
87.9134624
40
1.0614545
50
86.7552887
51
90.0710843
0
ARC
8
DEFAULT_255_2_778
10
20.175708
20
87.5785891
40
1.3963282
50
90.0759659
51
93.2025159
0
ARC
8
DEFAULT_255_2_778
10
20.1935451
20
87.2331083
40
1.7422665
50
93.1534773
51
94.778507
0
LINE
8
DEFAULT_255_2_778
10
20.0484073
20
88.9693189
11
20.0484073
21
88.5200189
0
ARC
8
DEFAULT_255_2_778
10
20.2098079
20
90.1108264
40
1.5989742
50
264.2066912
51
267.1779279
0
ARC
8
DEFAULT_255_2_778
10
20.1913948
20
89.7462957
40
1.2339792
50
267.1985134
51
269.9449829
0
ARC
8
DEFAULT_255_2_778
10
20.2004375
20
89.2459838
40
0.733738
50
269.2013215
51
281.8023166
0
ARC
8
DEFAULT_255_2_778
10
20.2955815
20
88.8192743
40
0.296647
50
280.6713384
51
308.7847324
0
ARC
8
DEFAULT_255_2_778
10
20.35109
20
88.734797
40
0.1962633
50
311.6021809
51
2.868562
0
ARC
8
DEFAULT_255_2_778
10
20.0920464
20
87.0513879
40
1.0824114
50
90.0258933
51
91.8762487
0
ARC
8
DEFAULT_255_2_778
10
20.1027457
20
87.5103791
40
0.6235204
50
76.9968956
51
91.0281749
0
ARC
8
DEFAULT_255_2_778
10
20.2028938
20
87.9116094
40
0.2101717
50
41.782825
51
78.9878399
0
ARC
8
DEFAULT_255_2_778
10
20.2522791
20
87.9655412
40
0.1376053
50
29.7000284
51
38.7377807
0
ARC
8
DEFAULT_255_2_778
10
20.5897945
20
88.073175
40
0.2742952
50
27.4501982
51
70.931274
0
ARC
8
DEFAULT_255_2_778
10
20.5575786
20
88.836016
40
0.5181238
50
283.5995391
51
311.3111479
0
ARC
8
DEFAULT_255_2_778
10
20.5949253
20
88.766624
40
0.4417037
50
313.6150731
51
354.3671619
0
ARC
8
DEFAULT_255_2_778
10
20.3071156
20
88.8190914
40
0.733665
50
352.4953055
51
0.1810689
0
ARC
8
DEFAULT_255_2_778
10
20.1706626
20
88.8213399
40
0.8701144
50
0.0046143
51
1.1312868
0
ARC
8
DEFAULT_255_2_778
10
20.5294405
20
88.8274705
40
0.5112862
50
1.2382118
51
31.5139295
0
ARC
8
DEFAULT_255_2_778
10
20.5688872
20
88.8290706
40
0.4772096
50
33.826379
51
69.6856156
0
ARC
8
DEFAULT_255_2_778
10
20.3996709
20
88.4155997
40
0.9238344
50
68.7462166
51
83.6068275
0
ARC
8
DEFAULT_255_2_778
10
20.3101389
20
87.7387009
40
1.6065508
50
83.121714
51
90.256221
0
ARC
8
DEFAULT_255_2_778
10
20.303312
20
87.2437089
40
2.1015269
50
90.0097451
51
91.27073
0
LINE
8
DEFAULT_255_2_778
10
20.2567073
20
89.3447189
11
19.5571073
21
89.3447189
0
LINE
8
DEFAULT_255_2_778
10
20.5471073
20
88.7446189
11
20.5471073
21
88.7446189
0
LINE
8
DEFAULT_255_2_778
10
19.5571073
20
89.3444189
11
19.5571073
21
87.3368189
0
LINE
8
DEFAULT_255_2_778
10
19.5571073
20
87.3368189
11
20.0566073
21
87.3368189
0
LINE
8
DEFAULT_255_2_778
10
20.0566073
20
87.3368189
11
20.0566073
21
88.1332189
0
LINE
8
DEFAULT_255_2_778
10
20.3718073
20
88.0337189
11
20.6101073
21
87.3450189
0
LINE
8
DEFAULT_255_2_778
10
20.6101073
20
87.3450189
11
21.1253073
21
87.3368189
0
LINE
8
DEFAULT_255_2_778
10
21.1253073
20
87.3368189
11
20.8332073
21
88.1996189
0
LINE
8
DEFAULT_255_2_778
10
19.5571073
20
89.3447189
11
19.5571073
21
89.3444189
0
LINE
8
DEFAULT_255_2_778
10
16.4937687
20
87.3441896
11
17.1554687
21
87.3441896
0
ARC
8
DEFAULT_255_2_778
10
17.1681906
20
89.005167
40
1.6610262
50
269.5611647
51
280.4782244
0
ARC
8
DEFAULT_255_2_778
10
17.2942274
20
88.3519345
40
0.995779
50
280.1826466
51
298.8010184
0
ARC
8
DEFAULT_255_2_778
10
17.4048983
20
88.1288115
40
0.7470129
50
299.6073978
51
345.7074363
0
ARC
8
DEFAULT_255_2_778
10
16.9148268
20
88.2822754
40
1.260107
50
344.4465595
51
357.1440116
0
ARC
8
DEFAULT_255_2_778
10
16.1235394
20
88.4000521
40
2.0577665
50
354.9660005
51
357.3634979
0
ARC
8
DEFAULT_255_2_778
10
16.3694429
20
88.3887804
40
1.8116048
50
357.3618669
51
359.971926
0
ARC
8
DEFAULT_255_2_778
10
16.8567289
20
88.3998268
40
1.3243722
50
359.4836935
51
12.520743
0
ARC
8
DEFAULT_255_2_778
10
17.35102
20
88.5156684
40
0.8167446
50
12.1049014
51
37.9274956
0
ARC
8
DEFAULT_255_2_778
10
17.3934122
20
88.5258324
40
0.7772681
50
39.2573969
51
69.2084558
0
ARC
8
DEFAULT_255_2_778
10
17.2154029
20
88.0863003
40
1.2514079
50
68.7324367
51
82.5706952
0
ARC
8
DEFAULT_255_2_778
10
17.1126551
20
87.3704561
40
1.9745504
50
82.30012
51
90.2375457
0
LINE
8
DEFAULT_255_2_778
10
17.1044687
20
89.3449896
11
16.4937687
21
89.3449896
0
LINE
8
DEFAULT_255_2_778
10
16.4937687
20
89.3449896
11
16.4937687
21
87.3441896
0
ARC
8
DEFAULT_255_2_778
10
16.8794923
20
88.3837703
40
0.8867123
50
359.4843085
51
15.3226946
0
ARC
8
DEFAULT_255_2_778
10
17.2346068
20
88.4864075
40
0.5171245
50
14.7523105
51
74.3425995
0
ARC
8
DEFAULT_255_2_778
10
17.0910911
20
88.0684717
40
0.9586209
50
72.8245474
51
86.9920348
0
ARC
8
DEFAULT_255_2_778
10
17.0532367
20
87.6205059
40
1.4080285
50
86.4103147
51
90.0584237
0
ARC
8
DEFAULT_255_2_778
10
17.0529877
20
87.3395889
40
1.6889453
50
90.0402578
51
92.8594049
0
ARC
8
DEFAULT_255_2_778
10
17.0658958
20
87.0690138
40
1.9598276
50
92.8416996
51
94.8273723
0
LINE
8
DEFAULT_255_2_778
10
16.9009687
20
89.0218896
11
16.9009687
21
87.6360896
0
ARC
8
DEFAULT_255_2_778
10
16.9946724
20
89.6541661
40
2.0202508
50
267.341542
51
269.2078842
0
ARC
8
DEFAULT_255_2_778
10
16.9918906
20
89.4917547
40
1.8578164
50
269.2244223
51
269.9964471
0
ARC
8
DEFAULT_255_2_778
10
17.0028495
20
89.0149307
40
1.3810368
50
269.540558
51
280.134271
0
ARC
8
DEFAULT_255_2_778
10
17.1133021
20
88.4249898
40
0.7808809
50
279.7728356
51
298.3118503
0
ARC
8
DEFAULT_255_2_778
10
17.2237024
20
88.2058973
40
0.535679
50
299.030093
51
351.8204994
0
ARC
8
DEFAULT_255_2_778
10
16.8347496
20
88.2943919
40
0.9338227
50
349.8409896
51
0.3379885
0
ARC
8
DEFAULT_255_2_778
10
16.5527046
20
88.2992992
40
1.2158518
50
0.0283383
51
2.6933886
0
ARC
8
DEFAULT_255_2_778
10
16.446389
20
88.2948578
40
1.3222587
50
2.6691483
51
3.5091075
0
LINE
8
DEFAULT_255_2_778
10
16.4937687
20
87.3441896
11
16.4937687
21
87.3441896
0
LINE
8
DEFAULT_255_2_778
10
17.7661687
20
88.3757896
11
17.7661687
21
88.3757896
0
LINE
8
DEFAULT_255_2_778
10
21.443649
20
93.2446989
11
21.824549
21
93.2446989
0
LINE
8
DEFAULT_255_2_778
10
21.824549
20
93.2446989
11
21.844749
21
93.2407989
0
LINE
8
DEFAULT_255_2_778
10
21.844749
20
93.2407989
11
21.844749
21
92.4038989
0
LINE
8
DEFAULT_255_2_778
10
21.844749
20
92.4038989
11
21.849749
21
92.3919989
0
LINE
8
DEFAULT_255_2_778
10
21.849749
20
92.3919989
11
22.566749
21
93.2449989
0
LINE
8
DEFAULT_255_2_778
10
22.566749
20
93.2449989
11
23.047749
21
93.2449989
0
LINE
8
DEFAULT_255_2_778
10
23.047749
20
93.2449989
11
23.049849
21
93.2348989
0
LINE
8
DEFAULT_255_2_778
10
23.049849
20
93.2348989
11
22.249849
21
92.3178989
0
LINE
8
DEFAULT_255_2_778
10
22.249849
20
92.3178989
11
22.240749
21
92.2988989
0
LINE
8
DEFAULT_255_2_778
10
22.240749
20
92.2988989
11
23.086649
21
91.2547989
0
LINE
8
DEFAULT_255_2_778
10
23.086649
20
91.2547989
11
23.079749
21
91.2468989
0
LINE
8
DEFAULT_255_2_778
10
23.079749
20
91.2468989
11
22.572849
21
91.2468989
0
LINE
8
DEFAULT_255_2_778
10
22.572849
20
91.2468989
11
22.555849
21
91.2637989
0
LINE
8
DEFAULT_255_2_778
10
22.555849
20
91.2637989
11
21.857949
21
92.1657989
0
LINE
8
DEFAULT_255_2_778
10
21.857949
20
92.1657989
11
21.844949
21
92.1667989
0
LINE
8
DEFAULT_255_2_778
10
21.844949
20
92.1667989
11
21.844949
21
91.2547989
0
LINE
8
DEFAULT_255_2_778
10
21.844949
20
91.2547989
11
21.828049
21
91.2468989
0
LINE
8
DEFAULT_255_2_778
10
21.828049
20
91.2468989
11
21.448049
21
91.2468989
0
LINE
8
DEFAULT_255_2_778
10
21.448049
20
91.2468989
11
21.444149
21
91.2687989
0
LINE
8
DEFAULT_255_2_778
10
21.444149
20
91.2687989
11
21.444149
21
93.2446989
0
LINE
8
DEFAULT_255_2_778
10
17.147549
20
93.2446989
11
17.545449
21
93.2446989
0
LINE
8
DEFAULT_255_2_778
10
17.545449
20
93.2446989
11
17.547549
21
91.5666989
0
LINE
8
DEFAULT_255_2_778
10
17.547549
20
91.5666989
11
17.570649
21
91.5606989
0
LINE
8
DEFAULT_255_2_778
10
17.570649
20
91.5606989
11
18.311749
21
91.5606989
0
LINE
8
DEFAULT_255_2_778
10
18.311749
20
91.5606989
11
18.324649
21
91.5455989
0
LINE
8
DEFAULT_255_2_778
10
18.324649
20
91.5455989
11
18.324649
21
91.2605989
0
LINE
8
DEFAULT_255_2_778
10
18.324649
20
91.2605989
11
18.309549
21
91.2465989
0
LINE
8
DEFAULT_255_2_778
10
18.309549
20
91.2465989
11
17.170549
21
91.2465989
0
LINE
8
DEFAULT_255_2_778
10
17.170549
20
91.2465989
11
17.147549
21
91.2515989
0
LINE
8
DEFAULT_255_2_778
10
17.147549
20
91.2515989
11
17.147549
21
93.2446989
0
LINE
8
DEFAULT_255_2_778
10
18.544549
20
93.2446989
11
18.937449
21
93.2446989
0
LINE
8
DEFAULT_255_2_778
10
18.937449
20
93.2446989
11
18.945349
21
93.2237989
0
LINE
8
DEFAULT_255_2_778
10
18.945349
20
93.2237989
11
18.945349
21
91.2618989
0
LINE
8
DEFAULT_255_2_778
10
18.945349
20
91.2618989
11
18.930349
21
91.2468989
0
LINE
8
DEFAULT_255_2_778
10
18.930349
20
91.2468989
11
18.568349
21
91.2468989
0
LINE
8
DEFAULT_255_2_778
10
18.568349
20
91.2468989
11
18.544349
21
91.2529989
0
LINE
8
DEFAULT_255_2_778
10
18.544349
20
91.2529989
11
18.544349
21
93.2449989
0
LINE
8
DEFAULT_255_2_778
10
19.355749
20
93.2446989
11
19.849749
21
93.2425989
0
LINE
8
DEFAULT_255_2_778
10
19.849749
20
93.2425989
11
20.604849
21
91.7606989
0
LINE
8
DEFAULT_255_2_778
10
20.604849
20
91.7606989
11
20.615949
21
91.7627989
0
LINE
8
DEFAULT_255_2_778
10
20.615949
20
91.7627989
11
20.615949
21
93.2208989
0
LINE
8
DEFAULT_255_2_778
10
20.615949
20
93.2208989
11
20.621049
21
93.2449989
0
LINE
8
DEFAULT_255_2_778
10
20.621049
20
93.2449989
11
20.999949
21
93.2449989
0
LINE
8
DEFAULT_255_2_778
10
20.999949
20
93.2449989
11
20.999949
21
91.2608989
0
LINE
8
DEFAULT_255_2_778
10
20.999949
20
91.2608989
11
20.985849
21
91.2468989
0
LINE
8
DEFAULT_255_2_778
10
20.985849
20
91.2468989
11
20.518849
21
91.2468989
0
LINE
8
DEFAULT_255_2_778
10
20.518849
20
91.2468989
11
20.500849
21
91.2648989
0
LINE
8
DEFAULT_255_2_778
10
20.500849
20
91.2648989
11
19.756849
21
92.7186989
0
LINE
8
DEFAULT_255_2_778
10
19.756849
20
92.7186989
11
19.741849
21
92.7417989
0
LINE
8
DEFAULT_255_2_778
10
19.741849
20
92.7417989
11
19.739649
21
91.2558989
0
LINE
8
DEFAULT_255_2_778
10
19.739649
20
91.2558989
11
19.719549
21
91.2468989
0
LINE
8
DEFAULT_255_2_778
10
19.719549
20
91.2468989
11
19.369549
21
91.2468989
0
LINE
8
DEFAULT_255_2_778
10
19.369549
20
91.2468989
11
19.355449
21
91.2618989
0
LINE
8
DEFAULT_255_2_778
10
19.355449
20
91.2618989
11
19.355449
21
93.2449989
0
LINE
8
DEFAULT_255_2_778
10
14.2825668
20
91.2438896
11
14.9442668
21
91.2438896
0
ARC
8
DEFAULT_255_2_778
10
14.9569916
20
92.9051523
40
1.6613114
50
269.5611377
51
280.4773257
0
ARC
8
DEFAULT_255_2_778
10
15.0830626
20
92.2516952
40
0.9958373
50
280.1815843
51
298.7998726
0
ARC
8
DEFAULT_255_2_778
10
15.1938188
20
92.0284247
40
0.7469006
50
299.6057105
51
345.7121116
0
ARC
8
DEFAULT_255_2_778
10
14.7038284
20
92.1818171
40
1.259896
50
344.45136
51
357.1507399
0
ARC
8
DEFAULT_255_2_778
10
13.9130736
20
92.2998815
40
2.0570446
50
354.9606132
51
357.3609769
0
ARC
8
DEFAULT_255_2_778
10
14.1587104
20
92.2886158
40
1.8111496
50
357.3591991
51
359.9720134
0
ARC
8
DEFAULT_255_2_778
10
14.6459322
20
92.2996639
40
1.3239814
50
359.4835956
51
12.5226397
0
ARC
8
DEFAULT_255_2_778
10
15.1400086
20
92.4154695
40
0.8165707
50
12.1070893
51
37.9322229
0
ARC
8
DEFAULT_255_2_778
10
15.1822616
20
92.4255244
40
0.7772725
50
39.2623916
51
69.21203
0
ARC
8
DEFAULT_255_2_778
10
15.0042243
20
91.9858773
40
1.2515292
50
68.7353746
51
82.5690712
0
ARC
8
DEFAULT_255_2_778
10
14.9014597
20
91.2699675
40
1.9747391
50
82.2988789
51
90.2377115
0
LINE
8
DEFAULT_255_2_778
10
14.8932668
20
93.2446896
11
14.2825668
21
93.2446896
0
LINE
8
DEFAULT_255_2_778
10
14.2825668
20
93.2446896
11
14.2825668
21
91.2438896
0
ARC
8
DEFAULT_255_2_778
10
14.6682904
20
92.2834703
40
0.8867123
50
359.4843085
51
15.3226946
0
ARC
8
DEFAULT_255_2_778
10
15.0234049
20
92.3861075
40
0.5171245
50
14.7523105
51
74.3425995
0
ARC
8
DEFAULT_255_2_778
10
14.8798892
20
91.9681717
40
0.9586209
50
72.8245474
51
86.9920348
0
ARC
8
DEFAULT_255_2_778
10
14.8420348
20
91.5202059
40
1.4080285
50
86.4103147
51
90.0584237
0
ARC
8
DEFAULT_255_2_778
10
14.8417858
20
91.2392889
40
1.6889453
50
90.0402578
51
92.8594049
0
ARC
8
DEFAULT_255_2_778
10
14.8546939
20
90.9687138
40
1.9598276
50
92.8416996
51
94.8273723
0
LINE
8
DEFAULT_255_2_778
10
14.6897668
20
92.9215896
11
14.6897668
21
91.5357896
0
ARC
8
DEFAULT_255_2_778
10
14.7834705
20
93.5538661
40
2.0202508
50
267.341542
51
269.2078842
0
ARC
8
DEFAULT_255_2_778
10
14.7806887
20
93.3914547
40
1.8578164
50
269.2244223
51
269.9964471
0
ARC
8
DEFAULT_255_2_778
10
14.7916476
20
92.9146307
40
1.3810368
50
269.540558
51
280.134271
0
ARC
8
DEFAULT_255_2_778
10
14.9021002
20
92.3246898
40
0.7808809
50
279.7728356
51
298.3118503
0
ARC
8
DEFAULT_255_2_778
10
15.0125005
20
92.1055973
40
0.535679
50
299.030093
51
351.8204994
0
ARC
8
DEFAULT_255_2_778
10
14.6235477
20
92.1940919
40
0.9338227
50
349.8409896
51
0.3379885
0
ARC
8
DEFAULT_255_2_778
10
14.3415027
20
92.1989992
40
1.2158518
50
0.0283383
51
2.6933886
0
ARC
8
DEFAULT_255_2_778
10
14.2351871
20
92.1945578
40
1.3222587
50
2.6691483
51
3.5091075
0
LINE
8
DEFAULT_255_2_778
10
14.2825668
20
91.2438896
11
14.2825668
21
91.2438896
0
LINE
8
DEFAULT_255_2_778
10
15.5549668
20
92.2754896
11
15.5549668
21
92.2754896
0
LINE
8
DEFAULT_255_2_778
10
3.5942785
20
0.2949739
11
3.5942785
21
3.0950739
0
LINE
8
DEFAULT_255_2_778
10
24.5944785
20
0.2949739
11
24.5944785
21
-0.1050261
0
LINE
8
DEFAULT_255_2_778
10
3.5945785
20
-0.1050261
11
3.5945785
21
0.2949739
0
LINE
8
DEFAULT_255_2_778
10
3.5942785
20
-0.1050261
11
24.5942785
21
-0.1050261
0
LINE
8
DEFAULT_255_2_778
10
1.0796785
20
80.0922739
11
1.0796785
21
80.2922739
0
LINE
8
DEFAULT_255_2_778
10
0.8256785
20
80.2922739
11
1.0793785
21
80.2922739
0
LINE
8
DEFAULT_255_2_778
10
27.1797358
20
80.2923125
11
1.0796358
21
80.2923125
0
LINE
8
DEFAULT_255_2_778
10
27.1797358
20
80.0923125
11
1.0796358
21
80.0923125
0
LINE
8
DEFAULT_255_2_778
10
0.2552358
20
80.0923125
11
1.0796358
21
80.0923125
0
LINE
8
DEFAULT_255_2_778
10
27.1794469
20
80.0923125
11
27.1794469
21
80.2923125
0
LINE
8
DEFAULT_255_2_778
10
27.4331469
20
80.2923125
11
27.1794469
21
80.2923125
0
LINE
8
DEFAULT_255_2_778
10
28.0295469
20
80.0923125
11
27.1794469
21
80.0923125
0
LINE
8
DEFAULT_255_2_778
10
27.4331358
20
80.2923687
11
27.7332358
21
80.2923687
0
LINE
8
DEFAULT_255_2_778
10
27.4331358
20
80.2923687
11
27.4331358
21
80.5034687
0
LINE
8
DEFAULT_255_2_778
10
27.4331358
20
80.5034687
11
27.7488358
21
80.5010687
0
LINE
8
DEFAULT_255_2_778
10
27.7488358
20
80.5010687
11
27.9329358
21
80.4926687
0
LINE
8
DEFAULT_255_2_778
10
27.9329358
20
80.4926687
11
27.8745358
21
80.3510687
0
LINE
8
DEFAULT_255_2_778
10
27.8745358
20
80.3510687
11
27.7329358
21
80.2923687
0
LINE
8
DEFAULT_255_2_778
10
0.8258358
20
80.2923687
11
0.5258358
21
80.2923687
0
LINE
8
DEFAULT_255_2_778
10
0.8258493
20
80.2923319
11
0.8258493
21
80.5034319
0
LINE
8
DEFAULT_255_2_778
10
0.8258493
20
80.5034319
11
0.4437493
21
80.4994319
0
LINE
8
DEFAULT_255_2_778
10
0.4437493
20
80.4994319
11
0.3260493
21
80.4926319
0
LINE
8
DEFAULT_255_2_778
10
0.3260493
20
80.4926319
11
0.3845493
21
80.3510319
0
LINE
8
DEFAULT_255_2_778
10
0.3845493
20
80.3510319
11
0.5260493
21
80.2923319
0
LINE
8
DEFAULT_255_2_778
10
28.0292493
20
52.9949319
11
0.2715493
21
52.9949319
0
LINE
8
DEFAULT_255_2_778
10
5.8381115
20
102.265626
11
6.3501115
21
102.265626
0
LINE
8
DEFAULT_255_2_778
10
6.3501115
20
102.265626
11
6.3501115
21
101.034526
0
ARC
8
DEFAULT_255_2_778
10
7.0071047
20
101.0221117
40
0.6571105
50
178.9174858
51
195.5445957
0
ARC
8
DEFAULT_255_2_778
10
6.639699
20
100.9092459
40
0.2730905
50
193.3879313
51
270.0394302
0
ARC
8
DEFAULT_255_2_778
10
6.6696565
20
101.1122956
40
0.4770698
50
266.4223709
51
270.0426362
0
ARC
8
DEFAULT_255_2_778
10
6.6837574
20
100.9550395
40
0.3201088
50
267.5388887
51
303.4407644
0
ARC
8
DEFAULT_255_2_778
10
6.6791378
20
100.9248147
40
0.2981395
50
307.3856483
51
348.5938272
0
ARC
8
DEFAULT_255_2_778
10
6.2981779
20
101.0247241
40
0.691703
50
346.7217644
51
0.8119468
0
LINE
8
DEFAULT_255_2_778
10
6.9898115
20
101.034526
11
6.9898115
21
102.265626
0
LINE
8
DEFAULT_255_2_778
10
6.9898115
20
102.265626
11
7.5338115
21
102.265626
0
LINE
8
DEFAULT_255_2_778
10
7.5338115
20
102.265626
11
7.5338115
21
100.934726
0
ARC
8
DEFAULT_255_2_778
10
6.6333079
20
100.9220231
40
0.9005932
50
343.818863
51
0.8081837
0
ARC
8
DEFAULT_255_2_778
10
6.9568241
20
100.8300761
40
0.5642728
50
284.1393638
51
343.6308924
0
ARC
8
DEFAULT_255_2_778
10
6.7784546
20
101.3632439
40
1.1256713
50
272.8403506
51
286.3144397
0
ARC
8
DEFAULT_255_2_778
10
6.7356165
20
101.8969422
40
1.660917
50
269.9446336
51
273.4039991
0
ARC
8
DEFAULT_255_2_778
10
6.7213202
20
101.8663868
40
1.6304102
50
260.1356094
51
270.4460013
0
ARC
8
DEFAULT_255_2_778
10
6.595316
20
101.1721821
40
0.9248967
50
242.9087366
51
260.4585162
0
ARC
8
DEFAULT_255_2_778
10
6.4561217
20
100.8899767
40
0.6102812
50
186.949973
51
242.4771704
0
ARC
8
DEFAULT_255_2_778
10
6.8393686
20
100.9779117
40
1.0021879
50
182.4697226
51
189.2897612
0
LINE
8
DEFAULT_255_2_778
10
5.8381115
20
100.934726
11
5.8381115
21
102.265626
0
ARC
8
DEFAULT_255_2_778
10
4.9029251
20
101.6628962
40
0.2015256
50
358.871172
51
76.5550157
0
ARC
8
DEFAULT_255_2_778
10
4.7591142
20
101.2809728
40
0.608566
50
71.7413676
51
86.5343905
0
ARC
8
DEFAULT_255_2_778
10
4.7111201
20
100.7663214
40
1.1253028
50
85.6791761
51
90.1303381
0
ARC
8
DEFAULT_255_2_778
10
4.7103522
20
100.3470701
40
1.5445524
50
90.066477
51
92.9225118
0
ARC
8
DEFAULT_255_2_778
10
4.7286466
20
99.9642664
40
1.9277913
50
92.8854548
51
94.5710259
0
LINE
8
DEFAULT_255_2_778
10
4.5750115
20
101.885926
11
4.5750115
21
101.431626
0
ARC
8
DEFAULT_255_2_778
10
4.7484788
20
103.2333882
40
1.8100933
50
264.5007153
51
266.9884814
0
ARC
8
DEFAULT_255_2_778
10
4.7271254
20
102.8229377
40
1.3990878
50
266.9786589
51
269.9325623
0
ARC
8
DEFAULT_255_2_778
10
4.7357831
20
102.2512924
40
0.8275057
50
269.2865107
51
280.8295765
0
ARC
8
DEFAULT_255_2_778
10
4.8329145
20
101.7737496
40
0.3402652
50
279.8736512
51
304.4220213
0
ARC
8
DEFAULT_255_2_778
10
4.911284
20
101.649256
40
0.1933547
50
306.1194735
51
2.7776575
0
ARC
8
DEFAULT_255_2_778
10
4.6224619
20
99.8394083
40
1.2020328
50
90.0265206
51
91.8330755
0
ARC
8
DEFAULT_255_2_778
10
4.6331584
20
100.3420367
40
0.6994947
50
78.0289204
51
90.9217672
0
ARC
8
DEFAULT_255_2_778
10
4.7351259
20
100.7893429
40
0.2408673
50
47.7057853
51
79.6872845
0
ARC
8
DEFAULT_255_2_778
10
4.7971144
20
100.8676091
40
0.1414238
50
30.9424303
51
44.9435204
0
ARC
8
DEFAULT_255_2_778
10
5.1571907
20
100.969459
40
0.2864642
50
28.9283135
51
72.2104966
0
ARC
8
DEFAULT_255_2_778
10
5.1145582
20
101.8016791
40
0.5743933
50
283.0965583
51
307.3707508
0
ARC
8
DEFAULT_255_2_778
10
5.1840579
20
101.6864696
40
0.4408942
50
309.2808515
51
355.4879028
0
ARC
8
DEFAULT_255_2_778
10
4.9041822
20
101.7357571
40
0.7242876
50
353.3422653
51
0.1372797
0
ARC
8
DEFAULT_255_2_778
10
4.7898966
20
101.7374413
40
0.8385712
50
0.0034999
51
1.105899
0
ARC
8
DEFAULT_255_2_778
10
5.1692096
20
101.7534199
40
0.459102
50
0.0257274
51
63.4518721
0
ARC
8
DEFAULT_255_2_778
10
5.0059588
20
101.4388818
40
0.8134581
50
63.0676538
51
79.7930593
0
ARC
8
DEFAULT_255_2_778
10
4.8707827
20
100.741525
40
1.5237619
50
79.437256
51
89.1835054
0
ARC
8
DEFAULT_255_2_778
10
4.8454581
20
100.1289844
40
2.1366655
50
88.7385412
51
90.0099786
0
ARC
8
DEFAULT_255_2_778
10
4.845476
20
99.9205117
40
2.3451381
50
90.0095308
51
91.2110369
0
LINE
8
DEFAULT_255_2_778
10
4.7959115
20
102.265126
11
4.0535115
21
102.265126
0
LINE
8
DEFAULT_255_2_778
10
5.8381115
20
102.265626
11
5.8381115
21
102.265626
0
LINE
8
DEFAULT_255_2_778
10
5.1044115
20
101.658626
11
5.1044115
21
101.658926
0
LINE
8
DEFAULT_255_2_778
10
4.0535115
20
102.265126
11
4.0535115
21
100.236026
0
LINE
8
DEFAULT_255_2_778
10
4.0535115
20
100.236026
11
4.5840115
21
100.236026
0
LINE
8
DEFAULT_255_2_778
10
4.5840115
20
100.236026
11
4.5840115
21
101.040826
0
LINE
8
DEFAULT_255_2_778
10
4.9184115
20
100.940326
11
5.1714115
21
100.244426
0
LINE
8
DEFAULT_255_2_778
10
5.1714115
20
100.244426
11
5.7180115
21
100.236026
0
LINE
8
DEFAULT_255_2_778
10
5.7180115
20
100.236026
11
5.4079115
21
101.108026
0
LINE
8
DEFAULT_255_2_778
10
4.0535115
20
102.265126
11
4.0535115
21
102.265126
0
LINE
8
DEFAULT_255_2_778
10
9.0261115
20
100.744826
11
9.0261115
21
102.265626
0
LINE
8
DEFAULT_255_2_778
10
9.0261115
20
102.265626
11
9.3989115
21
102.265626
0
LINE
8
DEFAULT_255_2_778
10
9.3989115
20
102.265626
11
9.3989115
21
100.231726
0
LINE
8
DEFAULT_255_2_778
10
9.3989115
20
100.231726
11
8.9232115
21
100.231726
0
LINE
8
DEFAULT_255_2_778
10
8.9232115
20
100.231726
11
8.1799115
21
101.753126
0
LINE
8
DEFAULT_255_2_778
10
8.1799115
20
101.753126
11
8.1744115
21
101.753126
0
LINE
8
DEFAULT_255_2_778
10
8.1744115
20
101.753126
11
8.1744115
21
100.231726
0
LINE
8
DEFAULT_255_2_778
10
8.1744115
20
100.231726
11
7.8016115
21
100.231726
0
LINE
8
DEFAULT_255_2_778
10
7.8016115
20
100.231726
11
7.8016115
21
102.265626
0
LINE
8
DEFAULT_255_2_778
10
7.8016115
20
102.265626
11
8.2800115
21
102.265626
0
LINE
8
DEFAULT_255_2_778
10
8.2800115
20
102.265626
11
9.0205115
21
100.744826
0
LINE
8
DEFAULT_255_2_778
10
9.0205115
20
100.744826
11
9.0261115
21
100.744826
0
LINE
8
DEFAULT_255_2_778
10
19.3877054
20
55.5762989
11
19.6724054
21
55.5762989
0
ARC
8
DEFAULT_255_2_778
10
100.4678924
20
36.5712806
40
83.0006111
50
166.7632998
51
166.9672632
0
ARC
8
DEFAULT_255_2_778
10
145.7510076
20
26.0795527
40
129.4832617
50
166.9629344
51
167.0866736
0
ARC
8
DEFAULT_255_2_778
10
201.7660928
20
13.2361792
40
186.9518794
50
167.0865261
51
167.1955693
0
ARC
8
DEFAULT_255_2_778
10
270.8466465
20
-2.4711212
40
257.7956664
50
167.1940596
51
167.2673649
0
ARC
8
DEFAULT_255_2_778
10
346.61718
20
-19.5935104
40
335.4767447
50
167.2671307
51
167.3286367
0
LINE
8
DEFAULT_255_2_778
10
19.3112054
20
53.9961989
11
19.0419054
21
53.9961989
0
ARC
8
DEFAULT_255_2_778
10
21.2758327
20
53.594968
40
2.2696734
50
165.1855734
51
169.8177893
0
ARC
8
DEFAULT_255_2_778
10
18.7252075
20
54.3960471
40
0.4192245
50
268.9062796
51
328.2264721
0
ARC
8
DEFAULT_255_2_778
10
18.8032335
20
54.4258275
40
0.457097
50
232.2706604
51
259.1519341
0
ARC
8
DEFAULT_255_2_778
10
18.7607075
20
54.3457938
40
0.3680942
50
185.4324804
51
229.8820659
0
ARC
8
DEFAULT_255_2_778
10
19.0214939
20
54.3946901
40
0.6327931
50
179.8083473
51
187.6049183
0
ARC
8
DEFAULT_255_2_778
10
19.2140855
20
54.3954816
40
0.8253823
50
175.1451174
51
179.9080136
0
ARC
8
DEFAULT_255_2_778
10
19.3300518
20
54.3870827
40
0.9416445
50
174.5877986
51
175.2330856
0
ARC
8
DEFAULT_255_2_778
10
19.5674105
20
54.3538703
40
1.1811258
50
161.4877469
51
174.0698726
0
ARC
8
DEFAULT_255_2_778
10
19.0433814
20
54.5359182
40
0.6264417
50
137.4737044
51
162.0589232
0
ARC
8
DEFAULT_255_2_778
10
18.9214052
20
54.6363329
40
0.4687523
50
110.9494607
51
136.4414293
0
ARC
8
DEFAULT_255_2_778
10
18.960046
20
54.5969954
40
0.519772
50
98.8648236
51
113.3776876
0
ARC
8
DEFAULT_255_2_778
10
18.9393064
20
54.7123266
40
0.4026316
50
90.0850291
51
98.4779128
0
ARC
8
DEFAULT_255_2_778
10
18.9349824
20
54.7313882
40
0.3835876
50
47.4318794
51
89.4433745
0
ARC
8
DEFAULT_255_2_778
10
18.8000339
20
54.5594371
40
0.6017515
50
41.1993074
51
49.0443782
0
ARC
8
DEFAULT_255_2_778
10
-19.720455
20
63.6957898
40
39.9412377
50
347.3601922
51
347.7783632
0
ARC
8
DEFAULT_255_2_778
10
-44.5194632
20
69.0736397
40
65.31666
50
347.7729526
51
348.0742055
0
ARC
8
DEFAULT_255_2_778
10
19.0662964
20
54.499578
40
0.4406409
50
130.4658843
51
156.596982
0
ARC
8
DEFAULT_255_2_778
10
18.9669404
20
54.6171297
40
0.2867277
50
104.264542
51
130.606001
0
ARC
8
DEFAULT_255_2_778
10
18.9436635
20
54.6950599
40
0.2054921
50
90.1788518
51
103.328399
0
ARC
8
DEFAULT_255_2_778
10
18.9438046
20
54.7238252
40
0.1767275
50
64.097864
51
90.2537166
0
ARC
8
DEFAULT_255_2_778
10
18.9158001
20
54.6896926
40
0.219905
50
8.617751
51
61.4182273
0
ARC
8
DEFAULT_255_2_778
10
18.7786251
20
54.6502617
40
0.3619094
50
359.8075247
51
11.5369436
0
ARC
8
DEFAULT_255_2_778
10
18.6920329
20
54.651541
40
0.4485064
50
342.4945965
51
359.6812604
0
ARC
8
DEFAULT_255_2_778
10
18.656189
20
54.6606129
40
0.4854238
50
342.0659177
51
342.7460027
0
ARC
8
DEFAULT_255_2_778
10
18.6442507
20
54.664626
40
0.4980178
50
335.9414286
51
342.0495663
0
ARC
8
DEFAULT_255_2_778
10
18.6945114
20
54.6366411
40
0.4407439
50
310.4671441
51
336.59976
0
ARC
8
DEFAULT_255_2_778
10
18.7941131
20
54.5188111
40
0.2864595
50
284.2398606
51
310.6068077
0
ARC
8
DEFAULT_255_2_778
10
18.817341
20
54.440967
40
0.2053212
50
270.1777605
51
283.3005286
0
ARC
8
DEFAULT_255_2_778
10
18.8172004
20
54.4123481
40
0.176703
50
244.0960814
51
270.2521304
0
ARC
8
DEFAULT_255_2_778
10
18.8452508
20
54.4465608
40
0.219973
50
188.620824
51
241.4159884
0
ARC
8
DEFAULT_255_2_778
10
18.9822604
20
54.4859627
40
0.3618101
50
179.8085028
51
191.5390111
0
ARC
8
DEFAULT_255_2_778
10
19.0682332
20
54.4846991
40
0.4477876
50
162.4829651
51
179.6835795
0
ARC
8
DEFAULT_255_2_778
10
19.1071295
20
54.4746431
40
0.4879117
50
162.1955391
51
162.7316521
0
ARC
8
DEFAULT_255_2_778
10
19.1149886
20
54.4719247
40
0.4962255
50
155.9315898
51
162.1741667
0
ARC
8
DEFAULT_255_2_778
10
8.0152249
20
54.6305912
40
0.6866171
50
83.2855182
51
89.912018
0
ARC
8
DEFAULT_255_2_778
10
8.0132118
20
54.7681037
40
0.5491124
50
89.6799267
51
144.2930211
0
ARC
8
DEFAULT_255_2_778
10
8.2257591
20
54.5723835
40
0.8366609
50
141.9039581
51
144.9643384
0
ARC
8
DEFAULT_255_2_778
10
8.6317121
20
54.2672392
40
1.2000725
50
156.4395668
51
168.6751614
0
ARC
8
DEFAULT_255_2_778
10
8.1245416
20
54.495343
40
0.6440352
50
133.0628517
51
157.0057964
0
ARC
8
DEFAULT_255_2_778
10
8.0214046
20
54.5833475
40
0.5095454
50
88.0542332
51
131.3463515
0
ARC
8
DEFAULT_255_2_778
10
7.9833801
20
54.7734665
40
0.3238925
50
49.5407176
51
80.1648543
0
ARC
8
DEFAULT_255_2_778
10
8.0080398
20
54.8256236
40
0.26863
50
1.6774577
51
46.3221376
0
ARC
8
DEFAULT_255_2_778
10
7.8205488
20
54.7987961
40
0.4573235
50
359.9370152
51
4.3504483
0
ARC
8
DEFAULT_255_2_778
10
7.6841648
20
54.800519
40
0.5937115
50
352.5989135
51
359.78522
0
ARC
8
DEFAULT_255_2_778
10
7.5217589
20
54.8192669
40
0.757183
50
350.385148
51
352.7751115
0
ARC
8
DEFAULT_255_2_778
10
7.3674661
20
54.8483634
40
1.1789479
50
352.4175988
51
356.3842488
0
ARC
8
DEFAULT_255_2_778
10
7.5855916
20
54.8341582
40
0.9603608
50
356.4093573
51
359.9462857
0
ARC
8
DEFAULT_255_2_778
10
7.9260661
20
54.8444855
40
0.6199874
50
358.9623455
51
18.1697834
0
ARC
8
DEFAULT_255_2_778
10
8.1489509
20
54.9121504
40
0.3871513
50
18.9411713
51
78.5840798
0
ARC
8
DEFAULT_255_2_778
10
8.0432707
20
54.5722046
40
0.7421774
50
75.780298
51
85.9177258
0
LINE
8
DEFAULT_255_2_778
10
19.3874054
20
55.5762989
11
19.3877054
21
55.5762989
0
LINE
8
DEFAULT_255_2_778
10
18.6619054
20
54.6742989
11
18.6619054
21
54.6745989
0
LINE
8
DEFAULT_255_2_778
10
7.5407054
20
55.0526989
11
7.5886054
21
55.2724989
0
LINE
8
DEFAULT_255_2_778
10
7.5886054
20
55.2724989
11
7.3304054
21
55.2724989
0
LINE
8
DEFAULT_255_2_778
10
7.3304054
20
55.2724989
11
7.0242054
21
53.7331989
0
LINE
8
DEFAULT_255_2_778
10
7.0242054
20
53.7331989
11
7.3018054
21
53.7331989
0
LINE
8
DEFAULT_255_2_778
10
7.3018054
20
53.7331989
11
7.4550054
21
54.5028989
0
LINE
8
DEFAULT_255_2_778
10
8.2683054
20
54.6927989
11
8.0770054
21
53.7331989
0
LINE
8
DEFAULT_255_2_778
10
8.0770054
20
53.7331989
11
8.3448054
21
53.7331989
0
LINE
8
DEFAULT_255_2_778
10
8.3448054
20
53.7331989
11
8.5361054
21
54.6927989
0
LINE
8
DEFAULT_255_2_778
10
8.0961054
20
55.3124989
11
8.0955054
21
55.3124989
0
LINE
8
DEFAULT_255_2_778
10
18.4061054
20
55.5762989
11
18.0489054
21
54.0009989
0
LINE
8
DEFAULT_255_2_778
10
18.0489054
20
54.0009989
11
17.7798054
21
54.0009989
0
LINE
8
DEFAULT_255_2_778
10
17.7798054
20
54.0009989
11
18.1370054
21
55.5762989
0
LINE
8
DEFAULT_255_2_778
10
18.1370054
20
55.5762989
11
18.4061054
21
55.5762989
0
LINE
8
DEFAULT_255_2_778
10
4.4734054
20
54.6120989
11
4.5292054
21
54.8790989
0
LINE
8
DEFAULT_255_2_778
10
4.5292054
20
54.8790989
11
5.0531054
21
54.8790989
0
LINE
8
DEFAULT_255_2_778
10
5.0531054
20
54.8790989
11
5.0004054
21
54.6120989
0
LINE
8
DEFAULT_255_2_778
10
5.0004054
20
54.6120989
11
4.4734054
21
54.6120989
0
LINE
8
DEFAULT_255_2_778
10
9.3933054
20
54.5962989
11
10.2321054
21
55.2814989
0
LINE
8
DEFAULT_255_2_778
10
10.2321054
20
55.2814989
11
9.8317054
21
55.2814989
0
LINE
8
DEFAULT_255_2_778
10
9.8317054
20
55.2814989
11
9.1438054
21
54.6742989
0
LINE
8
DEFAULT_255_2_778
10
9.1438054
20
54.6742989
11
9.1377054
21
54.6742989
0
LINE
8
DEFAULT_255_2_778
10
9.1377054
20
54.6742989
11
9.4132054
21
56.0088989
0
LINE
8
DEFAULT_255_2_778
10
9.4132054
20
56.0088989
11
9.1409054
21
56.0088989
0
LINE
8
DEFAULT_255_2_778
10
9.1409054
20
56.0088989
11
8.6792054
21
53.7347989
0
LINE
8
DEFAULT_255_2_778
10
8.6792054
20
53.7347989
11
8.9523054
21
53.7347989
0
LINE
8
DEFAULT_255_2_778
10
8.9523054
20
53.7347989
11
9.1121054
21
54.5298989
0
LINE
8
DEFAULT_255_2_778
10
9.1121054
20
54.5298989
11
9.6481054
21
53.7347989
0
LINE
8
DEFAULT_255_2_778
10
9.6481054
20
53.7347989
11
9.9958054
21
53.7347989
0
LINE
8
DEFAULT_255_2_778
10
9.9958054
20
53.7347989
11
9.3931054
21
54.5964989
0
LINE
8
DEFAULT_255_2_778
10
5.3558054
20
54.0003989
11
5.7381054
21
55.8477989
0
LINE
8
DEFAULT_255_2_778
10
5.7381054
20
55.8477989
11
5.4447054
21
55.8477989
0
LINE
8
DEFAULT_255_2_778
10
5.4447054
20
55.8477989
11
5.0073054
21
53.7339989
0
LINE
8
DEFAULT_255_2_778
10
5.0073054
20
53.7339989
11
6.1405054
21
53.7339989
0
LINE
8
DEFAULT_255_2_778
10
6.1405054
20
53.7339989
11
6.1932054
21
54.0003989
0
LINE
8
DEFAULT_255_2_778
10
6.1932054
20
54.0003989
11
5.3558054
21
54.0003989
0
LINE
8
DEFAULT_255_2_778
10
13.3856054
20
56.0106989
11
13.0935054
21
55.5804989
0
LINE
8
DEFAULT_255_2_778
10
13.0935054
20
55.5804989
11
12.2691054
21
55.5804989
0
LINE
8
DEFAULT_255_2_778
10
12.2691054
20
55.5804989
11
12.1693054
21
55.1111989
0
LINE
8
DEFAULT_255_2_778
10
12.1693054
20
55.1111989
11
13.0263054
21
55.1111989
0
LINE
8
DEFAULT_255_2_778
10
13.0263054
20
55.1111989
11
12.9358054
21
54.6808989
0
LINE
8
DEFAULT_255_2_778
10
12.9358054
20
54.6808989
11
12.0820054
21
54.6808989
0
LINE
8
DEFAULT_255_2_778
10
12.0820054
20
54.6808989
11
11.9757054
21
54.1665989
0
LINE
8
DEFAULT_255_2_778
10
11.9757054
20
54.1665989
11
12.9205054
21
54.1665989
0
LINE
8
DEFAULT_255_2_778
10
12.9205054
20
54.1665989
11
12.8361054
21
53.7355989
0
LINE
8
DEFAULT_255_2_778
10
12.8361054
20
53.7355989
11
11.3965054
21
53.7355989
0
LINE
8
DEFAULT_255_2_778
10
11.3965054
20
53.7355989
11
11.8645054
21
56.0109989
0
LINE
8
DEFAULT_255_2_778
10
11.8645054
20
56.0109989
11
13.3856054
21
56.0109989
0
LINE
8
DEFAULT_255_2_778
10
11.5335054
20
56.0106989
11
11.0811054
21
53.7352989
0
LINE
8
DEFAULT_255_2_778
10
11.0811054
20
53.7352989
11
10.6482054
21
53.7352989
0
LINE
8
DEFAULT_255_2_778
10
10.6482054
20
53.7352989
11
11.1007054
21
56.0106989
0
LINE
8
DEFAULT_255_2_778
10
11.1007054
20
56.0106989
11
11.5335054
21
56.0106989
0
ARC
8
DEFAULT_255_2_778
10
3.9241992
20
54.6340272
40
0.9876225
50
90.7836342
51
108.73544
0
ARC
8
DEFAULT_255_2_778
10
3.8405525
20
54.9051525
40
0.7040404
50
109.3759765
51
159.234542
0
ARC
8
DEFAULT_255_2_778
10
4.3481163
20
54.6801874
40
1.2587595
50
157.8507661
51
171.598062
0
ARC
8
DEFAULT_255_2_778
10
4.8995224
20
54.5821301
40
1.8186495
50
171.0802671
51
174.9645331
0
ARC
8
DEFAULT_255_2_778
10
4.4136505
20
54.7586959
40
1.3258668
50
180.7320025
51
191.4330586
0
ARC
8
DEFAULT_255_2_778
10
3.8682509
20
54.6440766
40
0.7685811
50
191.1174053
51
209.3798678
0
ARC
8
DEFAULT_255_2_778
10
3.6676948
20
54.5385192
40
0.542071
50
210.05752
51
260.5041128
0
ARC
8
DEFAULT_255_2_778
10
3.7583209
20
54.9179423
40
0.9316315
50
258.8563918
51
270.4001589
0
ARC
8
DEFAULT_255_2_778
10
3.762526
20
55.2921356
40
1.3058041
50
270.1009825
51
275.0285365
0
ARC
8
DEFAULT_255_2_778
10
3.732972
20
55.6349821
40
1.6499218
50
275.0073237
51
278.9595905
0
ARC
8
DEFAULT_255_2_778
10
3.6774572
20
55.9946326
40
2.0138302
50
278.9261973
51
281.6173701
0
ARC
8
DEFAULT_255_2_778
10
7.3248167
20
53.2619374
40
3.3297462
50
166.8040744
51
168.4407317
0
ARC
8
DEFAULT_255_2_778
10
14.7331138
20
51.7262127
40
10.8955373
50
168.3350779
51
169.048997
0
ARC
8
DEFAULT_255_2_778
10
23.2001723
20
50.0714229
40
19.5227771
50
169.001531
51
169.162559
0
ARC
8
DEFAULT_255_2_778
10
3.6851292
20
55.3563856
40
1.6497417
50
275.2601991
51
281.9099058
0
ARC
8
DEFAULT_255_2_778
10
3.7118507
20
55.0837226
40
1.3757783
50
270.0586912
51
275.1930864
0
ARC
8
DEFAULT_255_2_778
10
3.702771
20
54.7849291
40
1.0770351
50
249.5621896
51
270.5579965
0
ARC
8
DEFAULT_255_2_778
10
3.6784601
20
54.6958838
40
0.9851409
50
231.7667826
51
249.0786884
0
ARC
8
DEFAULT_255_2_778
10
3.8067154
20
54.6342944
40
1.0255792
50
179.3651691
51
223.9852384
0
ARC
8
DEFAULT_255_2_778
10
4.1065846
20
54.6610001
40
1.3254744
50
179.9990869
51
180.6632278
0
ARC
8
DEFAULT_255_2_778
10
4.2476007
20
54.6582608
40
1.4664932
50
173.1969787
51
179.8921479
0
ARC
8
DEFAULT_255_2_778
10
4.4677371
20
54.6347341
40
1.6878686
50
170.9043601
51
173.2891586
0
ARC
8
DEFAULT_255_2_778
10
4.578879
20
54.6150098
40
1.8007322
50
161.0942774
51
170.8436949
0
ARC
8
DEFAULT_255_2_778
10
4.0060722
20
54.8148023
40
1.1940963
50
146.0624616
51
161.258286
0
ARC
8
DEFAULT_255_2_778
10
3.756747
20
54.9781884
40
0.8960353
50
100.6959227
51
145.8295298
0
ARC
8
DEFAULT_255_2_778
10
3.8711483
20
54.4986365
40
1.3886852
50
89.6146619
51
101.6618596
0
ARC
8
DEFAULT_255_2_778
10
3.8776111
20
54.0006065
40
1.8866861
50
85.0415736
51
89.9126427
0
ARC
8
DEFAULT_255_2_778
10
3.8399409
20
53.5601805
40
2.3287198
50
80.9793919
51
85.054813
0
ARC
8
DEFAULT_255_2_778
10
3.7591002
20
53.0465106
40
2.8487117
50
77.6367281
51
80.9934168
0
ARC
8
DEFAULT_255_2_778
10
3.6692915
20
52.6251477
40
3.2795328
50
76.2913328
51
77.6802587
0
ARC
8
DEFAULT_255_2_778
10
4.051613
20
54.8738341
40
0.7479835
50
63.1802597
51
84.8061654
0
ARC
8
DEFAULT_255_2_778
10
4.0062716
20
54.534342
40
1.0902816
50
84.0482187
51
90.113752
0
ARC
8
DEFAULT_255_2_778
10
4.0055252
20
54.2865336
40
1.3380885
50
90.0607235
51
94.0640828
0
LINE
8
DEFAULT_255_2_778
10
4.446492
20
55.8112573
11
4.389092
21
55.5413573
0
LINE
8
DEFAULT_255_2_778
10
3.910692
20
55.6212573
11
3.910692
21
55.6215573
0
ARC
8
DEFAULT_255_2_778
10
2.3837992
20
54.6340272
40
0.9876225
50
90.7836342
51
108.73544
0
ARC
8
DEFAULT_255_2_778
10
2.3001525
20
54.9051525
40
0.7040404
50
109.3759765
51
159.234542
0
ARC
8
DEFAULT_255_2_778
10
2.8077163
20
54.6801874
40
1.2587595
50
157.8507661
51
171.598062
0
ARC
8
DEFAULT_255_2_778
10
3.3591224
20
54.5821301
40
1.8186495
50
171.0802671
51
174.9645331
0
ARC
8
DEFAULT_255_2_778
10
2.8732505
20
54.7586959
40
1.3258668
50
180.7320025
51
191.4330586
0
ARC
8
DEFAULT_255_2_778
10
2.3278509
20
54.6440766
40
0.7685811
50
191.1174053
51
209.3798678
0
ARC
8
DEFAULT_255_2_778
10
2.1272948
20
54.5385192
40
0.542071
50
210.05752
51
260.5041128
0
ARC
8
DEFAULT_255_2_778
10
2.2179209
20
54.9179423
40
0.9316315
50
258.8563918
51
270.4001589
0
ARC
8
DEFAULT_255_2_778
10
2.222126
20
55.2921356
40
1.3058041
50
270.1009825
51
275.0285365
0
ARC
8
DEFAULT_255_2_778
10
2.192572
20
55.6349821
40
1.6499218
50
275.0073237
51
278.9595905
0
ARC
8
DEFAULT_255_2_778
10
2.1370572
20
55.9946326
40
2.0138302
50
278.9261973
51
281.6173701
0
ARC
8
DEFAULT_255_2_778
10
5.7844167
20
53.2619374
40
3.3297462
50
166.8040744
51
168.4407317
0
ARC
8
DEFAULT_255_2_778
10
13.1927138
20
51.7262127
40
10.8955373
50
168.3350779
51
169.048997
0
ARC
8
DEFAULT_255_2_778
10
21.6597723
20
50.0714229
40
19.5227771
50
169.001531
51
169.162559
0
ARC
8
DEFAULT_255_2_778
10
2.1447292
20
55.3563856
40
1.6497417
50
275.2601991
51
281.9099058
0
ARC
8
DEFAULT_255_2_778
10
2.1714507
20
55.0837226
40
1.3757783
50
270.0586912
51
275.1930864
0
ARC
8
DEFAULT_255_2_778
10
2.162371
20
54.7849291
40
1.0770351
50
249.5621896
51
270.5579965
0
ARC
8
DEFAULT_255_2_778
10
2.1380601
20
54.6958838
40
0.9851409
50
231.7667826
51
249.0786884
0
ARC
8
DEFAULT_255_2_778
10
2.2663154
20
54.6342944
40
1.0255792
50
179.3651691
51
223.9852384
0
ARC
8
DEFAULT_255_2_778
10
2.5661846
20
54.6610001
40
1.3254744
50
179.9990869
51
180.6632278
0
ARC
8
DEFAULT_255_2_778
10
2.7072007
20
54.6582608
40
1.4664932
50
173.1969787
51
179.8921479
0
ARC
8
DEFAULT_255_2_778
10
2.9273371
20
54.6347341
40
1.6878686
50
170.9043601
51
173.2891586
0
ARC
8
DEFAULT_255_2_778
10
3.038479
20
54.6150098
40
1.8007322
50
161.0942774
51
170.8436949
0
ARC
8
DEFAULT_255_2_778
10
2.4656722
20
54.8148023
40
1.1940963
50
146.0624616
51
161.258286
0
ARC
8
DEFAULT_255_2_778
10
2.216347
20
54.9781884
40
0.8960353
50
100.6959227
51
145.8295298
0
ARC
8
DEFAULT_255_2_778
10
2.3307483
20
54.4986365
40
1.3886852
50
89.6146619
51
101.6618596
0
ARC
8
DEFAULT_255_2_778
10
2.3372111
20
54.0006065
40
1.8866861
50
85.0415736
51
89.9126427
0
ARC
8
DEFAULT_255_2_778
10
2.2995409
20
53.5601805
40
2.3287198
50
80.9793919
51
85.054813
0
ARC
8
DEFAULT_255_2_778
10
2.2187002
20
53.0465106
40
2.8487117
50
77.6367281
51
80.9934168
0
ARC
8
DEFAULT_255_2_778
10
2.1288915
20
52.6251477
40
3.2795328
50
76.2913328
51
77.6802587
0
ARC
8
DEFAULT_255_2_778
10
2.511213
20
54.8738341
40
0.7479835
50
63.1802597
51
84.8061654
0
ARC
8
DEFAULT_255_2_778
10
2.4658716
20
54.534342
40
1.0902816
50
84.0482187
51
90.113752
0
ARC
8
DEFAULT_255_2_778
10
2.4651252
20
54.2865336
40
1.3380885
50
90.0607235
51
94.0640828
0
LINE
8
DEFAULT_255_2_778
10
2.906092
20
55.8112573
11
2.848692
21
55.5413573
0
LINE
8
DEFAULT_255_2_778
10
2.370292
20
55.6212573
11
2.370292
21
55.6215573
0
ARC
8
DEFAULT_255_2_778
10
17.1726323
20
55.0663271
40
0.8839134
50
278.9727003
51
292.2164016
0
ARC
8
DEFAULT_255_2_778
10
17.2371257
20
54.6983191
40
0.5103893
50
270.2154712
51
278.264527
0
ARC
8
DEFAULT_255_2_778
10
17.1669349
20
54.7642596
40
0.58082
50
271.5931336
51
277.1318087
0
ARC
8
DEFAULT_255_2_778
10
17.1708547
20
54.6646775
40
0.4811688
50
270.0075721
51
271.4562355
0
ARC
8
DEFAULT_255_2_778
10
17.1592934
20
54.4666135
40
0.2833435
50
240.4022889
51
272.3513531
0
ARC
8
DEFAULT_255_2_778
10
17.143416
20
54.4064605
40
0.2237636
50
186.9916934
51
236.3264534
0
ARC
8
DEFAULT_255_2_778
10
17.400867
20
54.4642803
40
0.4870355
50
179.5702544
51
190.0579108
0
LINE
8
DEFAULT_255_2_778
10
16.9138451
20
54.4679333
11
17.6599451
21
54.4679333
0
ARC
8
DEFAULT_255_2_778
10
16.333088
20
54.7573114
40
1.3580462
50
347.6968487
51
352.1169884
0
ARC
8
DEFAULT_255_2_778
10
16.6959276
20
54.7076123
40
0.9918192
50
352.0861214
51
357.6886071
0
ARC
8
DEFAULT_255_2_778
10
16.8884796
20
54.6979471
40
0.7990363
50
357.8242511
51
359.9804094
0
ARC
8
DEFAULT_255_2_778
10
17.157972
20
54.7077011
40
0.5296386
50
358.9151993
51
18.4936352
0
ARC
8
DEFAULT_255_2_778
10
17.3497403
20
54.7665047
40
0.3291599
50
19.3747609
51
79.5112528
0
ARC
8
DEFAULT_255_2_778
10
17.2570027
20
54.4438239
40
0.664124
50
76.7109021
51
88.236105
0
ARC
8
DEFAULT_255_2_778
10
17.3172487
20
54.3892576
40
0.7194776
50
93.1713887
51
116.6746394
0
ARC
8
DEFAULT_255_2_778
10
17.2729004
20
54.5133863
40
0.5888709
50
118.2409383
51
159.1171966
0
ARC
8
DEFAULT_255_2_778
10
17.6994455
20
54.3302828
40
1.0528377
50
158.0814936
51
172.4875033
0
ARC
8
DEFAULT_255_2_778
10
17.7141486
20
54.4468672
40
1.0587132
50
178.8598609
51
179.9938472
0
ARC
8
DEFAULT_255_2_778
10
17.3648503
20
54.4349101
40
0.7095176
50
179.0252046
51
195.992901
0
ARC
8
DEFAULT_255_2_778
10
17.0302638
20
54.3338171
40
0.3600627
50
195.1979411
51
264.2540052
0
ARC
8
DEFAULT_255_2_778
10
17.0965155
20
54.6176521
40
0.6501871
50
260.9474535
51
267.4021222
0
ARC
8
DEFAULT_255_2_778
10
17.1908534
20
55.8179513
40
1.8539566
50
266.1709034
51
268.8730366
0
ARC
8
DEFAULT_255_2_778
10
17.1816585
20
55.4394256
40
1.4753243
50
268.9409347
51
269.9895424
0
ARC
8
DEFAULT_255_2_778
10
17.1911159
20
54.8861191
40
0.9220691
50
269.395591
51
278.6830854
0
ARC
8
DEFAULT_255_2_778
10
17.2828947
20
54.3195896
40
0.3482159
50
277.8276844
51
297.2439663
0
ARC
8
DEFAULT_255_2_778
10
17.3592352
20
54.1607175
40
0.1720897
50
298.8612236
51
309.6068485
0
ARC
8
DEFAULT_255_2_778
10
24.2542806
20
52.956548
40
6.8694303
50
169.1636358
51
171.0255898
0
LINE
8
DEFAULT_255_2_778
10
16.9519451
20
54.6478333
11
17.4112451
21
54.6478333
0
ARC
8
DEFAULT_255_2_778
10
16.8769503
20
54.6955064
40
0.5364174
50
354.9012198
51
359.859183
0
ARC
8
DEFAULT_255_2_778
10
17.1578312
20
54.7050785
40
0.2557668
50
357.5596181
51
25.7134173
0
ARC
8
DEFAULT_255_2_778
10
17.2668651
20
54.7500575
40
0.1381814
50
28.5264883
51
85.6088121
0
ARC
8
DEFAULT_255_2_778
10
17.2209653
20
54.5700868
40
0.3227271
50
79.9208927
51
89.7778169
0
ARC
8
DEFAULT_255_2_778
10
17.2231755
20
54.644051
40
0.2487622
50
90.2207993
51
153.3248994
0
ARC
8
DEFAULT_255_2_778
10
17.4913101
20
54.469706
40
0.5677328
50
149.7484787
51
161.714505
0
LINE
8
DEFAULT_255_2_778
10
16.5389451
20
55.0828333
11
16.2918451
21
54.0011333
0
LINE
8
DEFAULT_255_2_778
10
16.2918451
20
54.0011333
11
16.0232451
21
54.0011333
0
LINE
8
DEFAULT_255_2_778
10
16.0232451
20
54.0011333
11
16.2696451
21
55.0828333
0
LINE
8
DEFAULT_255_2_778
10
16.2696451
20
55.0828333
11
16.5389451
21
55.0828333
0
LINE
8
DEFAULT_255_2_778
10
16.6482451
20
55.5492333
11
16.5860451
21
55.2801333
0
LINE
8
DEFAULT_255_2_778
10
16.5860451
20
55.2801333
11
16.3164451
21
55.2801333
0
LINE
8
DEFAULT_255_2_778
10
16.3164451
20
55.2801333
11
16.3786451
21
55.5492333
0
LINE
8
DEFAULT_255_2_778
10
16.3786451
20
55.5492333
11
16.6482451
21
55.5492333
0
LINE
8
DEFAULT_255_2_778
10
17.5073451
20
54.2480333
11
17.5068451
21
54.2480333
0
LINE
8
DEFAULT_255_2_778
10
16.9522451
20
54.6478333
11
16.9519451
21
54.6478333
0
LINE
8
DEFAULT_255_2_778
10
7.0853451
20
56.0035333
11
6.6803451
21
55.4034333
0
LINE
8
DEFAULT_255_2_778
10
6.6803451
20
55.4034333
11
6.9533451
21
55.4034333
0
LINE
8
DEFAULT_255_2_778
10
6.9533451
20
55.4034333
11
7.3576451
21
56.0035333
0
LINE
8
DEFAULT_255_2_778
10
7.3576451
20
56.0035333
11
7.0853451
21
56.0035333
0
LINE
8
DEFAULT_255_2_778
10
6.6234451
20
53.7344333
11
6.9367451
21
55.2815333
0
LINE
8
DEFAULT_255_2_778
10
6.9367451
20
55.2815333
11
6.6639451
21
55.2815333
0
LINE
8
DEFAULT_255_2_778
10
6.6639451
20
55.2815333
11
6.3506451
21
53.7344333
0
LINE
8
DEFAULT_255_2_778
10
6.3506451
20
53.7344333
11
6.6234451
21
53.7344333
0
LINE
8
DEFAULT_255_2_778
10
15.7058073
20
53.7329646
11
16.1757073
21
56.0448646
0
LINE
8
DEFAULT_255_2_778
10
16.1757073
20
56.0448646
11
14.0357073
21
56.0448646
0
LINE
8
DEFAULT_255_2_778
10
14.0357073
20
56.0448646
11
13.5661073
21
53.7329646
0
LINE
8
DEFAULT_255_2_778
10
13.5661073
20
53.7329646
11
15.7058073
21
53.7329646
0
LINE
8
DEFAULT_255_2_778
10
15.4184073
20
55.4929646
11
15.3647073
21
55.2616646
0
LINE
8
DEFAULT_255_2_778
10
15.3647073
20
55.2616646
11
14.8745073
21
55.2616646
0
LINE
8
DEFAULT_255_2_778
10
14.8745073
20
55.2616646
11
14.7916073
21
54.9002646
0
LINE
8
DEFAULT_255_2_778
10
14.7916073
20
54.9002646
11
15.2600073
21
54.9002646
0
LINE
8
DEFAULT_255_2_778
10
15.2600073
20
54.9002646
11
15.2102073
21
54.6698646
0
LINE
8
DEFAULT_255_2_778
10
15.2102073
20
54.6698646
11
14.7398073
21
54.6698646
0
LINE
8
DEFAULT_255_2_778
10
14.7398073
20
54.6698646
11
14.5967073
21
54.0271646
0
LINE
8
DEFAULT_255_2_778
10
14.5967073
20
54.0271646
11
14.3151073
21
54.0271646
0
LINE
8
DEFAULT_255_2_778
10
14.3151073
20
54.0271646
11
14.6448073
21
55.4929646
0
LINE
8
DEFAULT_255_2_778
10
14.6448073
20
55.4929646
11
15.4184073
21
55.4929646
0
LINE
8
DEFAULT_255_2_778
10
24.8823115
20
54.8399437
11
24.8992115
21
54.9158437
0
LINE
8
DEFAULT_255_2_778
10
24.8992115
20
54.9158437
11
24.9043115
21
54.9428437
0
LINE
8
DEFAULT_255_2_778
10
24.9043115
20
54.9428437
11
24.9053115
21
54.9518437
0
LINE
8
DEFAULT_255_2_778
10
24.9053115
20
54.9518437
11
25.1083115
21
54.9528437
0
LINE
8
DEFAULT_255_2_778
10
25.1083115
20
54.9528437
11
25.0932115
21
54.8809437
0
LINE
8
DEFAULT_255_2_778
10
25.0932115
20
54.8809437
11
25.0932115
21
54.8769437
0
LINE
8
DEFAULT_255_2_778
10
25.0932115
20
54.8769437
11
25.3292115
21
54.9708437
0
LINE
8
DEFAULT_255_2_778
10
25.3292115
20
54.9708437
11
25.5123115
21
54.9007437
0
LINE
8
DEFAULT_255_2_778
10
25.5123115
20
54.9007437
11
25.5774115
21
54.7147437
0
LINE
8
DEFAULT_255_2_778
10
25.5774115
20
54.7147437
11
25.5655115
21
54.6237437
0
LINE
8
DEFAULT_255_2_778
10
25.5655115
20
54.6237437
11
25.4575115
21
54.1707437
0
LINE
8
DEFAULT_255_2_778
10
25.4575115
20
54.1707437
11
25.4535115
21
54.1578437
0
LINE
8
DEFAULT_255_2_778
10
25.4535115
20
54.1578437
11
25.2474115
21
54.1578437
0
LINE
8
DEFAULT_255_2_778
10
25.2474115
20
54.1578437
11
25.2625115
21
54.2287437
0
LINE
8
DEFAULT_255_2_778
10
25.2625115
20
54.2287437
11
25.3305115
21
54.5226437
0
LINE
8
DEFAULT_255_2_778
10
25.3305115
20
54.5226437
11
25.3345115
21
54.5356437
0
LINE
8
DEFAULT_255_2_778
10
25.3345115
20
54.5356437
11
25.3514115
21
54.6166437
0
LINE
8
DEFAULT_255_2_778
10
25.3514115
20
54.6166437
11
25.3535115
21
54.6385437
0
LINE
8
DEFAULT_255_2_778
10
25.3535115
20
54.6385437
11
25.3604115
21
54.6936437
0
LINE
8
DEFAULT_255_2_778
10
25.3604115
20
54.6936437
11
25.3583115
21
54.7065437
0
LINE
8
DEFAULT_255_2_778
10
25.3583115
20
54.7065437
11
25.3313115
21
54.7795437
0
LINE
8
DEFAULT_255_2_778
10
25.3313115
20
54.7795437
11
25.2514115
21
54.8116437
0
LINE
8
DEFAULT_255_2_778
10
25.2514115
20
54.8116437
11
25.0935115
21
54.7295437
0
LINE
8
DEFAULT_255_2_778
10
25.0935115
20
54.7295437
11
24.9276115
21
54.1596437
0
LINE
8
DEFAULT_255_2_778
10
24.9276115
20
54.1596437
11
24.7196115
21
54.1586437
0
LINE
8
DEFAULT_255_2_778
10
24.7196115
20
54.1586437
11
24.8826115
21
54.8396437
0
LINE
8
DEFAULT_255_2_778
10
20.6106115
20
55.2367437
11
20.9596115
21
55.2367437
0
LINE
8
DEFAULT_255_2_778
10
20.9596115
20
55.2367437
11
20.9675115
21
55.2277437
0
LINE
8
DEFAULT_255_2_778
10
20.9675115
20
55.2277437
11
20.9686115
21
55.2119437
0
LINE
8
DEFAULT_255_2_778
10
20.9686115
20
55.2119437
11
20.9707115
21
55.1949437
0
LINE
8
DEFAULT_255_2_778
10
20.9707115
20
55.1949437
11
20.9776115
21
55.0791437
0
LINE
8
DEFAULT_255_2_778
10
20.9776115
20
55.0791437
11
20.9797115
21
55.0621437
0
LINE
8
DEFAULT_255_2_778
10
20.9797115
20
55.0621437
11
20.9866115
21
54.9462437
0
LINE
8
DEFAULT_255_2_778
10
20.9866115
20
54.9462437
11
20.9887115
21
54.9304437
0
LINE
8
DEFAULT_255_2_778
10
20.9887115
20
54.9304437
11
20.9948115
21
54.8303437
0
LINE
8
DEFAULT_255_2_778
10
20.9948115
20
54.8303437
11
20.9969115
21
54.8134437
0
LINE
8
DEFAULT_255_2_778
10
20.9969115
20
54.8134437
11
21.0038115
21
54.6975437
0
LINE
8
DEFAULT_255_2_778
10
21.0038115
20
54.6975437
11
21.0059115
21
54.6816437
0
LINE
8
DEFAULT_255_2_778
10
21.0059115
20
54.6816437
11
21.0120115
21
54.5816437
0
LINE
8
DEFAULT_255_2_778
10
21.0120115
20
54.5816437
11
21.0141115
21
54.5658437
0
LINE
8
DEFAULT_255_2_778
10
21.0141115
20
54.5658437
11
21.0202115
21
54.4657437
0
LINE
8
DEFAULT_255_2_778
10
21.0202115
20
54.4657437
11
21.0281115
21
54.4668437
0
LINE
8
DEFAULT_255_2_778
10
21.0281115
20
54.4668437
11
21.4652115
21
55.2317437
0
LINE
8
DEFAULT_255_2_778
10
21.4652115
20
55.2317437
11
21.4782115
21
55.2378437
0
LINE
8
DEFAULT_255_2_778
10
21.4782115
20
55.2378437
11
21.8272115
21
55.2378437
0
LINE
8
DEFAULT_255_2_778
10
21.8272115
20
55.2378437
11
21.8261115
21
55.2238437
0
LINE
8
DEFAULT_255_2_778
10
21.8261115
20
55.2238437
11
21.5750115
21
54.1729437
0
LINE
8
DEFAULT_255_2_778
10
21.5750115
20
54.1729437
11
21.5700115
21
54.1588437
0
LINE
8
DEFAULT_255_2_778
10
21.5700115
20
54.1588437
11
21.3530115
21
54.1588437
0
LINE
8
DEFAULT_255_2_778
10
21.3530115
20
54.1588437
11
21.3451115
21
54.1649437
0
LINE
8
DEFAULT_255_2_778
10
21.3451115
20
54.1649437
11
21.5692115
21
55.0518437
0
LINE
8
DEFAULT_255_2_778
10
21.5692115
20
55.0518437
11
21.0562115
21
54.1607437
0
LINE
8
DEFAULT_255_2_778
10
21.0562115
20
54.1607437
11
20.8583115
21
54.1586437
0
LINE
8
DEFAULT_255_2_778
10
20.8583115
20
54.1586437
11
20.8482115
21
54.1654437
0
LINE
8
DEFAULT_255_2_778
10
20.8482115
20
54.1654437
11
20.8461115
21
54.1985437
0
LINE
8
DEFAULT_255_2_778
10
20.8461115
20
54.1985437
11
20.8440115
21
54.2155437
0
LINE
8
DEFAULT_255_2_778
10
20.8440115
20
54.2155437
11
20.8400115
21
54.2813437
0
LINE
8
DEFAULT_255_2_778
10
20.8400115
20
54.2813437
11
20.8379115
21
54.2983437
0
LINE
8
DEFAULT_255_2_778
10
20.8379115
20
54.2983437
11
20.8339115
21
54.3641437
0
LINE
8
DEFAULT_255_2_778
10
20.8339115
20
54.3641437
11
20.8318115
21
54.3811437
0
LINE
8
DEFAULT_255_2_778
10
20.8318115
20
54.3811437
11
20.8289115
21
54.4311437
0
LINE
8
DEFAULT_255_2_778
10
20.8289115
20
54.4311437
11
20.8268115
21
54.4470437
0
LINE
8
DEFAULT_255_2_778
10
20.8268115
20
54.4470437
11
20.8228115
21
54.5139437
0
LINE
8
DEFAULT_255_2_778
10
20.8228115
20
54.5139437
11
20.8207115
21
54.5298437
0
LINE
8
DEFAULT_255_2_778
10
20.8207115
20
54.5298437
11
20.8167115
21
54.5967437
0
LINE
8
DEFAULT_255_2_778
10
20.8167115
20
54.5967437
11
20.8146115
21
54.6126437
0
LINE
8
DEFAULT_255_2_778
10
20.8146115
20
54.6126437
11
20.8106115
21
54.6785437
0
LINE
8
DEFAULT_255_2_778
10
20.8106115
20
54.6785437
11
20.8085115
21
54.6954437
0
LINE
8
DEFAULT_255_2_778
10
20.8085115
20
54.6954437
11
20.8046115
21
54.7613437
0
LINE
8
DEFAULT_255_2_778
10
20.8046115
20
54.7613437
11
20.8024115
21
54.7782437
0
LINE
8
DEFAULT_255_2_778
10
20.8024115
20
54.7782437
11
20.7984115
21
54.8441437
0
LINE
8
DEFAULT_255_2_778
10
20.7984115
20
54.8441437
11
20.7964115
21
54.8610437
0
LINE
8
DEFAULT_255_2_778
10
20.7964115
20
54.8610437
11
20.7924115
21
54.9269437
0
LINE
8
DEFAULT_255_2_778
10
20.7924115
20
54.9269437
11
20.7902115
21
54.9438437
0
LINE
8
DEFAULT_255_2_778
10
20.7902115
20
54.9438437
11
20.7863115
21
55.0097437
0
LINE
8
DEFAULT_255_2_778
10
20.7863115
20
55.0097437
11
20.7842115
21
55.0267437
0
LINE
8
DEFAULT_255_2_778
10
20.7842115
20
55.0267437
11
20.7831115
21
55.0425437
0
LINE
8
DEFAULT_255_2_778
10
20.7831115
20
55.0425437
11
20.7781115
21
55.0447437
0
LINE
8
DEFAULT_255_2_778
10
20.7781115
20
55.0447437
11
20.5590115
21
54.1567437
0
LINE
8
DEFAULT_255_2_778
10
20.5590115
20
54.1567437
11
20.3590115
21
54.1567437
0
LINE
8
DEFAULT_255_2_778
10
20.3590115
20
54.1567437
11
20.3611115
21
54.1837437
0
LINE
8
DEFAULT_255_2_778
10
20.3611115
20
54.1837437
11
20.3640115
21
54.2006437
0
LINE
8
DEFAULT_255_2_778
10
20.3640115
20
54.2006437
11
20.3841115
21
54.2805437
0
LINE
8
DEFAULT_255_2_778
10
20.3841115
20
54.2805437
11
20.3870115
21
54.2975437
0
LINE
8
DEFAULT_255_2_778
10
20.3870115
20
54.2975437
11
20.6101115
21
55.2354437
0
LINE
8
DEFAULT_255_2_778
10
26.0073261
20
55.7407958
11
20.4744261
21
55.7407958
0
LINE
8
DEFAULT_255_2_778
10
20.4744261
20
55.7407958
11
20.4503261
21
55.6518958
0
LINE
8
DEFAULT_255_2_778
10
20.4503261
20
55.6518958
11
20.2863261
21
54.9068958
0
LINE
8
DEFAULT_255_2_778
10
20.2863261
20
54.9068958
11
20.2662261
21
54.8128958
0
LINE
8
DEFAULT_255_2_778
10
20.2662261
20
54.8128958
11
20.0402261
21
53.7889958
0
LINE
8
DEFAULT_255_2_778
10
20.0402261
20
53.7889958
11
20.0772261
21
53.7418958
0
LINE
8
DEFAULT_255_2_778
10
20.0772261
20
53.7418958
11
25.5152261
21
53.7418958
0
LINE
8
DEFAULT_255_2_778
10
25.5152261
20
53.7418958
11
25.5763261
21
53.7849958
0
LINE
8
DEFAULT_255_2_778
10
25.5763261
20
53.7849958
11
26.0073261
21
55.7410958
0
LINE
8
DEFAULT_255_2_778
10
22.8445271
20
54.9539656
11
22.9945271
21
54.9539656
0
LINE
8
DEFAULT_255_2_778
10
22.9945271
20
54.9539656
11
23.0326271
21
55.1058656
0
LINE
8
DEFAULT_255_2_778
10
23.0326271
20
55.1058656
11
23.0348271
21
55.1169656
0
LINE
8
DEFAULT_255_2_778
10
23.0348271
20
55.1169656
11
23.2597271
21
55.1899656
0
LINE
8
DEFAULT_255_2_778
10
23.2597271
20
55.1899656
11
23.2028271
21
54.9560656
0
LINE
8
DEFAULT_255_2_778
10
23.2028271
20
54.9560656
11
23.3867271
21
54.9539656
0
LINE
8
DEFAULT_255_2_778
10
23.3867271
20
54.9539656
11
23.3517271
21
54.8020656
0
LINE
8
DEFAULT_255_2_778
10
23.3517271
20
54.8020656
11
23.1657271
21
54.8020656
0
LINE
8
DEFAULT_255_2_778
10
23.1657271
20
54.8020656
11
23.0747271
21
54.4221656
0
LINE
8
DEFAULT_255_2_778
10
23.0747271
20
54.4221656
11
23.0768271
21
54.3610656
0
LINE
8
DEFAULT_255_2_778
10
23.0768271
20
54.3610656
11
23.0927271
21
54.3200656
0
LINE
8
DEFAULT_255_2_778
10
23.0927271
20
54.3200656
11
23.2478271
21
54.3160656
0
LINE
8
DEFAULT_255_2_778
10
23.2478271
20
54.3160656
11
23.2097271
21
54.1599656
0
LINE
8
DEFAULT_255_2_778
10
23.2097271
20
54.1599656
11
22.9258271
21
54.1879656
0
LINE
8
DEFAULT_255_2_778
10
22.9258271
20
54.1879656
11
22.8628271
21
54.3480656
0
LINE
8
DEFAULT_255_2_778
10
22.8628271
20
54.3480656
11
22.8747271
21
54.4459656
0
LINE
8
DEFAULT_255_2_778
10
22.8747271
20
54.4459656
11
22.9586271
21
54.7978656
0
LINE
8
DEFAULT_255_2_778
10
22.9586271
20
54.7978656
11
22.9564271
21
54.8018656
0
LINE
8
DEFAULT_255_2_778
10
22.9564271
20
54.8018656
11
22.8104271
21
54.8018656
0
LINE
8
DEFAULT_255_2_778
10
22.8104271
20
54.8018656
11
22.8125271
21
54.8187656
0
LINE
8
DEFAULT_255_2_778
10
22.8125271
20
54.8187656
11
22.8435271
21
54.9467656
0
LINE
8
DEFAULT_255_2_778
10
22.8435271
20
54.9467656
11
22.8445271
21
54.9536656
0
LINE
8
DEFAULT_255_2_778
10
24.4376271
20
54.6218656
11
24.4085271
21
54.7528656
0
LINE
8
DEFAULT_255_2_778
10
24.4085271
20
54.7528656
11
24.2844271
21
54.8118656
0
LINE
8
DEFAULT_255_2_778
10
24.2844271
20
54.8118656
11
24.0963271
21
54.7007656
0
LINE
8
DEFAULT_255_2_778
10
24.0963271
20
54.7007656
11
24.0304271
21
54.4877656
0
LINE
8
DEFAULT_255_2_778
10
24.0304271
20
54.4877656
11
24.0624271
21
54.3578656
0
LINE
8
DEFAULT_255_2_778
10
24.0624271
20
54.3578656
11
24.1873271
21
54.2998656
0
LINE
8
DEFAULT_255_2_778
10
24.1873271
20
54.2998656
11
24.3704271
21
54.4089656
0
LINE
8
DEFAULT_255_2_778
10
24.3704271
20
54.4089656
11
24.4376271
21
54.6218656
0
LINE
8
DEFAULT_255_2_778
10
24.6545271
20
54.6229656
11
24.5865271
21
54.3718656
0
LINE
8
DEFAULT_255_2_778
10
24.5865271
20
54.3718656
11
24.4175271
21
54.2038656
0
LINE
8
DEFAULT_255_2_778
10
24.4175271
20
54.2038656
11
24.1664271
21
54.1398656
0
LINE
8
DEFAULT_255_2_778
10
24.1664271
20
54.1398656
11
23.9034271
21
54.2398656
0
LINE
8
DEFAULT_255_2_778
10
23.9034271
20
54.2398656
11
23.8145271
21
54.4999656
0
LINE
8
DEFAULT_255_2_778
10
23.8145271
20
54.4999656
11
23.8156271
21
54.5078656
0
LINE
8
DEFAULT_255_2_778
10
23.8156271
20
54.5078656
11
23.8806271
21
54.7359656
0
LINE
8
DEFAULT_255_2_778
10
23.8806271
20
54.7359656
11
24.0537271
21
54.9089656
0
LINE
8
DEFAULT_255_2_778
10
24.0537271
20
54.9089656
11
24.2987271
21
54.9719656
0
LINE
8
DEFAULT_255_2_778
10
24.2987271
20
54.9719656
11
24.5577271
21
54.8809656
0
LINE
8
DEFAULT_255_2_778
10
24.5577271
20
54.8809656
11
24.6545271
21
54.6229656
0
LINE
8
DEFAULT_255_2_778
10
23.5345626
20
54.9539173
11
23.7406626
21
54.9539173
0
LINE
8
DEFAULT_255_2_778
10
23.7406626
20
54.9539173
11
23.7396626
21
54.9420173
0
LINE
8
DEFAULT_255_2_778
10
23.7396626
20
54.9420173
11
23.5536626
21
54.1641173
0
LINE
8
DEFAULT_255_2_778
10
23.5536626
20
54.1641173
11
23.5456626
21
54.1581173
0
LINE
8
DEFAULT_255_2_778
10
23.5456626
20
54.1581173
11
23.3528626
21
54.1581173
0
LINE
8
DEFAULT_255_2_778
10
23.3528626
20
54.1581173
11
23.3467626
21
54.1631173
0
LINE
8
DEFAULT_255_2_778
10
23.3467626
20
54.1631173
11
23.5345626
21
54.9539173
0
LINE
8
DEFAULT_255_2_778
10
23.6195626
20
55.2968173
11
23.8256626
21
55.2968173
0
LINE
8
DEFAULT_255_2_778
10
23.8256626
20
55.2968173
11
23.7785626
21
55.1018173
0
LINE
8
DEFAULT_255_2_778
10
23.7785626
20
55.1018173
11
23.5734626
21
55.0989173
0
LINE
8
DEFAULT_255_2_778
10
23.5734626
20
55.0989173
11
23.5755626
21
55.1169173
0
LINE
8
DEFAULT_255_2_778
10
23.5755626
20
55.1169173
11
23.6176626
21
55.2918173
0
LINE
8
DEFAULT_255_2_778
10
23.6176626
20
55.2918173
11
23.6195626
21
55.2968173
0
LINE
8
DEFAULT_255_2_778
10
22.6775626
20
54.6229173
11
22.6125626
21
54.3790173
0
LINE
8
DEFAULT_255_2_778
10
22.6125626
20
54.3790173
11
22.4415626
21
54.2041173
0
LINE
8
DEFAULT_255_2_778
10
22.4415626
20
54.2041173
11
22.1904626
21
54.1401173
0
LINE
8
DEFAULT_255_2_778
10
22.1904626
20
54.1401173
11
21.9325626
21
54.2351173
0
LINE
8
DEFAULT_255_2_778
10
21.9325626
20
54.2351173
11
21.9264626
21
54.2401173
0
LINE
8
DEFAULT_255_2_778
10
21.9264626
20
54.2401173
11
21.8383626
21
54.5002173
0
LINE
8
DEFAULT_255_2_778
10
21.8383626
20
54.5002173
11
21.8393626
21
54.5081173
0
LINE
8
DEFAULT_255_2_778
10
21.8393626
20
54.5081173
11
21.9005626
21
54.7221173
0
LINE
8
DEFAULT_255_2_778
10
21.9005626
20
54.7221173
11
21.9073626
21
54.7431173
0
LINE
8
DEFAULT_255_2_778
10
21.9073626
20
54.7431173
11
22.0775626
21
54.9089173
0
LINE
8
DEFAULT_255_2_778
10
22.0775626
20
54.9089173
11
22.3225626
21
54.9719173
0
LINE
8
DEFAULT_255_2_778
10
22.3225626
20
54.9719173
11
22.5815626
21
54.8809173
0
LINE
8
DEFAULT_255_2_778
10
22.5815626
20
54.8809173
11
22.6775626
21
54.6229173
0
LINE
8
DEFAULT_255_2_778
10
22.4606626
20
54.6219173
11
22.4325626
21
54.7528173
0
LINE
8
DEFAULT_255_2_778
10
22.4325626
20
54.7528173
11
22.3085626
21
54.8118173
0
LINE
8
DEFAULT_255_2_778
10
22.3085626
20
54.8118173
11
22.1203626
21
54.7007173
0
LINE
8
DEFAULT_255_2_778
10
22.1203626
20
54.7007173
11
22.0545626
21
54.4877173
0
LINE
8
DEFAULT_255_2_778
10
22.0545626
20
54.4877173
11
22.0865626
21
54.3578173
0
LINE
8
DEFAULT_255_2_778
10
22.0865626
20
54.3578173
11
22.2114626
21
54.2999173
0
LINE
8
DEFAULT_255_2_778
10
22.2114626
20
54.2999173
11
22.3944626
21
54.4089173
0
LINE
8
DEFAULT_255_2_778
10
22.3944626
20
54.4089173
11
22.4606626
21
54.6219173
0
LINE
8
DEFAULT_255_2_778
10
16.0627626
20
85.4448173
11
16.4606626
21
85.4448173
0
LINE
8
DEFAULT_255_2_778
10
16.4606626
20
85.4448173
11
16.4627626
21
83.7668173
0
LINE
8
DEFAULT_255_2_778
10
16.4627626
20
83.7668173
11
16.4858626
21
83.7607173
0
LINE
8
DEFAULT_255_2_778
10
16.4858626
20
83.7607173
11
17.2269626
21
83.7607173
0
LINE
8
DEFAULT_255_2_778
10
17.2269626
20
83.7607173
11
17.2388626
21
83.7456173
0
LINE
8
DEFAULT_255_2_778
10
17.2388626
20
83.7456173
11
17.2388626
21
83.4607173
0
LINE
8
DEFAULT_255_2_778
10
17.2388626
20
83.4607173
11
17.2247626
21
83.4466173
0
LINE
8
DEFAULT_255_2_778
10
17.2247626
20
83.4466173
11
16.0857626
21
83.4466173
0
LINE
8
DEFAULT_255_2_778
10
16.0857626
20
83.4466173
11
16.0627626
21
83.4517173
0
LINE
8
DEFAULT_255_2_778
10
16.0627626
20
83.4517173
11
16.0627626
21
85.4448173
0
LINE
8
DEFAULT_255_2_778
10
18.2908626
20
85.4448173
11
19.4629626
21
85.4448173
0
LINE
8
DEFAULT_255_2_778
10
19.4629626
20
85.4448173
11
19.4708626
21
85.4307173
0
LINE
8
DEFAULT_255_2_778
10
19.4708626
20
85.4307173
11
19.4708626
21
85.1379173
0
LINE
8
DEFAULT_255_2_778
10
19.4708626
20
85.1379173
11
19.4557626
21
85.1310173
0
LINE
8
DEFAULT_255_2_778
10
19.4557626
20
85.1310173
11
18.7117626
21
85.1310173
0
LINE
8
DEFAULT_255_2_778
10
18.7117626
20
85.1310173
11
18.6916626
21
85.1281173
0
LINE
8
DEFAULT_255_2_778
10
18.6916626
20
85.1281173
11
18.6916626
21
84.6550173
0
LINE
8
DEFAULT_255_2_778
10
18.6916626
20
84.6550173
11
18.6977626
21
84.6381173
0
LINE
8
DEFAULT_255_2_778
10
18.6977626
20
84.6381173
11
19.3957626
21
84.6381173
0
LINE
8
DEFAULT_255_2_778
10
19.3957626
20
84.6381173
11
19.4047626
21
84.6240173
0
LINE
8
DEFAULT_255_2_778
10
19.4047626
20
84.6240173
11
19.4047626
21
84.3311173
0
LINE
8
DEFAULT_255_2_778
10
19.4047626
20
84.3311173
11
19.3896626
21
84.3232173
0
LINE
8
DEFAULT_255_2_778
10
19.3896626
20
84.3232173
11
18.6916626
21
84.3232173
0
LINE
8
DEFAULT_255_2_778
10
18.6916626
20
84.3232173
11
18.6937626
21
83.7612173
0
LINE
8
DEFAULT_255_2_778
10
18.6937626
20
83.7612173
11
19.4597626
21
83.7612173
0
LINE
8
DEFAULT_255_2_778
10
19.4597626
20
83.7612173
11
19.4766626
21
83.7551173
0
LINE
8
DEFAULT_255_2_778
10
19.4766626
20
83.7551173
11
19.4766626
21
83.4622173
0
LINE
8
DEFAULT_255_2_778
10
19.4766626
20
83.4622173
11
19.4697626
21
83.4472173
0
LINE
8
DEFAULT_255_2_778
10
19.4697626
20
83.4472173
11
18.2976626
21
83.4472173
0
LINE
8
DEFAULT_255_2_778
10
18.2976626
20
83.4472173
11
18.2908626
21
83.4622173
0
LINE
8
DEFAULT_255_2_778
10
18.2908626
20
83.4622173
11
18.2908626
21
85.4453173
0
ARC
8
DEFAULT_255_2_778
10
22.3307536
20
84.85482
40
0.2016402
50
357.7915311
51
78.5705217
0
ARC
8
DEFAULT_255_2_778
10
22.2069691
20
84.4850653
40
0.5905505
50
73.9026655
51
88.5624768
0
ARC
8
DEFAULT_255_2_778
10
22.1811896
20
84.0914196
40
0.9848474
50
87.6376468
51
90.0361441
0
ARC
8
DEFAULT_255_2_778
10
22.1823431
20
83.8294828
40
1.2467854
50
90.0815617
51
93.4007013
0
ARC
8
DEFAULT_255_2_778
10
22.1993563
20
83.5190511
40
1.5576803
50
93.348059
51
95.0646712
0
LINE
8
DEFAULT_255_2_778
10
22.0618441
20
85.0706497
11
22.0618441
21
84.6235497
0
ARC
8
DEFAULT_255_2_778
10
22.2142666
20
86.0462273
40
1.4308195
50
263.8847854
51
267.0197079
0
ARC
8
DEFAULT_255_2_778
10
22.1967885
20
85.7186975
40
1.1028239
50
267.0418048
51
269.9422086
0
ARC
8
DEFAULT_255_2_778
10
22.2060821
20
85.2606756
40
0.6448856
50
269.0754303
51
283.1374364
0
ARC
8
DEFAULT_255_2_778
10
22.3010133
20
84.8817287
40
0.2543584
50
281.7144074
51
315.6947262
0
ARC
8
DEFAULT_255_2_778
10
22.3270281
20
84.8377102
40
0.2054284
50
319.4152186
51
2.6057621
0
ARC
8
DEFAULT_255_2_778
10
22.1032886
20
83.2733248
40
0.9658076
50
90.0275668
51
91.9904045
0
ARC
8
DEFAULT_255_2_778
10
22.1140405
20
83.69164
40
0.5476072
50
75.6066542
51
91.1736586
0
ARC
8
DEFAULT_255_2_778
10
22.2132483
20
84.0455399
40
0.1803379
50
31.4193764
51
78.1881344
0
ARC
8
DEFAULT_255_2_778
10
22.5645186
20
84.1891199
40
0.2644913
50
25.899881
51
69.4309188
0
ARC
8
DEFAULT_255_2_778
10
22.5439781
20
84.8882251
40
0.4655154
50
284.1075396
51
317.2672916
0
ARC
8
DEFAULT_255_2_778
10
22.5358066
20
84.8681849
40
0.4583671
50
319.8012499
51
354.0568136
0
ARC
8
DEFAULT_255_2_778
10
22.2337575
20
84.9209405
40
0.764549
50
352.4680839
51
0.1929453
0
ARC
8
DEFAULT_255_2_778
10
22.0832994
20
84.9234352
40
0.9150028
50
0.005001
51
1.0654743
0
ARC
8
DEFAULT_255_2_778
10
22.4612443
20
84.9288431
40
0.5370252
50
1.2384159
51
28.3954957
0
ARC
8
DEFAULT_255_2_778
10
22.5371578
20
84.9499193
40
0.4605571
50
30.5806616
51
70.8904313
0
ARC
8
DEFAULT_255_2_778
10
22.3762122
20
84.5406601
40
0.9001354
50
69.7385591
51
84.768928
0
ARC
8
DEFAULT_255_2_778
10
22.306437
20
83.9459337
40
1.4988242
50
84.1855017
51
90.1762068
0
ARC
8
DEFAULT_255_2_778
10
22.3021653
20
83.5644793
40
1.8802716
50
90.0102919
51
91.3232509
0
LINE
8
DEFAULT_255_2_778
10
22.2587441
20
85.4442497
11
21.5988441
21
85.4442497
0
LINE
8
DEFAULT_255_2_778
10
22.5322441
20
84.8470497
11
22.5322441
21
84.8470497
0
LINE
8
DEFAULT_255_2_778
10
21.5985441
20
85.4442497
11
21.5985441
21
83.4458497
0
LINE
8
DEFAULT_255_2_778
10
21.5985441
20
83.4458497
11
22.0697441
21
83.4458497
0
LINE
8
DEFAULT_255_2_778
10
22.0697441
20
83.4458497
11
22.0697441
21
84.2385497
0
LINE
8
DEFAULT_255_2_778
10
22.3671441
20
84.1395497
11
22.5920441
21
83.4540497
0
LINE
8
DEFAULT_255_2_778
10
22.5920441
20
83.4540497
11
23.0778441
21
83.4458497
0
LINE
8
DEFAULT_255_2_778
10
23.0778441
20
83.4458497
11
22.8024441
21
84.3046497
0
LINE
8
DEFAULT_255_2_778
10
21.5988441
20
85.4442497
11
21.5985441
21
85.4442497
0
ARC
8
DEFAULT_255_2_778
10
20.5811669
20
84.85482
40
0.2016402
50
357.7915311
51
78.5705217
0
ARC
8
DEFAULT_255_2_778
10
20.4573823
20
84.4850653
40
0.5905505
50
73.9026655
51
88.5624768
0
ARC
8
DEFAULT_255_2_778
10
20.4316028
20
84.0914196
40
0.9848474
50
87.6376468
51
90.0361441
0
ARC
8
DEFAULT_255_2_778
10
20.4327563
20
83.8294828
40
1.2467854
50
90.0815617
51
93.4007013
0
ARC
8
DEFAULT_255_2_778
10
20.4497695
20
83.5190511
40
1.5576803
50
93.348059
51
95.0646712
0
LINE
8
DEFAULT_255_2_778
10
20.3122573
20
85.0706497
11
20.3122573
21
84.6235497
0
ARC
8
DEFAULT_255_2_778
10
20.4646798
20
86.0462273
40
1.4308195
50
263.8847854
51
267.0197079
0
ARC
8
DEFAULT_255_2_778
10
20.4472018
20
85.7186975
40
1.1028239
50
267.0418048
51
269.9422086
0
ARC
8
DEFAULT_255_2_778
10
20.4564953
20
85.2606756
40
0.6448856
50
269.0754303
51
283.1374364
0
ARC
8
DEFAULT_255_2_778
10
20.5514266
20
84.8817287
40
0.2543584
50
281.7144074
51
315.6947262
0
ARC
8
DEFAULT_255_2_778
10
20.5774414
20
84.8377102
40
0.2054284
50
319.4152186
51
2.6057621
0
ARC
8
DEFAULT_255_2_778
10
20.3537019
20
83.2733248
40
0.9658076
50
90.0275668
51
91.9904045
0
ARC
8
DEFAULT_255_2_778
10
20.3644537
20
83.69164
40
0.5476072
50
75.6066542
51
91.1736586
0
ARC
8
DEFAULT_255_2_778
10
20.4636616
20
84.0455399
40
0.1803379
50
31.4193764
51
78.1881344
0
ARC
8
DEFAULT_255_2_778
10
20.8149319
20
84.1891199
40
0.2644913
50
25.899881
51
69.4309188
0
ARC
8
DEFAULT_255_2_778
10
20.7943914
20
84.8882251
40
0.4655154
50
284.1075396
51
317.2672916
0
ARC
8
DEFAULT_255_2_778
10
20.7862198
20
84.8681849
40
0.4583671
50
319.8012499
51
354.0568136
0
ARC
8
DEFAULT_255_2_778
10
20.4841707
20
84.9209405
40
0.764549
50
352.4680839
51
0.1929453
0
ARC
8
DEFAULT_255_2_778
10
20.3337126
20
84.9234352
40
0.9150028
50
0.005001
51
1.0654743
0
ARC
8
DEFAULT_255_2_778
10
20.7117194
20
84.9288451
40
0.5369633
50
1.2383407
51
28.3988214
0
ARC
8
DEFAULT_255_2_778
10
20.7879122
20
84.9502138
40
0.4601072
50
30.5711703
51
70.7550447
0
ARC
8
DEFAULT_255_2_778
10
20.6270543
20
84.542881
40
0.89787
50
69.6313015
51
84.749485
0
ARC
8
DEFAULT_255_2_778
10
20.5567911
20
83.9465913
40
1.4981666
50
84.1604575
51
90.1776196
0
ARC
8
DEFAULT_255_2_778
10
20.5524845
20
83.5639588
40
1.8807921
50
90.0102894
51
91.3230684
0
LINE
8
DEFAULT_255_2_778
10
20.5090573
20
85.4442497
11
19.8492573
21
85.4442497
0
LINE
8
DEFAULT_255_2_778
10
20.7826573
20
84.8470497
11
20.7826573
21
84.8470497
0
LINE
8
DEFAULT_255_2_778
10
19.8489573
20
85.4442497
11
19.8489573
21
83.4458497
0
LINE
8
DEFAULT_255_2_778
10
19.8489573
20
83.4458497
11
20.3201573
21
83.4458497
0
LINE
8
DEFAULT_255_2_778
10
20.3201573
20
83.4458497
11
20.3201573
21
84.2385497
0
LINE
8
DEFAULT_255_2_778
10
20.6175573
20
84.1395497
11
20.8424573
21
83.4540497
0
LINE
8
DEFAULT_255_2_778
10
20.8424573
20
83.4540497
11
21.3282573
21
83.4458497
0
LINE
8
DEFAULT_255_2_778
10
21.3282573
20
83.4458497
11
21.0528573
21
84.3046497
0
LINE
8
DEFAULT_255_2_778
10
19.8492573
20
85.4442497
11
19.8489573
21
85.4442497
0
ARC
8
DEFAULT_255_2_778
10
13.1598308
20
102.4214653
40
2.6660004
50
103.6329912
51
107.1520895
0
ARC
8
DEFAULT_255_2_778
10
13.0404315
20
102.9179189
40
2.1553917
50
99.1699501
51
103.6590331
0
ARC
8
DEFAULT_255_2_778
10
12.9673156
20
103.3749364
40
1.692563
50
93.7960169
51
99.1919682
0
ARC
8
DEFAULT_255_2_778
10
12.944924
20
103.687325
40
1.3793783
50
90.0484414
51
93.7270247
0
ARC
8
DEFAULT_255_2_778
10
12.9515185
20
104.040251
40
1.0264811
50
78.0987465
51
90.4331933
0
ARC
8
DEFAULT_255_2_778
10
13.0304479
20
104.4004018
40
0.6578013
50
58.650299
51
78.3566078
0
ARC
8
DEFAULT_255_2_778
10
13.1101123
20
104.5399077
40
0.4972367
50
9.1637668
51
58.1265395
0
ARC
8
DEFAULT_255_2_778
10
12.9477657
20
104.5312764
40
0.6591139
50
2.5197714
51
7.6568025
0
ARC
8
DEFAULT_255_2_778
10
13.0145694
20
104.5347498
40
0.5922224
50
0.0124876
51
2.4681947
0
ARC
8
DEFAULT_255_2_778
10
13.1332191
20
104.5298008
40
0.4736
50
340.1410982
51
0.6143628
0
ARC
8
DEFAULT_255_2_778
10
13.2056967
20
104.5066709
40
0.3975856
50
310.3133005
51
339.7279832
0
ARC
8
DEFAULT_255_2_778
10
13.1809046
20
104.5349016
40
0.435152
50
297.1017346
51
310.3975785
0
ARC
8
DEFAULT_255_2_778
10
13.1789842
20
104.536674
40
0.4376054
50
286.0999523
51
297.2198482
0
ARC
8
DEFAULT_255_2_778
10
13.192524
20
104.4917318
40
0.3906715
50
282.2780856
51
286.0199258
0
ARC
8
DEFAULT_255_2_778
10
13.1711308
20
103.6585832
40
0.4633443
50
24.3880931
51
76.9692458
0
ARC
8
DEFAULT_255_2_778
10
13.1666733
20
103.6499506
40
0.4710073
50
0.0498533
51
25.1206364
0
ARC
8
DEFAULT_255_2_778
10
13.1569182
20
103.6510162
40
0.4807626
50
344.2576771
51
359.9218381
0
ARC
8
DEFAULT_255_2_778
10
13.1078776
20
103.6646853
40
0.5316724
50
333.7784095
51
344.2737287
0
ARC
8
DEFAULT_255_2_778
10
13.0360167
20
103.7002529
40
0.6118536
50
324.3727317
51
333.7637922
0
ARC
8
DEFAULT_255_2_778
10
12.943177
20
103.7665129
40
0.7259131
50
316.7196417
51
324.3902784
0
ARC
8
DEFAULT_255_2_778
10
12.8659112
20
103.837471
40
0.830811
50
313.5474727
51
316.8101892
0
ARC
8
DEFAULT_255_2_778
10
13.0862278
20
103.6658348
40
0.5561658
50
290.449449
51
309.2747503
0
ARC
8
DEFAULT_255_2_778
10
12.900744
20
104.1536015
40
1.0780036
50
277.7447911
51
290.6290104
0
ARC
8
DEFAULT_255_2_778
10
12.8157191
20
104.6674125
40
1.5986561
50
274.1593468
51
278.282675
0
ARC
8
DEFAULT_255_2_778
10
12.7950421
20
104.9468989
40
1.8789061
50
269.9629338
51
274.1700586
0
ARC
8
DEFAULT_255_2_778
10
12.7929422
20
105.0203573
40
1.9523642
50
264.2145726
51
270.0259526
0
ARC
8
DEFAULT_255_2_778
10
12.741711
20
104.5370653
40
1.4663714
50
259.2395052
51
264.3025999
0
ARC
8
DEFAULT_255_2_778
10
12.6110829
20
103.8615403
40
0.778339
50
252.925612
51
259.4020401
0
ARC
8
DEFAULT_255_2_778
10
12.4575711
20
103.3723251
40
0.2656314
50
241.2508413
51
253.5955181
0
ARC
8
DEFAULT_255_2_778
10
12.3875087
20
103.2374945
40
0.1137741
50
239.1715055
51
239.5261648
0
ARC
8
DEFAULT_255_2_778
10
12.7391026
20
104.2133366
40
0.7691718
50
239.0914708
51
261.4210634
0
ARC
8
DEFAULT_255_2_778
10
12.7552626
20
104.2763946
40
0.8339606
50
260.9694901
51
269.9427929
0
ARC
8
DEFAULT_255_2_778
10
12.7616894
20
104.101828
40
0.6594336
50
269.3692417
51
287.8176959
0
ARC
8
DEFAULT_255_2_778
10
12.862974
20
103.8002169
40
0.3413224
50
287.1232821
51
314.2900047
0
ARC
8
DEFAULT_255_2_778
10
12.9647216
20
103.6921292
40
0.1929203
50
315.0753212
51
356.6024659
0
ARC
8
DEFAULT_255_2_778
10
12.8870846
20
103.673791
40
0.2703065
50
1.463798
51
26.1711026
0
ARC
8
DEFAULT_255_2_778
10
12.9401393
20
103.6781738
40
0.2216146
50
31.2104111
51
88.0975496
0
ARC
8
DEFAULT_255_2_778
10
12.8343673
20
102.9931241
40
0.9135738
50
82.8867262
51
90.7219105
0
ARC
8
DEFAULT_255_2_778
10
12.841316
20
99.860599
40
4.0460685
50
90.2613988
51
91.6396782
0
ARC
8
DEFAULT_255_2_778
10
12.6086893
20
108.0470322
40
4.1436694
50
270.2299711
51
271.6159775
0
LINE
8
DEFAULT_255_2_778
10
12.6253209
20
103.9033961
11
12.6250029
21
103.9033961
0
ARC
8
DEFAULT_255_2_778
10
12.7928113
20
105.7544128
40
1.5105666
50
263.6218645
51
266.1777437
0
ARC
8
DEFAULT_255_2_778
10
12.7734291
20
105.4637261
40
1.2192343
50
266.1759309
51
268.9493701
0
ARC
8
DEFAULT_255_2_778
10
12.76963
20
105.3008606
40
1.0563267
50
268.9934251
51
269.9936846
0
ARC
8
DEFAULT_255_2_778
10
12.7758608
20
105.000355
40
0.7558477
50
269.5188543
51
279.4689257
0
ARC
8
DEFAULT_255_2_778
10
12.8370291
20
104.6484975
40
0.3987288
50
279.1168809
51
295.4915264
0
ARC
8
DEFAULT_255_2_778
10
12.9166765
20
104.4851408
40
0.2170025
50
295.0720843
51
324.8665327
0
ARC
8
DEFAULT_255_2_778
10
12.9391005
20
104.4654575
40
0.1873635
50
325.8429094
51
342.8080481
0
ARC
8
DEFAULT_255_2_778
10
12.9061461
20
104.4746369
40
0.221561
50
343.0592027
51
0.3514971
0
ARC
8
DEFAULT_255_2_778
10
12.9307885
20
104.455296
40
0.1979994
50
6.001022
51
66.6527864
0
ARC
8
DEFAULT_255_2_778
10
12.8173814
20
104.2463744
40
0.4352807
50
63.8446309
51
84.5149513
0
ARC
8
DEFAULT_255_2_778
10
12.7897098
20
104.0558883
40
0.6276089
50
83.6625187
51
90.0878901
0
ARC
8
DEFAULT_255_2_778
10
12.7923101
20
103.902982
40
0.7805227
50
90.2615509
51
102.0967285
0
ARC
8
DEFAULT_255_2_778
10
12.8250107
20
103.7444779
40
0.9423608
50
102.0212135
51
113.4714618
0
ARC
8
DEFAULT_255_2_778
10
12.8524269
20
103.6760788
40
1.0160223
50
113.3533117
51
116.2404937
0
ARC
8
DEFAULT_255_2_778
10
9.4399445
20
106.992011
40
3.9995744
50
280.4354107
51
283.0286697
0
ARC
8
DEFAULT_255_2_778
10
9.5659801
20
106.3072292
40
3.3032908
50
277.6273253
51
280.4368242
0
ARC
8
DEFAULT_255_2_778
10
9.6452323
20
105.7099602
40
2.7007871
50
274.1491151
51
277.642686
0
ARC
8
DEFAULT_255_2_778
10
9.6828649
20
105.1859091
40
2.1753868
50
270.0759854
51
274.1591871
0
ARC
8
DEFAULT_255_2_778
10
9.6762971
20
104.5823289
40
1.5718334
50
260.3745628
51
270.3445696
0
ARC
8
DEFAULT_255_2_778
10
9.5808896
20
104.0390311
40
1.0202366
50
244.9941597
51
260.5554779
0
ARC
8
DEFAULT_255_2_778
10
9.469504
20
103.7912742
40
0.748629
50
194.7692341
51
244.7045004
0
ARC
8
DEFAULT_255_2_778
10
9.9570028
20
103.9502341
40
1.2608877
50
183.2611625
51
196.1067465
0
ARC
8
DEFAULT_255_2_778
10
10.3826775
20
103.98823
40
1.6880903
50
183.6454977
51
183.7268028
0
ARC
8
DEFAULT_255_2_778
10
10.5541983
20
104.0118833
40
1.8608114
50
182.1300774
51
184.0365325
0
ARC
8
DEFAULT_255_2_778
10
10.4208408
20
104.0069316
40
1.7273619
50
180.1469912
51
182.130357
0
ARC
8
DEFAULT_255_2_778
10
10.4394084
20
104.006509
40
1.7459284
50
180.0029947
51
180.1315591
0
ARC
8
DEFAULT_255_2_778
10
10.0976535
20
104.013445
40
1.4041911
50
169.5994134
51
180.286738
0
ARC
8
DEFAULT_255_2_778
10
9.7329639
20
104.0818285
40
1.0331491
50
154.5107945
51
169.6783166
0
ARC
8
DEFAULT_255_2_778
10
9.5644248
20
104.160997
40
0.8469457
50
128.1164499
51
154.438642
0
ARC
8
DEFAULT_255_2_778
10
9.6876009
20
103.9617019
40
1.0800901
50
94.273832
51
126.7313836
0
ARC
8
DEFAULT_255_2_778
10
9.7522082
20
103.5574255
40
1.4884525
50
89.9548185
51
95.5942652
0
ARC
8
DEFAULT_255_2_778
10
9.7529845
20
103.4439567
40
1.6019208
50
86.6223917
51
89.9857833
0
ARC
8
DEFAULT_255_2_778
10
9.7424877
20
103.3126032
40
1.7336667
50
71.9762718
51
86.5318466
0
ARC
8
DEFAULT_255_2_778
10
9.6661793
20
103.2816952
40
1.3749536
50
64.7126112
51
71.5391305
0
ARC
8
DEFAULT_255_2_778
10
9.7412272
20
103.5079394
40
1.1365875
50
71.5161539
51
79.5285863
0
ARC
8
DEFAULT_255_2_778
10
9.7784281
20
103.7120529
40
0.9291123
50
79.4968077
51
89.1497385
0
ARC
8
DEFAULT_255_2_778
10
9.7822745
20
103.8092497
40
0.8318728
50
89.3152956
51
90.0001548
0
ARC
8
DEFAULT_255_2_778
10
9.7750653
20
103.9449126
40
0.6962473
50
89.4069125
51
110.8330762
0
ARC
8
DEFAULT_255_2_778
10
9.7226957
20
104.0880086
40
0.5438853
50
111.0380648
51
170.0151242
0
ARC
8
DEFAULT_255_2_778
10
9.9078237
20
104.0395048
40
0.7347864
50
168.7931296
51
180.1939743
0
ARC
8
DEFAULT_255_2_778
10
10.0230461
20
104.0374104
40
0.8500046
50
180.0265079
51
183.8903892
0
ARC
8
DEFAULT_255_2_778
10
10.0642906
20
104.0397975
40
0.8913163
50
183.8636021
51
184.4013252
0
ARC
8
DEFAULT_255_2_778
10
10.6109995
20
104.1916381
40
1.4521948
50
188.7232231
51
196.355008
0
ARC
8
DEFAULT_255_2_778
10
10.0094839
20
104.0121661
40
0.8244871
50
196.1583343
51
208.1148695
0
ARC
8
DEFAULT_255_2_778
10
9.6958347
20
103.841094
40
0.4672412
50
207.7369333
51
229.6275172
0
ARC
8
DEFAULT_255_2_778
10
9.6602337
20
103.8266536
40
0.4335433
50
231.9764348
51
272.7296455
0
ARC
8
DEFAULT_255_2_778
10
9.6722344
20
104.396112
40
1.002547
50
270.4941315
51
278.8809472
0
ARC
8
DEFAULT_255_2_778
10
9.5678361
20
105.1377507
40
1.7514485
50
278.5096845
51
280.8991956
0
LINE
8
DEFAULT_255_2_778
10
12.3292029
20
103.1397961
11
12.3440029
21
103.5533961
0
LINE
8
DEFAULT_255_2_778
10
12.6250029
20
103.9033961
11
12.6250029
21
104.2531961
0
LINE
8
DEFAULT_255_2_778
10
12.4032029
20
104.5873961
11
12.3736029
21
104.9688961
0
LINE
8
DEFAULT_255_2_778
10
10.8131029
20
105.0643961
11
12.1471029
21
105.0643961
0
LINE
8
DEFAULT_255_2_778
10
12.1471029
20
105.0643961
11
12.1500029
21
105.0442961
0
LINE
8
DEFAULT_255_2_778
10
12.1500029
20
105.0442961
11
12.1500029
21
104.6942961
0
LINE
8
DEFAULT_255_2_778
10
12.1500029
20
104.6942961
11
12.1342029
21
104.6862961
0
LINE
8
DEFAULT_255_2_778
10
12.1342029
20
104.6862961
11
11.3621029
21
104.6862961
0
LINE
8
DEFAULT_255_2_778
10
11.3621029
20
104.6862961
11
11.3452029
21
104.6794961
0
LINE
8
DEFAULT_255_2_778
10
11.3452029
20
104.6794961
11
11.3452029
21
104.2584961
0
LINE
8
DEFAULT_255_2_778
10
11.3452029
20
104.2584961
11
11.3592029
21
104.2483961
0
LINE
8
DEFAULT_255_2_778
10
11.3592029
20
104.2483961
11
12.1082029
21
104.2483961
0
LINE
8
DEFAULT_255_2_778
10
12.1082029
20
104.2483961
11
12.1162029
21
104.2332961
0
LINE
8
DEFAULT_255_2_778
10
12.1162029
20
104.2332961
11
12.1162029
21
103.8822961
0
LINE
8
DEFAULT_255_2_778
10
12.1162029
20
103.8822961
11
12.1043029
21
103.8703961
0
LINE
8
DEFAULT_255_2_778
10
12.1043029
20
103.8703961
11
11.3552029
21
103.8703961
0
LINE
8
DEFAULT_255_2_778
10
11.3552029
20
103.8703961
11
11.3452029
21
103.8573961
0
LINE
8
DEFAULT_255_2_778
10
11.3452029
20
103.8573961
11
11.3452029
21
103.0842961
0
LINE
8
DEFAULT_255_2_778
10
11.3452029
20
103.0842961
11
11.3412029
21
103.0651961
0
LINE
8
DEFAULT_255_2_778
10
11.3412029
20
103.0651961
11
10.8261029
21
103.0651961
0
LINE
8
DEFAULT_255_2_778
10
10.8261029
20
103.0651961
11
10.8131029
21
103.0752961
0
LINE
8
DEFAULT_255_2_778
10
10.8131029
20
103.0752961
11
10.8131029
21
105.0643961
0
LINE
8
DEFAULT_255_2_778
10
9.6296029
20
104.1830961
11
10.3387029
21
104.1830961
0
LINE
8
DEFAULT_255_2_778
10
10.3387029
20
104.1830961
11
10.3416029
21
103.0953961
0
LINE
8
DEFAULT_255_2_778
10
10.2789029
20
104.9611961
11
10.2535029
21
104.5248961
0
LINE
8
DEFAULT_255_2_778
10
9.8990029
20
103.4178961
11
9.8990029
21
103.8086961
0
LINE
8
DEFAULT_255_2_778
10
9.8990029
20
103.8086961
11
9.6296029
21
103.8086961
0
LINE
8
DEFAULT_255_2_778
10
9.6296029
20
103.8086961
11
9.6296029
21
104.1830961
0
ARC
8
DEFAULT_255_2_778
10
2.0628605
20
104.4626856
40
0.196882
50
359.1131063
51
75.6980014
0
ARC
8
DEFAULT_255_2_778
10
1.9168449
20
104.0893237
40
0.5967794
50
70.9634894
51
85.9269052
0
ARC
8
DEFAULT_255_2_778
10
1.8614128
20
103.5447942
40
1.1439915
50
85.0947464
51
90.1713815
0
ARC
8
DEFAULT_255_2_778
10
1.8598198
20
103.0730072
40
1.6157744
50
90.0648514
51
92.8442349
0
ARC
8
DEFAULT_255_2_778
10
1.8784793
20
102.6714721
40
2.0177414
50
92.8076586
51
94.4473138
0
LINE
8
DEFAULT_255_2_778
10
1.7220189
20
104.6831381
11
1.7220189
21
104.2357381
0
ARC
8
DEFAULT_255_2_778
10
1.8978627
20
106.1207243
40
1.8931704
50
264.6704992
51
267.0824118
0
ARC
8
DEFAULT_255_2_778
10
1.8762964
20
105.692651
40
1.4645542
50
267.0726171
51
269.9348139
0
ARC
8
DEFAULT_255_2_778
10
1.8849755
20
105.0965862
40
0.8685499
50
269.3175262
51
280.4141738
0
ARC
8
DEFAULT_255_2_778
10
1.9826204
20
104.5957753
40
0.358381
50
279.5334639
51
302.6033419
0
ARC
8
DEFAULT_255_2_778
10
2.0711067
20
104.4510422
40
0.188808
50
303.6480213
51
2.6094126
0
ARC
8
DEFAULT_255_2_778
10
1.7692461
20
102.5937774
40
1.2576418
50
90.024003
51
91.7418291
0
ARC
8
DEFAULT_255_2_778
10
1.7799694
20
103.1145004
40
0.7370047
50
78.5283949
51
90.8746343
0
ARC
8
DEFAULT_255_2_778
10
1.8823619
20
103.5849484
40
0.2556805
50
50.2768083
51
80.0486496
0
ARC
8
DEFAULT_255_2_778
10
1.9499667
20
103.6762892
40
0.1423646
50
31.9085427
51
47.7097222
0
ARC
8
DEFAULT_255_2_778
10
2.316157
20
103.7715985
40
0.2907019
50
29.9974155
51
72.758957
0
ARC
8
DEFAULT_255_2_778
10
2.2700266
20
104.632593
40
0.5981673
50
282.7773324
51
305.5804222
0
ARC
8
DEFAULT_255_2_778
10
2.3549165
20
104.4917976
40
0.4344567
50
307.2792939
51
357.1049
0
ARC
8
DEFAULT_255_2_778
10
2.0826846
20
104.5357352
40
0.7092006
50
354.6698485
51
0.0869376
0
ARC
8
DEFAULT_255_2_778
10
1.9905738
20
104.5367479
40
0.8013108
50
0.0045325
51
1.1648709
0
ARC
8
DEFAULT_255_2_778
10
2.3405747
20
104.5496998
40
0.4511565
50
0.423966
51
64.4141488
0
ARC
8
DEFAULT_255_2_778
10
2.163604
20
104.2077542
40
0.8360829
50
63.5956705
51
79.8322875
0
ARC
8
DEFAULT_255_2_778
10
2.0264294
20
103.5006578
40
1.5563234
50
79.4569007
51
88.7249349
0
ARC
8
DEFAULT_255_2_778
10
1.9966112
20
102.8553449
40
2.2021942
50
88.3229301
51
90.017644
0
ARC
8
DEFAULT_255_2_778
10
1.9962977
20
102.6042696
40
2.4532696
50
90.0085163
51
91.1579852
0
LINE
8
DEFAULT_255_2_778
10
1.9467189
20
105.0570381
11
1.1926189
21
105.0570381
0
LINE
8
DEFAULT_255_2_778
10
5.4180189
20
105.0459381
11
5.4180189
21
104.6681381
0
LINE
8
DEFAULT_255_2_778
10
5.4180189
20
104.6681381
11
6.3112189
21
104.6681381
0
LINE
8
DEFAULT_255_2_778
10
6.3112189
20
104.6681381
11
5.5667189
21
103.0472381
0
LINE
8
DEFAULT_255_2_778
10
5.5667189
20
103.0472381
11
6.1392189
21
103.0472381
0
LINE
8
DEFAULT_255_2_778
10
6.1392189
20
103.0472381
11
6.8555189
21
104.6138381
0
LINE
8
DEFAULT_255_2_778
10
6.8555189
20
104.6138381
11
6.8555189
21
105.0459381
0
LINE
8
DEFAULT_255_2_778
10
6.8555189
20
105.0459381
11
5.4177189
21
105.0459381
0
LINE
8
DEFAULT_255_2_778
10
7.0497189
20
105.0459381
11
7.0497189
21
104.6681381
0
LINE
8
DEFAULT_255_2_778
10
7.0497189
20
104.6681381
11
7.9429189
21
104.6681381
0
LINE
8
DEFAULT_255_2_778
10
7.9429189
20
104.6681381
11
7.1984189
21
103.0472381
0
LINE
8
DEFAULT_255_2_778
10
7.1984189
20
103.0472381
11
7.7709189
21
103.0472381
0
LINE
8
DEFAULT_255_2_778
10
7.7709189
20
103.0472381
11
8.4872189
21
104.6138381
0
LINE
8
DEFAULT_255_2_778
10
8.4872189
20
104.6138381
11
8.4872189
21
105.0459381
0
LINE
8
DEFAULT_255_2_778
10
8.4872189
20
105.0459381
11
7.0497189
21
105.0459381
0
LINE
8
DEFAULT_255_2_778
10
2.2597189
20
104.4596381
11
2.2597189
21
104.4596381
0
LINE
8
DEFAULT_255_2_778
10
1.1926189
20
105.0567381
11
1.1926189
21
103.0578381
0
LINE
8
DEFAULT_255_2_778
10
1.1926189
20
103.0578381
11
1.7310189
21
103.0578381
0
LINE
8
DEFAULT_255_2_778
10
1.7310189
20
103.0578381
11
1.7310189
21
103.8508381
0
LINE
8
DEFAULT_255_2_778
10
2.0708189
20
103.7515381
11
2.3277189
21
103.0660381
0
LINE
8
DEFAULT_255_2_778
10
2.3277189
20
103.0660381
11
2.8828189
21
103.0578381
0
LINE
8
DEFAULT_255_2_778
10
2.8828189
20
103.0578381
11
2.5679189
21
103.9169381
0
LINE
8
DEFAULT_255_2_778
10
1.1926189
20
105.0570381
11
1.1926189
21
105.0567381
0
ARC
8
DEFAULT_255_2_778
10
3.7728149
20
104.0734057
40
0.8584669
50
1.0538087
51
15.9677734
0
ARC
8
DEFAULT_255_2_778
10
4.137127
20
104.1835625
40
0.4779412
50
15.28617
51
75.2156589
0
ARC
8
DEFAULT_255_2_778
10
3.9825096
20
103.7111477
40
0.9746013
50
73.5136449
51
87.3778195
0
ARC
8
DEFAULT_255_2_778
10
3.9391705
20
103.1544143
40
1.532838
50
86.7115886
51
90.0625784
0
ARC
8
DEFAULT_255_2_778
10
3.9388151
20
102.7949724
40
1.8922795
50
90.0399305
51
92.4922356
0
ARC
8
DEFAULT_255_2_778
10
3.9515182
20
102.4802134
40
2.2072934
50
92.4663849
51
93.7842781
0
ARC
8
DEFAULT_255_2_778
10
3.966301
20
105.2926111
40
1.8226941
50
264.9493178
51
267.1981433
0
ARC
8
DEFAULT_255_2_778
10
3.9548778
20
105.0585972
40
1.5884015
50
267.1970754
51
269.6116088
0
ARC
8
DEFAULT_255_2_778
10
3.9533161
20
104.9212246
40
1.4510217
50
269.6365065
51
270.0017269
0
ARC
8
DEFAULT_255_2_778
10
3.9624417
20
104.5965426
40
1.1263763
50
269.5380204
51
280.7571315
0
ARC
8
DEFAULT_255_2_778
10
4.049516
20
104.1543226
40
0.675682
50
280.5022872
51
298.5155973
0
ARC
8
DEFAULT_255_2_778
10
4.144327
20
103.9768333
40
0.4744639
50
298.6875305
51
340.2248554
0
ARC
8
DEFAULT_255_2_778
10
3.9215046
20
104.0528271
40
0.7098675
50
340.5376338
51
0.876235
0
ARC
8
DEFAULT_255_2_778
10
3.6755172
20
104.0636154
40
0.955772
50
0.0040395
51
1.0238724
0
LINE
8
DEFAULT_255_2_778
10
3.9770366
20
103.0789941
11
3.9773364
21
103.0789941
0
ARC
8
DEFAULT_255_2_778
10
4.0205789
20
104.9220164
40
1.8435295
50
268.6559276
51
288.2134923
0
ARC
8
DEFAULT_255_2_778
10
4.3452345
20
103.9549982
40
0.8235092
50
287.7862974
51
335.5736994
0
ARC
8
DEFAULT_255_2_778
10
4.1638632
20
104.0198039
40
1.0155712
50
336.4761828
51
352.5902439
0
ARC
8
DEFAULT_255_2_778
10
3.735314
20
104.0838989
40
1.4488314
50
352.2623164
51
0.1975403
0
ARC
8
DEFAULT_255_2_778
10
3.5684786
20
104.1096409
40
1.6157912
50
359.2643013
51
359.9986796
0
ARC
8
DEFAULT_255_2_778
10
3.9083204
20
104.1194439
40
1.2759875
50
359.5581369
51
12.0664996
0
ARC
8
DEFAULT_255_2_778
10
4.3174535
20
104.2093503
40
0.8571027
50
11.9066002
51
32.1028844
0
ARC
8
DEFAULT_255_2_778
10
4.3191607
20
104.167572
40
0.8786095
50
34.4705878
51
79.3646381
0
ARC
8
DEFAULT_255_2_778
10
4.0546161
20
103.1428081
40
1.9358911
50
77.2666034
51
90.6512876
0
ARC
8
DEFAULT_255_2_778
10
4.0328392
20
102.3541392
40
2.7244349
50
90.0047974
51
90.9569788
0
ARC
8
DEFAULT_255_2_778
10
12.2001419
20
106.2975418
40
3.6567102
50
309.0534968
51
314.0098225
0
ARC
8
DEFAULT_255_2_778
10
13.0472152
20
105.4241361
40
2.4400088
50
313.9533164
51
320.589165
0
ARC
8
DEFAULT_255_2_778
10
13.7213698
20
104.8740211
40
1.5698954
50
320.4804543
51
330.0278114
0
ARC
8
DEFAULT_255_2_778
10
14.2311057
20
104.5839367
40
0.983413
50
329.8318866
51
344.8650824
0
ARC
8
DEFAULT_255_2_778
10
14.5001964
20
104.5073614
40
0.7036723
50
345.1632181
51
359.7720086
0
ARC
8
DEFAULT_255_2_778
10
14.5586681
20
104.5034566
40
0.6451962
50
0.0981067
51
25.8027742
0
ARC
8
DEFAULT_255_2_778
10
14.6073911
20
104.449292
40
0.6288126
50
32.1916918
51
81.4194896
0
ARC
8
DEFAULT_255_2_778
10
14.5435038
20
104.1471615
40
0.937268
50
80.3132831
51
90.252299
0
ARC
8
DEFAULT_255_2_778
10
14.5444745
20
103.7879253
40
1.2965051
50
90.2252881
51
98.0860131
0
ARC
8
DEFAULT_255_2_778
10
14.6138314
20
103.2870926
40
1.8021153
50
98.0294364
51
103.8763815
0
ARC
8
DEFAULT_255_2_778
10
14.7703627
20
102.6479781
40
2.4601186
50
103.8457669
51
108.4728145
0
ARC
8
DEFAULT_255_2_778
10
14.9142865
20
102.1993587
40
2.9312308
50
108.3625884
51
109.0358609
0
ARC
8
DEFAULT_255_2_778
10
15.0694493
20
101.8118341
40
2.9462901
50
108.7844828
51
111.6860086
0
ARC
8
DEFAULT_255_2_778
10
14.7507177
20
102.7529833
40
1.9526357
50
104.9255628
51
108.8227434
0
ARC
8
DEFAULT_255_2_778
10
14.5625309
20
103.464816
40
1.2163503
50
99.4850109
51
104.9964483
0
ARC
8
DEFAULT_255_2_778
10
14.4793932
20
103.9727014
40
0.70171
50
91.3102304
51
99.6232595
0
ARC
8
DEFAULT_255_2_778
10
14.4710969
20
104.1688383
40
0.5054491
50
90.0023326
51
90.878412
0
ARC
8
DEFAULT_255_2_778
10
14.4769592
20
104.337342
40
0.3369968
50
74.2022806
51
91.0002553
0
ARC
8
DEFAULT_255_2_778
10
14.5281701
20
104.5057978
40
0.1609983
50
4.2631642
51
75.4180067
0
ARC
8
DEFAULT_255_2_778
10
14.391908
20
104.4786805
40
0.2993774
50
359.8013916
51
7.5017318
0
ARC
8
DEFAULT_255_2_778
10
14.2590307
20
104.4797287
40
0.4322579
50
352.0193288
51
359.7234943
0
ARC
8
DEFAULT_255_2_778
10
14.0532874
20
104.5076075
40
0.6398799
50
346.6940569
51
352.1049739
0
ARC
8
DEFAULT_255_2_778
10
13.8666854
20
104.5497724
40
0.831179
50
344.7605532
51
346.8259632
0
ARC
8
DEFAULT_255_2_778
10
12.9743998
20
105.1281131
40
1.8722604
50
321.197247
51
334.8118617
0
ARC
8
DEFAULT_255_2_778
10
12.3235584
20
105.644253
40
2.7029066
50
312.1931097
51
321.3162128
0
ARC
8
DEFAULT_255_2_778
10
11.6798728
20
106.3366351
40
3.6482211
50
307.9003111
51
312.3795553
0
LINE
8
DEFAULT_255_2_778
10
13.9209366
20
103.4578941
11
13.9209366
21
103.0858941
0
LINE
8
DEFAULT_255_2_778
10
13.9209366
20
103.0858941
11
15.2292366
21
103.0858941
0
ARC
8
DEFAULT_255_2_778
10
15.2838126
20
103.1053444
40
0.0579384
50
176.239737
51
199.615526
0
ARC
8
DEFAULT_255_2_778
10
16.7184642
20
103.1898374
40
1.4946449
50
181.2551617
51
183.0948029
0
ARC
8
DEFAULT_255_2_778
10
22.0320863
20
103.3153945
40
6.8097484
50
180.3921665
51
181.332
0
ARC
8
DEFAULT_255_2_778
10
36.6197241
20
103.4357236
40
21.3978779
50
180.01366
51
180.4470061
0
ARC
8
DEFAULT_255_2_778
10
50.3083815
20
103.4576382
40
35.0865449
50
179.9995821
51
180.0441168
0
LINE
8
DEFAULT_255_2_778
10
15.2218366
20
103.4578941
11
14.5040366
21
103.4578941
0
LINE
8
DEFAULT_255_2_778
10
3.8058366
20
104.6826941
11
3.8058366
21
103.4769941
0
LINE
8
DEFAULT_255_2_778
10
3.9873366
20
105.0781941
11
3.2735366
21
105.0781941
0
LINE
8
DEFAULT_255_2_778
10
3.2735366
20
105.0781941
11
3.2735366
21
103.0789941
0
LINE
8
DEFAULT_255_2_778
10
3.2735366
20
103.0789941
11
3.9770366
21
103.0789941
0
LINE
8
DEFAULT_255_2_778
10
13.9582366
20
104.9702941
11
13.9807366
21
104.5495941
0
LINE
8
DEFAULT_255_2_778
10
14.5040366
20
103.4578941
11
14.5040366
21
103.4578941
0
ENDSEC
0
EOF