0
SECTION
2
HEADER
9
$MEASUREMENT
70
1
0
ENDSEC
0
SECTION
2
TABLES
0
TABLE
2
LTYPE
0
LTYPE
72
65
70
64
2
CONTINUOUS
3
______
73
0
40
0
0
ENDTAB
0
TABLE
2
LAYER
0
LAYER
2
DEFAULT_255_2_778
70
0
62
255
6
CONTINUOUS
0
ENDTAB
0
ENDSEC
0
SECTION
2
ENTITIES
0
ARC
8
DEFAULT_255_2_778
10
4.3552525
20
3.1185433
40
0.7001699
50
90.0057163
51
179.9942837
0
ARC
8
DEFAULT_255_2_778
10
23.9550409
20
3.1183714
40
0.7000418
50
359.9952377
51
90.0047623
0
LINE
8
DEFAULT_255_2_778
10
3.6550827
20
3.1186132
11
3.6550827
21
0.3185132
0
LINE
8
DEFAULT_255_2_778
10
3.6550827
20
0.3185132
11
3.6550827
21
-0.0814868
0
LINE
8
DEFAULT_255_2_778
10
3.6550827
20
-0.0814868
11
24.6550827
21
-0.0814868
0
LINE
8
DEFAULT_255_2_778
10
24.6550827
20
-0.0814868
11
24.6550827
21
3.1183132
0
LINE
8
DEFAULT_255_2_778
10
23.9549827
20
3.8184132
11
4.3551827
21
3.8184132
0
LINE
8
DEFAULT_255_2_778
10
2.9052827
20
99.0187132
11
2.9052827
21
98.9187132
0
LINE
8
DEFAULT_255_2_778
10
2.9052827
20
98.9187132
11
25.4051827
21
98.9187132
0
LINE
8
DEFAULT_255_2_778
10
25.4051827
20
98.9187132
11
25.4051827
21
99.1187132
0
LINE
8
DEFAULT_255_2_778
10
25.4051827
20
99.1187132
11
2.9052827
21
99.1187132
0
LINE
8
DEFAULT_255_2_778
10
2.9052827
20
99.1187132
11
2.9052827
21
99.0187132
0
LINE
8
DEFAULT_255_2_778
10
1.1052827
20
80.1187132
11
0.2551827
21
80.1187132
0
LINE
8
DEFAULT_255_2_778
10
27.2050827
20
80.1187132
11
28.0551827
21
80.1187132
0
LINE
8
DEFAULT_255_2_778
10
27.4589222
20
80.3187812
11
27.7589222
21
80.3187812
0
LINE
8
DEFAULT_255_2_778
10
27.4589222
20
80.3187812
11
27.4589222
21
80.5298812
0
LINE
8
DEFAULT_255_2_778
10
27.4589222
20
80.5298812
11
27.7745222
21
80.5274812
0
LINE
8
DEFAULT_255_2_778
10
27.7745222
20
80.5274812
11
27.9587222
21
80.5190812
0
LINE
8
DEFAULT_255_2_778
10
27.9587222
20
80.5190812
11
27.9002222
21
80.3774812
0
LINE
8
DEFAULT_255_2_778
10
27.9002222
20
80.3774812
11
27.7586222
21
80.3187812
0
LINE
8
DEFAULT_255_2_778
10
27.2051222
20
80.3187812
11
27.4589222
21
80.3187812
0
LINE
8
DEFAULT_255_2_778
10
27.2051222
20
80.1186812
11
27.2051222
21
80.3187812
0
LINE
8
DEFAULT_255_2_778
10
1.1053222
20
80.3187812
11
27.2054222
21
80.3187812
0
LINE
8
DEFAULT_255_2_778
10
1.1053222
20
80.1186812
11
27.2054222
21
80.1186812
0
LINE
8
DEFAULT_255_2_778
10
1.1053011
20
80.1186812
11
1.1053011
21
80.3187812
0
LINE
8
DEFAULT_255_2_778
10
0.8516011
20
80.3187812
11
1.1053011
21
80.3187812
0
LINE
8
DEFAULT_255_2_778
10
0.5515011
20
80.3187812
11
0.8516011
21
80.3187812
0
LINE
8
DEFAULT_255_2_778
10
0.5515011
20
80.3187812
11
0.4100011
21
80.3774812
0
LINE
8
DEFAULT_255_2_778
10
0.4100011
20
80.3774812
11
0.3515011
21
80.5190812
0
LINE
8
DEFAULT_255_2_778
10
0.3515011
20
80.5190812
11
0.4692011
21
80.5258812
0
LINE
8
DEFAULT_255_2_778
10
0.4692011
20
80.5258812
11
0.8513011
21
80.5298812
0
LINE
8
DEFAULT_255_2_778
10
0.8513011
20
80.5298812
11
0.8513011
21
80.3187812
0
ARC
8
DEFAULT_255_2_778
10
21.1909669
20
101.55952
40
0.2016402
50
357.7915311
51
78.5705217
0
ARC
8
DEFAULT_255_2_778
10
21.0671823
20
101.1897653
40
0.5905505
50
73.9026655
51
88.5624768
0
ARC
8
DEFAULT_255_2_778
10
21.0414028
20
100.7961196
40
0.9848474
50
87.6376468
51
90.0361441
0
ARC
8
DEFAULT_255_2_778
10
21.0425563
20
100.5341828
40
1.2467854
50
90.0815617
51
93.4007013
0
ARC
8
DEFAULT_255_2_778
10
21.0595695
20
100.2237511
40
1.5576803
50
93.348059
51
95.0646712
0
LINE
8
DEFAULT_255_2_778
10
20.9220573
20
101.7753497
11
20.9220573
21
101.3282497
0
ARC
8
DEFAULT_255_2_778
10
21.0744798
20
102.7509273
40
1.4308195
50
263.8847854
51
267.0197079
0
ARC
8
DEFAULT_255_2_778
10
21.0570018
20
102.4233975
40
1.1028239
50
267.0418048
51
269.9422086
0
ARC
8
DEFAULT_255_2_778
10
21.0662953
20
101.9653756
40
0.6448856
50
269.0754303
51
283.1374364
0
ARC
8
DEFAULT_255_2_778
10
21.1612266
20
101.5864287
40
0.2543584
50
281.7144074
51
315.6947262
0
ARC
8
DEFAULT_255_2_778
10
21.1872414
20
101.5424102
40
0.2054284
50
319.4152186
51
2.6057621
0
ARC
8
DEFAULT_255_2_778
10
20.9635019
20
99.9780248
40
0.9658076
50
90.0275668
51
91.9904045
0
ARC
8
DEFAULT_255_2_778
10
20.9742537
20
100.39634
40
0.5476072
50
75.6066542
51
91.1736586
0
ARC
8
DEFAULT_255_2_778
10
21.0734616
20
100.7502399
40
0.1803379
50
31.4193764
51
78.1881344
0
ARC
8
DEFAULT_255_2_778
10
21.4247319
20
100.8938199
40
0.2644913
50
25.899881
51
69.4309188
0
ARC
8
DEFAULT_255_2_778
10
21.4041914
20
101.5929251
40
0.4655154
50
284.1075396
51
317.2672916
0
ARC
8
DEFAULT_255_2_778
10
21.3960198
20
101.5728849
40
0.4583671
50
319.8012499
51
354.0568136
0
ARC
8
DEFAULT_255_2_778
10
21.0939707
20
101.6256405
40
0.764549
50
352.4680839
51
0.1929453
0
ARC
8
DEFAULT_255_2_778
10
20.9435126
20
101.6281352
40
0.9150028
50
0.005001
51
1.0654743
0
ARC
8
DEFAULT_255_2_778
10
21.3215194
20
101.6335451
40
0.5369633
50
1.2383407
51
28.3988214
0
ARC
8
DEFAULT_255_2_778
10
21.3977122
20
101.6549138
40
0.4601072
50
30.5711703
51
70.7550447
0
ARC
8
DEFAULT_255_2_778
10
21.2368543
20
101.247581
40
0.89787
50
69.6313015
51
84.749485
0
ARC
8
DEFAULT_255_2_778
10
21.1665911
20
100.6512913
40
1.4981666
50
84.1604575
51
90.1776196
0
ARC
8
DEFAULT_255_2_778
10
21.1622845
20
100.2686588
40
1.8807921
50
90.0102894
51
91.3230684
0
LINE
8
DEFAULT_255_2_778
10
21.1188573
20
102.1489497
11
20.4590573
21
102.1489497
0
LINE
8
DEFAULT_255_2_778
10
21.3924573
20
101.5517497
11
21.3924573
21
101.5517497
0
LINE
8
DEFAULT_255_2_778
10
20.4587573
20
102.1489497
11
20.4587573
21
100.1505497
0
LINE
8
DEFAULT_255_2_778
10
20.4587573
20
100.1505497
11
20.9299573
21
100.1505497
0
LINE
8
DEFAULT_255_2_778
10
20.9299573
20
100.1505497
11
20.9299573
21
100.9432497
0
LINE
8
DEFAULT_255_2_778
10
21.2273573
20
100.8442497
11
21.4522573
21
100.1587497
0
LINE
8
DEFAULT_255_2_778
10
21.4522573
20
100.1587497
11
21.9380573
21
100.1505497
0
LINE
8
DEFAULT_255_2_778
10
21.9380573
20
100.1505497
11
21.6626573
21
101.0093497
0
LINE
8
DEFAULT_255_2_778
10
20.4590573
20
102.1489497
11
20.4587573
21
102.1489497
0
ARC
8
DEFAULT_255_2_778
10
22.9414669
20
101.55952
40
0.2016402
50
357.7915311
51
78.5705217
0
ARC
8
DEFAULT_255_2_778
10
22.8176823
20
101.1897653
40
0.5905505
50
73.9026655
51
88.5624768
0
ARC
8
DEFAULT_255_2_778
10
22.7919028
20
100.7961196
40
0.9848474
50
87.6376468
51
90.0361441
0
ARC
8
DEFAULT_255_2_778
10
22.7930563
20
100.5341828
40
1.2467854
50
90.0815617
51
93.4007013
0
ARC
8
DEFAULT_255_2_778
10
22.8100695
20
100.2237511
40
1.5576803
50
93.348059
51
95.0646712
0
LINE
8
DEFAULT_255_2_778
10
22.6725573
20
101.7753497
11
22.6725573
21
101.3282497
0
ARC
8
DEFAULT_255_2_778
10
22.8249798
20
102.7509273
40
1.4308195
50
263.8847854
51
267.0197079
0
ARC
8
DEFAULT_255_2_778
10
22.8075018
20
102.4233975
40
1.1028239
50
267.0418048
51
269.9422086
0
ARC
8
DEFAULT_255_2_778
10
22.8167953
20
101.9653756
40
0.6448856
50
269.0754303
51
283.1374364
0
ARC
8
DEFAULT_255_2_778
10
22.9117266
20
101.5864287
40
0.2543584
50
281.7144074
51
315.6947262
0
ARC
8
DEFAULT_255_2_778
10
22.9377414
20
101.5424102
40
0.2054284
50
319.4152186
51
2.6057621
0
ARC
8
DEFAULT_255_2_778
10
22.7140019
20
99.9780248
40
0.9658076
50
90.0275668
51
91.9904045
0
ARC
8
DEFAULT_255_2_778
10
22.7247537
20
100.39634
40
0.5476072
50
75.6066542
51
91.1736586
0
ARC
8
DEFAULT_255_2_778
10
22.8239616
20
100.7502399
40
0.1803379
50
31.4193764
51
78.1881344
0
ARC
8
DEFAULT_255_2_778
10
23.1752319
20
100.8938199
40
0.2644913
50
25.899881
51
69.4309188
0
ARC
8
DEFAULT_255_2_778
10
23.1546914
20
101.5929251
40
0.4655154
50
284.1075396
51
317.2672916
0
ARC
8
DEFAULT_255_2_778
10
23.1465198
20
101.5728849
40
0.4583671
50
319.8012499
51
354.0568136
0
ARC
8
DEFAULT_255_2_778
10
22.8444707
20
101.6256405
40
0.764549
50
352.4680839
51
0.1929453
0
ARC
8
DEFAULT_255_2_778
10
22.6940126
20
101.6281352
40
0.9150028
50
0.005001
51
1.0654743
0
ARC
8
DEFAULT_255_2_778
10
23.0720194
20
101.6335451
40
0.5369633
50
1.2383407
51
28.3988214
0
ARC
8
DEFAULT_255_2_778
10
23.1482122
20
101.6549138
40
0.4601072
50
30.5711703
51
70.7550447
0
ARC
8
DEFAULT_255_2_778
10
22.9873543
20
101.247581
40
0.89787
50
69.6313015
51
84.749485
0
ARC
8
DEFAULT_255_2_778
10
22.9170911
20
100.6512913
40
1.4981666
50
84.1604575
51
90.1776196
0
ARC
8
DEFAULT_255_2_778
10
22.9127845
20
100.2686588
40
1.8807921
50
90.0102894
51
91.3230684
0
LINE
8
DEFAULT_255_2_778
10
22.8693573
20
102.1489497
11
22.2095573
21
102.1489497
0
LINE
8
DEFAULT_255_2_778
10
23.1429573
20
101.5517497
11
23.1429573
21
101.5517497
0
LINE
8
DEFAULT_255_2_778
10
22.2092573
20
102.1489497
11
22.2092573
21
100.1505497
0
LINE
8
DEFAULT_255_2_778
10
22.2092573
20
100.1505497
11
22.6804573
21
100.1505497
0
LINE
8
DEFAULT_255_2_778
10
22.6804573
20
100.1505497
11
22.6804573
21
100.9432497
0
LINE
8
DEFAULT_255_2_778
10
22.9778573
20
100.8442497
11
23.2027573
21
100.1587497
0
LINE
8
DEFAULT_255_2_778
10
23.2027573
20
100.1587497
11
23.6885573
21
100.1505497
0
LINE
8
DEFAULT_255_2_778
10
23.6885573
20
100.1505497
11
23.4131573
21
101.0093497
0
LINE
8
DEFAULT_255_2_778
10
22.2095573
20
102.1489497
11
22.2092573
21
102.1489497
0
LINE
8
DEFAULT_255_2_778
10
20.0857656
20
100.4654635
11
20.0857656
21
100.1506635
0
LINE
8
DEFAULT_255_2_778
10
20.0857656
20
100.1506635
11
18.9006656
21
100.1506635
0
LINE
8
DEFAULT_255_2_778
10
18.9006656
20
100.1506635
11
18.9006656
21
102.1495635
0
LINE
8
DEFAULT_255_2_778
10
18.9006656
20
102.1495635
11
20.0801656
21
102.1495635
0
LINE
8
DEFAULT_255_2_778
10
20.0801656
20
102.1495635
11
20.0801656
21
101.8346635
0
LINE
8
DEFAULT_255_2_778
10
20.0801656
20
101.8346635
11
19.3012656
21
101.8346635
0
LINE
8
DEFAULT_255_2_778
10
19.3012656
20
101.8346635
11
19.3012656
21
101.3420635
0
LINE
8
DEFAULT_255_2_778
10
19.3012656
20
101.3420635
11
20.0142656
21
101.3420635
0
LINE
8
DEFAULT_255_2_778
10
20.0142656
20
101.3420635
11
20.0142656
21
101.0271635
0
LINE
8
DEFAULT_255_2_778
10
20.0142656
20
101.0271635
11
19.3012656
21
101.0271635
0
LINE
8
DEFAULT_255_2_778
10
19.3012656
20
101.0271635
11
19.3012656
21
100.4657635
0
LINE
8
DEFAULT_255_2_778
10
19.3012656
20
100.4657635
11
20.0857656
21
100.4657635
0
LINE
8
DEFAULT_255_2_778
10
6.1630792
20
102.149826
11
6.6749792
21
102.149826
0
LINE
8
DEFAULT_255_2_778
10
6.6749792
20
102.149826
11
6.6749792
21
100.918726
0
ARC
8
DEFAULT_255_2_778
10
7.3319724
20
100.9063117
40
0.6571105
50
178.9174858
51
195.5445957
0
ARC
8
DEFAULT_255_2_778
10
6.9645667
20
100.7934459
40
0.2730905
50
193.3879313
51
270.0394302
0
ARC
8
DEFAULT_255_2_778
10
6.9945242
20
100.9964956
40
0.4770698
50
266.4223709
51
270.0426362
0
ARC
8
DEFAULT_255_2_778
10
7.0086323
20
100.8394127
40
0.3202821
50
267.5389309
51
303.4314982
0
ARC
8
DEFAULT_255_2_778
10
7.004116
20
100.8090399
40
0.2981285
50
307.3749056
51
348.5884637
0
ARC
8
DEFAULT_255_2_778
10
6.6233602
20
100.9089238
40
0.6914885
50
346.7175945
51
0.8122237
0
LINE
8
DEFAULT_255_2_778
10
7.3147792
20
100.918726
11
7.3147792
21
102.149826
0
LINE
8
DEFAULT_255_2_778
10
7.3147792
20
102.149826
11
7.8587792
21
102.149826
0
LINE
8
DEFAULT_255_2_778
10
7.8587792
20
102.149826
11
7.8587792
21
100.818926
0
ARC
8
DEFAULT_255_2_778
10
6.9582757
20
100.8062231
40
0.9005932
50
343.818863
51
0.8081837
0
ARC
8
DEFAULT_255_2_778
10
7.2817918
20
100.7142761
40
0.5642728
50
284.1393638
51
343.6308924
0
ARC
8
DEFAULT_255_2_778
10
7.1034223
20
101.2474439
40
1.1256713
50
272.8403506
51
286.3144397
0
ARC
8
DEFAULT_255_2_778
10
7.0605842
20
101.7811422
40
1.660917
50
269.9446336
51
273.4039991
0
ARC
8
DEFAULT_255_2_778
10
7.0462848
20
101.7508996
40
1.630723
50
260.1365548
51
270.4460262
0
ARC
8
DEFAULT_255_2_778
10
6.9202457
20
101.0564433
40
0.9249557
50
242.9099071
51
260.4596193
0
ARC
8
DEFAULT_255_2_778
10
6.7809674
20
100.7740841
40
0.6101648
50
186.9425376
51
242.4793065
0
ARC
8
DEFAULT_255_2_778
10
7.1641808
20
100.8619623
40
1.0020263
50
182.46157
51
189.2826154
0
LINE
8
DEFAULT_255_2_778
10
6.1630792
20
100.818926
11
6.1630792
21
102.149826
0
ARC
8
DEFAULT_255_2_778
10
5.2278928
20
101.5470962
40
0.2015256
50
358.871172
51
76.5550157
0
ARC
8
DEFAULT_255_2_778
10
5.0840819
20
101.1651728
40
0.608566
50
71.7413676
51
86.5343905
0
ARC
8
DEFAULT_255_2_778
10
5.0360878
20
100.6505214
40
1.1253028
50
85.6791761
51
90.1303381
0
ARC
8
DEFAULT_255_2_778
10
5.0353199
20
100.2312701
40
1.5445524
50
90.066477
51
92.9225118
0
ARC
8
DEFAULT_255_2_778
10
5.0536143
20
99.8484664
40
1.9277913
50
92.8854548
51
94.5710259
0
LINE
8
DEFAULT_255_2_778
10
4.8999792
20
101.770126
11
4.8999792
21
101.315826
0
ARC
8
DEFAULT_255_2_778
10
5.0734465
20
103.1175882
40
1.8100933
50
264.5007153
51
266.9884814
0
ARC
8
DEFAULT_255_2_778
10
5.0520931
20
102.7071377
40
1.3990878
50
266.9786589
51
269.9325623
0
ARC
8
DEFAULT_255_2_778
10
5.0607509
20
102.1354924
40
0.8275057
50
269.2865107
51
280.8295765
0
ARC
8
DEFAULT_255_2_778
10
5.1578822
20
101.6579496
40
0.3402652
50
279.8736512
51
304.4220213
0
ARC
8
DEFAULT_255_2_778
10
5.2362517
20
101.533456
40
0.1933547
50
306.1194735
51
2.7776575
0
ARC
8
DEFAULT_255_2_778
10
4.9474296
20
99.7236083
40
1.2020328
50
90.0265206
51
91.8330755
0
ARC
8
DEFAULT_255_2_778
10
4.9581261
20
100.2262367
40
0.6994947
50
78.0289204
51
90.9217672
0
ARC
8
DEFAULT_255_2_778
10
5.0600936
20
100.6735429
40
0.2408673
50
47.7057853
51
79.6872845
0
ARC
8
DEFAULT_255_2_778
10
5.1220821
20
100.7518091
40
0.1414238
50
30.9424303
51
44.9435204
0
ARC
8
DEFAULT_255_2_778
10
5.4808439
20
100.8519942
40
0.2884212
50
29.0914472
51
72.0817966
0
ARC
8
DEFAULT_255_2_778
10
5.43946
20
101.6859011
40
0.574407
50
283.092748
51
307.3519901
0
ARC
8
DEFAULT_255_2_778
10
5.5093515
20
101.5702175
40
0.4402866
50
309.2559159
51
355.4779979
0
ARC
8
DEFAULT_255_2_778
10
5.2303721
20
101.6193686
40
0.7227773
50
353.3369444
51
0.1373495
0
ARC
8
DEFAULT_255_2_778
10
5.1159753
20
101.6210451
40
0.8371721
50
0.0038433
51
1.1485591
0
ARC
8
DEFAULT_255_2_778
10
5.4938773
20
101.6376199
40
0.459102
50
0.0257274
51
63.4518721
0
ARC
8
DEFAULT_255_2_778
10
5.3306265
20
101.3230818
40
0.8134581
50
63.0676538
51
79.7930593
0
ARC
8
DEFAULT_255_2_778
10
5.1954504
20
100.625725
40
1.5237619
50
79.437256
51
89.1835054
0
ARC
8
DEFAULT_255_2_778
10
5.1701258
20
100.0131844
40
2.1366655
50
88.7385412
51
90.0099786
0
ARC
8
DEFAULT_255_2_778
10
5.1701438
20
99.8047117
40
2.3451381
50
90.0095308
51
91.2110369
0
LINE
8
DEFAULT_255_2_778
10
5.1205792
20
102.149326
11
4.3781792
21
102.149326
0
LINE
8
DEFAULT_255_2_778
10
6.1630792
20
102.149826
11
6.1630792
21
102.149826
0
LINE
8
DEFAULT_255_2_778
10
5.4293792
20
101.542826
11
5.4293792
21
101.543126
0
LINE
8
DEFAULT_255_2_778
10
4.3784792
20
102.149326
11
4.3784792
21
100.120226
0
LINE
8
DEFAULT_255_2_778
10
4.3784792
20
100.120226
11
4.9089792
21
100.120226
0
LINE
8
DEFAULT_255_2_778
10
4.9089792
20
100.120226
11
4.9089792
21
100.925026
0
LINE
8
DEFAULT_255_2_778
10
5.2433792
20
100.824526
11
5.4962792
21
100.128626
0
LINE
8
DEFAULT_255_2_778
10
5.4962792
20
100.128626
11
6.0429792
21
100.120226
0
LINE
8
DEFAULT_255_2_778
10
6.0429792
20
100.120226
11
5.7328792
21
100.992226
0
LINE
8
DEFAULT_255_2_778
10
4.3781792
20
102.149326
11
4.3784792
21
102.149326
0
LINE
8
DEFAULT_255_2_778
10
9.3509792
20
100.629026
11
9.3509792
21
102.149826
0
LINE
8
DEFAULT_255_2_778
10
9.3509792
20
102.149826
11
9.7237792
21
102.149826
0
LINE
8
DEFAULT_255_2_778
10
9.7237792
20
102.149826
11
9.7237792
21
100.115926
0
LINE
8
DEFAULT_255_2_778
10
9.7237792
20
100.115926
11
9.2480792
21
100.115926
0
LINE
8
DEFAULT_255_2_778
10
9.2480792
20
100.115926
11
8.5048792
21
101.637326
0
LINE
8
DEFAULT_255_2_778
10
8.5048792
20
101.637326
11
8.4992792
21
101.637326
0
LINE
8
DEFAULT_255_2_778
10
8.4992792
20
101.637326
11
8.4992792
21
100.115926
0
LINE
8
DEFAULT_255_2_778
10
8.4992792
20
100.115926
11
8.1265792
21
100.115926
0
LINE
8
DEFAULT_255_2_778
10
8.1265792
20
100.115926
11
8.1265792
21
102.149826
0
LINE
8
DEFAULT_255_2_778
10
8.1265792
20
102.149826
11
8.6048792
21
102.149826
0
LINE
8
DEFAULT_255_2_778
10
8.6048792
20
102.149826
11
9.3454792
21
100.629026
0
LINE
8
DEFAULT_255_2_778
10
9.3454792
20
100.629026
11
9.3509792
21
100.629026
0
ARC
8
DEFAULT_255_2_778
10
2.2898876
20
75.4447922
40
0.5000956
50
134.9958871
51
179.9946851
0
ARC
8
DEFAULT_255_2_778
10
2.2897985
20
75.4448392
40
0.4999994
50
89.9892894
51
134.9924763
0
ARC
8
DEFAULT_255_2_778
10
22.1900855
20
75.4448392
40
0.4999994
50
45.0075237
51
90.0107106
0
ARC
8
DEFAULT_255_2_778
10
22.1899964
20
75.4447922
40
0.5000956
50
0.0053149
51
45.0041129
0
ARC
8
DEFAULT_255_2_778
10
22.1899951
20
5.8448355
40
0.5000969
50
269.9996485
51
0.0003515
0
ARC
8
DEFAULT_255_2_778
10
2.2896676
20
5.8448142
40
0.5000757
50
179.9972098
51
269.9913379
0
ARC
8
DEFAULT_255_2_778
10
1.2897663
20
76.4448167
40
0.4999219
50
89.9970574
51
135.0123564
0
ARC
8
DEFAULT_255_2_778
10
1.2894394
20
76.4447364
40
0.4997474
50
134.9793514
51
180.0112208
0
ARC
8
DEFAULT_255_2_778
10
1.2897889
20
4.8447355
40
0.5000969
50
179.9996485
51
270.0003515
0
ARC
8
DEFAULT_255_2_778
10
23.1898165
20
4.844714
40
0.5000754
50
270.0086483
51
0.0028154
0
ARC
8
DEFAULT_255_2_778
10
23.1901446
20
76.4447364
40
0.4997474
50
359.9887792
51
45.0206486
0
ARC
8
DEFAULT_255_2_778
10
23.1899139
20
76.4450493
40
0.4996893
50
44.9765888
51
90.002517
0
LINE
8
DEFAULT_255_2_778
10
5.939792
20
5.3447386
11
5.939792
21
5.8448386
0
LINE
8
DEFAULT_255_2_778
10
5.939792
20
5.8448386
11
1.789792
21
5.8448386
0
LINE
8
DEFAULT_255_2_778
10
1.789792
20
5.8448386
11
1.789792
21
75.4448386
0
LINE
8
DEFAULT_255_2_778
10
2.289892
20
75.9448386
11
22.189992
21
75.9448386
0
LINE
8
DEFAULT_255_2_778
10
22.690092
20
75.4448386
11
22.690092
21
5.8448386
0
LINE
8
DEFAULT_255_2_778
10
22.189992
20
5.3447386
11
2.289592
21
5.3447386
0
LINE
8
DEFAULT_255_2_778
10
0.789692
20
76.4446386
11
0.789692
21
4.8447386
0
LINE
8
DEFAULT_255_2_778
10
1.289792
20
4.3446386
11
23.189892
21
4.3446386
0
LINE
8
DEFAULT_255_2_778
10
23.689892
20
4.8447386
11
23.689892
21
76.4446386
0
LINE
8
DEFAULT_255_2_778
10
23.189892
20
76.9447386
11
1.289792
21
76.9447386
0
ARC
8
DEFAULT_255_2_778
10
18.0117493
20
72.6379545
40
1.2970505
50
148.2732369
51
180.1306072
0
ARC
8
DEFAULT_255_2_778
10
18.0111994
20
72.6383559
40
1.2963718
50
97.0277271
51
148.2755438
0
ARC
8
DEFAULT_255_2_778
10
18.0142552
20
72.6112529
40
1.323645
50
89.984983
51
97.0154679
0
ARC
8
DEFAULT_255_2_778
10
18.0175588
20
72.6378507
40
1.2970505
50
58.2732369
51
90.1306072
0
ARC
8
DEFAULT_255_2_778
10
18.0179601
20
72.6384006
40
1.2963718
50
7.0277271
51
58.2755438
0
ARC
8
DEFAULT_255_2_778
10
17.9908572
20
72.6353448
40
1.323645
50
359.984983
51
7.0154679
0
ARC
8
DEFAULT_255_2_778
10
18.0174549
20
72.6320412
40
1.2970505
50
328.2732369
51
0.1306072
0
ARC
8
DEFAULT_255_2_778
10
18.0180048
20
72.6316399
40
1.2963718
50
277.0277271
51
328.2755438
0
ARC
8
DEFAULT_255_2_778
10
18.014949
20
72.6587428
40
1.323645
50
269.984983
51
277.0154679
0
ARC
8
DEFAULT_255_2_778
10
18.0116455
20
72.6321451
40
1.2970505
50
238.2732369
51
270.1306072
0
ARC
8
DEFAULT_255_2_778
10
18.0112441
20
72.6315952
40
1.2963718
50
187.0277271
51
238.2755438
0
ARC
8
DEFAULT_255_2_778
10
18.0383471
20
72.634651
40
1.323645
50
179.984983
51
187.0154679
0
LINE
8
DEFAULT_255_2_778
10
16.7147021
20
72.6349979
11
16.7147021
21
72.6349979
0
ARC
8
DEFAULT_255_2_778
10
6.2618493
20
72.6379545
40
1.2970505
50
148.2732369
51
180.1306072
0
ARC
8
DEFAULT_255_2_778
10
6.2612994
20
72.6383559
40
1.2963718
50
97.0277271
51
148.2755438
0
ARC
8
DEFAULT_255_2_778
10
6.2643552
20
72.6112529
40
1.323645
50
89.984983
51
97.0154679
0
ARC
8
DEFAULT_255_2_778
10
6.2676588
20
72.6378507
40
1.2970505
50
58.2732369
51
90.1306072
0
ARC
8
DEFAULT_255_2_778
10
6.2680601
20
72.6384006
40
1.2963718
50
7.0277271
51
58.2755438
0
ARC
8
DEFAULT_255_2_778
10
6.2409572
20
72.6353448
40
1.323645
50
359.984983
51
7.0154679
0
ARC
8
DEFAULT_255_2_778
10
6.2675549
20
72.6320412
40
1.2970505
50
328.2732369
51
0.1306072
0
ARC
8
DEFAULT_255_2_778
10
6.2681048
20
72.6316399
40
1.2963718
50
277.0277271
51
328.2755438
0
ARC
8
DEFAULT_255_2_778
10
6.265049
20
72.6587428
40
1.323645
50
269.984983
51
277.0154679
0
ARC
8
DEFAULT_255_2_778
10
6.2617455
20
72.6321451
40
1.2970505
50
238.2732369
51
270.1306072
0
ARC
8
DEFAULT_255_2_778
10
6.2613441
20
72.6315952
40
1.2963718
50
187.0277271
51
238.2755438
0
ARC
8
DEFAULT_255_2_778
10
6.2884471
20
72.634651
40
1.323645
50
179.984983
51
187.0154679
0
LINE
8
DEFAULT_255_2_778
10
4.9648021
20
72.6349979
11
4.9648021
21
72.6349979
0
ARC
8
DEFAULT_255_2_778
10
6.2618493
20
8.6577545
40
1.2970505
50
148.2732369
51
180.1306072
0
ARC
8
DEFAULT_255_2_778
10
6.2612994
20
8.6581559
40
1.2963718
50
97.0277271
51
148.2755438
0
ARC
8
DEFAULT_255_2_778
10
6.2643552
20
8.6310529
40
1.323645
50
89.984983
51
97.0154679
0
ARC
8
DEFAULT_255_2_778
10
6.2676588
20
8.6576507
40
1.2970505
50
58.2732369
51
90.1306072
0
ARC
8
DEFAULT_255_2_778
10
6.2680601
20
8.6582006
40
1.2963718
50
7.0277271
51
58.2755438
0
ARC
8
DEFAULT_255_2_778
10
6.2409572
20
8.6551448
40
1.323645
50
359.984983
51
7.0154679
0
ARC
8
DEFAULT_255_2_778
10
6.2675549
20
8.6518412
40
1.2970505
50
328.2732369
51
0.1306072
0
ARC
8
DEFAULT_255_2_778
10
6.2681048
20
8.6514399
40
1.2963718
50
277.0277271
51
328.2755438
0
ARC
8
DEFAULT_255_2_778
10
6.265049
20
8.6785428
40
1.323645
50
269.984983
51
277.0154679
0
ARC
8
DEFAULT_255_2_778
10
6.2617455
20
8.6519451
40
1.2970505
50
238.2732369
51
270.1306072
0
ARC
8
DEFAULT_255_2_778
10
6.2613441
20
8.6513952
40
1.2963718
50
187.0277271
51
238.2755438
0
ARC
8
DEFAULT_255_2_778
10
6.2884471
20
8.654451
40
1.323645
50
179.984983
51
187.0154679
0
LINE
8
DEFAULT_255_2_778
10
4.9648021
20
8.6547979
11
4.9648021
21
8.6547979
0
ARC
8
DEFAULT_255_2_778
10
18.0117493
20
8.6577545
40
1.2970505
50
148.2732369
51
180.1306072
0
ARC
8
DEFAULT_255_2_778
10
18.0111994
20
8.6581559
40
1.2963718
50
97.0277271
51
148.2755438
0
ARC
8
DEFAULT_255_2_778
10
18.0142552
20
8.6310529
40
1.323645
50
89.984983
51
97.0154679
0
ARC
8
DEFAULT_255_2_778
10
18.0175588
20
8.6576507
40
1.2970505
50
58.2732369
51
90.1306072
0
ARC
8
DEFAULT_255_2_778
10
18.0179601
20
8.6582006
40
1.2963718
50
7.0277271
51
58.2755438
0
ARC
8
DEFAULT_255_2_778
10
17.9908572
20
8.6551448
40
1.323645
50
359.984983
51
7.0154679
0
ARC
8
DEFAULT_255_2_778
10
18.0174549
20
8.6518412
40
1.2970505
50
328.2732369
51
0.1306072
0
ARC
8
DEFAULT_255_2_778
10
18.0180048
20
8.6514399
40
1.2963718
50
277.0277271
51
328.2755438
0
ARC
8
DEFAULT_255_2_778
10
18.014949
20
8.6785428
40
1.323645
50
269.984983
51
277.0154679
0
ARC
8
DEFAULT_255_2_778
10
18.0116455
20
8.6519451
40
1.2970505
50
238.2732369
51
270.1306072
0
ARC
8
DEFAULT_255_2_778
10
18.0112441
20
8.6513952
40
1.2963718
50
187.0277271
51
238.2755438
0
ARC
8
DEFAULT_255_2_778
10
18.0383471
20
8.654451
40
1.323645
50
179.984983
51
187.0154679
0
LINE
8
DEFAULT_255_2_778
10
16.7147021
20
8.6547979
11
16.7147021
21
8.6547979
0
ARC
8
DEFAULT_255_2_778
10
19.6185286
20
15.3002969
40
1.4960786
50
325.670461
51
0.0534206
0
ARC
8
DEFAULT_255_2_778
10
19.6155613
20
15.3000123
40
1.4983697
50
282.3992214
51
325.7434371
0
ARC
8
DEFAULT_255_2_778
10
19.612367
20
15.3159432
40
1.514615
50
279.0038895
51
282.3878377
0
ARC
8
DEFAULT_255_2_778
10
16.4150338
20
14.7963739
40
1.5015026
50
275.3721813
51
278.9840048
0
ARC
8
DEFAULT_255_2_778
10
16.4152233
20
14.794313
40
1.4994332
50
270.0000615
51
275.3723434
0
ARC
8
DEFAULT_255_2_778
10
16.4153243
20
14.7957505
40
1.5008707
50
229.5110326
51
269.9962057
0
ARC
8
DEFAULT_255_2_778
10
16.4151803
20
14.7950886
40
1.5002739
50
180.0151552
51
229.498801
0
ARC
8
DEFAULT_255_2_778
10
16.4151612
20
66.4946892
40
1.5002547
50
130.5058876
51
179.9960846
0
ARC
8
DEFAULT_255_2_778
10
16.4152293
20
66.4944865
40
1.5004531
50
90.0064347
51
130.5028342
0
ARC
8
DEFAULT_255_2_778
10
16.4150536
20
66.4962159
40
1.4987235
50
84.5794787
51
89.9997253
0
ARC
8
DEFAULT_255_2_778
10
16.4148526
20
66.4941078
40
1.5008413
50
81.0050017
51
84.5794431
0
ARC
8
DEFAULT_255_2_778
10
19.6165967
20
65.9916938
40
1.4961537
50
46.6585373
51
81.040328
0
ARC
8
DEFAULT_255_2_778
10
19.616319
20
65.9886259
40
1.4985767
50
3.3921176
51
46.7313218
0
ARC
8
DEFAULT_255_2_778
10
19.5999345
20
65.9879578
40
1.514972
50
359.9975024
51
3.3806778
0
LINE
8
DEFAULT_255_2_778
10
3.8897065
20
74.3846918
11
2.8896065
21
74.3846918
0
LINE
8
DEFAULT_255_2_778
10
2.8896065
20
74.3846918
11
2.8896065
21
70.3846918
0
LINE
8
DEFAULT_255_2_778
10
2.8896065
20
70.3846918
11
3.8897065
21
70.3846918
0
LINE
8
DEFAULT_255_2_778
10
3.8897065
20
70.3846918
11
3.8897065
21
74.3846918
0
LINE
8
DEFAULT_255_2_778
10
3.8897065
20
6.9047918
11
2.8896065
21
6.9047918
0
LINE
8
DEFAULT_255_2_778
10
2.8896065
20
6.9047918
11
2.8896065
21
10.9047918
0
LINE
8
DEFAULT_255_2_778
10
2.8896065
20
10.9047918
11
3.8897065
21
10.9047918
0
LINE
8
DEFAULT_255_2_778
10
3.8897065
20
10.9047918
11
3.8897065
21
6.9047918
0
LINE
8
DEFAULT_255_2_778
10
2.1395065
20
8.8447918
11
2.1395065
21
11.4048918
0
LINE
8
DEFAULT_255_2_778
10
2.1395065
20
6.3446918
11
2.1395065
21
8.8447918
0
LINE
8
DEFAULT_255_2_778
10
19.8494065
20
13.8199918
11
16.6495065
21
13.3132918
0
LINE
8
DEFAULT_255_2_778
10
14.9149065
20
14.7946918
11
14.9149065
21
66.4947918
0
LINE
8
DEFAULT_255_2_778
10
16.6495065
20
67.9764918
11
19.8496065
21
67.4695918
0
LINE
8
DEFAULT_255_2_778
10
21.1149065
20
65.9878918
11
21.1146065
21
15.3016918
0
LINE
8
DEFAULT_255_2_778
10
19.0347065
20
64.1548918
11
19.0347065
21
65.3949918
0
LINE
8
DEFAULT_255_2_778
10
19.0347065
20
65.3949918
11
19.5348065
21
65.3949918
0
LINE
8
DEFAULT_255_2_778
10
19.5348065
20
65.3949918
11
19.5348065
21
64.1548918
0
LINE
8
DEFAULT_255_2_778
10
19.5348065
20
64.1548918
11
19.0347065
21
64.1548918
0
LINE
8
DEFAULT_255_2_778
10
19.0347065
20
62.8549918
11
19.0347065
21
61.6148918
0
LINE
8
DEFAULT_255_2_778
10
19.0347065
20
61.6148918
11
19.5348065
21
61.6148918
0
LINE
8
DEFAULT_255_2_778
10
19.5348065
20
61.6148918
11
19.5348065
21
62.8549918
0
LINE
8
DEFAULT_255_2_778
10
19.5348065
20
62.8549918
11
19.0347065
21
62.8549918
0
LINE
8
DEFAULT_255_2_778
10
19.0347065
20
60.3149918
11
19.0347065
21
59.0748918
0
LINE
8
DEFAULT_255_2_778
10
19.0347065
20
59.0748918
11
19.5348065
21
59.0748918
0
LINE
8
DEFAULT_255_2_778
10
19.5348065
20
59.0748918
11
19.5348065
21
60.3149918
0
LINE
8
DEFAULT_255_2_778
10
19.5348065
20
60.3149918
11
19.0347065
21
60.3149918
0
LINE
8
DEFAULT_255_2_778
10
19.0347065
20
56.5348918
11
19.0347065
21
57.7749918
0
LINE
8
DEFAULT_255_2_778
10
19.0347065
20
57.7749918
11
19.5348065
21
57.7749918
0
LINE
8
DEFAULT_255_2_778
10
19.5348065
20
57.7749918
11
19.5348065
21
56.5348918
0
LINE
8
DEFAULT_255_2_778
10
19.5348065
20
56.5348918
11
19.0347065
21
56.5348918
0
LINE
8
DEFAULT_255_2_778
10
16.9948065
20
64.1548918
11
16.9948065
21
65.3949918
0
LINE
8
DEFAULT_255_2_778
10
16.9948065
20
65.3949918
11
16.4947065
21
65.3949918
0
LINE
8
DEFAULT_255_2_778
10
16.4947065
20
65.3949918
11
16.4947065
21
64.1548918
0
LINE
8
DEFAULT_255_2_778
10
16.4947065
20
64.1548918
11
16.9948065
21
64.1548918
0
LINE
8
DEFAULT_255_2_778
10
16.4947065
20
61.6148918
11
16.4947065
21
62.8549918
0
LINE
8
DEFAULT_255_2_778
10
16.4947065
20
62.8549918
11
16.9948065
21
62.8549918
0
LINE
8
DEFAULT_255_2_778
10
16.9948065
20
62.8549918
11
16.9948065
21
61.6148918
0
LINE
8
DEFAULT_255_2_778
10
16.9948065
20
61.6148918
11
16.4947065
21
61.6148918
0
LINE
8
DEFAULT_255_2_778
10
16.9948065
20
59.0748918
11
16.9948065
21
60.3149918
0
LINE
8
DEFAULT_255_2_778
10
16.9948065
20
60.3149918
11
16.4947065
21
60.3149918
0
LINE
8
DEFAULT_255_2_778
10
16.4947065
20
60.3149918
11
16.4947065
21
59.0748918
0
LINE
8
DEFAULT_255_2_778
10
16.4947065
20
59.0748918
11
16.9948065
21
59.0748918
0
LINE
8
DEFAULT_255_2_778
10
16.9948065
20
56.5348918
11
16.9948065
21
57.7749918
0
LINE
8
DEFAULT_255_2_778
10
16.9948065
20
57.7749918
11
16.4947065
21
57.7749918
0
LINE
8
DEFAULT_255_2_778
10
16.4947065
20
57.7749918
11
16.4947065
21
56.5348918
0
LINE
8
DEFAULT_255_2_778
10
16.4947065
20
56.5348918
11
16.9948065
21
56.5348918
0
LINE
8
DEFAULT_255_2_778
10
19.0347065
20
55.2349918
11
19.0347065
21
53.9948918
0
LINE
8
DEFAULT_255_2_778
10
19.0347065
20
53.9948918
11
19.5348065
21
53.9948918
0
LINE
8
DEFAULT_255_2_778
10
19.5348065
20
53.9948918
11
19.5348065
21
55.2349918
0
LINE
8
DEFAULT_255_2_778
10
19.5348065
20
55.2349918
11
19.0347065
21
55.2349918
0
LINE
8
DEFAULT_255_2_778
10
19.0347065
20
51.4548918
11
19.0347065
21
52.6949918
0
LINE
8
DEFAULT_255_2_778
10
19.0347065
20
52.6949918
11
19.5348065
21
52.6949918
0
LINE
8
DEFAULT_255_2_778
10
19.5348065
20
52.6949918
11
19.5348065
21
51.4548918
0
LINE
8
DEFAULT_255_2_778
10
19.5348065
20
51.4548918
11
19.0347065
21
51.4548918
0
LINE
8
DEFAULT_255_2_778
10
19.0347065
20
48.9148918
11
19.0347065
21
50.1549918
0
LINE
8
DEFAULT_255_2_778
10
19.0347065
20
50.1549918
11
19.5348065
21
50.1549918
0
LINE
8
DEFAULT_255_2_778
10
19.5348065
20
50.1549918
11
19.5348065
21
48.9148918
0
LINE
8
DEFAULT_255_2_778
10
19.5348065
20
48.9148918
11
19.0347065
21
48.9148918
0
LINE
8
DEFAULT_255_2_778
10
19.0347065
20
46.3748918
11
19.0347065
21
47.6149918
0
LINE
8
DEFAULT_255_2_778
10
19.0347065
20
47.6149918
11
19.5348065
21
47.6149918
0
LINE
8
DEFAULT_255_2_778
10
19.5348065
20
47.6149918
11
19.5348065
21
46.3748918
0
LINE
8
DEFAULT_255_2_778
10
19.5348065
20
46.3748918
11
19.0347065
21
46.3748918
0
LINE
8
DEFAULT_255_2_778
10
16.9948065
20
55.2349918
11
16.4947065
21
55.2349918
0
LINE
8
DEFAULT_255_2_778
10
16.4947065
20
55.2349918
11
16.4947065
21
53.9948918
0
LINE
8
DEFAULT_255_2_778
10
16.4947065
20
53.9948918
11
16.9948065
21
53.9948918
0
LINE
8
DEFAULT_255_2_778
10
16.9948065
20
53.9948918
11
16.9948065
21
55.2349918
0
LINE
8
DEFAULT_255_2_778
10
16.9948065
20
51.4548918
11
16.9948065
21
52.6949918
0
LINE
8
DEFAULT_255_2_778
10
16.9948065
20
52.6949918
11
16.4947065
21
52.6949918
0
LINE
8
DEFAULT_255_2_778
10
16.4947065
20
52.6949918
11
16.4947065
21
51.4548918
0
LINE
8
DEFAULT_255_2_778
10
16.4947065
20
51.4548918
11
16.9948065
21
51.4548918
0
LINE
8
DEFAULT_255_2_778
10
16.9948065
20
50.1549918
11
16.9948065
21
48.9148918
0
LINE
8
DEFAULT_255_2_778
10
16.9948065
20
48.9148918
11
16.4947065
21
48.9148918
0
LINE
8
DEFAULT_255_2_778
10
16.4947065
20
48.9148918
11
16.4947065
21
50.1549918
0
LINE
8
DEFAULT_255_2_778
10
16.4947065
20
50.1549918
11
16.9948065
21
50.1549918
0
LINE
8
DEFAULT_255_2_778
10
16.9948065
20
46.3748918
11
16.9948065
21
47.6149918
0
LINE
8
DEFAULT_255_2_778
10
16.9948065
20
47.6149918
11
16.4947065
21
47.6149918
0
LINE
8
DEFAULT_255_2_778
10
16.4947065
20
47.6149918
11
16.4947065
21
46.3748918
0
LINE
8
DEFAULT_255_2_778
10
16.4947065
20
46.3748918
11
16.9948065
21
46.3748918
0
LINE
8
DEFAULT_255_2_778
10
19.0347065
20
43.8348918
11
19.0347065
21
45.0746918
0
LINE
8
DEFAULT_255_2_778
10
19.0347065
20
45.0746918
11
19.5348065
21
45.0746918
0
LINE
8
DEFAULT_255_2_778
10
19.5348065
20
45.0746918
11
19.5348065
21
43.8348918
0
LINE
8
DEFAULT_255_2_778
10
19.5348065
20
43.8348918
11
19.0347065
21
43.8348918
0
LINE
8
DEFAULT_255_2_778
10
19.5348065
20
41.2948918
11
19.0347065
21
41.2948918
0
LINE
8
DEFAULT_255_2_778
10
19.0347065
20
41.2948918
11
19.0347065
21
42.5349918
0
LINE
8
DEFAULT_255_2_778
10
19.0347065
20
42.5349918
11
19.5348065
21
42.5349918
0
LINE
8
DEFAULT_255_2_778
10
19.5348065
20
42.5349918
11
19.5348065
21
41.2948918
0
LINE
8
DEFAULT_255_2_778
10
19.0347065
20
38.7548918
11
19.0347065
21
39.9949918
0
LINE
8
DEFAULT_255_2_778
10
19.0347065
20
39.9949918
11
19.5348065
21
39.9949918
0
LINE
8
DEFAULT_255_2_778
10
19.5348065
20
39.9949918
11
19.5348065
21
38.7548918
0
LINE
8
DEFAULT_255_2_778
10
19.5348065
20
38.7548918
11
19.0347065
21
38.7548918
0
LINE
8
DEFAULT_255_2_778
10
19.0347065
20
37.4549918
11
19.0347065
21
36.2148918
0
LINE
8
DEFAULT_255_2_778
10
19.0347065
20
36.2148918
11
19.5348065
21
36.2148918
0
LINE
8
DEFAULT_255_2_778
10
19.5348065
20
36.2148918
11
19.5348065
21
37.4549918
0
LINE
8
DEFAULT_255_2_778
10
19.5348065
20
37.4549918
11
19.0347065
21
37.4549918
0
LINE
8
DEFAULT_255_2_778
10
16.9948065
20
43.8348918
11
16.9948065
21
45.0746918
0
LINE
8
DEFAULT_255_2_778
10
16.9948065
20
45.0746918
11
16.4947065
21
45.0746918
0
LINE
8
DEFAULT_255_2_778
10
16.4947065
20
45.0746918
11
16.4947065
21
43.8348918
0
LINE
8
DEFAULT_255_2_778
10
16.4947065
20
43.8348918
11
16.9948065
21
43.8348918
0
LINE
8
DEFAULT_255_2_778
10
16.9948065
20
41.2948918
11
16.9948065
21
42.5349918
0
LINE
8
DEFAULT_255_2_778
10
16.9948065
20
42.5349918
11
16.4947065
21
42.5349918
0
LINE
8
DEFAULT_255_2_778
10
16.4947065
20
42.5349918
11
16.4947065
21
41.2948918
0
LINE
8
DEFAULT_255_2_778
10
16.4947065
20
41.2948918
11
16.9948065
21
41.2948918
0
LINE
8
DEFAULT_255_2_778
10
16.4947065
20
38.7548918
11
16.4947065
21
39.9949918
0
LINE
8
DEFAULT_255_2_778
10
16.4947065
20
39.9949918
11
16.9948065
21
39.9949918
0
LINE
8
DEFAULT_255_2_778
10
16.9948065
20
39.9949918
11
16.9948065
21
38.7548918
0
LINE
8
DEFAULT_255_2_778
10
16.9948065
20
38.7548918
11
16.4947065
21
38.7548918
0
LINE
8
DEFAULT_255_2_778
10
16.9948065
20
37.4549918
11
16.9948065
21
36.2148918
0
LINE
8
DEFAULT_255_2_778
10
16.9948065
20
36.2148918
11
16.4947065
21
36.2148918
0
LINE
8
DEFAULT_255_2_778
10
16.4947065
20
36.2148918
11
16.4947065
21
37.4549918
0
LINE
8
DEFAULT_255_2_778
10
16.4947065
20
37.4549918
11
16.9948065
21
37.4549918
0
LINE
8
DEFAULT_255_2_778
10
19.0347065
20
33.6748918
11
19.0347065
21
34.9149918
0
LINE
8
DEFAULT_255_2_778
10
19.0347065
20
34.9149918
11
19.5348065
21
34.9149918
0
LINE
8
DEFAULT_255_2_778
10
19.5348065
20
34.9149918
11
19.5348065
21
33.6748918
0
LINE
8
DEFAULT_255_2_778
10
19.5348065
20
33.6748918
11
19.0347065
21
33.6748918
0
LINE
8
DEFAULT_255_2_778
10
19.0347065
20
31.1348918
11
19.0347065
21
32.3749918
0
LINE
8
DEFAULT_255_2_778
10
19.0347065
20
32.3749918
11
19.5348065
21
32.3749918
0
LINE
8
DEFAULT_255_2_778
10
19.5348065
20
32.3749918
11
19.5348065
21
31.1348918
0
LINE
8
DEFAULT_255_2_778
10
19.5348065
20
31.1348918
11
19.0347065
21
31.1348918
0
LINE
8
DEFAULT_255_2_778
10
19.0347065
20
28.5948918
11
19.0347065
21
29.8349918
0
LINE
8
DEFAULT_255_2_778
10
19.0347065
20
29.8349918
11
19.5348065
21
29.8349918
0
LINE
8
DEFAULT_255_2_778
10
19.5348065
20
29.8349918
11
19.5348065
21
28.5948918
0
LINE
8
DEFAULT_255_2_778
10
19.5348065
20
28.5948918
11
19.0347065
21
28.5948918
0
LINE
8
DEFAULT_255_2_778
10
19.5348065
20
26.0548918
11
19.0347065
21
26.0548918
0
LINE
8
DEFAULT_255_2_778
10
19.0347065
20
26.0548918
11
19.0347065
21
27.2949918
0
LINE
8
DEFAULT_255_2_778
10
19.0347065
20
27.2949918
11
19.5348065
21
27.2949918
0
LINE
8
DEFAULT_255_2_778
10
19.5348065
20
27.2949918
11
19.5348065
21
26.0548918
0
LINE
8
DEFAULT_255_2_778
10
16.9948065
20
33.6748918
11
16.9948065
21
34.9149918
0
LINE
8
DEFAULT_255_2_778
10
16.9948065
20
34.9149918
11
16.4947065
21
34.9149918
0
LINE
8
DEFAULT_255_2_778
10
16.4947065
20
34.9149918
11
16.4947065
21
33.6748918
0
LINE
8
DEFAULT_255_2_778
10
16.4947065
20
33.6748918
11
16.9948065
21
33.6748918
0
LINE
8
DEFAULT_255_2_778
10
16.9948065
20
31.1348918
11
16.9948065
21
32.3749918
0
LINE
8
DEFAULT_255_2_778
10
16.9948065
20
32.3749918
11
16.4947065
21
32.3749918
0
LINE
8
DEFAULT_255_2_778
10
16.4947065
20
32.3749918
11
16.4947065
21
31.1348918
0
LINE
8
DEFAULT_255_2_778
10
16.4947065
20
31.1348918
11
16.9948065
21
31.1348918
0
LINE
8
DEFAULT_255_2_778
10
16.9948065
20
28.5948918
11
16.9948065
21
29.8349918
0
LINE
8
DEFAULT_255_2_778
10
16.9948065
20
29.8349918
11
16.4947065
21
29.8349918
0
LINE
8
DEFAULT_255_2_778
10
16.4947065
20
29.8349918
11
16.4947065
21
28.5948918
0
LINE
8
DEFAULT_255_2_778
10
16.4947065
20
28.5948918
11
16.9948065
21
28.5948918
0
LINE
8
DEFAULT_255_2_778
10
16.9948065
20
26.0548918
11
16.9948065
21
27.2949918
0
LINE
8
DEFAULT_255_2_778
10
16.9948065
20
27.2949918
11
16.4947065
21
27.2949918
0
LINE
8
DEFAULT_255_2_778
10
16.4947065
20
27.2949918
11
16.4947065
21
26.0548918
0
LINE
8
DEFAULT_255_2_778
10
16.4947065
20
26.0548918
11
16.9948065
21
26.0548918
0
LINE
8
DEFAULT_255_2_778
10
19.0347065
20
23.5148918
11
19.5348065
21
23.5148918
0
LINE
8
DEFAULT_255_2_778
10
19.5348065
20
23.5148918
11
19.5348065
21
24.7549918
0
LINE
8
DEFAULT_255_2_778
10
19.5348065
20
24.7549918
11
19.0347065
21
24.7549918
0
LINE
8
DEFAULT_255_2_778
10
19.0347065
20
24.7549918
11
19.0347065
21
23.5148918
0
LINE
8
DEFAULT_255_2_778
10
19.0347065
20
22.2149918
11
19.0347065
21
20.9750918
0
LINE
8
DEFAULT_255_2_778
10
19.0347065
20
20.9750918
11
19.5348065
21
20.9750918
0
LINE
8
DEFAULT_255_2_778
10
19.5348065
20
20.9750918
11
19.5348065
21
22.2149918
0
LINE
8
DEFAULT_255_2_778
10
19.5348065
20
22.2149918
11
19.0347065
21
22.2149918
0
LINE
8
DEFAULT_255_2_778
10
19.0347065
20
19.6749918
11
19.0347065
21
18.4348918
0
LINE
8
DEFAULT_255_2_778
10
19.0347065
20
18.4348918
11
19.5348065
21
18.4348918
0
LINE
8
DEFAULT_255_2_778
10
19.5348065
20
18.4348918
11
19.5348065
21
19.6749918
0
LINE
8
DEFAULT_255_2_778
10
19.5348065
20
19.6749918
11
19.0347065
21
19.6749918
0
LINE
8
DEFAULT_255_2_778
10
19.0347065
20
15.8948918
11
19.0347065
21
17.1349918
0
LINE
8
DEFAULT_255_2_778
10
19.0347065
20
17.1349918
11
19.5348065
21
17.1349918
0
LINE
8
DEFAULT_255_2_778
10
19.5348065
20
17.1349918
11
19.5348065
21
15.8948918
0
LINE
8
DEFAULT_255_2_778
10
19.5348065
20
15.8948918
11
19.0347065
21
15.8948918
0
LINE
8
DEFAULT_255_2_778
10
16.9948065
20
23.5148918
11
16.9948065
21
24.7549918
0
LINE
8
DEFAULT_255_2_778
10
16.9948065
20
24.7549918
11
16.4947065
21
24.7549918
0
LINE
8
DEFAULT_255_2_778
10
16.4947065
20
24.7549918
11
16.4947065
21
23.5148918
0
LINE
8
DEFAULT_255_2_778
10
16.4947065
20
23.5148918
11
16.9948065
21
23.5148918
0
LINE
8
DEFAULT_255_2_778
10
16.9948065
20
20.9748918
11
16.9948065
21
22.2146918
0
LINE
8
DEFAULT_255_2_778
10
16.9948065
20
22.2146918
11
16.4947065
21
22.2146918
0
LINE
8
DEFAULT_255_2_778
10
16.4947065
20
22.2146918
11
16.4947065
21
20.9748918
0
LINE
8
DEFAULT_255_2_778
10
16.4947065
20
20.9748918
11
16.9948065
21
20.9748918
0
LINE
8
DEFAULT_255_2_778
10
16.9948065
20
18.4348918
11
16.9948065
21
19.6749918
0
LINE
8
DEFAULT_255_2_778
10
16.9948065
20
19.6749918
11
16.4947065
21
19.6749918
0
LINE
8
DEFAULT_255_2_778
10
16.4947065
20
19.6749918
11
16.4947065
21
18.4348918
0
LINE
8
DEFAULT_255_2_778
10
16.4947065
20
18.4348918
11
16.9948065
21
18.4348918
0
LINE
8
DEFAULT_255_2_778
10
16.9948065
20
15.8948918
11
16.9948065
21
17.1349918
0
LINE
8
DEFAULT_255_2_778
10
16.9948065
20
17.1349918
11
16.4947065
21
17.1349918
0
LINE
8
DEFAULT_255_2_778
10
16.4947065
20
17.1349918
11
16.4947065
21
15.8948918
0
LINE
8
DEFAULT_255_2_778
10
16.4947065
20
15.8948918
11
16.9948065
21
15.8948918
0
ARC
8
DEFAULT_255_2_778
10
4.6644665
20
66.4948275
40
1.4999183
50
130.4999608
51
180.0020021
0
ARC
8
DEFAULT_255_2_778
10
4.6648757
20
66.494305
40
1.5005814
50
90.0016285
51
130.4988846
0
ARC
8
DEFAULT_255_2_778
10
4.6648249
20
66.494933
40
1.4999535
50
84.5889093
51
89.9996882
0
ARC
8
DEFAULT_255_2_778
10
4.6646219
20
66.4927316
40
1.5021643
50
81.0179144
51
84.5891186
0
ARC
8
DEFAULT_255_2_778
10
7.8664111
20
65.9918152
40
1.4958917
50
46.6603894
51
81.0454424
0
ARC
8
DEFAULT_255_2_778
10
7.8660219
20
65.9885745
40
1.498517
50
3.3935844
51
46.7346088
0
ARC
8
DEFAULT_255_2_778
10
7.8498172
20
65.9879379
40
1.5147311
50
359.9976229
51
3.3813368
0
ARC
8
DEFAULT_255_2_778
10
7.868785
20
15.3002198
40
1.4957638
50
325.6641326
51
0.0519138
0
ARC
8
DEFAULT_255_2_778
10
7.8653455
20
15.3002299
40
1.498611
50
282.3994619
51
325.7379854
0
ARC
8
DEFAULT_255_2_778
10
7.8621916
20
15.3160251
40
1.5147151
50
279.0039432
51
282.3876858
0
ARC
8
DEFAULT_255_2_778
10
4.6643677
20
14.7964432
40
1.5016357
50
275.4594356
51
278.9950907
0
ARC
8
DEFAULT_255_2_778
10
4.6645968
20
14.7940883
40
1.4992695
50
270.0004522
51
275.4592823
0
ARC
8
DEFAULT_255_2_778
10
4.6647115
20
14.7948595
40
1.5000408
50
229.4967437
51
269.9960717
0
ARC
8
DEFAULT_255_2_778
10
4.6646663
20
14.7950001
40
1.5001182
50
180.0124153
51
229.5015439
0
ARC
8
DEFAULT_255_2_778
10
14.6910508
20
22.8448937
40
1.5012026
50
180.0007109
51
204.8141299
0
LINE
8
DEFAULT_255_2_778
10
4.8991482
20
67.9764751
11
8.0992482
21
67.4694751
0
LINE
8
DEFAULT_255_2_778
10
9.3645482
20
65.9878751
11
9.3645482
21
15.3015751
0
LINE
8
DEFAULT_255_2_778
10
8.0992482
20
13.8199751
11
4.8991482
21
13.3132751
0
LINE
8
DEFAULT_255_2_778
10
3.1645482
20
14.7946751
11
3.1645482
21
66.4947751
0
LINE
8
DEFAULT_255_2_778
10
7.7846482
20
65.3948751
11
7.7846482
21
64.1547751
0
LINE
8
DEFAULT_255_2_778
10
7.7846482
20
64.1547751
11
7.2846482
21
64.1547751
0
LINE
8
DEFAULT_255_2_778
10
7.2846482
20
64.1547751
11
7.2846482
21
65.3948751
0
LINE
8
DEFAULT_255_2_778
10
7.2846482
20
65.3948751
11
7.7846482
21
65.3948751
0
LINE
8
DEFAULT_255_2_778
10
7.7846482
20
62.8548751
11
7.7846482
21
61.6147751
0
LINE
8
DEFAULT_255_2_778
10
7.7846482
20
61.6147751
11
7.2846482
21
61.6147751
0
LINE
8
DEFAULT_255_2_778
10
7.2846482
20
61.6147751
11
7.2846482
21
62.8548751
0
LINE
8
DEFAULT_255_2_778
10
7.2846482
20
62.8548751
11
7.7846482
21
62.8548751
0
LINE
8
DEFAULT_255_2_778
10
7.7846482
20
59.0747751
11
7.2846482
21
59.0747751
0
LINE
8
DEFAULT_255_2_778
10
7.2846482
20
59.0747751
11
7.2846482
21
60.3148751
0
LINE
8
DEFAULT_255_2_778
10
7.2846482
20
60.3148751
11
7.7846482
21
60.3148751
0
LINE
8
DEFAULT_255_2_778
10
7.7846482
20
60.3148751
11
7.7846482
21
59.0747751
0
LINE
8
DEFAULT_255_2_778
10
7.7846482
20
57.7748751
11
7.7846482
21
56.5347751
0
LINE
8
DEFAULT_255_2_778
10
7.7846482
20
56.5347751
11
7.2846482
21
56.5347751
0
LINE
8
DEFAULT_255_2_778
10
7.2846482
20
56.5347751
11
7.2846482
21
57.7748751
0
LINE
8
DEFAULT_255_2_778
10
7.2846482
20
57.7748751
11
7.7846482
21
57.7748751
0
LINE
8
DEFAULT_255_2_778
10
4.7446482
20
65.3948751
11
4.7446482
21
64.1547751
0
LINE
8
DEFAULT_255_2_778
10
4.7446482
20
64.1547751
11
5.2446482
21
64.1547751
0
LINE
8
DEFAULT_255_2_778
10
5.2446482
20
64.1547751
11
5.2446482
21
65.3948751
0
LINE
8
DEFAULT_255_2_778
10
5.2446482
20
65.3948751
11
4.7446482
21
65.3948751
0
LINE
8
DEFAULT_255_2_778
10
4.7446482
20
62.8548751
11
4.7446482
21
61.6147751
0
LINE
8
DEFAULT_255_2_778
10
4.7446482
20
61.6147751
11
5.2446482
21
61.6147751
0
LINE
8
DEFAULT_255_2_778
10
5.2446482
20
61.6147751
11
5.2446482
21
62.8548751
0
LINE
8
DEFAULT_255_2_778
10
5.2446482
20
62.8548751
11
4.7446482
21
62.8548751
0
LINE
8
DEFAULT_255_2_778
10
4.7446482
20
60.3148751
11
4.7446482
21
59.0747751
0
LINE
8
DEFAULT_255_2_778
10
4.7446482
20
59.0747751
11
5.2446482
21
59.0747751
0
LINE
8
DEFAULT_255_2_778
10
5.2446482
20
59.0747751
11
5.2446482
21
60.3148751
0
LINE
8
DEFAULT_255_2_778
10
5.2446482
20
60.3148751
11
4.7446482
21
60.3148751
0
LINE
8
DEFAULT_255_2_778
10
4.7446482
20
57.7748751
11
4.7446482
21
56.5347751
0
LINE
8
DEFAULT_255_2_778
10
4.7446482
20
56.5347751
11
5.2446482
21
56.5347751
0
LINE
8
DEFAULT_255_2_778
10
5.2446482
20
56.5347751
11
5.2446482
21
57.7748751
0
LINE
8
DEFAULT_255_2_778
10
5.2446482
20
57.7748751
11
4.7446482
21
57.7748751
0
LINE
8
DEFAULT_255_2_778
10
7.7846482
20
55.2348751
11
7.7846482
21
53.9947751
0
LINE
8
DEFAULT_255_2_778
10
7.7846482
20
53.9947751
11
7.2846482
21
53.9947751
0
LINE
8
DEFAULT_255_2_778
10
7.2846482
20
53.9947751
11
7.2846482
21
55.2348751
0
LINE
8
DEFAULT_255_2_778
10
7.2846482
20
55.2348751
11
7.7846482
21
55.2348751
0
LINE
8
DEFAULT_255_2_778
10
7.2846482
20
52.6948751
11
7.2846482
21
51.4547751
0
LINE
8
DEFAULT_255_2_778
10
7.2846482
20
51.4547751
11
7.7846482
21
51.4547751
0
LINE
8
DEFAULT_255_2_778
10
7.7846482
20
51.4547751
11
7.7846482
21
52.6948751
0
LINE
8
DEFAULT_255_2_778
10
7.7846482
20
52.6948751
11
7.2846482
21
52.6948751
0
LINE
8
DEFAULT_255_2_778
10
7.7846482
20
48.9147751
11
7.2846482
21
48.9147751
0
LINE
8
DEFAULT_255_2_778
10
7.2846482
20
48.9147751
11
7.2846482
21
50.1548751
0
LINE
8
DEFAULT_255_2_778
10
7.2846482
20
50.1548751
11
7.7846482
21
50.1548751
0
LINE
8
DEFAULT_255_2_778
10
7.7846482
20
50.1548751
11
7.7846482
21
48.9147751
0
LINE
8
DEFAULT_255_2_778
10
7.7846482
20
47.6148751
11
7.7846482
21
46.3747751
0
LINE
8
DEFAULT_255_2_778
10
7.7846482
20
46.3747751
11
7.2846482
21
46.3747751
0
LINE
8
DEFAULT_255_2_778
10
7.2846482
20
46.3747751
11
7.2846482
21
47.6148751
0
LINE
8
DEFAULT_255_2_778
10
7.2846482
20
47.6148751
11
7.7846482
21
47.6148751
0
LINE
8
DEFAULT_255_2_778
10
4.7446482
20
55.2348751
11
4.7446482
21
53.9947751
0
LINE
8
DEFAULT_255_2_778
10
4.7446482
20
53.9947751
11
5.2446482
21
53.9947751
0
LINE
8
DEFAULT_255_2_778
10
5.2446482
20
53.9947751
11
5.2446482
21
55.2348751
0
LINE
8
DEFAULT_255_2_778
10
5.2446482
20
55.2348751
11
4.7446482
21
55.2348751
0
LINE
8
DEFAULT_255_2_778
10
4.7446482
20
52.6948751
11
4.7446482
21
51.4547751
0
LINE
8
DEFAULT_255_2_778
10
4.7446482
20
51.4547751
11
5.2446482
21
51.4547751
0
LINE
8
DEFAULT_255_2_778
10
5.2446482
20
51.4547751
11
5.2446482
21
52.6948751
0
LINE
8
DEFAULT_255_2_778
10
5.2446482
20
52.6948751
11
4.7446482
21
52.6948751
0
LINE
8
DEFAULT_255_2_778
10
5.2446482
20
50.1548751
11
4.7446482
21
50.1548751
0
LINE
8
DEFAULT_255_2_778
10
4.7446482
20
50.1548751
11
4.7446482
21
48.9147751
0
LINE
8
DEFAULT_255_2_778
10
4.7446482
20
48.9147751
11
5.2446482
21
48.9147751
0
LINE
8
DEFAULT_255_2_778
10
5.2446482
20
48.9147751
11
5.2446482
21
50.1548751
0
LINE
8
DEFAULT_255_2_778
10
4.7446482
20
47.6148751
11
4.7446482
21
46.3747751
0
LINE
8
DEFAULT_255_2_778
10
4.7446482
20
46.3747751
11
5.2446482
21
46.3747751
0
LINE
8
DEFAULT_255_2_778
10
5.2446482
20
46.3747751
11
5.2446482
21
47.6148751
0
LINE
8
DEFAULT_255_2_778
10
5.2446482
20
47.6148751
11
4.7446482
21
47.6148751
0
LINE
8
DEFAULT_255_2_778
10
7.7846482
20
45.0748751
11
7.7846482
21
43.8350751
0
LINE
8
DEFAULT_255_2_778
10
7.7846482
20
43.8350751
11
7.2846482
21
43.8350751
0
LINE
8
DEFAULT_255_2_778
10
7.2846482
20
43.8350751
11
7.2846482
21
45.0748751
0
LINE
8
DEFAULT_255_2_778
10
7.2846482
20
45.0748751
11
7.7846482
21
45.0748751
0
LINE
8
DEFAULT_255_2_778
10
7.7846482
20
42.5348751
11
7.7846482
21
41.2947751
0
LINE
8
DEFAULT_255_2_778
10
7.7846482
20
41.2947751
11
7.2846482
21
41.2947751
0
LINE
8
DEFAULT_255_2_778
10
7.2846482
20
41.2947751
11
7.2846482
21
42.5348751
0
LINE
8
DEFAULT_255_2_778
10
7.2846482
20
42.5348751
11
7.7846482
21
42.5348751
0
LINE
8
DEFAULT_255_2_778
10
7.7846482
20
39.9948751
11
7.7846482
21
38.7547751
0
LINE
8
DEFAULT_255_2_778
10
7.7846482
20
38.7547751
11
7.2846482
21
38.7547751
0
LINE
8
DEFAULT_255_2_778
10
7.2846482
20
38.7547751
11
7.2846482
21
39.9948751
0
LINE
8
DEFAULT_255_2_778
10
7.2846482
20
39.9948751
11
7.7846482
21
39.9948751
0
LINE
8
DEFAULT_255_2_778
10
7.7846482
20
37.4548751
11
7.7846482
21
36.2147751
0
LINE
8
DEFAULT_255_2_778
10
7.7846482
20
36.2147751
11
7.2846482
21
36.2147751
0
LINE
8
DEFAULT_255_2_778
10
7.2846482
20
36.2147751
11
7.2846482
21
37.4548751
0
LINE
8
DEFAULT_255_2_778
10
7.2846482
20
37.4548751
11
7.7846482
21
37.4548751
0
LINE
8
DEFAULT_255_2_778
10
4.7446482
20
45.0748751
11
4.7446482
21
43.8350751
0
LINE
8
DEFAULT_255_2_778
10
4.7446482
20
43.8350751
11
5.2446482
21
43.8350751
0
LINE
8
DEFAULT_255_2_778
10
5.2446482
20
43.8350751
11
5.2446482
21
45.0748751
0
LINE
8
DEFAULT_255_2_778
10
5.2446482
20
45.0748751
11
4.7446482
21
45.0748751
0
LINE
8
DEFAULT_255_2_778
10
4.7446482
20
42.5348751
11
4.7446482
21
41.2947751
0
LINE
8
DEFAULT_255_2_778
10
4.7446482
20
41.2947751
11
5.2446482
21
41.2947751
0
LINE
8
DEFAULT_255_2_778
10
5.2446482
20
41.2947751
11
5.2446482
21
42.5348751
0
LINE
8
DEFAULT_255_2_778
10
5.2446482
20
42.5348751
11
4.7446482
21
42.5348751
0
LINE
8
DEFAULT_255_2_778
10
4.7446482
20
39.9948751
11
4.7446482
21
38.7547751
0
LINE
8
DEFAULT_255_2_778
10
4.7446482
20
38.7547751
11
5.2446482
21
38.7547751
0
LINE
8
DEFAULT_255_2_778
10
5.2446482
20
38.7547751
11
5.2446482
21
39.9948751
0
LINE
8
DEFAULT_255_2_778
10
5.2446482
20
39.9948751
11
4.7446482
21
39.9948751
0
LINE
8
DEFAULT_255_2_778
10
4.7446482
20
37.4548751
11
4.7446482
21
36.2147751
0
LINE
8
DEFAULT_255_2_778
10
4.7446482
20
36.2147751
11
5.2446482
21
36.2147751
0
LINE
8
DEFAULT_255_2_778
10
5.2446482
20
36.2147751
11
5.2446482
21
37.4548751
0
LINE
8
DEFAULT_255_2_778
10
5.2446482
20
37.4548751
11
4.7446482
21
37.4548751
0
LINE
8
DEFAULT_255_2_778
10
7.7846482
20
34.9148751
11
7.7846482
21
33.6747751
0
LINE
8
DEFAULT_255_2_778
10
7.7846482
20
33.6747751
11
7.2846482
21
33.6747751
0
LINE
8
DEFAULT_255_2_778
10
7.2846482
20
33.6747751
11
7.2846482
21
34.9148751
0
LINE
8
DEFAULT_255_2_778
10
7.2846482
20
34.9148751
11
7.7846482
21
34.9148751
0
LINE
8
DEFAULT_255_2_778
10
7.7846482
20
32.3748751
11
7.7846482
21
31.1347751
0
LINE
8
DEFAULT_255_2_778
10
7.7846482
20
31.1347751
11
7.2846482
21
31.1347751
0
LINE
8
DEFAULT_255_2_778
10
7.2846482
20
31.1347751
11
7.2846482
21
32.3748751
0
LINE
8
DEFAULT_255_2_778
10
7.2846482
20
32.3748751
11
7.7846482
21
32.3748751
0
LINE
8
DEFAULT_255_2_778
10
7.7846482
20
29.8348751
11
7.7846482
21
28.5947751
0
LINE
8
DEFAULT_255_2_778
10
7.7846482
20
28.5947751
11
7.2846482
21
28.5947751
0
LINE
8
DEFAULT_255_2_778
10
7.2846482
20
28.5947751
11
7.2846482
21
29.8348751
0
LINE
8
DEFAULT_255_2_778
10
7.2846482
20
29.8348751
11
7.7846482
21
29.8348751
0
LINE
8
DEFAULT_255_2_778
10
7.7846482
20
27.2948751
11
7.7846482
21
26.0547751
0
LINE
8
DEFAULT_255_2_778
10
7.7846482
20
26.0547751
11
7.2846482
21
26.0547751
0
LINE
8
DEFAULT_255_2_778
10
7.2846482
20
26.0547751
11
7.2846482
21
27.2948751
0
LINE
8
DEFAULT_255_2_778
10
7.2846482
20
27.2948751
11
7.7846482
21
27.2948751
0
LINE
8
DEFAULT_255_2_778
10
4.7446482
20
34.9148751
11
4.7446482
21
33.6747751
0
LINE
8
DEFAULT_255_2_778
10
4.7446482
20
33.6747751
11
5.2446482
21
33.6747751
0
LINE
8
DEFAULT_255_2_778
10
5.2446482
20
33.6747751
11
5.2446482
21
34.9148751
0
LINE
8
DEFAULT_255_2_778
10
5.2446482
20
34.9148751
11
4.7446482
21
34.9148751
0
LINE
8
DEFAULT_255_2_778
10
4.7446482
20
32.3748751
11
4.7446482
21
31.1347751
0
LINE
8
DEFAULT_255_2_778
10
4.7446482
20
31.1347751
11
5.2446482
21
31.1347751
0
LINE
8
DEFAULT_255_2_778
10
5.2446482
20
31.1347751
11
5.2446482
21
32.3748751
0
LINE
8
DEFAULT_255_2_778
10
5.2446482
20
32.3748751
11
4.7446482
21
32.3748751
0
LINE
8
DEFAULT_255_2_778
10
4.7446482
20
29.8348751
11
4.7446482
21
28.5947751
0
LINE
8
DEFAULT_255_2_778
10
4.7446482
20
28.5947751
11
5.2446482
21
28.5947751
0
LINE
8
DEFAULT_255_2_778
10
5.2446482
20
28.5947751
11
5.2446482
21
29.8348751
0
LINE
8
DEFAULT_255_2_778
10
5.2446482
20
29.8348751
11
4.7446482
21
29.8348751
0
LINE
8
DEFAULT_255_2_778
10
4.7446482
20
27.2948751
11
4.7446482
21
26.0547751
0
LINE
8
DEFAULT_255_2_778
10
4.7446482
20
26.0547751
11
5.2446482
21
26.0547751
0
LINE
8
DEFAULT_255_2_778
10
5.2446482
20
26.0547751
11
5.2446482
21
27.2948751
0
LINE
8
DEFAULT_255_2_778
10
5.2446482
20
27.2948751
11
4.7446482
21
27.2948751
0
LINE
8
DEFAULT_255_2_778
10
7.7846482
20
24.7548751
11
7.7846482
21
23.5147751
0
LINE
8
DEFAULT_255_2_778
10
7.7846482
20
23.5147751
11
7.2846482
21
23.5147751
0
LINE
8
DEFAULT_255_2_778
10
7.2846482
20
23.5147751
11
7.2846482
21
24.7548751
0
LINE
8
DEFAULT_255_2_778
10
7.2846482
20
24.7548751
11
7.7846482
21
24.7548751
0
LINE
8
DEFAULT_255_2_778
10
7.7846482
20
22.2148751
11
7.7846482
21
20.9750751
0
LINE
8
DEFAULT_255_2_778
10
7.7846482
20
20.9750751
11
7.2846482
21
20.9750751
0
LINE
8
DEFAULT_255_2_778
10
7.2846482
20
20.9750751
11
7.2846482
21
22.2148751
0
LINE
8
DEFAULT_255_2_778
10
7.2846482
20
22.2148751
11
7.7846482
21
22.2148751
0
LINE
8
DEFAULT_255_2_778
10
7.7846482
20
19.6748751
11
7.7846482
21
18.4347751
0
LINE
8
DEFAULT_255_2_778
10
7.7846482
20
18.4347751
11
7.2846482
21
18.4347751
0
LINE
8
DEFAULT_255_2_778
10
7.2846482
20
18.4347751
11
7.2846482
21
19.6748751
0
LINE
8
DEFAULT_255_2_778
10
7.2846482
20
19.6748751
11
7.7846482
21
19.6748751
0
LINE
8
DEFAULT_255_2_778
10
7.7846482
20
17.1348751
11
7.7846482
21
15.8947751
0
LINE
8
DEFAULT_255_2_778
10
7.7846482
20
15.8947751
11
7.2846482
21
15.8947751
0
LINE
8
DEFAULT_255_2_778
10
7.2846482
20
15.8947751
11
7.2846482
21
17.1348751
0
LINE
8
DEFAULT_255_2_778
10
7.2846482
20
17.1348751
11
7.7846482
21
17.1348751
0
LINE
8
DEFAULT_255_2_778
10
4.7446482
20
24.7548751
11
4.7446482
21
23.5147751
0
LINE
8
DEFAULT_255_2_778
10
4.7446482
20
23.5147751
11
5.2446482
21
23.5147751
0
LINE
8
DEFAULT_255_2_778
10
5.2446482
20
23.5147751
11
5.2446482
21
24.7548751
0
LINE
8
DEFAULT_255_2_778
10
5.2446482
20
24.7548751
11
4.7446482
21
24.7548751
0
LINE
8
DEFAULT_255_2_778
10
4.7446482
20
22.2148751
11
4.7446482
21
20.9750751
0
LINE
8
DEFAULT_255_2_778
10
4.7446482
20
20.9750751
11
5.2446482
21
20.9750751
0
LINE
8
DEFAULT_255_2_778
10
5.2446482
20
20.9750751
11
5.2446482
21
22.2148751
0
LINE
8
DEFAULT_255_2_778
10
5.2446482
20
22.2148751
11
4.7446482
21
22.2148751
0
LINE
8
DEFAULT_255_2_778
10
4.7446482
20
19.6748751
11
4.7446482
21
18.4347751
0
LINE
8
DEFAULT_255_2_778
10
4.7446482
20
18.4347751
11
5.2446482
21
18.4347751
0
LINE
8
DEFAULT_255_2_778
10
5.2446482
20
18.4347751
11
5.2446482
21
19.6748751
0
LINE
8
DEFAULT_255_2_778
10
5.2446482
20
19.6748751
11
4.7446482
21
19.6748751
0
LINE
8
DEFAULT_255_2_778
10
5.2446482
20
17.1348751
11
4.7446482
21
17.1348751
0
LINE
8
DEFAULT_255_2_778
10
4.7446482
20
17.1348751
11
4.7446482
21
15.8947751
0
LINE
8
DEFAULT_255_2_778
10
4.7446482
20
15.8947751
11
5.2446482
21
15.8947751
0
LINE
8
DEFAULT_255_2_778
10
5.2446482
20
15.8947751
11
5.2446482
21
17.1348751
0
LINE
8
DEFAULT_255_2_778
10
14.4397482
20
75.9448751
11
14.4397482
21
75.8049751
0
LINE
8
DEFAULT_255_2_778
10
14.4397482
20
75.8049751
11
16.4397482
21
75.8049751
0
LINE
8
DEFAULT_255_2_778
10
16.4397482
20
75.8049751
11
16.4397482
21
75.9448751
0
LINE
8
DEFAULT_255_2_778
10
1.7897482
20
74.3724751
11
2.0897482
21
74.5113751
0
LINE
8
DEFAULT_255_2_778
10
2.0897482
20
74.5113751
11
2.0897482
21
67.1784751
0
LINE
8
DEFAULT_255_2_778
10
1.7897482
20
67.5234751
11
2.0897482
21
67.1784751
0
LINE
8
DEFAULT_255_2_778
10
2.0897482
20
67.1784751
11
1.7897482
21
67.3517751
0
LINE
8
DEFAULT_255_2_778
10
1.7897482
20
38.3383751
11
2.0897482
21
38.5116751
0
LINE
8
DEFAULT_255_2_778
10
1.7897482
20
38.1660751
11
2.0897482
21
38.5111751
0
LINE
8
DEFAULT_255_2_778
10
2.0897482
20
38.5111751
11
2.0897482
21
35.1659751
0
LINE
8
DEFAULT_255_2_778
10
2.0897482
20
35.1659751
11
2.0897482
21
32.1447751
0
LINE
8
DEFAULT_255_2_778
10
2.0897482
20
32.1447751
11
2.1397482
21
32.1447751
0
LINE
8
DEFAULT_255_2_778
10
2.1397482
20
35.1659751
11
2.1400482
21
35.1659751
0
LINE
8
DEFAULT_255_2_778
10
2.1400482
20
35.1659751
11
2.0897482
21
35.1659751
0
LINE
8
DEFAULT_255_2_778
10
1.7897482
20
31.3173751
11
2.0897482
21
31.1784751
0
LINE
8
DEFAULT_255_2_778
10
2.0897482
20
31.1784751
11
2.0897482
21
32.1449751
0
LINE
8
DEFAULT_255_2_778
10
10.9898482
20
75.6199751
11
10.7898482
21
75.6199751
0
LINE
8
DEFAULT_255_2_778
10
10.9898482
20
75.7699751
11
10.7898482
21
75.7699751
0
LINE
8
DEFAULT_255_2_778
10
8.4397482
20
75.9446751
11
8.4397482
21
75.7951751
0
LINE
8
DEFAULT_255_2_778
10
8.3598482
20
75.7951751
11
8.4397482
21
75.7951751
0
LINE
8
DEFAULT_255_2_778
10
8.4397482
20
75.7951751
11
8.4598482
21
75.7951751
0
LINE
8
DEFAULT_255_2_778
10
8.4397482
20
75.3850751
11
8.4397482
21
75.5951751
0
LINE
8
DEFAULT_255_2_778
10
8.4397482
20
75.5951751
11
8.3598482
21
75.5951751
0
LINE
8
DEFAULT_255_2_778
10
8.3598482
20
75.5951751
11
8.3598482
21
75.7951751
0
LINE
8
DEFAULT_255_2_778
10
8.3598482
20
75.7951751
11
8.2397482
21
75.7951751
0
LINE
8
DEFAULT_255_2_778
10
8.2397482
20
75.7951751
11
8.2397482
21
75.5951751
0
LINE
8
DEFAULT_255_2_778
10
8.2397482
20
75.5951751
11
8.3598482
21
75.5951751
0
LINE
8
DEFAULT_255_2_778
10
22.0398482
20
5.3450751
11
22.0398482
21
5.5450751
0
LINE
8
DEFAULT_255_2_778
10
19.3398482
20
5.3450751
11
19.3398482
21
5.8451751
0
LINE
8
DEFAULT_255_2_778
10
17.2398482
20
5.3453751
11
17.2398482
21
5.8451751
0
LINE
8
DEFAULT_255_2_778
10
17.2398482
20
5.8451751
11
17.2398482
21
5.9051751
0
LINE
8
DEFAULT_255_2_778
10
8.2397482
20
5.5450751
11
8.1897482
21
5.5450751
0
LINE
8
DEFAULT_255_2_778
10
8.1897482
20
5.3453751
11
8.1897482
21
5.5450751
0
LINE
8
DEFAULT_255_2_778
10
8.1897482
20
5.5450751
11
8.1897482
21
5.9054751
0
LINE
8
DEFAULT_255_2_778
10
6.4398482
20
5.5450751
11
6.5898482
21
5.5450751
0
LINE
8
DEFAULT_255_2_778
10
6.5898482
20
5.3453751
11
6.5898482
21
5.5450751
0
LINE
8
DEFAULT_255_2_778
10
6.5898482
20
5.5450751
11
6.5898482
21
5.9054751
0
LINE
8
DEFAULT_255_2_778
10
22.0097482
20
75.5948751
11
21.9396482
21
75.5948751
0
LINE
8
DEFAULT_255_2_778
10
21.9396482
20
75.5948751
11
21.9396482
21
75.7948751
0
LINE
8
DEFAULT_255_2_778
10
21.9396482
20
75.7948751
11
22.0097482
21
75.7948751
0
LINE
8
DEFAULT_255_2_778
10
22.0097482
20
75.9448751
11
22.0097482
21
75.8448751
0
LINE
8
DEFAULT_255_2_778
10
22.0896482
20
75.7948751
11
22.0097482
21
75.7948751
0
LINE
8
DEFAULT_255_2_778
10
22.0097482
20
75.7948751
11
22.0097482
21
75.8448751
0
LINE
8
DEFAULT_255_2_778
10
22.0097482
20
75.8448751
11
22.0896482
21
75.8448751
0
LINE
8
DEFAULT_255_2_778
10
22.0896482
20
75.7943751
11
22.0896482
21
75.7948751
0
LINE
8
DEFAULT_255_2_778
10
22.1396482
20
75.9448751
11
22.1396482
21
75.8750751
0
LINE
8
DEFAULT_255_2_778
10
22.1396482
20
75.8750751
11
22.1097482
21
75.8451751
0
LINE
8
DEFAULT_255_2_778
10
22.1097482
20
75.8451751
11
22.0896482
21
75.8451751
0
LINE
8
DEFAULT_255_2_778
10
22.0896482
20
75.9451751
11
22.0896482
21
75.8446751
0
LINE
8
DEFAULT_255_2_778
10
22.0896482
20
75.8446751
11
22.0896482
21
75.7951751
0
LINE
8
DEFAULT_255_2_778
10
22.0896482
20
75.7951751
11
22.1396482
21
75.7951751
0
LINE
8
DEFAULT_255_2_778
10
22.1396482
20
75.7951751
11
22.1396482
21
75.5951751
0
LINE
8
DEFAULT_255_2_778
10
22.1396482
20
75.5951751
11
22.0896482
21
75.5951751
0
LINE
8
DEFAULT_255_2_778
10
22.0097482
20
75.5451751
11
22.0097482
21
75.5951751
0
LINE
8
DEFAULT_255_2_778
10
22.0097482
20
75.5951751
11
22.0896482
21
75.5951751
0
LINE
8
DEFAULT_255_2_778
10
22.0896482
20
75.5951751
11
22.0896482
21
75.5451751
0
LINE
8
DEFAULT_255_2_778
10
5.9397482
20
5.8448751
11
5.9997482
21
5.9049751
0
LINE
8
DEFAULT_255_2_778
10
6.4398482
20
5.3447751
11
6.4398482
21
5.9049751
0
LINE
8
DEFAULT_255_2_778
10
8.2397482
20
5.3447751
11
8.2397482
21
5.9049751
0
LINE
8
DEFAULT_255_2_778
10
20.8397482
20
5.3450751
11
20.8397482
21
5.9051751
0
LINE
8
DEFAULT_255_2_778
10
19.3398482
20
5.9051751
11
19.3398482
21
5.8451751
0
LINE
8
DEFAULT_255_2_778
10
19.3398482
20
5.8451751
11
17.2395482
21
5.8451751
0
LINE
8
DEFAULT_255_2_778
10
21.5398482
20
5.3450751
11
21.5398482
21
5.9051751
0
LINE
8
DEFAULT_255_2_778
10
1.7897482
20
8.8449751
11
2.1400482
21
8.8449751
0
LINE
8
DEFAULT_255_2_778
10
8.4897482
20
75.9448751
11
8.4897482
21
75.3847751
0
LINE
8
DEFAULT_255_2_778
10
12.4397482
20
75.9443751
11
12.4397482
21
75.3847751
0
LINE
8
DEFAULT_255_2_778
10
10.9898482
20
75.9443751
11
10.9898482
21
75.3847751
0
LINE
8
DEFAULT_255_2_778
10
8.9898482
20
75.9446751
11
8.9898482
21
75.3847751
0
LINE
8
DEFAULT_255_2_778
10
10.7898482
20
75.3847751
11
10.7898482
21
75.6197751
0
LINE
8
DEFAULT_255_2_778
10
10.7898482
20
75.6197751
11
10.7898482
21
75.7697751
0
LINE
8
DEFAULT_255_2_778
10
10.7898482
20
75.7697751
11
10.7898482
21
75.9446751
0
LINE
8
DEFAULT_255_2_778
10
8.1897482
20
75.9446751
11
8.1897482
21
75.3844751
0
LINE
8
DEFAULT_255_2_778
10
2.1397482
20
69.8848751
11
2.1397482
21
75.3847751
0
LINE
8
DEFAULT_255_2_778
10
2.1397482
20
75.3847751
11
6.5898482
21
75.3847751
0
LINE
8
DEFAULT_255_2_778
10
6.5898482
20
75.3847751
11
8.1897482
21
75.3847751
0
LINE
8
DEFAULT_255_2_778
10
8.1897482
20
75.3847751
11
8.4397482
21
75.3847751
0
LINE
8
DEFAULT_255_2_778
10
8.4397482
20
75.3847751
11
8.4897482
21
75.3847751
0
LINE
8
DEFAULT_255_2_778
10
8.4897482
20
75.3847751
11
8.9898482
21
75.3847751
0
LINE
8
DEFAULT_255_2_778
10
8.9898482
20
75.3847751
11
10.7898482
21
75.3847751
0
LINE
8
DEFAULT_255_2_778
10
10.7898482
20
75.3847751
11
10.9898482
21
75.3847751
0
LINE
8
DEFAULT_255_2_778
10
10.9898482
20
75.3847751
11
12.4397482
21
75.3847751
0
LINE
8
DEFAULT_255_2_778
10
12.4397482
20
75.3847751
11
13.3396482
21
75.3847751
0
LINE
8
DEFAULT_255_2_778
10
13.3396482
20
75.3847751
11
14.4397482
21
75.3847751
0
LINE
8
DEFAULT_255_2_778
10
14.4397482
20
75.3847751
11
16.4397482
21
75.3847751
0
LINE
8
DEFAULT_255_2_778
10
16.4397482
20
75.3847751
11
16.5397482
21
75.3847751
0
LINE
8
DEFAULT_255_2_778
10
16.5397482
20
75.3847751
11
17.5398482
21
75.3847751
0
LINE
8
DEFAULT_255_2_778
10
17.5398482
20
75.3847751
11
22.0100482
21
75.3847751
0
LINE
8
DEFAULT_255_2_778
10
22.0100482
20
75.3847751
11
22.0899482
21
75.3847751
0
LINE
8
DEFAULT_255_2_778
10
22.0899482
20
75.3847751
11
22.1399482
21
75.3847751
0
LINE
8
DEFAULT_255_2_778
10
22.1399482
20
75.3847751
11
22.1399482
21
74.0348751
0
LINE
8
DEFAULT_255_2_778
10
6.5898482
20
75.9448751
11
6.5898482
21
75.3847751
0
LINE
8
DEFAULT_255_2_778
10
22.0097482
20
75.3847751
11
22.0097482
21
75.5448751
0
LINE
8
DEFAULT_255_2_778
10
22.0097482
20
75.5448751
11
22.0896482
21
75.5448751
0
LINE
8
DEFAULT_255_2_778
10
16.4397482
20
75.3847751
11
16.4397482
21
75.5847751
0
LINE
8
DEFAULT_255_2_778
10
16.4397482
20
75.5847751
11
14.4397482
21
75.5847751
0
LINE
8
DEFAULT_255_2_778
10
14.4397482
20
75.5847751
11
14.4397482
21
75.3847751
0
LINE
8
DEFAULT_255_2_778
10
16.5397482
20
75.9443751
11
16.5397482
21
75.3847751
0
LINE
8
DEFAULT_255_2_778
10
13.3398482
20
75.9443751
11
13.3398482
21
75.3847751
0
LINE
8
DEFAULT_255_2_778
10
17.5398482
20
75.9443751
11
17.5398482
21
75.3847751
0
LINE
8
DEFAULT_255_2_778
10
22.0899482
20
75.3847751
11
22.0899482
21
75.5448751
0
LINE
8
DEFAULT_255_2_778
10
22.0899482
20
75.5448751
11
22.1100482
21
75.5448751
0
LINE
8
DEFAULT_255_2_778
10
22.1100482
20
75.5448751
11
22.1399482
21
75.5149751
0
LINE
8
DEFAULT_255_2_778
10
22.1399482
20
75.5149751
11
22.1399482
21
75.3850751
0
LINE
8
DEFAULT_255_2_778
10
1.7897482
20
13.0065751
11
2.1397482
21
13.0065751
0
LINE
8
DEFAULT_255_2_778
10
1.7897482
20
28.6662751
11
2.1400482
21
28.6662751
0
LINE
8
DEFAULT_255_2_778
10
1.7897482
20
26.3447751
11
2.1397482
21
26.3447751
0
LINE
8
DEFAULT_255_2_778
10
1.7897482
20
31.1448751
11
2.1397482
21
31.1448751
0
LINE
8
DEFAULT_255_2_778
10
22.1396482
20
7.2548751
11
22.1396482
21
5.9049751
0
LINE
8
DEFAULT_255_2_778
10
22.1396482
20
5.9049751
11
22.0396482
21
5.9049751
0
LINE
8
DEFAULT_255_2_778
10
22.0396482
20
5.9049751
11
21.5395482
21
5.9049751
0
LINE
8
DEFAULT_255_2_778
10
21.5395482
20
5.9049751
11
20.8397482
21
5.9049751
0
LINE
8
DEFAULT_255_2_778
10
20.8397482
20
5.9049751
11
19.3398482
21
5.9049751
0
LINE
8
DEFAULT_255_2_778
10
19.3398482
20
5.9049751
11
17.2398482
21
5.9049751
0
LINE
8
DEFAULT_255_2_778
10
17.2398482
20
5.9049751
11
8.2397482
21
5.9049751
0
LINE
8
DEFAULT_255_2_778
10
8.2397482
20
5.9049751
11
8.1897482
21
5.9049751
0
LINE
8
DEFAULT_255_2_778
10
8.1897482
20
5.9049751
11
6.5898482
21
5.9049751
0
LINE
8
DEFAULT_255_2_778
10
6.5898482
20
5.9049751
11
6.4398482
21
5.9049751
0
LINE
8
DEFAULT_255_2_778
10
6.4398482
20
5.9049751
11
5.9997482
21
5.9049751
0
LINE
8
DEFAULT_255_2_778
10
5.9997482
20
5.9049751
11
2.1397482
21
5.9049751
0
LINE
8
DEFAULT_255_2_778
10
2.1397482
20
5.9049751
11
2.1397482
21
6.3449751
0
LINE
8
DEFAULT_255_2_778
10
2.1397482
20
6.3449751
11
1.7897482
21
6.3449751
0
LINE
8
DEFAULT_255_2_778
10
22.1396482
20
10.6901751
11
22.1396482
21
10.6901751
0
LINE
8
DEFAULT_255_2_778
10
22.1396482
20
10.6901751
11
22.1396482
21
10.0549751
0
LINE
8
DEFAULT_255_2_778
10
22.1396482
20
8.8449751
11
22.1396482
21
9.0550751
0
LINE
8
DEFAULT_255_2_778
10
22.1396482
20
9.0550751
11
22.1896482
21
9.0550751
0
LINE
8
DEFAULT_255_2_778
10
22.1396482
20
71.2350751
11
22.1396482
21
72.2351751
0
LINE
8
DEFAULT_255_2_778
10
22.1396482
20
72.2351751
11
22.1896482
21
72.2351751
0
LINE
8
DEFAULT_255_2_778
10
22.1396482
20
59.0951751
11
22.1396482
21
59.3951751
0
LINE
8
DEFAULT_255_2_778
10
22.1396482
20
59.3951751
11
22.1896482
21
59.3951751
0
LINE
8
DEFAULT_255_2_778
10
22.1396482
20
43.0452751
11
22.1396482
21
44.0453751
0
LINE
8
DEFAULT_255_2_778
10
22.1393482
20
37.2453751
11
22.1396482
21
37.2453751
0
LINE
8
DEFAULT_255_2_778
10
22.1396482
20
37.2453751
11
22.1396482
21
37.3151751
0
LINE
8
DEFAULT_255_2_778
10
22.1396482
20
35.1665751
11
22.1396482
21
36.5351751
0
LINE
8
DEFAULT_255_2_778
10
22.1396482
20
36.5351751
11
22.1896482
21
36.5351751
0
LINE
8
DEFAULT_255_2_778
10
22.1396482
20
31.3951751
11
22.1396482
21
31.4551751
0
LINE
8
DEFAULT_255_2_778
10
22.1396482
20
31.4551751
11
22.1896482
21
31.4551751
0
LINE
8
DEFAULT_255_2_778
10
22.1396482
20
28.6664751
11
22.1396482
21
28.9151751
0
LINE
8
DEFAULT_255_2_778
10
22.1396482
20
28.9151751
11
22.1896482
21
28.9151751
0
LINE
8
DEFAULT_255_2_778
10
22.1396482
20
12.9999751
11
22.1396482
21
12.9999751
0
LINE
8
DEFAULT_255_2_778
10
22.1396482
20
14.1546751
11
22.1396482
21
14.1546751
0
LINE
8
DEFAULT_255_2_778
10
22.1396482
20
14.8451751
11
22.1396482
21
14.7451751
0
LINE
8
DEFAULT_255_2_778
10
22.1896482
20
5.5450751
11
22.0396482
21
5.5450751
0
LINE
8
DEFAULT_255_2_778
10
22.0396482
20
5.5450751
11
22.0396482
21
5.9051751
0
LINE
8
DEFAULT_255_2_778
10
22.1896482
20
65.0750751
11
22.1396482
21
65.0750751
0
LINE
8
DEFAULT_255_2_778
10
22.1396482
20
65.0750751
11
22.1396482
21
64.4749751
0
LINE
8
DEFAULT_255_2_778
10
22.1896482
20
64.4749751
11
22.1396482
21
64.4749751
0
LINE
8
DEFAULT_255_2_778
10
22.1396482
20
64.4749751
11
22.1396482
21
62.5350751
0
LINE
8
DEFAULT_255_2_778
10
22.1896482
20
59.0948751
11
22.1396482
21
59.0948751
0
LINE
8
DEFAULT_255_2_778
10
22.1396482
20
59.0948751
11
22.1396482
21
57.4550751
0
LINE
8
DEFAULT_255_2_778
10
22.1896482
20
62.5350751
11
22.1396482
21
62.5350751
0
LINE
8
DEFAULT_255_2_778
10
22.1396482
20
62.5350751
11
22.1396482
21
61.9349751
0
LINE
8
DEFAULT_255_2_778
10
22.1896482
20
61.9349751
11
22.1396482
21
61.9349751
0
LINE
8
DEFAULT_255_2_778
10
22.1396482
20
61.9349751
11
22.1396482
21
59.9950751
0
LINE
8
DEFAULT_255_2_778
10
22.1896482
20
59.9950751
11
22.1396482
21
59.9950751
0
LINE
8
DEFAULT_255_2_778
10
22.1396482
20
59.9950751
11
22.1396482
21
59.3949751
0
LINE
8
DEFAULT_255_2_778
10
22.1896482
20
57.4550751
11
22.1396482
21
57.4550751
0
LINE
8
DEFAULT_255_2_778
10
22.1396482
20
57.4550751
11
22.1396482
21
56.8549751
0
LINE
8
DEFAULT_255_2_778
10
22.1896482
20
56.8549751
11
22.1396482
21
56.8549751
0
LINE
8
DEFAULT_255_2_778
10
22.1396482
20
56.8549751
11
22.1396482
21
54.9150751
0
LINE
8
DEFAULT_255_2_778
10
22.1896482
20
54.9150751
11
22.1396482
21
54.9150751
0
LINE
8
DEFAULT_255_2_778
10
22.1396482
20
54.9150751
11
22.1396482
21
54.3149751
0
LINE
8
DEFAULT_255_2_778
10
22.1896482
20
54.3149751
11
22.1396482
21
54.3149751
0
LINE
8
DEFAULT_255_2_778
10
22.1396482
20
54.3149751
11
22.1396482
21
52.3750751
0
LINE
8
DEFAULT_255_2_778
10
22.1896482
20
52.3750751
11
22.1396482
21
52.3750751
0
LINE
8
DEFAULT_255_2_778
10
22.1396482
20
52.3750751
11
22.1396482
21
51.7749751
0
LINE
8
DEFAULT_255_2_778
10
22.1896482
20
51.7749751
11
22.1396482
21
51.7749751
0
LINE
8
DEFAULT_255_2_778
10
22.1396482
20
51.7749751
11
22.1396482
21
49.8350751
0
LINE
8
DEFAULT_255_2_778
10
22.1896482
20
49.8350751
11
22.1396482
21
49.8350751
0
LINE
8
DEFAULT_255_2_778
10
22.1396482
20
49.8350751
11
22.1396482
21
49.2349751
0
LINE
8
DEFAULT_255_2_778
10
22.1896482
20
49.2349751
11
22.1396482
21
49.2349751
0
LINE
8
DEFAULT_255_2_778
10
22.1396482
20
49.2349751
11
22.1396482
21
47.2950751
0
LINE
8
DEFAULT_255_2_778
10
22.1896482
20
43.0450751
11
22.1396482
21
43.0450751
0
LINE
8
DEFAULT_255_2_778
10
22.1396482
20
43.0450751
11
22.1396482
21
42.2150751
0
LINE
8
DEFAULT_255_2_778
10
22.1896482
20
44.0451751
11
22.1396482
21
44.0451751
0
LINE
8
DEFAULT_255_2_778
10
22.1396482
20
44.0451751
11
22.1396482
21
44.1551751
0
LINE
8
DEFAULT_255_2_778
10
22.1396482
20
44.1551751
11
22.1896482
21
44.1551751
0
LINE
8
DEFAULT_255_2_778
10
22.1896482
20
47.2952751
11
22.1396482
21
47.2952751
0
LINE
8
DEFAULT_255_2_778
10
22.1396482
20
47.2952751
11
22.1396482
21
46.6951751
0
LINE
8
DEFAULT_255_2_778
10
22.1896482
20
46.6951751
11
22.1396482
21
46.6951751
0
LINE
8
DEFAULT_255_2_778
10
22.1396482
20
46.6951751
11
22.1396482
21
44.7552751
0
LINE
8
DEFAULT_255_2_778
10
22.1896482
20
44.7552751
11
22.1396482
21
44.7552751
0
LINE
8
DEFAULT_255_2_778
10
22.1396482
20
44.7552751
11
22.1396482
21
44.1551751
0
LINE
8
DEFAULT_255_2_778
10
22.1896482
20
42.2152751
11
22.1396482
21
42.2152751
0
LINE
8
DEFAULT_255_2_778
10
22.1396482
20
42.2152751
11
22.1396482
21
41.6151751
0
LINE
8
DEFAULT_255_2_778
10
22.1896482
20
41.6151751
11
22.1396482
21
41.6151751
0
LINE
8
DEFAULT_255_2_778
10
22.1396482
20
41.6151751
11
22.1396482
21
39.6752751
0
LINE
8
DEFAULT_255_2_778
10
22.1896482
20
35.1665751
11
22.1396482
21
35.1665751
0
LINE
8
DEFAULT_255_2_778
10
22.1396482
20
35.1665751
11
22.1396482
21
34.5952751
0
LINE
8
DEFAULT_255_2_778
10
22.1896482
20
37.2453751
11
22.1396482
21
37.2453751
0
LINE
8
DEFAULT_255_2_778
10
22.1396482
20
37.2453751
11
22.1396482
21
37.1352751
0
LINE
8
DEFAULT_255_2_778
10
22.1896482
20
31.3951751
11
22.1396482
21
31.3951751
0
LINE
8
DEFAULT_255_2_778
10
22.1396482
20
31.3951751
11
22.1396482
21
29.5150751
0
LINE
8
DEFAULT_255_2_778
10
22.1896482
20
37.3149751
11
22.1396482
21
37.3149751
0
LINE
8
DEFAULT_255_2_778
10
22.1396482
20
37.3149751
11
22.1396482
21
37.6149751
0
LINE
8
DEFAULT_255_2_778
10
22.1896482
20
37.6149751
11
22.1396482
21
37.6149751
0
LINE
8
DEFAULT_255_2_778
10
22.1396482
20
37.6149751
11
22.1396482
21
39.0749751
0
LINE
8
DEFAULT_255_2_778
10
22.1396482
20
39.0749751
11
22.1896482
21
39.0749751
0
LINE
8
DEFAULT_255_2_778
10
22.1896482
20
39.6750751
11
22.1396482
21
39.6750751
0
LINE
8
DEFAULT_255_2_778
10
22.1396482
20
39.6750751
11
22.1396482
21
39.0749751
0
LINE
8
DEFAULT_255_2_778
10
22.1896482
20
37.1350751
11
22.1396482
21
37.1350751
0
LINE
8
DEFAULT_255_2_778
10
22.1396482
20
37.1350751
11
22.1396482
21
36.5349751
0
LINE
8
DEFAULT_255_2_778
10
22.1896482
20
34.5950751
11
22.1396482
21
34.5950751
0
LINE
8
DEFAULT_255_2_778
10
22.1396482
20
34.5950751
11
22.1396482
21
33.9949751
0
LINE
8
DEFAULT_255_2_778
10
22.1896482
20
33.9949751
11
22.1396482
21
33.9949751
0
LINE
8
DEFAULT_255_2_778
10
22.1396482
20
33.9949751
11
22.1396482
21
32.0550751
0
LINE
8
DEFAULT_255_2_778
10
22.1896482
20
28.6662751
11
22.1396482
21
28.6662751
0
LINE
8
DEFAULT_255_2_778
10
22.1396482
20
28.6662751
11
22.1396482
21
26.9750751
0
LINE
8
DEFAULT_255_2_778
10
22.1896482
20
32.0550751
11
22.1396482
21
32.0550751
0
LINE
8
DEFAULT_255_2_778
10
22.1396482
20
32.0550751
11
22.1396482
21
31.4549751
0
LINE
8
DEFAULT_255_2_778
10
22.1896482
20
29.5150751
11
22.1396482
21
29.5150751
0
LINE
8
DEFAULT_255_2_778
10
22.1396482
20
29.5150751
11
22.1396482
21
28.9149751
0
LINE
8
DEFAULT_255_2_778
10
22.1896482
20
26.9750751
11
22.1396482
21
26.9750751
0
LINE
8
DEFAULT_255_2_778
10
22.1396482
20
26.9750751
11
22.1396482
21
26.3749751
0
LINE
8
DEFAULT_255_2_778
10
22.1896482
20
26.3749751
11
22.1396482
21
26.3749751
0
LINE
8
DEFAULT_255_2_778
10
22.1396482
20
26.3749751
11
22.1396482
21
24.4350751
0
LINE
8
DEFAULT_255_2_778
10
22.1896482
20
24.4350751
11
22.1396482
21
24.4350751
0
LINE
8
DEFAULT_255_2_778
10
22.1396482
20
24.4350751
11
22.1396482
21
23.8349751
0
LINE
8
DEFAULT_255_2_778
10
22.1896482
20
23.8349751
11
22.1396482
21
23.8349751
0
LINE
8
DEFAULT_255_2_778
10
22.1396482
20
23.8349751
11
22.1396482
21
21.8950751
0
LINE
8
DEFAULT_255_2_778
10
22.1896482
20
21.8950751
11
22.1396482
21
21.8950751
0
LINE
8
DEFAULT_255_2_778
10
22.1396482
20
21.8950751
11
22.1396482
21
21.2949751
0
LINE
8
DEFAULT_255_2_778
10
22.1896482
20
21.2949751
11
22.1396482
21
21.2949751
0
LINE
8
DEFAULT_255_2_778
10
22.1396482
20
21.2949751
11
22.1396482
21
19.3550751
0
LINE
8
DEFAULT_255_2_778
10
22.1896482
20
19.3550751
11
22.1396482
21
19.3550751
0
LINE
8
DEFAULT_255_2_778
10
22.1396482
20
19.3550751
11
22.1396482
21
18.7549751
0
LINE
8
DEFAULT_255_2_778
10
22.1896482
20
18.7549751
11
22.1396482
21
18.7549751
0
LINE
8
DEFAULT_255_2_778
10
22.1396482
20
18.7549751
11
22.1396482
21
16.8449751
0
LINE
8
DEFAULT_255_2_778
10
22.1896482
20
7.2548751
11
22.1396482
21
7.2548751
0
LINE
8
DEFAULT_255_2_778
10
22.1396482
20
7.2548751
11
22.1396482
21
8.2549751
0
LINE
8
DEFAULT_255_2_778
10
22.1396482
20
8.2549751
11
22.1896482
21
8.2549751
0
LINE
8
DEFAULT_255_2_778
10
22.1896482
20
16.8449751
11
22.1396482
21
16.8449751
0
LINE
8
DEFAULT_255_2_778
10
22.1396482
20
16.8449751
11
22.1396482
21
16.8150751
0
LINE
8
DEFAULT_255_2_778
10
22.1896482
20
14.8449751
11
22.1396482
21
14.8449751
0
LINE
8
DEFAULT_255_2_778
10
22.1396482
20
14.8449751
11
22.1396482
21
16.2149751
0
LINE
8
DEFAULT_255_2_778
10
22.1396482
20
16.2149751
11
22.1896482
21
16.2149751
0
LINE
8
DEFAULT_255_2_778
10
22.1896482
20
12.9997751
11
22.1396482
21
12.9997751
0
LINE
8
DEFAULT_255_2_778
10
22.1396482
20
12.9997751
11
22.1396482
21
14.1543751
0
LINE
8
DEFAULT_255_2_778
10
22.1896482
20
14.1543751
11
22.1396482
21
14.1543751
0
LINE
8
DEFAULT_255_2_778
10
22.1396482
20
14.1543751
11
22.1396482
21
14.7449751
0
LINE
8
DEFAULT_255_2_778
10
22.1396482
20
14.7449751
11
22.1896482
21
14.7449751
0
LINE
8
DEFAULT_255_2_778
10
22.1896482
20
10.6901751
11
22.1396482
21
10.6901751
0
LINE
8
DEFAULT_255_2_778
10
22.1396482
20
10.6901751
11
22.1396482
21
11.4048751
0
LINE
8
DEFAULT_255_2_778
10
22.1896482
20
8.8447751
11
22.1396482
21
8.8447751
0
LINE
8
DEFAULT_255_2_778
10
22.1396482
20
8.8447751
11
22.1396482
21
8.2546751
0
LINE
8
DEFAULT_255_2_778
10
22.1896482
20
16.8147751
11
22.1396482
21
16.8147751
0
LINE
8
DEFAULT_255_2_778
10
22.1396482
20
16.8147751
11
22.1396482
21
16.2146751
0
LINE
8
DEFAULT_255_2_778
10
22.1896482
20
10.0546751
11
22.1396482
21
10.0546751
0
LINE
8
DEFAULT_255_2_778
10
22.1396482
20
10.0546751
11
22.1396482
21
9.0545751
0
LINE
8
DEFAULT_255_2_778
10
22.1896482
20
74.0345751
11
22.1396482
21
74.0345751
0
LINE
8
DEFAULT_255_2_778
10
22.1396482
20
74.0345751
11
22.1396482
21
73.0344751
0
LINE
8
DEFAULT_255_2_778
10
22.1896482
20
75.9438751
11
22.1896482
21
74.0345751
0
LINE
8
DEFAULT_255_2_778
10
22.1896482
20
74.0345751
11
22.1896482
21
73.0344751
0
LINE
8
DEFAULT_255_2_778
10
22.1896482
20
73.0344751
11
22.1896482
21
72.2346751
0
LINE
8
DEFAULT_255_2_778
10
22.1896482
20
72.2346751
11
22.1896482
21
71.2345751
0
LINE
8
DEFAULT_255_2_778
10
22.1896482
20
71.2345751
11
22.1896482
21
65.0744751
0
LINE
8
DEFAULT_255_2_778
10
22.1896482
20
65.0744751
11
22.1896482
21
64.4744751
0
LINE
8
DEFAULT_255_2_778
10
22.1896482
20
64.4744751
11
22.1896482
21
62.5344751
0
LINE
8
DEFAULT_255_2_778
10
22.1896482
20
62.5344751
11
22.1896482
21
61.9344751
0
LINE
8
DEFAULT_255_2_778
10
22.1896482
20
61.9344751
11
22.1896482
21
59.9944751
0
LINE
8
DEFAULT_255_2_778
10
22.1896482
20
59.9944751
11
22.1896482
21
59.3944751
0
LINE
8
DEFAULT_255_2_778
10
22.1896482
20
59.3944751
11
22.1896482
21
59.0943751
0
LINE
8
DEFAULT_255_2_778
10
22.1896482
20
59.0943751
11
22.1896482
21
57.4544751
0
LINE
8
DEFAULT_255_2_778
10
22.1896482
20
57.4544751
11
22.1896482
21
56.8544751
0
LINE
8
DEFAULT_255_2_778
10
22.1896482
20
56.8544751
11
22.1896482
21
54.9144751
0
LINE
8
DEFAULT_255_2_778
10
22.1896482
20
54.9144751
11
22.1896482
21
54.3144751
0
LINE
8
DEFAULT_255_2_778
10
22.1896482
20
54.3144751
11
22.1896482
21
52.3744751
0
LINE
8
DEFAULT_255_2_778
10
22.1896482
20
52.3744751
11
22.1896482
21
51.7744751
0
LINE
8
DEFAULT_255_2_778
10
22.1896482
20
51.7744751
11
22.1896482
21
49.8344751
0
LINE
8
DEFAULT_255_2_778
10
22.1896482
20
49.8344751
11
22.1896482
21
49.2344751
0
LINE
8
DEFAULT_255_2_778
10
22.1896482
20
49.2344751
11
22.1896482
21
47.2944751
0
LINE
8
DEFAULT_255_2_778
10
22.1896482
20
47.2944751
11
22.1896482
21
46.6944751
0
LINE
8
DEFAULT_255_2_778
10
22.1896482
20
46.6944751
11
22.1896482
21
44.7544751
0
LINE
8
DEFAULT_255_2_778
10
22.1896482
20
44.7544751
11
22.1896482
21
44.1544751
0
LINE
8
DEFAULT_255_2_778
10
22.1896482
20
44.1544751
11
22.1896482
21
44.0443751
0
LINE
8
DEFAULT_255_2_778
10
22.1896482
20
44.0443751
11
22.1896482
21
43.0442751
0
LINE
8
DEFAULT_255_2_778
10
22.1896482
20
43.0442751
11
22.1896482
21
42.2142751
0
LINE
8
DEFAULT_255_2_778
10
22.1896482
20
42.2142751
11
22.1896482
21
41.6141751
0
LINE
8
DEFAULT_255_2_778
10
22.1896482
20
41.6141751
11
22.1896482
21
39.6742751
0
LINE
8
DEFAULT_255_2_778
10
22.1896482
20
39.6742751
11
22.1896482
21
39.0741751
0
LINE
8
DEFAULT_255_2_778
10
22.1896482
20
39.0741751
11
22.1896482
21
37.6141751
0
LINE
8
DEFAULT_255_2_778
10
22.1896482
20
37.6141751
11
22.1896482
21
37.3141751
0
LINE
8
DEFAULT_255_2_778
10
22.1896482
20
37.3141751
11
22.1896482
21
37.2442751
0
LINE
8
DEFAULT_255_2_778
10
22.1896482
20
37.2442751
11
22.1896482
21
37.1342751
0
LINE
8
DEFAULT_255_2_778
10
22.1896482
20
37.1342751
11
22.1896482
21
36.5341751
0
LINE
8
DEFAULT_255_2_778
10
22.1896482
20
36.5341751
11
22.1896482
21
35.1654751
0
LINE
8
DEFAULT_255_2_778
10
22.1896482
20
35.1654751
11
22.1896482
21
34.5942751
0
LINE
8
DEFAULT_255_2_778
10
22.1896482
20
34.5942751
11
22.1896482
21
33.9941751
0
LINE
8
DEFAULT_255_2_778
10
22.1896482
20
33.9941751
11
22.1896482
21
32.0542751
0
LINE
8
DEFAULT_255_2_778
10
22.1896482
20
32.0542751
11
22.1896482
21
31.4541751
0
LINE
8
DEFAULT_255_2_778
10
22.1896482
20
31.4541751
11
22.1896482
21
31.3940751
0
LINE
8
DEFAULT_255_2_778
10
22.1896482
20
31.3940751
11
22.1896482
21
29.5139751
0
LINE
8
DEFAULT_255_2_778
10
22.1896482
20
29.5139751
11
22.1896482
21
28.9138751
0
LINE
8
DEFAULT_255_2_778
10
22.1896482
20
28.9138751
11
22.1896482
21
28.6651751
0
LINE
8
DEFAULT_255_2_778
10
22.1896482
20
28.6651751
11
22.1896482
21
26.9739751
0
LINE
8
DEFAULT_255_2_778
10
22.1896482
20
26.9739751
11
22.1896482
21
26.3738751
0
LINE
8
DEFAULT_255_2_778
10
22.1896482
20
26.3738751
11
22.1896482
21
24.4339751
0
LINE
8
DEFAULT_255_2_778
10
22.1896482
20
24.4339751
11
22.1896482
21
23.8338751
0
LINE
8
DEFAULT_255_2_778
10
22.1896482
20
23.8338751
11
22.1896482
21
21.8939751
0
LINE
8
DEFAULT_255_2_778
10
22.1896482
20
21.8939751
11
22.1896482
21
21.2938751
0
LINE
8
DEFAULT_255_2_778
10
22.1896482
20
21.2938751
11
22.1896482
21
19.3539751
0
LINE
8
DEFAULT_255_2_778
10
22.1896482
20
19.3539751
11
22.1896482
21
18.7538751
0
LINE
8
DEFAULT_255_2_778
10
22.1896482
20
18.7538751
11
22.1896482
21
16.8438751
0
LINE
8
DEFAULT_255_2_778
10
22.1896482
20
16.8438751
11
22.1896482
21
16.8139751
0
LINE
8
DEFAULT_255_2_778
10
22.1896482
20
16.8139751
11
22.1896482
21
16.2138751
0
LINE
8
DEFAULT_255_2_778
10
22.1896482
20
16.2138751
11
22.1896482
21
14.8438751
0
LINE
8
DEFAULT_255_2_778
10
22.1896482
20
14.8438751
11
22.1896482
21
14.7438751
0
LINE
8
DEFAULT_255_2_778
10
22.1896482
20
14.7438751
11
22.1896482
21
14.1533751
0
LINE
8
DEFAULT_255_2_778
10
22.1896482
20
14.1533751
11
22.1896482
21
12.9986751
0
LINE
8
DEFAULT_255_2_778
10
22.1896482
20
12.9986751
11
22.1896482
21
10.6891751
0
LINE
8
DEFAULT_255_2_778
10
22.1896482
20
10.6891751
11
22.1896482
21
10.0538751
0
LINE
8
DEFAULT_255_2_778
10
22.1896482
20
10.0538751
11
22.1896482
21
9.0537751
0
LINE
8
DEFAULT_255_2_778
10
22.1896482
20
9.0537751
11
22.1896482
21
8.8436751
0
LINE
8
DEFAULT_255_2_778
10
22.1896482
20
8.8436751
11
22.1896482
21
8.2536751
0
LINE
8
DEFAULT_255_2_778
10
22.1896482
20
8.2536751
11
22.1896482
21
7.2534751
0
LINE
8
DEFAULT_255_2_778
10
22.1896482
20
7.2534751
11
22.1896482
21
5.5434751
0
LINE
8
DEFAULT_255_2_778
10
22.1896482
20
5.5434751
11
22.1896482
21
5.3439751
0
LINE
8
DEFAULT_255_2_778
10
22.1896482
20
73.0334751
11
22.1396482
21
73.0334751
0
LINE
8
DEFAULT_255_2_778
10
22.1396482
20
73.0334751
11
22.1396482
21
72.2335751
0
LINE
8
DEFAULT_255_2_778
10
22.1896482
20
71.2334751
11
22.1396482
21
71.2334751
0
LINE
8
DEFAULT_255_2_778
10
22.1396482
20
71.2334751
11
22.1396482
21
69.8835751
0
LINE
8
DEFAULT_255_2_778
10
14.1021482
20
53.2436751
11
13.1895482
21
53.2436751
0
LINE
8
DEFAULT_255_2_778
10
14.1021482
20
25.4436751
11
13.1895482
21
25.4436751
0
LINE
8
DEFAULT_255_2_778
10
10.9895482
20
59.0739751
11
10.9895482
21
59.0734751
0
LINE
8
DEFAULT_255_2_778
10
10.9895482
20
59.0734751
11
10.9895482
21
58.9435751
0
LINE
8
DEFAULT_255_2_778
10
10.9895482
20
58.9435751
11
11.6896482
21
58.9435751
0
LINE
8
DEFAULT_255_2_778
10
10.1897482
20
66.9434751
11
10.7898482
21
66.9434751
0
LINE
8
DEFAULT_255_2_778
10
10.9898482
20
64.1185751
11
10.7898482
21
64.1185751
0
LINE
8
DEFAULT_255_2_778
10
10.7898482
20
60.6186751
11
10.9898482
21
60.6186751
0
LINE
8
DEFAULT_255_2_778
10
10.7898482
20
61.2687751
11
10.9898482
21
61.2687751
0
LINE
8
DEFAULT_255_2_778
10
10.7898482
20
61.1186751
11
10.7898482
21
60.7686751
0
LINE
8
DEFAULT_255_2_778
10
10.7898482
20
60.7686751
11
10.9898482
21
60.7686751
0
LINE
8
DEFAULT_255_2_778
10
10.9898482
20
66.6185751
11
10.7898482
21
66.6185751
0
LINE
8
DEFAULT_255_2_778
10
10.9898482
20
67.7684751
11
10.7898482
21
67.7684751
0
LINE
8
DEFAULT_255_2_778
10
10.9898482
20
67.6184751
11
10.7898482
21
67.6184751
0
LINE
8
DEFAULT_255_2_778
10
10.7898482
20
67.6184751
11
10.7898482
21
67.2684751
0
LINE
8
DEFAULT_255_2_778
10
10.9898482
20
67.2684751
11
10.7898482
21
67.2684751
0
LINE
8
DEFAULT_255_2_778
10
10.7898482
20
67.2684751
11
10.7898482
21
67.1183751
0
LINE
8
DEFAULT_255_2_778
10
10.9898482
20
67.1183751
11
10.7898482
21
67.1183751
0
LINE
8
DEFAULT_255_2_778
10
10.7898482
20
67.1183751
11
10.7898482
21
66.9434751
0
LINE
8
DEFAULT_255_2_778
10
10.7898482
20
66.9434751
11
10.7898482
21
66.7686751
0
LINE
8
DEFAULT_255_2_778
10
10.7898482
20
66.7686751
11
10.9898482
21
66.7686751
0
LINE
8
DEFAULT_255_2_778
10
10.7898482
20
68.1185751
11
10.7898482
21
67.7684751
0
LINE
8
DEFAULT_255_2_778
10
10.7898482
20
67.7684751
11
10.7898482
21
67.6184751
0
LINE
8
DEFAULT_255_2_778
10
10.9898482
20
68.1185751
11
10.7898482
21
68.1185751
0
LINE
8
DEFAULT_255_2_778
10
10.7898482
20
68.1185751
11
10.7898482
21
68.1433751
0
LINE
8
DEFAULT_255_2_778
10
10.1897482
20
66.4434751
11
10.7898482
21
66.4434751
0
LINE
8
DEFAULT_255_2_778
10
10.9898482
20
66.1185751
11
10.7898482
21
66.1185751
0
LINE
8
DEFAULT_255_2_778
10
10.9898482
20
66.2685751
11
10.7898482
21
66.2685751
0
LINE
8
DEFAULT_255_2_778
10
10.9898482
20
65.6184751
11
10.7898482
21
65.6184751
0
LINE
8
DEFAULT_255_2_778
10
10.9898482
20
65.7684751
11
10.7898482
21
65.7684751
0
LINE
8
DEFAULT_255_2_778
10
10.7898482
20
61.4436751
11
10.7898482
21
61.2687751
0
LINE
8
DEFAULT_255_2_778
10
10.7898482
20
61.2687751
11
10.7898482
21
61.1186751
0
LINE
8
DEFAULT_255_2_778
10
10.7898482
20
61.1186751
11
10.9898482
21
61.1186751
0
LINE
8
DEFAULT_255_2_778
10
10.1773482
20
61.4436751
11
10.7898482
21
61.4436751
0
LINE
8
DEFAULT_255_2_778
10
10.7898482
20
61.4436751
11
10.7898482
21
61.6137751
0
LINE
8
DEFAULT_255_2_778
10
10.1897482
20
63.9436751
11
10.7898482
21
63.9436751
0
LINE
8
DEFAULT_255_2_778
10
10.9898482
20
63.6187751
11
10.7898482
21
63.6187751
0
LINE
8
DEFAULT_255_2_778
10
10.9898482
20
63.7687751
11
10.7898482
21
63.7687751
0
LINE
8
DEFAULT_255_2_778
10
10.9898482
20
63.1186751
11
10.7898482
21
63.1186751
0
LINE
8
DEFAULT_255_2_778
10
10.9898482
20
63.2686751
11
10.7898482
21
63.2686751
0
LINE
8
DEFAULT_255_2_778
10
12.4397482
20
59.0737751
11
12.4397482
21
59.0742751
0
LINE
8
DEFAULT_255_2_778
10
12.4397482
20
59.0742751
11
12.4397482
21
58.9438751
0
LINE
8
DEFAULT_255_2_778
10
12.4397482
20
58.9438751
11
12.3397482
21
58.9438751
0
LINE
8
DEFAULT_255_2_778
10
14.1023482
20
19.8436751
11
10.1773482
21
19.8436751
0
LINE
8
DEFAULT_255_2_778
10
14.1023482
20
14.1530751
11
10.1773482
21
14.1530751
0
LINE
8
DEFAULT_255_2_778
10
14.1023482
20
17.8447751
11
10.1773482
21
17.8447751
0
LINE
8
DEFAULT_255_2_778
10
10.1773482
20
15.8447751
11
10.6898482
21
15.8447751
0
LINE
8
DEFAULT_255_2_778
10
14.1023482
20
15.8447751
11
10.6898482
21
15.8447751
0
LINE
8
DEFAULT_255_2_778
10
10.6898482
20
15.8447751
11
10.6898482
21
15.0446751
0
LINE
8
DEFAULT_255_2_778
10
14.1023482
20
13.1447751
11
14.1023482
21
11.4048751
0
LINE
8
DEFAULT_255_2_778
10
14.1023482
20
11.4048751
11
22.1399482
21
11.4048751
0
LINE
8
DEFAULT_255_2_778
10
22.1399482
20
11.4048751
11
22.1399482
21
12.9994751
0
LINE
8
DEFAULT_255_2_778
10
10.1773482
20
13.1447751
11
10.1773482
21
11.4048751
0
LINE
8
DEFAULT_255_2_778
10
10.1773482
20
11.4048751
11
2.1397482
21
11.4048751
0
LINE
8
DEFAULT_255_2_778
10
2.1397482
20
11.4048751
11
2.1397482
21
69.8848751
0
LINE
8
DEFAULT_255_2_778
10
2.1397482
20
69.8848751
11
10.1773482
21
69.8848751
0
LINE
8
DEFAULT_255_2_778
10
10.1773482
20
69.8848751
11
10.1773482
21
68.1447751
0
LINE
8
DEFAULT_255_2_778
10
14.1023482
20
68.1447751
11
14.1023482
21
69.8848751
0
LINE
8
DEFAULT_255_2_778
10
14.1023482
20
69.8848751
11
22.1399482
21
69.8848751
0
LINE
8
DEFAULT_255_2_778
10
22.1399482
20
69.8848751
11
22.1399482
21
65.0747751
0
LINE
8
DEFAULT_255_2_778
10
10.1773482
20
56.5347751
11
10.1900482
21
56.5347751
0
LINE
8
DEFAULT_255_2_778
10
14.1026482
20
56.5347751
11
13.1901482
21
56.5347751
0
LINE
8
DEFAULT_255_2_778
10
14.1026482
20
64.1547751
11
10.1773482
21
64.1547751
0
LINE
8
DEFAULT_255_2_778
10
14.1023482
20
65.3948751
11
14.1023482
21
68.1447751
0
LINE
8
DEFAULT_255_2_778
10
14.1023482
20
68.1447751
11
10.1773482
21
68.1447751
0
LINE
8
DEFAULT_255_2_778
10
10.1773482
20
68.1447751
11
10.1773482
21
65.3946751
0
LINE
8
DEFAULT_255_2_778
10
10.1773482
20
65.3946751
11
14.1023482
21
65.3946751
0
LINE
8
DEFAULT_255_2_778
10
14.1023482
20
65.3946751
11
14.1023482
21
64.1545751
0
LINE
8
DEFAULT_255_2_778
10
14.1023482
20
64.1545751
11
14.1023482
21
62.8546751
0
LINE
8
DEFAULT_255_2_778
10
12.4397482
20
68.1449751
11
12.4397482
21
65.3946751
0
LINE
8
DEFAULT_255_2_778
10
10.9898482
20
68.1449751
11
10.9898482
21
65.3946751
0
LINE
8
DEFAULT_255_2_778
10
10.7898482
20
65.3946751
11
10.7898482
21
65.6195751
0
LINE
8
DEFAULT_255_2_778
10
10.7898482
20
65.6195751
11
10.7898482
21
65.7695751
0
LINE
8
DEFAULT_255_2_778
10
10.7898482
20
65.7695751
11
10.7898482
21
66.1195751
0
LINE
8
DEFAULT_255_2_778
10
10.7898482
20
66.1195751
11
10.7898482
21
66.2696751
0
LINE
8
DEFAULT_255_2_778
10
10.7898482
20
66.2696751
11
10.7898482
21
66.4447751
0
LINE
8
DEFAULT_255_2_778
10
10.7898482
20
66.4447751
11
10.7898482
21
66.6196751
0
LINE
8
DEFAULT_255_2_778
10
10.7898482
20
66.6196751
11
10.7898482
21
66.7696751
0
LINE
8
DEFAULT_255_2_778
10
13.3398482
20
68.1449751
11
13.3398482
21
65.3946751
0
LINE
8
DEFAULT_255_2_778
10
14.1023482
20
61.6145751
11
10.1773482
21
61.6145751
0
LINE
8
DEFAULT_255_2_778
10
10.1773482
20
61.6145751
11
10.1773482
21
62.8546751
0
LINE
8
DEFAULT_255_2_778
10
14.1023482
20
60.3146751
11
14.1023482
21
61.6145751
0
LINE
8
DEFAULT_255_2_778
10
14.1023482
20
61.6145751
11
14.1023482
21
62.8546751
0
LINE
8
DEFAULT_255_2_778
10
14.1023482
20
62.8546751
11
10.1773482
21
62.8546751
0
LINE
8
DEFAULT_255_2_778
10
10.1773482
20
62.8546751
11
10.1773482
21
64.1545751
0
LINE
8
DEFAULT_255_2_778
10
10.1773482
20
64.1545751
11
10.1773482
21
65.3946751
0
LINE
8
DEFAULT_255_2_778
10
12.4397482
20
64.1550751
11
12.4397482
21
62.8546751
0
LINE
8
DEFAULT_255_2_778
10
10.9898482
20
64.1550751
11
10.9898482
21
62.8546751
0
LINE
8
DEFAULT_255_2_778
10
10.7898482
20
62.8546751
11
10.7898482
21
63.1197751
0
LINE
8
DEFAULT_255_2_778
10
10.7898482
20
63.1197751
11
10.7898482
21
63.2697751
0
LINE
8
DEFAULT_255_2_778
10
10.7898482
20
63.2697751
11
10.7898482
21
63.6198751
0
LINE
8
DEFAULT_255_2_778
10
10.7898482
20
63.6198751
11
10.7898482
21
63.7698751
0
LINE
8
DEFAULT_255_2_778
10
10.7898482
20
63.7698751
11
10.7898482
21
63.9447751
0
LINE
8
DEFAULT_255_2_778
10
10.7898482
20
63.9447751
11
10.7898482
21
64.1195751
0
LINE
8
DEFAULT_255_2_778
10
10.7898482
20
64.1195751
11
10.7898482
21
64.1545751
0
LINE
8
DEFAULT_255_2_778
10
13.3398482
20
64.1547751
11
13.3398482
21
62.8546751
0
LINE
8
DEFAULT_255_2_778
10
14.1023482
20
58.4945751
11
14.1023482
21
59.0745751
0
LINE
8
DEFAULT_255_2_778
10
10.1773482
20
61.6145751
11
10.1773482
21
61.4443751
0
LINE
8
DEFAULT_255_2_778
10
10.1773482
20
61.4443751
11
10.1773482
21
60.3143751
0
LINE
8
DEFAULT_255_2_778
10
10.1773482
20
60.3143751
11
14.1023482
21
60.3143751
0
LINE
8
DEFAULT_255_2_778
10
14.1023482
20
60.3143751
11
14.1023482
21
59.0742751
0
LINE
8
DEFAULT_255_2_778
10
14.1023482
20
59.0742751
11
10.1773482
21
59.0742751
0
LINE
8
DEFAULT_255_2_778
10
10.7898482
20
60.3140751
11
10.7898482
21
60.6191751
0
LINE
8
DEFAULT_255_2_778
10
10.7898482
20
60.6191751
11
10.7898482
21
60.7691751
0
LINE
8
DEFAULT_255_2_778
10
12.4397482
20
61.6145751
11
12.4397482
21
60.3140751
0
LINE
8
DEFAULT_255_2_778
10
10.9898482
20
61.6192751
11
10.9898482
21
60.3140751
0
LINE
8
DEFAULT_255_2_778
10
13.3398482
20
61.6145751
11
13.3398482
21
60.3140751
0
LINE
8
DEFAULT_255_2_778
10
14.1023482
20
57.7740751
11
14.1023482
21
58.4940751
0
LINE
8
DEFAULT_255_2_778
10
14.1023482
20
58.4940751
11
13.3398482
21
58.4940751
0
LINE
8
DEFAULT_255_2_778
10
13.3398482
20
58.4940751
11
13.3398482
21
59.0739751
0
LINE
8
DEFAULT_255_2_778
10
14.1023482
20
55.2338751
11
14.1023482
21
56.5337751
0
LINE
8
DEFAULT_255_2_778
10
14.1023482
20
56.5337751
11
14.1023482
21
57.7738751
0
LINE
8
DEFAULT_255_2_778
10
14.1023482
20
57.7738751
11
10.1773482
21
57.7738751
0
LINE
8
DEFAULT_255_2_778
10
10.1773482
20
57.7738751
11
10.1773482
21
59.0737751
0
LINE
8
DEFAULT_255_2_778
10
10.1773482
20
59.0737751
11
10.1773482
21
60.3138751
0
LINE
8
DEFAULT_255_2_778
10
11.6899482
20
57.7738751
11
11.6899482
21
58.9438751
0
LINE
8
DEFAULT_255_2_778
10
11.6899482
20
58.9438751
11
12.3400482
21
58.9438751
0
LINE
8
DEFAULT_255_2_778
10
12.3400482
20
58.9438751
11
12.3400482
21
57.7738751
0
LINE
8
DEFAULT_255_2_778
10
10.7900482
20
59.0739751
11
10.7900482
21
57.7738751
0
LINE
8
DEFAULT_255_2_778
10
14.1026482
20
46.3737751
11
10.1773482
21
46.3737751
0
LINE
8
DEFAULT_255_2_778
10
10.1773482
20
57.7738751
11
10.1773482
21
56.5337751
0
LINE
8
DEFAULT_255_2_778
10
10.1773482
20
56.5337751
11
10.1773482
21
55.2338751
0
LINE
8
DEFAULT_255_2_778
10
10.1773482
20
55.2338751
11
10.1900482
21
55.2338751
0
LINE
8
DEFAULT_255_2_778
10
10.1900482
20
55.2338751
11
13.1898482
21
55.2338751
0
LINE
8
DEFAULT_255_2_778
10
13.1898482
20
55.2338751
11
14.1023482
21
55.2338751
0
LINE
8
DEFAULT_255_2_778
10
14.1023482
20
55.2338751
11
14.1023482
21
53.9937751
0
LINE
8
DEFAULT_255_2_778
10
14.1023482
20
53.9937751
11
10.1773482
21
53.9937751
0
LINE
8
DEFAULT_255_2_778
10
10.1900482
20
55.2338751
11
10.1900482
21
56.5342751
0
LINE
8
DEFAULT_255_2_778
10
10.1900482
20
56.5342751
11
13.1898482
21
56.5339751
0
LINE
8
DEFAULT_255_2_778
10
13.1898482
20
56.5339751
11
13.1898482
21
55.2340751
0
LINE
8
DEFAULT_255_2_778
10
14.1023482
20
51.4539751
11
10.1773482
21
51.4539751
0
LINE
8
DEFAULT_255_2_778
10
14.1023482
20
52.6940751
11
14.1023482
21
53.2441751
0
LINE
8
DEFAULT_255_2_778
10
14.1023482
20
53.2441751
11
14.1023482
21
53.9942751
0
LINE
8
DEFAULT_255_2_778
10
14.1023482
20
50.1543751
11
14.1023482
21
51.4542751
0
LINE
8
DEFAULT_255_2_778
10
14.1023482
20
51.4542751
11
14.1023482
21
52.6943751
0
LINE
8
DEFAULT_255_2_778
10
14.1023482
20
52.6943751
11
10.1773482
21
52.6943751
0
LINE
8
DEFAULT_255_2_778
10
10.1773482
20
52.6943751
11
10.1773482
21
53.9942751
0
LINE
8
DEFAULT_255_2_778
10
10.1773482
20
53.9942751
11
10.1773482
21
55.2343751
0
LINE
8
DEFAULT_255_2_778
10
13.1898482
20
52.6943751
11
13.1898482
21
53.2444751
0
LINE
8
DEFAULT_255_2_778
10
13.1898482
20
53.2444751
11
13.1898482
21
53.9945751
0
LINE
8
DEFAULT_255_2_778
10
14.1023482
20
48.9145751
11
10.1773482
21
48.9145751
0
LINE
8
DEFAULT_255_2_778
10
14.1023482
20
47.6146751
11
14.1023482
21
48.9145751
0
LINE
8
DEFAULT_255_2_778
10
14.1023482
20
48.9145751
11
14.1023482
21
50.1546751
0
LINE
8
DEFAULT_255_2_778
10
14.1023482
20
50.1546751
11
10.1773482
21
50.1546751
0
LINE
8
DEFAULT_255_2_778
10
10.1773482
20
50.1546751
11
10.1773482
21
51.4545751
0
LINE
8
DEFAULT_255_2_778
10
10.1773482
20
51.4545751
11
10.1773482
21
52.6946751
0
LINE
8
DEFAULT_255_2_778
10
13.1898482
20
51.4545751
11
13.1898482
21
50.1543751
0
LINE
8
DEFAULT_255_2_778
10
14.1023482
20
45.0746751
11
14.1023482
21
46.3745751
0
LINE
8
DEFAULT_255_2_778
10
14.1023482
20
46.3745751
11
14.1023482
21
47.6146751
0
LINE
8
DEFAULT_255_2_778
10
14.1023482
20
47.6146751
11
10.1773482
21
47.6146751
0
LINE
8
DEFAULT_255_2_778
10
10.1773482
20
47.6146751
11
10.1773482
21
48.9145751
0
LINE
8
DEFAULT_255_2_778
10
10.1773482
20
48.9145751
11
10.1773482
21
50.1546751
0
LINE
8
DEFAULT_255_2_778
10
13.1898482
20
48.9145751
11
13.1898482
21
47.6140751
0
LINE
8
DEFAULT_255_2_778
10
14.1023482
20
36.2145751
11
10.1773482
21
36.2145751
0
LINE
8
DEFAULT_255_2_778
10
14.1023482
20
43.8345751
11
10.1773482
21
43.8345751
0
LINE
8
DEFAULT_255_2_778
10
14.1023482
20
42.5346751
11
14.1023482
21
43.8345751
0
LINE
8
DEFAULT_255_2_778
10
14.1023482
20
43.8345751
11
14.1023482
21
45.0746751
0
LINE
8
DEFAULT_255_2_778
10
14.1023482
20
45.0746751
11
10.1773482
21
45.0746751
0
LINE
8
DEFAULT_255_2_778
10
10.1773482
20
45.0746751
11
10.1773482
21
46.3745751
0
LINE
8
DEFAULT_255_2_778
10
10.1773482
20
46.3745751
11
10.1773482
21
47.6146751
0
LINE
8
DEFAULT_255_2_778
10
13.1898482
20
46.3745751
11
13.1898482
21
45.0746751
0
LINE
8
DEFAULT_255_2_778
10
14.1023482
20
41.2947751
11
10.1773482
21
41.2947751
0
LINE
8
DEFAULT_255_2_778
10
14.1023482
20
39.9948751
11
14.1023482
21
41.2947751
0
LINE
8
DEFAULT_255_2_778
10
14.1023482
20
41.2947751
11
14.1023482
21
42.5348751
0
LINE
8
DEFAULT_255_2_778
10
14.1023482
20
42.5348751
11
10.1773482
21
42.5348751
0
LINE
8
DEFAULT_255_2_778
10
10.1773482
20
42.5348751
11
10.1773482
21
43.8347751
0
LINE
8
DEFAULT_255_2_778
10
10.1773482
20
43.8347751
11
10.1773482
21
45.0748751
0
LINE
8
DEFAULT_255_2_778
10
13.1898482
20
43.8347751
11
13.1898482
21
42.5346751
0
LINE
8
DEFAULT_255_2_778
10
14.1023482
20
38.7547751
11
10.1773482
21
38.7547751
0
LINE
8
DEFAULT_255_2_778
10
14.1023482
20
37.4548751
11
14.1023482
21
38.7547751
0
LINE
8
DEFAULT_255_2_778
10
14.1023482
20
38.7547751
11
14.1023482
21
39.9948751
0
LINE
8
DEFAULT_255_2_778
10
14.1023482
20
39.9948751
11
10.1773482
21
39.9948751
0
LINE
8
DEFAULT_255_2_778
10
10.1773482
20
39.9948751
11
10.1773482
21
41.2947751
0
LINE
8
DEFAULT_255_2_778
10
10.1773482
20
41.2947751
11
10.1773482
21
42.5348751
0
LINE
8
DEFAULT_255_2_778
10
13.1898482
20
41.2947751
11
13.1898482
21
39.9946751
0
LINE
8
DEFAULT_255_2_778
10
14.1023482
20
34.9148751
11
14.1023482
21
36.2147751
0
LINE
8
DEFAULT_255_2_778
10
14.1023482
20
36.2147751
11
14.1023482
21
37.4548751
0
LINE
8
DEFAULT_255_2_778
10
14.1023482
20
37.4548751
11
10.1773482
21
37.4548751
0
LINE
8
DEFAULT_255_2_778
10
10.1773482
20
37.4548751
11
10.1773482
21
38.7547751
0
LINE
8
DEFAULT_255_2_778
10
10.1773482
20
38.7547751
11
10.1773482
21
39.9948751
0
LINE
8
DEFAULT_255_2_778
10
13.1898482
20
38.7550751
11
13.1898482
21
37.4548751
0
LINE
8
DEFAULT_255_2_778
10
14.1023482
20
33.6747751
11
10.1773482
21
33.6747751
0
LINE
8
DEFAULT_255_2_778
10
14.1023482
20
32.3748751
11
14.1023482
21
33.6747751
0
LINE
8
DEFAULT_255_2_778
10
14.1023482
20
33.6747751
11
14.1023482
21
34.9148751
0
LINE
8
DEFAULT_255_2_778
10
14.1023482
20
34.9148751
11
10.1773482
21
34.9148751
0
LINE
8
DEFAULT_255_2_778
10
10.1773482
20
34.9148751
11
10.1773482
21
36.2147751
0
LINE
8
DEFAULT_255_2_778
10
10.1773482
20
36.2147751
11
10.1773482
21
37.4548751
0
LINE
8
DEFAULT_255_2_778
10
13.1898482
20
36.2150751
11
13.1898482
21
34.9148751
0
LINE
8
DEFAULT_255_2_778
10
14.1023482
20
31.1347751
11
10.1773482
21
31.1347751
0
LINE
8
DEFAULT_255_2_778
10
14.1023482
20
29.8348751
11
14.1023482
21
31.1347751
0
LINE
8
DEFAULT_255_2_778
10
14.1023482
20
31.1347751
11
14.1023482
21
32.3748751
0
LINE
8
DEFAULT_255_2_778
10
14.1023482
20
32.3748751
11
10.1773482
21
32.3748751
0
LINE
8
DEFAULT_255_2_778
10
10.1773482
20
32.3748751
11
10.1773482
21
33.6747751
0
LINE
8
DEFAULT_255_2_778
10
10.1773482
20
33.6747751
11
10.1773482
21
34.9148751
0
LINE
8
DEFAULT_255_2_778
10
13.1898482
20
33.6750751
11
13.1898482
21
32.3748751
0
LINE
8
DEFAULT_255_2_778
10
14.1023482
20
28.5947751
11
10.1773482
21
28.5947751
0
LINE
8
DEFAULT_255_2_778
10
14.1023482
20
27.2948751
11
14.1023482
21
28.5947751
0
LINE
8
DEFAULT_255_2_778
10
14.1023482
20
28.5947751
11
14.1023482
21
29.8348751
0
LINE
8
DEFAULT_255_2_778
10
14.1023482
20
29.8348751
11
10.1773482
21
29.8348751
0
LINE
8
DEFAULT_255_2_778
10
10.1773482
20
29.8348751
11
10.1773482
21
31.1347751
0
LINE
8
DEFAULT_255_2_778
10
10.1773482
20
31.1347751
11
10.1773482
21
32.3748751
0
LINE
8
DEFAULT_255_2_778
10
13.1898482
20
31.1353751
11
13.1898482
21
29.8348751
0
LINE
8
DEFAULT_255_2_778
10
10.1773482
20
29.8348751
11
10.1773482
21
28.5947751
0
LINE
8
DEFAULT_255_2_778
10
10.1773482
20
28.5947751
11
10.1773482
21
27.2948751
0
LINE
8
DEFAULT_255_2_778
10
10.1773482
20
27.2948751
11
14.1023482
21
27.2948751
0
LINE
8
DEFAULT_255_2_778
10
14.1023482
20
27.2948751
11
14.1023482
21
26.0547751
0
LINE
8
DEFAULT_255_2_778
10
14.1023482
20
26.0547751
11
10.1773482
21
26.0547751
0
LINE
8
DEFAULT_255_2_778
10
13.1898482
20
28.5950751
11
13.1898482
21
27.2948751
0
LINE
8
DEFAULT_255_2_778
10
14.1023482
20
15.8947751
11
14.1023482
21
15.8447751
0
LINE
8
DEFAULT_255_2_778
10
14.1023482
20
15.8447751
11
14.1023482
21
15.0446751
0
LINE
8
DEFAULT_255_2_778
10
10.1773482
20
15.8947751
11
10.1773482
21
15.8447751
0
LINE
8
DEFAULT_255_2_778
10
10.1773482
20
15.8447751
11
10.1773482
21
15.0446751
0
LINE
8
DEFAULT_255_2_778
10
10.1773482
20
15.0446751
11
14.1023482
21
15.0446751
0
LINE
8
DEFAULT_255_2_778
10
14.1023482
20
15.0446751
11
14.1023482
21
14.1540751
0
LINE
8
DEFAULT_255_2_778
10
14.1023482
20
14.1540751
11
14.1023482
21
13.1447751
0
LINE
8
DEFAULT_255_2_778
10
14.1023482
20
13.1447751
11
10.1773482
21
13.1447751
0
LINE
8
DEFAULT_255_2_778
10
10.1773482
20
13.1447751
11
10.1773482
21
14.1540751
0
LINE
8
DEFAULT_255_2_778
10
10.1773482
20
14.1540751
11
10.1773482
21
15.0446751
0
LINE
8
DEFAULT_255_2_778
10
14.1023482
20
23.5147751
11
10.1773482
21
23.5147751
0
LINE
8
DEFAULT_255_2_778
10
14.1023482
20
24.7548751
11
14.1023482
21
25.4449751
0
LINE
8
DEFAULT_255_2_778
10
14.1023482
20
25.4449751
11
14.1023482
21
26.0550751
0
LINE
8
DEFAULT_255_2_778
10
14.1023482
20
22.2151751
11
14.1023482
21
23.5150751
0
LINE
8
DEFAULT_255_2_778
10
14.1023482
20
23.5150751
11
14.1023482
21
24.7551751
0
LINE
8
DEFAULT_255_2_778
10
14.1023482
20
24.7551751
11
10.1773482
21
24.7551751
0
LINE
8
DEFAULT_255_2_778
10
10.1773482
20
24.7551751
11
10.1773482
21
26.0550751
0
LINE
8
DEFAULT_255_2_778
10
10.1773482
20
26.0550751
11
10.1773482
21
27.2951751
0
LINE
8
DEFAULT_255_2_778
10
13.1898482
20
24.7551751
11
13.1898482
21
25.4451751
0
LINE
8
DEFAULT_255_2_778
10
13.1898482
20
25.4451751
11
13.1898482
21
26.0553751
0
LINE
8
DEFAULT_255_2_778
10
10.1773482
20
24.7554751
11
10.1773482
21
23.5153751
0
LINE
8
DEFAULT_255_2_778
10
10.1773482
20
23.5153751
11
10.1773482
21
22.2154751
0
LINE
8
DEFAULT_255_2_778
10
10.1773482
20
22.2154751
11
14.1023482
21
22.2154751
0
LINE
8
DEFAULT_255_2_778
10
14.1023482
20
22.2154751
11
14.1023482
21
20.9753751
0
LINE
8
DEFAULT_255_2_778
10
14.1023482
20
20.9753751
11
10.1773482
21
20.9753751
0
LINE
8
DEFAULT_255_2_778
10
10.1773482
20
20.9753751
11
10.1773482
21
22.2154751
0
LINE
8
DEFAULT_255_2_778
10
14.1023482
20
19.6754751
11
14.1023482
21
19.8455751
0
LINE
8
DEFAULT_255_2_778
10
14.1023482
20
19.8455751
11
14.1023482
21
20.9755751
0
LINE
8
DEFAULT_255_2_778
10
10.1773482
20
20.9755751
11
10.1773482
21
19.8455751
0
LINE
8
DEFAULT_255_2_778
10
10.1773482
20
19.8455751
11
10.1773482
21
19.6754751
0
LINE
8
DEFAULT_255_2_778
10
10.1773482
20
19.6754751
11
14.1023482
21
19.6754751
0
LINE
8
DEFAULT_255_2_778
10
14.1023482
20
19.6754751
11
14.1023482
21
18.4353751
0
LINE
8
DEFAULT_255_2_778
10
14.1023482
20
18.4353751
11
10.1773482
21
18.4353751
0
LINE
8
DEFAULT_255_2_778
10
10.1773482
20
18.4353751
11
10.1773482
21
19.6754751
0
LINE
8
DEFAULT_255_2_778
10
14.1023482
20
17.1354751
11
14.1023482
21
17.8447751
0
LINE
8
DEFAULT_255_2_778
10
14.1023482
20
17.8447751
11
14.1023482
21
18.4347751
0
LINE
8
DEFAULT_255_2_778
10
10.1773482
20
18.4347751
11
10.1773482
21
17.8447751
0
LINE
8
DEFAULT_255_2_778
10
10.1773482
20
17.8447751
11
10.1773482
21
17.1348751
0
LINE
8
DEFAULT_255_2_778
10
10.1773482
20
17.1348751
11
14.1023482
21
17.1348751
0
LINE
8
DEFAULT_255_2_778
10
14.1023482
20
17.1348751
11
14.1023482
21
15.8947751
0
LINE
8
DEFAULT_255_2_778
10
14.1023482
20
15.8947751
11
10.1773482
21
15.8947751
0
LINE
8
DEFAULT_255_2_778
10
10.1773482
20
15.8947751
11
10.1773482
21
17.1348751
0
LINE
8
DEFAULT_255_2_778
10
13.1898482
20
23.5147751
11
13.1898482
21
22.8448751
0
ARC
8
DEFAULT_255_2_778
10
27.5551284
20
0.3188632
40
0.5000543
50
270.0062229
51
359.9937886
0
ARC
8
DEFAULT_255_2_778
10
0.7552584
20
0.3188847
40
0.5000757
50
180.008676
51
270.0027763
0
LINE
8
DEFAULT_255_2_778
10
28.0469827
20
80.5828089
11
28.0551827
21
19.8189089
0
LINE
8
DEFAULT_255_2_778
10
28.0551827
20
19.8189089
11
28.0551827
21
13.8189089
0
LINE
8
DEFAULT_255_2_778
10
28.0551827
20
13.8189089
11
28.0551827
21
0.3188089
0
LINE
8
DEFAULT_255_2_778
10
27.5551827
20
-0.1811911
11
0.7552827
21
-0.1811911
0
LINE
8
DEFAULT_255_2_778
10
0.2551827
20
0.3188089
11
0.2551827
21
13.8189089
0
LINE
8
DEFAULT_255_2_778
10
0.2551827
20
13.8189089
11
0.2551827
21
19.8189089
0
LINE
8
DEFAULT_255_2_778
10
0.2551827
20
19.8189089
11
0.2551827
21
80.1188089
0
LINE
8
DEFAULT_255_2_778
10
0.2551827
20
80.1188089
11
0.2657827
21
80.5580089
0
LINE
8
DEFAULT_255_2_778
10
0.6215827
20
105.8188089
11
27.5564827
21
105.8188089
0
LINE
8
DEFAULT_255_2_778
10
27.5564827
20
105.8188089
11
27.6636827
21
105.8072089
0
LINE
8
DEFAULT_255_2_778
10
27.6636827
20
105.8072089
11
27.7445827
21
105.7818089
0
LINE
8
DEFAULT_255_2_778
10
27.7445827
20
105.7818089
11
27.9041827
21
105.6540089
0
LINE
8
DEFAULT_255_2_778
10
27.9041827
20
105.6540089
11
27.9969827
21
105.5071089
0
LINE
8
DEFAULT_255_2_778
10
27.9969827
20
105.5071089
11
28.0443827
21
105.2846089
0
LINE
8
DEFAULT_255_2_778
10
28.0443827
20
105.2846089
11
28.0443827
21
80.5191089
0
LINE
8
DEFAULT_255_2_778
10
28.0443827
20
80.5191089
11
28.0334827
21
80.4529089
0
LINE
8
DEFAULT_255_2_778
10
28.0334827
20
80.4529089
11
27.9990827
21
80.3902089
0
LINE
8
DEFAULT_255_2_778
10
27.9990827
20
80.3902089
11
27.9403827
21
80.3415089
0
LINE
8
DEFAULT_255_2_778
10
27.9403827
20
80.3415089
11
27.8509827
21
80.3188089
0
LINE
8
DEFAULT_255_2_778
10
27.8509827
20
80.3188089
11
27.7585827
21
80.3188089
0
LINE
8
DEFAULT_255_2_778
10
0.5512827
20
80.3188089
11
0.4591827
21
80.3188089
0
LINE
8
DEFAULT_255_2_778
10
0.4591827
20
80.3188089
11
0.3697827
21
80.3415089
0
LINE
8
DEFAULT_255_2_778
10
0.3697827
20
80.3415089
11
0.3109827
21
80.3902089
0
LINE
8
DEFAULT_255_2_778
10
0.3109827
20
80.3902089
11
0.2765827
21
80.4529089
0
LINE
8
DEFAULT_255_2_778
10
0.2765827
20
80.4529089
11
0.2657827
21
80.5191089
0
LINE
8
DEFAULT_255_2_778
10
0.2657827
20
80.5191089
11
0.2657827
21
105.2846089
0
LINE
8
DEFAULT_255_2_778
10
0.2657827
20
105.2846089
11
0.2834827
21
105.4217089
0
LINE
8
DEFAULT_255_2_778
10
0.2834827
20
105.4217089
11
0.3461827
21
105.5714089
0
LINE
8
DEFAULT_255_2_778
10
0.3461827
20
105.5714089
11
0.4334827
21
105.6839089
0
LINE
8
DEFAULT_255_2_778
10
0.4334827
20
105.6839089
11
0.5218827
21
105.7847089
0
LINE
8
DEFAULT_255_2_778
10
0.5218827
20
105.7847089
11
0.5631827
21
105.8011089
0
LINE
8
DEFAULT_255_2_778
10
0.5631827
20
105.8011089
11
0.6210827
21
105.8175089
0
LINE
8
DEFAULT_255_2_778
10
14.4686615
20
103.7822635
11
14.4686615
21
105.0392635
0
LINE
8
DEFAULT_255_2_778
10
14.4686615
20
105.0392635
11
13.8788615
21
105.0392635
0
LINE
8
DEFAULT_255_2_778
10
13.8788615
20
105.0392635
11
13.0774615
21
103.8451635
0
LINE
8
DEFAULT_255_2_778
10
13.0774615
20
103.8451635
11
13.0774615
21
103.4213635
0
LINE
8
DEFAULT_255_2_778
10
13.0774615
20
103.4213635
11
13.9704615
21
103.4213635
0
LINE
8
DEFAULT_255_2_778
10
13.9704615
20
103.4213635
11
13.9704615
21
103.0403635
0
LINE
8
DEFAULT_255_2_778
10
13.9704615
20
103.0403635
11
14.4686615
21
103.0403635
0
LINE
8
DEFAULT_255_2_778
10
14.4686615
20
103.0403635
11
14.4686615
21
103.4213635
0
LINE
8
DEFAULT_255_2_778
10
14.4686615
20
103.4213635
11
14.7525615
21
103.4213635
0
LINE
8
DEFAULT_255_2_778
10
14.7525615
20
103.4213635
11
14.7525615
21
103.7822635
0
LINE
8
DEFAULT_255_2_778
10
14.7525615
20
103.7822635
11
14.4686615
21
103.7822635
0
LINE
8
DEFAULT_255_2_778
10
14.0656615
20
104.6270635
11
14.0712615
21
103.7822635
0
LINE
8
DEFAULT_255_2_778
10
14.0712615
20
103.7822635
11
13.5214615
21
103.7822635
0
LINE
8
DEFAULT_255_2_778
10
13.5214615
20
103.7822635
11
14.0656615
21
104.6270635
0
ARC
8
DEFAULT_255_2_778
10
11.8918865
20
102.5336308
40
2.22813
50
71.8460692
51
76.9210539
0
ARC
8
DEFAULT_255_2_778
10
12.0480053
20
103.2103885
40
1.5335995
50
76.8808221
51
83.4094534
0
ARC
8
DEFAULT_255_2_778
10
12.0998991
20
103.6494163
40
1.0915174
50
83.4704603
51
89.8394705
0
ARC
8
DEFAULT_255_2_778
10
12.0958901
20
104.0006503
40
0.7403129
50
89.4530411
51
103.8267402
0
ARC
8
DEFAULT_255_2_778
10
12.0334436
20
104.2457825
40
0.4873642
50
103.5853071
51
131.4371192
0
ARC
8
DEFAULT_255_2_778
10
11.9729293
20
104.4319615
40
0.3174342
50
145.6328918
51
158.4560825
0
ARC
8
DEFAULT_255_2_778
10
11.8497285
20
104.4797993
40
0.1852756
50
158.2255812
51
179.230459
0
ARC
8
DEFAULT_255_2_778
10
11.83295
20
104.4880108
40
0.1685776
50
181.9455472
51
234.3627457
0
ARC
8
DEFAULT_255_2_778
10
12.0225079
20
104.7153827
40
0.4643157
50
231.6989353
51
247.6358694
0
ARC
8
DEFAULT_255_2_778
10
12.2618233
20
105.2711476
40
1.0693811
50
247.1080451
51
255.6535133
0
ARC
8
DEFAULT_255_2_778
10
12.4549822
20
105.9731837
40
1.7974343
50
255.2333407
51
258.0271295
0
ARC
8
DEFAULT_255_2_778
10
11.538441
20
102.0557663
40
2.2264814
50
69.6383895
51
75.8665156
0
ARC
8
DEFAULT_255_2_778
10
11.8595889
20
102.9111035
40
1.3128529
50
60.3477887
51
69.7898995
0
ARC
8
DEFAULT_255_2_778
10
12.1539763
20
103.4204185
40
0.7246024
50
44.8812659
51
60.6530379
0
ARC
8
DEFAULT_255_2_778
10
12.3892043
20
103.6454174
40
0.3992124
50
0.1279968
51
45.8226179
0
ARC
8
DEFAULT_255_2_778
10
12.2978789
20
103.6493695
40
0.4905464
50
345.6700878
51
359.6425621
0
ARC
8
DEFAULT_255_2_778
10
12.1078502
20
103.6963998
40
0.6863044
50
336.664207
51
345.7924742
0
ARC
8
DEFAULT_255_2_778
10
11.9358364
20
103.7670371
40
0.8722344
50
333.8373667
51
336.8795891
0
ARC
8
DEFAULT_255_2_778
10
11.9935406
20
103.9006785
40
0.8913059
50
280.8774765
51
324.4491668
0
ARC
8
DEFAULT_255_2_778
10
11.9214155
20
104.2257263
40
1.224161
50
269.6956915
51
281.3216375
0
ARC
8
DEFAULT_255_2_778
10
11.9199149
20
104.6586921
40
1.6571171
50
262.5526129
51
269.8270838
0
ARC
8
DEFAULT_255_2_778
10
11.9883948
20
105.1924588
40
2.1952575
50
256.8857928
51
262.5860805
0
ARC
8
DEFAULT_255_2_778
10
12.1426015
20
105.8603312
40
2.8807004
50
252.3761743
51
256.9126548
0
ARC
8
DEFAULT_255_2_778
10
12.3123195
20
106.4113689
40
3.4572637
50
250.8888843
51
252.4604185
0
ARC
8
DEFAULT_255_2_778
10
-6.7074931
20
106.1267954
40
18.1347776
50
350.5350982
51
351.6122598
0
ARC
8
DEFAULT_255_2_778
10
12.044114
20
105.7232749
40
2.3839426
50
250.1163186
51
255.3325178
0
ARC
8
DEFAULT_255_2_778
10
11.8618988
20
105.0215783
40
1.6589751
50
255.2842081
51
262.1400825
0
ARC
8
DEFAULT_255_2_778
10
11.7947179
20
104.5378232
40
1.1705778
50
262.1594414
51
269.7918492
0
ARC
8
DEFAULT_255_2_778
10
11.7973114
20
104.1743281
40
0.8071039
50
269.5139931
51
283.9716216
0
ARC
8
DEFAULT_255_2_778
10
11.8530789
20
103.9519734
40
0.5778631
50
283.9287913
51
308.7411314
0
ARC
8
DEFAULT_255_2_778
10
11.9962228
20
103.662477
40
0.2715313
50
323.5752847
51
337.589551
0
ARC
8
DEFAULT_255_2_778
10
12.098508
20
103.6206647
40
0.1610308
50
337.4683446
51
359.3059549
0
ARC
8
DEFAULT_255_2_778
10
12.0986942
20
103.6121018
40
0.1609688
50
2.3542811
51
52.2439045
0
ARC
8
DEFAULT_255_2_778
10
11.8994517
20
103.3888292
40
0.4599612
50
49.6500609
51
65.5569144
0
ARC
8
DEFAULT_255_2_778
10
11.6317223
20
102.8259568
40
1.0832226
50
64.984433
51
73.2923564
0
ARC
8
DEFAULT_255_2_778
10
11.3660278
20
101.980867
40
1.9690538
50
72.9570109
51
76.7687893
0
ARC
8
DEFAULT_255_2_778
10
12.1214953
20
105.598604
40
1.7280443
50
250.9995754
51
259.8411686
0
ARC
8
DEFAULT_255_2_778
10
11.8516386
20
104.831033
40
0.9144501
50
236.3536564
51
251.3286337
0
ARC
8
DEFAULT_255_2_778
10
11.5925342
20
104.4569881
40
0.4595845
50
200.1119312
51
237.4074574
0
ARC
8
DEFAULT_255_2_778
10
11.564294
20
104.4364542
40
0.4261132
50
185.8597138
51
198.8248604
0
ARC
8
DEFAULT_255_2_778
10
11.9954097
20
104.4205589
40
0.8554481
50
180.010285
51
181.8494331
0
ARC
8
DEFAULT_255_2_778
10
11.7644291
20
104.4306274
40
0.6245512
50
159.1375364
51
180.9378038
0
ARC
8
DEFAULT_255_2_778
10
11.6505265
20
104.4615548
40
0.5072363
50
116.5719217
51
157.8199006
0
ARC
8
DEFAULT_255_2_778
10
11.8349709
20
104.126751
40
0.8893116
50
103.1213788
51
117.5510998
0
ARC
8
DEFAULT_255_2_778
10
11.9800442
20
103.5353705
40
1.4982023
50
94.7433842
51
103.3903637
0
ARC
8
DEFAULT_255_2_778
10
12.0524674
20
102.747884
40
2.2889915
50
89.8528811
51
94.9199908
0
ARC
8
DEFAULT_255_2_778
10
12.055951
20
101.9975673
40
3.0393016
50
87.4163436
51
89.9548719
0
ARC
8
DEFAULT_255_2_778
10
12.0236429
20
101.2824255
40
3.7551729
50
85.0388046
51
87.4157624
0
ARC
8
DEFAULT_255_2_778
10
11.9532808
20
100.4602775
40
4.5803259
50
83.1956878
51
85.0513351
0
ARC
8
DEFAULT_255_2_778
10
11.8474297
20
99.570641
40
5.4762374
50
81.5514299
51
83.1987991
0
LINE
8
DEFAULT_255_2_778
10
12.6520071
20
104.9874509
11
12.5988071
21
104.6604509
0
ARC
8
DEFAULT_255_2_778
10
2.1255305
20
104.4356369
40
0.1969554
50
359.1187144
51
75.7103283
0
ARC
8
DEFAULT_255_2_778
10
1.9794165
20
104.0620024
40
0.5971386
50
70.9677203
51
85.9188322
0
ARC
8
DEFAULT_255_2_778
10
1.9239042
20
103.5170611
40
1.144769
50
85.0885585
51
90.1717485
0
ARC
8
DEFAULT_255_2_778
10
1.922285
20
103.0451049
40
1.6167209
50
90.0642268
51
92.8368115
0
ARC
8
DEFAULT_255_2_778
10
1.9409085
20
102.6437048
40
2.0185512
50
92.8008992
51
94.4365702
0
LINE
8
DEFAULT_255_2_778
10
1.7847626
20
104.6562076
11
1.7847626
21
104.2088076
0
ARC
8
DEFAULT_255_2_778
10
1.9609185
20
106.0933156
40
1.8927233
50
264.6597512
51
267.0762026
0
ARC
8
DEFAULT_255_2_778
10
1.9392757
20
105.6646318
40
1.4634937
50
267.0663508
51
269.9348665
0
ARC
8
DEFAULT_255_2_778
10
1.9480283
20
105.0674494
40
0.8663731
50
269.3111246
51
280.4668983
0
ARC
8
DEFAULT_255_2_778
10
2.046132
20
104.5668725
40
0.3563463
50
279.5772814
51
302.8181623
0
ARC
8
DEFAULT_255_2_778
10
2.1339134
20
104.4240096
40
0.1887451
50
303.9283724
51
2.6109326
0
ARC
8
DEFAULT_255_2_778
10
1.8320295
20
102.5654422
40
1.258947
50
90.0243364
51
91.7418272
0
ARC
8
DEFAULT_255_2_778
10
1.8427443
20
103.0869319
40
0.7375432
50
78.5382433
51
90.8739473
0
ARC
8
DEFAULT_255_2_778
10
1.9451552
20
103.5578492
40
0.2557568
50
50.304871
51
80.0597362
0
ARC
8
DEFAULT_255_2_778
10
2.0128352
20
103.6493654
40
0.1422549
50
31.932823
51
47.7363738
0
ARC
8
DEFAULT_255_2_778
10
2.3789008
20
103.744568
40
0.2907019
50
29.9974155
51
72.758957
0
ARC
8
DEFAULT_255_2_778
10
2.3325666
20
104.6057951
40
0.5984393
50
282.791427
51
305.5857705
0
ARC
8
DEFAULT_255_2_778
10
2.4176378
20
104.4648245
40
0.434481
50
307.2805711
51
357.1000111
0
ARC
8
DEFAULT_255_2_778
10
2.1457377
20
104.5087094
40
0.7088913
50
354.6686856
51
0.0869134
0
ARC
8
DEFAULT_255_2_778
10
2.053709
20
104.5097214
40
0.8009194
50
0.004534
51
1.1651563
0
ARC
8
DEFAULT_255_2_778
10
2.4034643
20
104.5226971
40
0.4510105
50
0.4205651
51
64.400469
0
ARC
8
DEFAULT_255_2_778
10
2.2267781
20
104.1813482
40
0.8352776
50
63.5874185
51
79.8284916
0
ARC
8
DEFAULT_255_2_778
10
2.0897234
20
103.4751226
40
1.5546404
50
79.4531411
51
88.7244784
0
ARC
8
DEFAULT_255_2_778
10
2.0599208
20
102.8304293
40
2.1998915
50
88.3222322
51
90.017479
0
ARC
8
DEFAULT_255_2_778
10
2.0596234
20
102.5778572
40
2.4524635
50
90.0087325
51
91.1719657
0
LINE
8
DEFAULT_255_2_778
10
2.0094626
20
105.0298076
11
1.2553626
21
105.0298076
0
LINE
8
DEFAULT_255_2_778
10
10.3538626
20
105.0187076
11
10.8978626
21
105.0187076
0
LINE
8
DEFAULT_255_2_778
10
10.8978626
20
105.0187076
11
10.8978626
21
103.0187076
0
LINE
8
DEFAULT_255_2_778
10
10.8978626
20
103.0187076
11
10.4517626
21
103.0187076
0
LINE
8
DEFAULT_255_2_778
10
10.4517626
20
103.0187076
11
10.4517626
21
104.3728076
0
LINE
8
DEFAULT_255_2_778
10
10.4517626
20
104.3728076
11
10.0257626
21
103.0187076
0
LINE
8
DEFAULT_255_2_778
10
10.0257626
20
103.0187076
11
9.6278626
21
103.0187076
0
LINE
8
DEFAULT_255_2_778
10
9.6278626
20
103.0187076
11
9.2026626
21
104.3728076
0
LINE
8
DEFAULT_255_2_778
10
9.2026626
20
104.3728076
11
9.2026626
21
103.0187076
0
LINE
8
DEFAULT_255_2_778
10
9.2026626
20
103.0187076
11
8.7562626
21
103.0187076
0
LINE
8
DEFAULT_255_2_778
10
8.7562626
20
103.0187076
11
8.7562626
21
105.0187076
0
LINE
8
DEFAULT_255_2_778
10
8.7562626
20
105.0187076
11
9.2994626
21
105.0187076
0
LINE
8
DEFAULT_255_2_778
10
9.2994626
20
105.0187076
11
9.8267626
21
103.5756076
0
LINE
8
DEFAULT_255_2_778
10
9.8267626
20
103.5756076
11
10.3535626
21
105.0187076
0
LINE
8
DEFAULT_255_2_778
10
5.4807626
20
105.0187076
11
5.4807626
21
104.6408076
0
LINE
8
DEFAULT_255_2_778
10
5.4807626
20
104.6408076
11
6.3739626
21
104.6408076
0
LINE
8
DEFAULT_255_2_778
10
6.3739626
20
104.6408076
11
5.6294626
21
103.0200076
0
LINE
8
DEFAULT_255_2_778
10
5.6294626
20
103.0200076
11
6.2019626
21
103.0200076
0
LINE
8
DEFAULT_255_2_778
10
6.2019626
20
103.0200076
11
6.9182626
21
104.5863076
0
LINE
8
DEFAULT_255_2_778
10
6.9182626
20
104.5863076
11
6.9182626
21
105.0187076
0
LINE
8
DEFAULT_255_2_778
10
6.9182626
20
105.0187076
11
5.4807626
21
105.0187076
0
LINE
8
DEFAULT_255_2_778
10
7.1124626
20
105.0187076
11
7.1124626
21
104.6408076
0
LINE
8
DEFAULT_255_2_778
10
7.1124626
20
104.6408076
11
8.0056626
21
104.6408076
0
LINE
8
DEFAULT_255_2_778
10
8.0056626
20
104.6408076
11
7.2611626
21
103.0200076
0
LINE
8
DEFAULT_255_2_778
10
7.2611626
20
103.0200076
11
7.8336626
21
103.0200076
0
LINE
8
DEFAULT_255_2_778
10
7.8336626
20
103.0200076
11
8.5499626
21
104.5863076
0
LINE
8
DEFAULT_255_2_778
10
8.5499626
20
104.5863076
11
8.5499626
21
105.0187076
0
LINE
8
DEFAULT_255_2_778
10
8.5499626
20
105.0187076
11
7.1121626
21
105.0187076
0
LINE
8
DEFAULT_255_2_778
10
2.3224626
20
104.4326076
11
2.3224626
21
104.4326076
0
LINE
8
DEFAULT_255_2_778
10
1.2553626
20
105.0298076
11
1.2553626
21
103.0308076
0
LINE
8
DEFAULT_255_2_778
10
1.2553626
20
103.0308076
11
1.7937626
21
103.0308076
0
LINE
8
DEFAULT_255_2_778
10
1.7937626
20
103.0308076
11
1.7937626
21
103.8238076
0
LINE
8
DEFAULT_255_2_778
10
2.1335626
20
103.7246076
11
2.3904626
21
103.0390076
0
LINE
8
DEFAULT_255_2_778
10
2.3904626
20
103.0390076
11
2.9455626
21
103.0308076
0
LINE
8
DEFAULT_255_2_778
10
2.9455626
20
103.0308076
11
2.6306626
21
103.8899076
0
LINE
8
DEFAULT_255_2_778
10
1.2553626
20
105.0298076
11
1.2553626
21
105.0298076
0
ARC
8
DEFAULT_255_2_778
10
3.8355333
20
104.0461104
40
0.8584669
50
1.0538087
51
15.9677734
0
ARC
8
DEFAULT_255_2_778
10
4.1998454
20
104.1562672
40
0.4779412
50
15.28617
51
75.2156589
0
ARC
8
DEFAULT_255_2_778
10
4.0452279
20
103.6838524
40
0.9746013
50
73.5136449
51
87.3778195
0
ARC
8
DEFAULT_255_2_778
10
4.0018889
20
103.127119
40
1.532838
50
86.7115886
51
90.0625784
0
ARC
8
DEFAULT_255_2_778
10
4.0015334
20
102.7676771
40
1.8922795
50
90.0399305
51
92.4922356
0
ARC
8
DEFAULT_255_2_778
10
4.0142366
20
102.4529181
40
2.2072934
50
92.4663849
51
93.7842781
0
ARC
8
DEFAULT_255_2_778
10
4.0290177
20
105.2652775
40
1.8226559
50
264.9492628
51
267.1981108
0
ARC
8
DEFAULT_255_2_778
10
4.0175949
20
105.0312842
40
1.5883838
50
267.1970621
51
269.6115974
0
ARC
8
DEFAULT_255_2_778
10
4.0160328
20
104.8939149
40
1.4510072
50
269.6365065
51
270.0017269
0
ARC
8
DEFAULT_255_2_778
10
4.0251586
20
104.569207
40
1.126336
50
269.5380012
51
280.7575462
0
ARC
8
DEFAULT_255_2_778
10
4.1122369
20
104.1269776
40
0.6756317
50
280.5027633
51
298.5175968
0
ARC
8
DEFAULT_255_2_778
10
4.2069431
20
103.949634
40
0.4745921
50
298.6930573
51
340.358735
0
ARC
8
DEFAULT_255_2_778
10
3.9830524
20
104.0257111
40
0.7110368
50
340.6492964
51
0.8680095
0
ARC
8
DEFAULT_255_2_778
10
3.7376911
20
104.0364152
40
0.9563164
50
0.0040387
51
1.0235844
0
LINE
8
DEFAULT_255_2_778
10
4.039755
20
103.0516988
11
4.0400548
21
103.0516988
0
ARC
8
DEFAULT_255_2_778
10
4.0832972
20
104.8947211
40
1.8435295
50
268.6559276
51
288.2134923
0
ARC
8
DEFAULT_255_2_778
10
4.4079529
20
103.9277029
40
0.8235092
50
287.7862974
51
335.5736994
0
ARC
8
DEFAULT_255_2_778
10
4.2265816
20
103.9925086
40
1.0155712
50
336.4761828
51
352.5902439
0
ARC
8
DEFAULT_255_2_778
10
3.7980324
20
104.0566036
40
1.4488314
50
352.2623164
51
0.1975403
0
ARC
8
DEFAULT_255_2_778
10
3.6308121
20
104.0823481
40
1.6161761
50
359.2643861
51
359.9986799
0
ARC
8
DEFAULT_255_2_778
10
3.9707992
20
104.0921548
40
1.2762271
50
359.5580559
51
12.0651957
0
ARC
8
DEFAULT_255_2_778
10
4.3801549
20
104.182101
40
0.8571162
50
11.9051711
51
32.1018098
0
ARC
8
DEFAULT_255_2_778
10
4.3819633
20
104.140384
40
0.8785041
50
34.4699387
51
79.368048
0
ARC
8
DEFAULT_255_2_778
10
4.1173688
20
103.1151743
40
1.9362297
50
77.2695022
51
90.651597
0
ARC
8
DEFAULT_255_2_778
10
4.0955655
20
102.3272957
40
2.7239833
50
90.0045458
51
90.9573057
0
LINE
8
DEFAULT_255_2_778
10
3.868555
20
104.6553988
11
3.868555
21
103.4496988
0
LINE
8
DEFAULT_255_2_778
10
4.050055
20
105.0508988
11
3.336255
21
105.0508988
0
LINE
8
DEFAULT_255_2_778
10
3.336255
20
105.0508988
11
3.336255
21
103.0516988
0
LINE
8
DEFAULT_255_2_778
10
3.336255
20
103.0516988
11
4.039755
21
103.0516988
0
ENDSEC
0
EOF