0
SECTION
2
HEADER
9
$MEASUREMENT
70
1
0
ENDSEC
0
SECTION
2
TABLES
0
TABLE
2
LTYPE
0
LTYPE
72
65
70
64
2
CONTINUOUS
3
______
73
0
40
0
0
ENDTAB
0
TABLE
2
LAYER
0
LAYER
2
DEFAULT_255_2_778
70
0
62
255
6
CONTINUOUS
0
ENDTAB
0
ENDSEC
0
SECTION
2
ENTITIES
0
ARC
8
DEFAULT_255_2_778
10
4.3552525
20
3.1185433
40
0.7001699
50
90.0057163
51
179.9942837
0
ARC
8
DEFAULT_255_2_778
10
23.9550409
20
3.1183714
40
0.7000418
50
359.9952377
51
90.0047623
0
LINE
8
DEFAULT_255_2_778
10
3.6550827
20
3.1186132
11
3.6550827
21
0.3185132
0
LINE
8
DEFAULT_255_2_778
10
3.6550827
20
0.3185132
11
3.6550827
21
-0.0814868
0
LINE
8
DEFAULT_255_2_778
10
3.6550827
20
-0.0814868
11
24.6550827
21
-0.0814868
0
LINE
8
DEFAULT_255_2_778
10
24.6550827
20
-0.0814868
11
24.6550827
21
3.1183132
0
LINE
8
DEFAULT_255_2_778
10
23.9549827
20
3.8184132
11
4.3551827
21
3.8184132
0
LINE
8
DEFAULT_255_2_778
10
2.9052827
20
99.0187132
11
2.9052827
21
98.9187132
0
LINE
8
DEFAULT_255_2_778
10
2.9052827
20
98.9187132
11
25.4051827
21
98.9187132
0
LINE
8
DEFAULT_255_2_778
10
25.4051827
20
98.9187132
11
25.4051827
21
99.1187132
0
LINE
8
DEFAULT_255_2_778
10
25.4051827
20
99.1187132
11
2.9052827
21
99.1187132
0
LINE
8
DEFAULT_255_2_778
10
2.9052827
20
99.1187132
11
2.9052827
21
99.0187132
0
LINE
8
DEFAULT_255_2_778
10
1.1052827
20
80.1187132
11
0.2551827
21
80.1187132
0
LINE
8
DEFAULT_255_2_778
10
27.2050827
20
80.1187132
11
28.0551827
21
80.1187132
0
LINE
8
DEFAULT_255_2_778
10
27.4589222
20
80.3187812
11
27.7589222
21
80.3187812
0
LINE
8
DEFAULT_255_2_778
10
27.4589222
20
80.3187812
11
27.4589222
21
80.5298812
0
LINE
8
DEFAULT_255_2_778
10
27.4589222
20
80.5298812
11
27.7745222
21
80.5274812
0
LINE
8
DEFAULT_255_2_778
10
27.7745222
20
80.5274812
11
27.9587222
21
80.5190812
0
LINE
8
DEFAULT_255_2_778
10
27.9587222
20
80.5190812
11
27.9002222
21
80.3774812
0
LINE
8
DEFAULT_255_2_778
10
27.9002222
20
80.3774812
11
27.7586222
21
80.3187812
0
LINE
8
DEFAULT_255_2_778
10
27.2051222
20
80.3187812
11
27.4589222
21
80.3187812
0
LINE
8
DEFAULT_255_2_778
10
27.2051222
20
80.1186812
11
27.2051222
21
80.3187812
0
LINE
8
DEFAULT_255_2_778
10
1.1053222
20
80.3187812
11
27.2054222
21
80.3187812
0
LINE
8
DEFAULT_255_2_778
10
1.1053222
20
80.1186812
11
27.2054222
21
80.1186812
0
LINE
8
DEFAULT_255_2_778
10
1.1053011
20
80.1186812
11
1.1053011
21
80.3187812
0
LINE
8
DEFAULT_255_2_778
10
0.8516011
20
80.3187812
11
1.1053011
21
80.3187812
0
LINE
8
DEFAULT_255_2_778
10
0.5515011
20
80.3187812
11
0.8516011
21
80.3187812
0
LINE
8
DEFAULT_255_2_778
10
0.5515011
20
80.3187812
11
0.4100011
21
80.3774812
0
LINE
8
DEFAULT_255_2_778
10
0.4100011
20
80.3774812
11
0.3515011
21
80.5190812
0
LINE
8
DEFAULT_255_2_778
10
0.3515011
20
80.5190812
11
0.4692011
21
80.5258812
0
LINE
8
DEFAULT_255_2_778
10
0.4692011
20
80.5258812
11
0.8513011
21
80.5298812
0
LINE
8
DEFAULT_255_2_778
10
0.8513011
20
80.5298812
11
0.8513011
21
80.3187812
0
ARC
8
DEFAULT_255_2_778
10
21.1909669
20
101.55952
40
0.2016402
50
357.7915311
51
78.5705217
0
ARC
8
DEFAULT_255_2_778
10
21.0671823
20
101.1897653
40
0.5905505
50
73.9026655
51
88.5624768
0
ARC
8
DEFAULT_255_2_778
10
21.0414028
20
100.7961196
40
0.9848474
50
87.6376468
51
90.0361441
0
ARC
8
DEFAULT_255_2_778
10
21.0425563
20
100.5341828
40
1.2467854
50
90.0815617
51
93.4007013
0
ARC
8
DEFAULT_255_2_778
10
21.0595695
20
100.2237511
40
1.5576803
50
93.348059
51
95.0646712
0
LINE
8
DEFAULT_255_2_778
10
20.9220573
20
101.7753497
11
20.9220573
21
101.3282497
0
ARC
8
DEFAULT_255_2_778
10
21.0744798
20
102.7509273
40
1.4308195
50
263.8847854
51
267.0197079
0
ARC
8
DEFAULT_255_2_778
10
21.0570018
20
102.4233975
40
1.1028239
50
267.0418048
51
269.9422086
0
ARC
8
DEFAULT_255_2_778
10
21.0662953
20
101.9653756
40
0.6448856
50
269.0754303
51
283.1374364
0
ARC
8
DEFAULT_255_2_778
10
21.1612266
20
101.5864287
40
0.2543584
50
281.7144074
51
315.6947262
0
ARC
8
DEFAULT_255_2_778
10
21.1872414
20
101.5424102
40
0.2054284
50
319.4152186
51
2.6057621
0
ARC
8
DEFAULT_255_2_778
10
20.9635019
20
99.9780248
40
0.9658076
50
90.0275668
51
91.9904045
0
ARC
8
DEFAULT_255_2_778
10
20.9742537
20
100.39634
40
0.5476072
50
75.6066542
51
91.1736586
0
ARC
8
DEFAULT_255_2_778
10
21.0734616
20
100.7502399
40
0.1803379
50
31.4193764
51
78.1881344
0
ARC
8
DEFAULT_255_2_778
10
21.4247319
20
100.8938199
40
0.2644913
50
25.899881
51
69.4309188
0
ARC
8
DEFAULT_255_2_778
10
21.4041914
20
101.5929251
40
0.4655154
50
284.1075396
51
317.2672916
0
ARC
8
DEFAULT_255_2_778
10
21.3960198
20
101.5728849
40
0.4583671
50
319.8012499
51
354.0568136
0
ARC
8
DEFAULT_255_2_778
10
21.0939707
20
101.6256405
40
0.764549
50
352.4680839
51
0.1929453
0
ARC
8
DEFAULT_255_2_778
10
20.9435126
20
101.6281352
40
0.9150028
50
0.005001
51
1.0654743
0
ARC
8
DEFAULT_255_2_778
10
21.3215194
20
101.6335451
40
0.5369633
50
1.2383407
51
28.3988214
0
ARC
8
DEFAULT_255_2_778
10
21.3977122
20
101.6549138
40
0.4601072
50
30.5711703
51
70.7550447
0
ARC
8
DEFAULT_255_2_778
10
21.2368543
20
101.247581
40
0.89787
50
69.6313015
51
84.749485
0
ARC
8
DEFAULT_255_2_778
10
21.1665911
20
100.6512913
40
1.4981666
50
84.1604575
51
90.1776196
0
ARC
8
DEFAULT_255_2_778
10
21.1622845
20
100.2686588
40
1.8807921
50
90.0102894
51
91.3230684
0
LINE
8
DEFAULT_255_2_778
10
21.1188573
20
102.1489497
11
20.4590573
21
102.1489497
0
LINE
8
DEFAULT_255_2_778
10
21.3924573
20
101.5517497
11
21.3924573
21
101.5517497
0
LINE
8
DEFAULT_255_2_778
10
20.4587573
20
102.1489497
11
20.4587573
21
100.1505497
0
LINE
8
DEFAULT_255_2_778
10
20.4587573
20
100.1505497
11
20.9299573
21
100.1505497
0
LINE
8
DEFAULT_255_2_778
10
20.9299573
20
100.1505497
11
20.9299573
21
100.9432497
0
LINE
8
DEFAULT_255_2_778
10
21.2273573
20
100.8442497
11
21.4522573
21
100.1587497
0
LINE
8
DEFAULT_255_2_778
10
21.4522573
20
100.1587497
11
21.9380573
21
100.1505497
0
LINE
8
DEFAULT_255_2_778
10
21.9380573
20
100.1505497
11
21.6626573
21
101.0093497
0
LINE
8
DEFAULT_255_2_778
10
20.4590573
20
102.1489497
11
20.4587573
21
102.1489497
0
ARC
8
DEFAULT_255_2_778
10
22.9414669
20
101.55952
40
0.2016402
50
357.7915311
51
78.5705217
0
ARC
8
DEFAULT_255_2_778
10
22.8176823
20
101.1897653
40
0.5905505
50
73.9026655
51
88.5624768
0
ARC
8
DEFAULT_255_2_778
10
22.7919028
20
100.7961196
40
0.9848474
50
87.6376468
51
90.0361441
0
ARC
8
DEFAULT_255_2_778
10
22.7930563
20
100.5341828
40
1.2467854
50
90.0815617
51
93.4007013
0
ARC
8
DEFAULT_255_2_778
10
22.8100695
20
100.2237511
40
1.5576803
50
93.348059
51
95.0646712
0
LINE
8
DEFAULT_255_2_778
10
22.6725573
20
101.7753497
11
22.6725573
21
101.3282497
0
ARC
8
DEFAULT_255_2_778
10
22.8249798
20
102.7509273
40
1.4308195
50
263.8847854
51
267.0197079
0
ARC
8
DEFAULT_255_2_778
10
22.8075018
20
102.4233975
40
1.1028239
50
267.0418048
51
269.9422086
0
ARC
8
DEFAULT_255_2_778
10
22.8167953
20
101.9653756
40
0.6448856
50
269.0754303
51
283.1374364
0
ARC
8
DEFAULT_255_2_778
10
22.9117266
20
101.5864287
40
0.2543584
50
281.7144074
51
315.6947262
0
ARC
8
DEFAULT_255_2_778
10
22.9377414
20
101.5424102
40
0.2054284
50
319.4152186
51
2.6057621
0
ARC
8
DEFAULT_255_2_778
10
22.7140019
20
99.9780248
40
0.9658076
50
90.0275668
51
91.9904045
0
ARC
8
DEFAULT_255_2_778
10
22.7247537
20
100.39634
40
0.5476072
50
75.6066542
51
91.1736586
0
ARC
8
DEFAULT_255_2_778
10
22.8239616
20
100.7502399
40
0.1803379
50
31.4193764
51
78.1881344
0
ARC
8
DEFAULT_255_2_778
10
23.1752319
20
100.8938199
40
0.2644913
50
25.899881
51
69.4309188
0
ARC
8
DEFAULT_255_2_778
10
23.1546914
20
101.5929251
40
0.4655154
50
284.1075396
51
317.2672916
0
ARC
8
DEFAULT_255_2_778
10
23.1465198
20
101.5728849
40
0.4583671
50
319.8012499
51
354.0568136
0
ARC
8
DEFAULT_255_2_778
10
22.8444707
20
101.6256405
40
0.764549
50
352.4680839
51
0.1929453
0
ARC
8
DEFAULT_255_2_778
10
22.6940126
20
101.6281352
40
0.9150028
50
0.005001
51
1.0654743
0
ARC
8
DEFAULT_255_2_778
10
23.0720194
20
101.6335451
40
0.5369633
50
1.2383407
51
28.3988214
0
ARC
8
DEFAULT_255_2_778
10
23.1482122
20
101.6549138
40
0.4601072
50
30.5711703
51
70.7550447
0
ARC
8
DEFAULT_255_2_778
10
22.9873543
20
101.247581
40
0.89787
50
69.6313015
51
84.749485
0
ARC
8
DEFAULT_255_2_778
10
22.9170911
20
100.6512913
40
1.4981666
50
84.1604575
51
90.1776196
0
ARC
8
DEFAULT_255_2_778
10
22.9127845
20
100.2686588
40
1.8807921
50
90.0102894
51
91.3230684
0
LINE
8
DEFAULT_255_2_778
10
22.8693573
20
102.1489497
11
22.2095573
21
102.1489497
0
LINE
8
DEFAULT_255_2_778
10
23.1429573
20
101.5517497
11
23.1429573
21
101.5517497
0
LINE
8
DEFAULT_255_2_778
10
22.2092573
20
102.1489497
11
22.2092573
21
100.1505497
0
LINE
8
DEFAULT_255_2_778
10
22.2092573
20
100.1505497
11
22.6804573
21
100.1505497
0
LINE
8
DEFAULT_255_2_778
10
22.6804573
20
100.1505497
11
22.6804573
21
100.9432497
0
LINE
8
DEFAULT_255_2_778
10
22.9778573
20
100.8442497
11
23.2027573
21
100.1587497
0
LINE
8
DEFAULT_255_2_778
10
23.2027573
20
100.1587497
11
23.6885573
21
100.1505497
0
LINE
8
DEFAULT_255_2_778
10
23.6885573
20
100.1505497
11
23.4131573
21
101.0093497
0
LINE
8
DEFAULT_255_2_778
10
22.2095573
20
102.1489497
11
22.2092573
21
102.1489497
0
LINE
8
DEFAULT_255_2_778
10
20.0857656
20
100.4654635
11
20.0857656
21
100.1506635
0
LINE
8
DEFAULT_255_2_778
10
20.0857656
20
100.1506635
11
18.9006656
21
100.1506635
0
LINE
8
DEFAULT_255_2_778
10
18.9006656
20
100.1506635
11
18.9006656
21
102.1495635
0
LINE
8
DEFAULT_255_2_778
10
18.9006656
20
102.1495635
11
20.0801656
21
102.1495635
0
LINE
8
DEFAULT_255_2_778
10
20.0801656
20
102.1495635
11
20.0801656
21
101.8346635
0
LINE
8
DEFAULT_255_2_778
10
20.0801656
20
101.8346635
11
19.3012656
21
101.8346635
0
LINE
8
DEFAULT_255_2_778
10
19.3012656
20
101.8346635
11
19.3012656
21
101.3420635
0
LINE
8
DEFAULT_255_2_778
10
19.3012656
20
101.3420635
11
20.0142656
21
101.3420635
0
LINE
8
DEFAULT_255_2_778
10
20.0142656
20
101.3420635
11
20.0142656
21
101.0271635
0
LINE
8
DEFAULT_255_2_778
10
20.0142656
20
101.0271635
11
19.3012656
21
101.0271635
0
LINE
8
DEFAULT_255_2_778
10
19.3012656
20
101.0271635
11
19.3012656
21
100.4657635
0
LINE
8
DEFAULT_255_2_778
10
19.3012656
20
100.4657635
11
20.0857656
21
100.4657635
0
LINE
8
DEFAULT_255_2_778
10
6.1630792
20
102.149826
11
6.6749792
21
102.149826
0
LINE
8
DEFAULT_255_2_778
10
6.6749792
20
102.149826
11
6.6749792
21
100.918726
0
ARC
8
DEFAULT_255_2_778
10
7.3319724
20
100.9063117
40
0.6571105
50
178.9174858
51
195.5445957
0
ARC
8
DEFAULT_255_2_778
10
6.9645667
20
100.7934459
40
0.2730905
50
193.3879313
51
270.0394302
0
ARC
8
DEFAULT_255_2_778
10
6.9945242
20
100.9964956
40
0.4770698
50
266.4223709
51
270.0426362
0
ARC
8
DEFAULT_255_2_778
10
7.0086323
20
100.8394127
40
0.3202821
50
267.5389309
51
303.4314982
0
ARC
8
DEFAULT_255_2_778
10
7.004116
20
100.8090399
40
0.2981285
50
307.3749056
51
348.5884637
0
ARC
8
DEFAULT_255_2_778
10
6.6233602
20
100.9089238
40
0.6914885
50
346.7175945
51
0.8122237
0
LINE
8
DEFAULT_255_2_778
10
7.3147792
20
100.918726
11
7.3147792
21
102.149826
0
LINE
8
DEFAULT_255_2_778
10
7.3147792
20
102.149826
11
7.8587792
21
102.149826
0
LINE
8
DEFAULT_255_2_778
10
7.8587792
20
102.149826
11
7.8587792
21
100.818926
0
ARC
8
DEFAULT_255_2_778
10
6.9582757
20
100.8062231
40
0.9005932
50
343.818863
51
0.8081837
0
ARC
8
DEFAULT_255_2_778
10
7.2817918
20
100.7142761
40
0.5642728
50
284.1393638
51
343.6308924
0
ARC
8
DEFAULT_255_2_778
10
7.1034223
20
101.2474439
40
1.1256713
50
272.8403506
51
286.3144397
0
ARC
8
DEFAULT_255_2_778
10
7.0605842
20
101.7811422
40
1.660917
50
269.9446336
51
273.4039991
0
ARC
8
DEFAULT_255_2_778
10
7.0462848
20
101.7508996
40
1.630723
50
260.1365548
51
270.4460262
0
ARC
8
DEFAULT_255_2_778
10
6.9202457
20
101.0564433
40
0.9249557
50
242.9099071
51
260.4596193
0
ARC
8
DEFAULT_255_2_778
10
6.7809674
20
100.7740841
40
0.6101648
50
186.9425376
51
242.4793065
0
ARC
8
DEFAULT_255_2_778
10
7.1641808
20
100.8619623
40
1.0020263
50
182.46157
51
189.2826154
0
LINE
8
DEFAULT_255_2_778
10
6.1630792
20
100.818926
11
6.1630792
21
102.149826
0
ARC
8
DEFAULT_255_2_778
10
5.2278928
20
101.5470962
40
0.2015256
50
358.871172
51
76.5550157
0
ARC
8
DEFAULT_255_2_778
10
5.0840819
20
101.1651728
40
0.608566
50
71.7413676
51
86.5343905
0
ARC
8
DEFAULT_255_2_778
10
5.0360878
20
100.6505214
40
1.1253028
50
85.6791761
51
90.1303381
0
ARC
8
DEFAULT_255_2_778
10
5.0353199
20
100.2312701
40
1.5445524
50
90.066477
51
92.9225118
0
ARC
8
DEFAULT_255_2_778
10
5.0536143
20
99.8484664
40
1.9277913
50
92.8854548
51
94.5710259
0
LINE
8
DEFAULT_255_2_778
10
4.8999792
20
101.770126
11
4.8999792
21
101.315826
0
ARC
8
DEFAULT_255_2_778
10
5.0734465
20
103.1175882
40
1.8100933
50
264.5007153
51
266.9884814
0
ARC
8
DEFAULT_255_2_778
10
5.0520931
20
102.7071377
40
1.3990878
50
266.9786589
51
269.9325623
0
ARC
8
DEFAULT_255_2_778
10
5.0607509
20
102.1354924
40
0.8275057
50
269.2865107
51
280.8295765
0
ARC
8
DEFAULT_255_2_778
10
5.1578822
20
101.6579496
40
0.3402652
50
279.8736512
51
304.4220213
0
ARC
8
DEFAULT_255_2_778
10
5.2362517
20
101.533456
40
0.1933547
50
306.1194735
51
2.7776575
0
ARC
8
DEFAULT_255_2_778
10
4.9474296
20
99.7236083
40
1.2020328
50
90.0265206
51
91.8330755
0
ARC
8
DEFAULT_255_2_778
10
4.9581261
20
100.2262367
40
0.6994947
50
78.0289204
51
90.9217672
0
ARC
8
DEFAULT_255_2_778
10
5.0600936
20
100.6735429
40
0.2408673
50
47.7057853
51
79.6872845
0
ARC
8
DEFAULT_255_2_778
10
5.1220821
20
100.7518091
40
0.1414238
50
30.9424303
51
44.9435204
0
ARC
8
DEFAULT_255_2_778
10
5.4808439
20
100.8519942
40
0.2884212
50
29.0914472
51
72.0817966
0
ARC
8
DEFAULT_255_2_778
10
5.43946
20
101.6859011
40
0.574407
50
283.092748
51
307.3519901
0
ARC
8
DEFAULT_255_2_778
10
5.5093515
20
101.5702175
40
0.4402866
50
309.2559159
51
355.4779979
0
ARC
8
DEFAULT_255_2_778
10
5.2303721
20
101.6193686
40
0.7227773
50
353.3369444
51
0.1373495
0
ARC
8
DEFAULT_255_2_778
10
5.1159753
20
101.6210451
40
0.8371721
50
0.0038433
51
1.1485591
0
ARC
8
DEFAULT_255_2_778
10
5.4938773
20
101.6376199
40
0.459102
50
0.0257274
51
63.4518721
0
ARC
8
DEFAULT_255_2_778
10
5.3306265
20
101.3230818
40
0.8134581
50
63.0676538
51
79.7930593
0
ARC
8
DEFAULT_255_2_778
10
5.1954504
20
100.625725
40
1.5237619
50
79.437256
51
89.1835054
0
ARC
8
DEFAULT_255_2_778
10
5.1701258
20
100.0131844
40
2.1366655
50
88.7385412
51
90.0099786
0
ARC
8
DEFAULT_255_2_778
10
5.1701438
20
99.8047117
40
2.3451381
50
90.0095308
51
91.2110369
0
LINE
8
DEFAULT_255_2_778
10
5.1205792
20
102.149326
11
4.3781792
21
102.149326
0
LINE
8
DEFAULT_255_2_778
10
6.1630792
20
102.149826
11
6.1630792
21
102.149826
0
LINE
8
DEFAULT_255_2_778
10
5.4293792
20
101.542826
11
5.4293792
21
101.543126
0
LINE
8
DEFAULT_255_2_778
10
4.3784792
20
102.149326
11
4.3784792
21
100.120226
0
LINE
8
DEFAULT_255_2_778
10
4.3784792
20
100.120226
11
4.9089792
21
100.120226
0
LINE
8
DEFAULT_255_2_778
10
4.9089792
20
100.120226
11
4.9089792
21
100.925026
0
LINE
8
DEFAULT_255_2_778
10
5.2433792
20
100.824526
11
5.4962792
21
100.128626
0
LINE
8
DEFAULT_255_2_778
10
5.4962792
20
100.128626
11
6.0429792
21
100.120226
0
LINE
8
DEFAULT_255_2_778
10
6.0429792
20
100.120226
11
5.7328792
21
100.992226
0
LINE
8
DEFAULT_255_2_778
10
4.3781792
20
102.149326
11
4.3784792
21
102.149326
0
LINE
8
DEFAULT_255_2_778
10
9.3509792
20
100.629026
11
9.3509792
21
102.149826
0
LINE
8
DEFAULT_255_2_778
10
9.3509792
20
102.149826
11
9.7237792
21
102.149826
0
LINE
8
DEFAULT_255_2_778
10
9.7237792
20
102.149826
11
9.7237792
21
100.115926
0
LINE
8
DEFAULT_255_2_778
10
9.7237792
20
100.115926
11
9.2480792
21
100.115926
0
LINE
8
DEFAULT_255_2_778
10
9.2480792
20
100.115926
11
8.5048792
21
101.637326
0
LINE
8
DEFAULT_255_2_778
10
8.5048792
20
101.637326
11
8.4992792
21
101.637326
0
LINE
8
DEFAULT_255_2_778
10
8.4992792
20
101.637326
11
8.4992792
21
100.115926
0
LINE
8
DEFAULT_255_2_778
10
8.4992792
20
100.115926
11
8.1265792
21
100.115926
0
LINE
8
DEFAULT_255_2_778
10
8.1265792
20
100.115926
11
8.1265792
21
102.149826
0
LINE
8
DEFAULT_255_2_778
10
8.1265792
20
102.149826
11
8.6048792
21
102.149826
0
LINE
8
DEFAULT_255_2_778
10
8.6048792
20
102.149826
11
9.3454792
21
100.629026
0
LINE
8
DEFAULT_255_2_778
10
9.3454792
20
100.629026
11
9.3509792
21
100.629026
0
ARC
8
DEFAULT_255_2_778
10
11.3059475
20
106.596683
40
4.0261771
50
306.8848984
51
311.3464354
0
ARC
8
DEFAULT_255_2_778
10
12.1828001
20
105.6046579
40
2.7021786
50
311.2841666
51
317.4197566
0
ARC
8
DEFAULT_255_2_778
10
12.8999164
20
104.9497735
40
1.7310374
50
317.3202814
51
326.062845
0
ARC
8
DEFAULT_255_2_778
10
13.4492132
20
104.5840937
40
1.0711652
50
325.8875699
51
339.2943115
0
ARC
8
DEFAULT_255_2_778
10
13.8000645
20
104.4524113
40
0.6964176
50
339.2225013
51
359.492807
0
ARC
8
DEFAULT_255_2_778
10
13.8831134
20
104.4449195
40
0.613343
50
0.1239701
51
25.6755829
0
ARC
8
DEFAULT_255_2_778
10
13.7969924
20
104.4092636
40
0.7064284
50
25.2555519
51
27.2185451
0
ARC
8
DEFAULT_255_2_778
10
13.8572752
20
104.3375335
40
0.6916892
50
34.808465
51
79.4809807
0
ARC
8
DEFAULT_255_2_778
10
13.7687
20
103.9636205
40
1.0756536
50
78.478234
51
90.3779647
0
ARC
8
DEFAULT_255_2_778
10
13.7663988
20
103.5085651
40
1.5306931
50
90.1794639
51
96.9975893
0
ARC
8
DEFAULT_255_2_778
10
13.831853
20
102.9650527
40
2.0781316
50
96.9631767
51
102.3148537
0
ARC
8
DEFAULT_255_2_778
10
13.9805732
20
102.2775492
40
2.7815356
50
102.2873542
51
106.535982
0
ARC
8
DEFAULT_255_2_778
10
14.1374963
20
101.7310377
40
3.3501111
50
106.448524
51
107.6991908
0
ARC
8
DEFAULT_255_2_778
10
14.3426276
20
101.2291808
40
3.4767201
50
107.6446244
51
110.1705986
0
ARC
8
DEFAULT_255_2_778
10
14.0097455
20
102.2807016
40
2.373768
50
104.2263085
51
107.6810036
0
ARC
8
DEFAULT_255_2_778
10
13.8025575
20
103.1034531
40
1.5253317
50
99.5550352
51
104.2773606
0
ARC
8
DEFAULT_255_2_778
10
13.7031589
20
103.7035554
40
0.9170565
50
92.7782715
51
99.6546494
0
ARC
8
DEFAULT_255_2_778
10
13.6863812
20
103.9802995
40
0.6398334
50
90.0331408
51
92.4788247
0
ARC
8
DEFAULT_255_2_778
10
13.6918863
20
104.2092321
40
0.4109427
50
76.4382559
51
90.8191741
0
ARC
8
DEFAULT_255_2_778
10
13.7468605
20
104.4218723
40
0.1913737
50
43.9936508
51
77.5097882
0
ARC
8
DEFAULT_255_2_778
10
13.7482197
20
104.4365854
40
0.1804342
50
2.8288768
51
40.930817
0
ARC
8
DEFAULT_255_2_778
10
13.629423
20
104.4195014
40
0.3001382
50
359.9172051
51
4.9674621
0
ARC
8
DEFAULT_255_2_778
10
13.521907
20
104.4211396
40
0.407659
50
351.5111478
51
359.7087889
0
ARC
8
DEFAULT_255_2_778
10
13.3243567
20
104.4497968
40
0.6072758
50
345.6689149
51
351.5883752
0
ARC
8
DEFAULT_255_2_778
10
13.1395392
20
104.4948691
40
0.7975013
50
343.5754674
51
345.818148
0
ARC
8
DEFAULT_255_2_778
10
12.2372638
20
105.1175719
40
1.8705898
50
319.9003882
51
333.0354708
0
ARC
8
DEFAULT_255_2_778
10
11.5722318
20
105.6698833
40
2.7350501
50
311.2058746
51
320.0236107
0
ARC
8
DEFAULT_255_2_778
10
10.826387
20
106.5092907
40
3.8579224
50
305.7009737
51
311.3270743
0
LINE
8
DEFAULT_255_2_778
10
13.0776969
20
103.3763739
11
13.0776969
21
102.9958739
0
LINE
8
DEFAULT_255_2_778
10
13.0776969
20
102.9958739
11
14.5246969
21
102.9958739
0
ARC
8
DEFAULT_255_2_778
10
14.5761399
20
103.0157932
40
0.0551649
50
175.9986542
51
201.1669974
0
ARC
8
DEFAULT_255_2_778
10
15.9291599
20
103.1021572
40
1.4104662
50
181.3606158
51
183.3538108
0
ARC
8
DEFAULT_255_2_778
10
20.9431832
20
103.2305436
40
6.426131
50
180.4252841
51
181.4434658
0
ARC
8
DEFAULT_255_2_778
10
34.6959469
20
103.3534827
40
20.1794392
50
180.014734
51
180.4844989
0
ARC
8
DEFAULT_255_2_778
10
47.4037112
20
103.3756809
40
32.8872142
50
179.9991411
51
180.0477141
0
LINE
8
DEFAULT_255_2_778
10
14.5164969
20
103.3761739
11
13.7227969
21
103.3761739
0
LINE
8
DEFAULT_255_2_778
10
13.1189969
20
104.9225739
11
13.1437969
21
104.4926739
0
LINE
8
DEFAULT_255_2_778
10
13.7227969
20
103.3761739
11
13.7224969
21
103.3763739
0
ARC
8
DEFAULT_255_2_778
10
11.8918865
20
102.5336308
40
2.22813
50
71.8460692
51
76.9210539
0
ARC
8
DEFAULT_255_2_778
10
12.0480053
20
103.2103885
40
1.5335995
50
76.8808221
51
83.4094534
0
ARC
8
DEFAULT_255_2_778
10
12.0998991
20
103.6494163
40
1.0915174
50
83.4704603
51
89.8394705
0
ARC
8
DEFAULT_255_2_778
10
12.0958901
20
104.0006503
40
0.7403129
50
89.4530411
51
103.8267402
0
ARC
8
DEFAULT_255_2_778
10
12.0334436
20
104.2457825
40
0.4873642
50
103.5853071
51
131.4371192
0
ARC
8
DEFAULT_255_2_778
10
11.9729293
20
104.4319615
40
0.3174342
50
145.6328918
51
158.4560825
0
ARC
8
DEFAULT_255_2_778
10
11.8497285
20
104.4797993
40
0.1852756
50
158.2255812
51
179.230459
0
ARC
8
DEFAULT_255_2_778
10
11.83295
20
104.4880108
40
0.1685776
50
181.9455472
51
234.3627457
0
ARC
8
DEFAULT_255_2_778
10
12.0225079
20
104.7153827
40
0.4643157
50
231.6989353
51
247.6358694
0
ARC
8
DEFAULT_255_2_778
10
12.2618233
20
105.2711476
40
1.0693811
50
247.1080451
51
255.6535133
0
ARC
8
DEFAULT_255_2_778
10
12.4549822
20
105.9731837
40
1.7974343
50
255.2333407
51
258.0271295
0
ARC
8
DEFAULT_255_2_778
10
11.538441
20
102.0557663
40
2.2264814
50
69.6383895
51
75.8665156
0
ARC
8
DEFAULT_255_2_778
10
11.8595889
20
102.9111035
40
1.3128529
50
60.3477887
51
69.7898995
0
ARC
8
DEFAULT_255_2_778
10
12.1539763
20
103.4204185
40
0.7246024
50
44.8812659
51
60.6530379
0
ARC
8
DEFAULT_255_2_778
10
12.3892043
20
103.6454174
40
0.3992124
50
0.1279968
51
45.8226179
0
ARC
8
DEFAULT_255_2_778
10
12.2978789
20
103.6493695
40
0.4905464
50
345.6700878
51
359.6425621
0
ARC
8
DEFAULT_255_2_778
10
12.1078502
20
103.6963998
40
0.6863044
50
336.664207
51
345.7924742
0
ARC
8
DEFAULT_255_2_778
10
11.9358364
20
103.7670371
40
0.8722344
50
333.8373667
51
336.8795891
0
ARC
8
DEFAULT_255_2_778
10
11.9935406
20
103.9006785
40
0.8913059
50
280.8774765
51
324.4491668
0
ARC
8
DEFAULT_255_2_778
10
11.9214155
20
104.2257263
40
1.224161
50
269.6956915
51
281.3216375
0
ARC
8
DEFAULT_255_2_778
10
11.9199149
20
104.6586921
40
1.6571171
50
262.5526129
51
269.8270838
0
ARC
8
DEFAULT_255_2_778
10
11.9883948
20
105.1924588
40
2.1952575
50
256.8857928
51
262.5860805
0
ARC
8
DEFAULT_255_2_778
10
12.1426015
20
105.8603312
40
2.8807004
50
252.3761743
51
256.9126548
0
ARC
8
DEFAULT_255_2_778
10
12.3123195
20
106.4113689
40
3.4572637
50
250.8888843
51
252.4604185
0
ARC
8
DEFAULT_255_2_778
10
-6.7074931
20
106.1267954
40
18.1347776
50
350.5350982
51
351.6122598
0
ARC
8
DEFAULT_255_2_778
10
12.044114
20
105.7232749
40
2.3839426
50
250.1163186
51
255.3325178
0
ARC
8
DEFAULT_255_2_778
10
11.8618988
20
105.0215783
40
1.6589751
50
255.2842081
51
262.1400825
0
ARC
8
DEFAULT_255_2_778
10
11.7947179
20
104.5378232
40
1.1705778
50
262.1594414
51
269.7918492
0
ARC
8
DEFAULT_255_2_778
10
11.7973114
20
104.1743281
40
0.8071039
50
269.5139931
51
283.9716216
0
ARC
8
DEFAULT_255_2_778
10
11.8530789
20
103.9519734
40
0.5778631
50
283.9287913
51
308.7411314
0
ARC
8
DEFAULT_255_2_778
10
11.9962228
20
103.662477
40
0.2715313
50
323.5752847
51
337.589551
0
ARC
8
DEFAULT_255_2_778
10
12.098508
20
103.6206647
40
0.1610308
50
337.4683446
51
359.3059549
0
ARC
8
DEFAULT_255_2_778
10
12.0986942
20
103.6121018
40
0.1609688
50
2.3542811
51
52.2439045
0
ARC
8
DEFAULT_255_2_778
10
11.8994517
20
103.3888292
40
0.4599612
50
49.6500609
51
65.5569144
0
ARC
8
DEFAULT_255_2_778
10
11.6317223
20
102.8259568
40
1.0832226
50
64.984433
51
73.2923564
0
ARC
8
DEFAULT_255_2_778
10
11.3660278
20
101.980867
40
1.9690538
50
72.9570109
51
76.7687893
0
ARC
8
DEFAULT_255_2_778
10
12.1214953
20
105.598604
40
1.7280443
50
250.9995754
51
259.8411686
0
ARC
8
DEFAULT_255_2_778
10
11.8516386
20
104.831033
40
0.9144501
50
236.3536564
51
251.3286337
0
ARC
8
DEFAULT_255_2_778
10
11.5925342
20
104.4569881
40
0.4595845
50
200.1119312
51
237.4074574
0
ARC
8
DEFAULT_255_2_778
10
11.564294
20
104.4364542
40
0.4261132
50
185.8597138
51
198.8248604
0
ARC
8
DEFAULT_255_2_778
10
11.9954097
20
104.4205589
40
0.8554481
50
180.010285
51
181.8494331
0
ARC
8
DEFAULT_255_2_778
10
11.7644291
20
104.4306274
40
0.6245512
50
159.1375364
51
180.9378038
0
ARC
8
DEFAULT_255_2_778
10
11.6505265
20
104.4615548
40
0.5072363
50
116.5719217
51
157.8199006
0
ARC
8
DEFAULT_255_2_778
10
11.8349709
20
104.126751
40
0.8893116
50
103.1213788
51
117.5510998
0
ARC
8
DEFAULT_255_2_778
10
11.9800442
20
103.5353705
40
1.4982023
50
94.7433842
51
103.3903637
0
ARC
8
DEFAULT_255_2_778
10
12.0524674
20
102.747884
40
2.2889915
50
89.8528811
51
94.9199908
0
ARC
8
DEFAULT_255_2_778
10
12.055951
20
101.9975673
40
3.0393016
50
87.4163436
51
89.9548719
0
ARC
8
DEFAULT_255_2_778
10
12.0236429
20
101.2824255
40
3.7551729
50
85.0388046
51
87.4157624
0
ARC
8
DEFAULT_255_2_778
10
11.9532808
20
100.4602775
40
4.5803259
50
83.1956878
51
85.0513351
0
ARC
8
DEFAULT_255_2_778
10
11.8474297
20
99.570641
40
5.4762374
50
81.5514299
51
83.1987991
0
LINE
8
DEFAULT_255_2_778
10
12.6520071
20
104.9874509
11
12.5988071
21
104.6604509
0
ARC
8
DEFAULT_255_2_778
10
2.1255305
20
104.4356369
40
0.1969554
50
359.1187144
51
75.7103283
0
ARC
8
DEFAULT_255_2_778
10
1.9794165
20
104.0620024
40
0.5971386
50
70.9677203
51
85.9188322
0
ARC
8
DEFAULT_255_2_778
10
1.9239042
20
103.5170611
40
1.144769
50
85.0885585
51
90.1717485
0
ARC
8
DEFAULT_255_2_778
10
1.922285
20
103.0451049
40
1.6167209
50
90.0642268
51
92.8368115
0
ARC
8
DEFAULT_255_2_778
10
1.9409085
20
102.6437048
40
2.0185512
50
92.8008992
51
94.4365702
0
LINE
8
DEFAULT_255_2_778
10
1.7847626
20
104.6562076
11
1.7847626
21
104.2088076
0
ARC
8
DEFAULT_255_2_778
10
1.9609185
20
106.0933156
40
1.8927233
50
264.6597512
51
267.0762026
0
ARC
8
DEFAULT_255_2_778
10
1.9392757
20
105.6646318
40
1.4634937
50
267.0663508
51
269.9348665
0
ARC
8
DEFAULT_255_2_778
10
1.9480283
20
105.0674494
40
0.8663731
50
269.3111246
51
280.4668983
0
ARC
8
DEFAULT_255_2_778
10
2.046132
20
104.5668725
40
0.3563463
50
279.5772814
51
302.8181623
0
ARC
8
DEFAULT_255_2_778
10
2.1339134
20
104.4240096
40
0.1887451
50
303.9283724
51
2.6109326
0
ARC
8
DEFAULT_255_2_778
10
1.8320295
20
102.5654422
40
1.258947
50
90.0243364
51
91.7418272
0
ARC
8
DEFAULT_255_2_778
10
1.8427443
20
103.0869319
40
0.7375432
50
78.5382433
51
90.8739473
0
ARC
8
DEFAULT_255_2_778
10
1.9451552
20
103.5578492
40
0.2557568
50
50.304871
51
80.0597362
0
ARC
8
DEFAULT_255_2_778
10
2.0128352
20
103.6493654
40
0.1422549
50
31.932823
51
47.7363738
0
ARC
8
DEFAULT_255_2_778
10
2.3789008
20
103.744568
40
0.2907019
50
29.9974155
51
72.758957
0
ARC
8
DEFAULT_255_2_778
10
2.3325666
20
104.6057951
40
0.5984393
50
282.791427
51
305.5857705
0
ARC
8
DEFAULT_255_2_778
10
2.4176378
20
104.4648245
40
0.434481
50
307.2805711
51
357.1000111
0
ARC
8
DEFAULT_255_2_778
10
2.1457377
20
104.5087094
40
0.7088913
50
354.6686856
51
0.0869134
0
ARC
8
DEFAULT_255_2_778
10
2.053709
20
104.5097214
40
0.8009194
50
0.004534
51
1.1651563
0
ARC
8
DEFAULT_255_2_778
10
2.4034643
20
104.5226971
40
0.4510105
50
0.4205651
51
64.400469
0
ARC
8
DEFAULT_255_2_778
10
2.2267781
20
104.1813482
40
0.8352776
50
63.5874185
51
79.8284916
0
ARC
8
DEFAULT_255_2_778
10
2.0897234
20
103.4751226
40
1.5546404
50
79.4531411
51
88.7244784
0
ARC
8
DEFAULT_255_2_778
10
2.0599208
20
102.8304293
40
2.1998915
50
88.3222322
51
90.017479
0
ARC
8
DEFAULT_255_2_778
10
2.0596234
20
102.5778572
40
2.4524635
50
90.0087325
51
91.1719657
0
LINE
8
DEFAULT_255_2_778
10
2.0094626
20
105.0298076
11
1.2553626
21
105.0298076
0
LINE
8
DEFAULT_255_2_778
10
10.3538626
20
105.0187076
11
10.8978626
21
105.0187076
0
LINE
8
DEFAULT_255_2_778
10
10.8978626
20
105.0187076
11
10.8978626
21
103.0187076
0
LINE
8
DEFAULT_255_2_778
10
10.8978626
20
103.0187076
11
10.4517626
21
103.0187076
0
LINE
8
DEFAULT_255_2_778
10
10.4517626
20
103.0187076
11
10.4517626
21
104.3728076
0
LINE
8
DEFAULT_255_2_778
10
10.4517626
20
104.3728076
11
10.0257626
21
103.0187076
0
LINE
8
DEFAULT_255_2_778
10
10.0257626
20
103.0187076
11
9.6278626
21
103.0187076
0
LINE
8
DEFAULT_255_2_778
10
9.6278626
20
103.0187076
11
9.2026626
21
104.3728076
0
LINE
8
DEFAULT_255_2_778
10
9.2026626
20
104.3728076
11
9.2026626
21
103.0187076
0
LINE
8
DEFAULT_255_2_778
10
9.2026626
20
103.0187076
11
8.7562626
21
103.0187076
0
LINE
8
DEFAULT_255_2_778
10
8.7562626
20
103.0187076
11
8.7562626
21
105.0187076
0
LINE
8
DEFAULT_255_2_778
10
8.7562626
20
105.0187076
11
9.2994626
21
105.0187076
0
LINE
8
DEFAULT_255_2_778
10
9.2994626
20
105.0187076
11
9.8267626
21
103.5756076
0
LINE
8
DEFAULT_255_2_778
10
9.8267626
20
103.5756076
11
10.3535626
21
105.0187076
0
LINE
8
DEFAULT_255_2_778
10
5.4807626
20
105.0187076
11
5.4807626
21
104.6408076
0
LINE
8
DEFAULT_255_2_778
10
5.4807626
20
104.6408076
11
6.3739626
21
104.6408076
0
LINE
8
DEFAULT_255_2_778
10
6.3739626
20
104.6408076
11
5.6294626
21
103.0200076
0
LINE
8
DEFAULT_255_2_778
10
5.6294626
20
103.0200076
11
6.2019626
21
103.0200076
0
LINE
8
DEFAULT_255_2_778
10
6.2019626
20
103.0200076
11
6.9182626
21
104.5863076
0
LINE
8
DEFAULT_255_2_778
10
6.9182626
20
104.5863076
11
6.9182626
21
105.0187076
0
LINE
8
DEFAULT_255_2_778
10
6.9182626
20
105.0187076
11
5.4807626
21
105.0187076
0
LINE
8
DEFAULT_255_2_778
10
7.1124626
20
105.0187076
11
7.1124626
21
104.6408076
0
LINE
8
DEFAULT_255_2_778
10
7.1124626
20
104.6408076
11
8.0056626
21
104.6408076
0
LINE
8
DEFAULT_255_2_778
10
8.0056626
20
104.6408076
11
7.2611626
21
103.0200076
0
LINE
8
DEFAULT_255_2_778
10
7.2611626
20
103.0200076
11
7.8336626
21
103.0200076
0
LINE
8
DEFAULT_255_2_778
10
7.8336626
20
103.0200076
11
8.5499626
21
104.5863076
0
LINE
8
DEFAULT_255_2_778
10
8.5499626
20
104.5863076
11
8.5499626
21
105.0187076
0
LINE
8
DEFAULT_255_2_778
10
8.5499626
20
105.0187076
11
7.1121626
21
105.0187076
0
LINE
8
DEFAULT_255_2_778
10
2.3224626
20
104.4326076
11
2.3224626
21
104.4326076
0
LINE
8
DEFAULT_255_2_778
10
1.2553626
20
105.0298076
11
1.2553626
21
103.0308076
0
LINE
8
DEFAULT_255_2_778
10
1.2553626
20
103.0308076
11
1.7937626
21
103.0308076
0
LINE
8
DEFAULT_255_2_778
10
1.7937626
20
103.0308076
11
1.7937626
21
103.8238076
0
LINE
8
DEFAULT_255_2_778
10
2.1335626
20
103.7246076
11
2.3904626
21
103.0390076
0
LINE
8
DEFAULT_255_2_778
10
2.3904626
20
103.0390076
11
2.9455626
21
103.0308076
0
LINE
8
DEFAULT_255_2_778
10
2.9455626
20
103.0308076
11
2.6306626
21
103.8899076
0
LINE
8
DEFAULT_255_2_778
10
1.2553626
20
105.0298076
11
1.2553626
21
105.0298076
0
ARC
8
DEFAULT_255_2_778
10
3.8355333
20
104.0461104
40
0.8584669
50
1.0538087
51
15.9677734
0
ARC
8
DEFAULT_255_2_778
10
4.1998454
20
104.1562672
40
0.4779412
50
15.28617
51
75.2156589
0
ARC
8
DEFAULT_255_2_778
10
4.0452279
20
103.6838524
40
0.9746013
50
73.5136449
51
87.3778195
0
ARC
8
DEFAULT_255_2_778
10
4.0018889
20
103.127119
40
1.532838
50
86.7115886
51
90.0625784
0
ARC
8
DEFAULT_255_2_778
10
4.0015334
20
102.7676771
40
1.8922795
50
90.0399305
51
92.4922356
0
ARC
8
DEFAULT_255_2_778
10
4.0142366
20
102.4529181
40
2.2072934
50
92.4663849
51
93.7842781
0
ARC
8
DEFAULT_255_2_778
10
4.0290177
20
105.2652775
40
1.8226559
50
264.9492628
51
267.1981108
0
ARC
8
DEFAULT_255_2_778
10
4.0175949
20
105.0312842
40
1.5883838
50
267.1970621
51
269.6115974
0
ARC
8
DEFAULT_255_2_778
10
4.0160328
20
104.8939149
40
1.4510072
50
269.6365065
51
270.0017269
0
ARC
8
DEFAULT_255_2_778
10
4.0251586
20
104.569207
40
1.126336
50
269.5380012
51
280.7575462
0
ARC
8
DEFAULT_255_2_778
10
4.1122369
20
104.1269776
40
0.6756317
50
280.5027633
51
298.5175968
0
ARC
8
DEFAULT_255_2_778
10
4.2069431
20
103.949634
40
0.4745921
50
298.6930573
51
340.358735
0
ARC
8
DEFAULT_255_2_778
10
3.9830524
20
104.0257111
40
0.7110368
50
340.6492964
51
0.8680095
0
ARC
8
DEFAULT_255_2_778
10
3.7376911
20
104.0364152
40
0.9563164
50
0.0040387
51
1.0235844
0
LINE
8
DEFAULT_255_2_778
10
4.039755
20
103.0516988
11
4.0400548
21
103.0516988
0
ARC
8
DEFAULT_255_2_778
10
4.0832972
20
104.8947211
40
1.8435295
50
268.6559276
51
288.2134923
0
ARC
8
DEFAULT_255_2_778
10
4.4079529
20
103.9277029
40
0.8235092
50
287.7862974
51
335.5736994
0
ARC
8
DEFAULT_255_2_778
10
4.2265816
20
103.9925086
40
1.0155712
50
336.4761828
51
352.5902439
0
ARC
8
DEFAULT_255_2_778
10
3.7980324
20
104.0566036
40
1.4488314
50
352.2623164
51
0.1975403
0
ARC
8
DEFAULT_255_2_778
10
3.6308121
20
104.0823481
40
1.6161761
50
359.2643861
51
359.9986799
0
ARC
8
DEFAULT_255_2_778
10
3.9707992
20
104.0921548
40
1.2762271
50
359.5580559
51
12.0651957
0
ARC
8
DEFAULT_255_2_778
10
4.3801549
20
104.182101
40
0.8571162
50
11.9051711
51
32.1018098
0
ARC
8
DEFAULT_255_2_778
10
4.3819633
20
104.140384
40
0.8785041
50
34.4699387
51
79.368048
0
ARC
8
DEFAULT_255_2_778
10
4.1173688
20
103.1151743
40
1.9362297
50
77.2695022
51
90.651597
0
ARC
8
DEFAULT_255_2_778
10
4.0955655
20
102.3272957
40
2.7239833
50
90.0045458
51
90.9573057
0
LINE
8
DEFAULT_255_2_778
10
3.868555
20
104.6553988
11
3.868555
21
103.4496988
0
LINE
8
DEFAULT_255_2_778
10
4.050055
20
105.0508988
11
3.336255
21
105.0508988
0
LINE
8
DEFAULT_255_2_778
10
3.336255
20
105.0508988
11
3.336255
21
103.0516988
0
LINE
8
DEFAULT_255_2_778
10
3.336255
20
103.0516988
11
4.039755
21
103.0516988
0
ARC
8
DEFAULT_255_2_778
10
27.5551284
20
0.3188632
40
0.5000543
50
270.0062229
51
359.9937886
0
ARC
8
DEFAULT_255_2_778
10
0.7552584
20
0.3188847
40
0.5000757
50
180.008676
51
270.0027763
0
LINE
8
DEFAULT_255_2_778
10
28.0469827
20
80.5828089
11
28.0551827
21
19.8189089
0
LINE
8
DEFAULT_255_2_778
10
28.0551827
20
19.8189089
11
28.0551827
21
13.8189089
0
LINE
8
DEFAULT_255_2_778
10
28.0551827
20
13.8189089
11
28.0551827
21
0.3188089
0
LINE
8
DEFAULT_255_2_778
10
27.5551827
20
-0.1811911
11
0.7552827
21
-0.1811911
0
LINE
8
DEFAULT_255_2_778
10
0.2551827
20
0.3188089
11
0.2551827
21
13.8189089
0
LINE
8
DEFAULT_255_2_778
10
0.2551827
20
13.8189089
11
0.2551827
21
19.8189089
0
LINE
8
DEFAULT_255_2_778
10
0.2551827
20
19.8189089
11
0.2551827
21
80.1188089
0
LINE
8
DEFAULT_255_2_778
10
0.2551827
20
80.1188089
11
0.2657827
21
80.5580089
0
LINE
8
DEFAULT_255_2_778
10
0.6215827
20
105.8188089
11
27.5564827
21
105.8188089
0
LINE
8
DEFAULT_255_2_778
10
27.5564827
20
105.8188089
11
27.6636827
21
105.8072089
0
LINE
8
DEFAULT_255_2_778
10
27.6636827
20
105.8072089
11
27.7445827
21
105.7818089
0
LINE
8
DEFAULT_255_2_778
10
27.7445827
20
105.7818089
11
27.9041827
21
105.6540089
0
LINE
8
DEFAULT_255_2_778
10
27.9041827
20
105.6540089
11
27.9969827
21
105.5071089
0
LINE
8
DEFAULT_255_2_778
10
27.9969827
20
105.5071089
11
28.0443827
21
105.2846089
0
LINE
8
DEFAULT_255_2_778
10
28.0443827
20
105.2846089
11
28.0443827
21
80.5191089
0
LINE
8
DEFAULT_255_2_778
10
28.0443827
20
80.5191089
11
28.0334827
21
80.4529089
0
LINE
8
DEFAULT_255_2_778
10
28.0334827
20
80.4529089
11
27.9990827
21
80.3902089
0
LINE
8
DEFAULT_255_2_778
10
27.9990827
20
80.3902089
11
27.9403827
21
80.3415089
0
LINE
8
DEFAULT_255_2_778
10
27.9403827
20
80.3415089
11
27.8509827
21
80.3188089
0
LINE
8
DEFAULT_255_2_778
10
27.8509827
20
80.3188089
11
27.7585827
21
80.3188089
0
LINE
8
DEFAULT_255_2_778
10
0.5512827
20
80.3188089
11
0.4591827
21
80.3188089
0
LINE
8
DEFAULT_255_2_778
10
0.4591827
20
80.3188089
11
0.3697827
21
80.3415089
0
LINE
8
DEFAULT_255_2_778
10
0.3697827
20
80.3415089
11
0.3109827
21
80.3902089
0
LINE
8
DEFAULT_255_2_778
10
0.3109827
20
80.3902089
11
0.2765827
21
80.4529089
0
LINE
8
DEFAULT_255_2_778
10
0.2765827
20
80.4529089
11
0.2657827
21
80.5191089
0
LINE
8
DEFAULT_255_2_778
10
0.2657827
20
80.5191089
11
0.2657827
21
105.2846089
0
LINE
8
DEFAULT_255_2_778
10
0.2657827
20
105.2846089
11
0.2834827
21
105.4217089
0
LINE
8
DEFAULT_255_2_778
10
0.2834827
20
105.4217089
11
0.3461827
21
105.5714089
0
LINE
8
DEFAULT_255_2_778
10
0.3461827
20
105.5714089
11
0.4334827
21
105.6839089
0
LINE
8
DEFAULT_255_2_778
10
0.4334827
20
105.6839089
11
0.5218827
21
105.7847089
0
LINE
8
DEFAULT_255_2_778
10
0.5218827
20
105.7847089
11
0.5631827
21
105.8011089
0
LINE
8
DEFAULT_255_2_778
10
0.5631827
20
105.8011089
11
0.6210827
21
105.8175089
0
ARC
8
DEFAULT_255_2_778
10
12.8126523
20
4.8447355
40
0.5000969
50
179.9996485
51
270.0003515
0
ARC
8
DEFAULT_255_2_778
10
23.1125584
20
4.8447355
40
0.5000969
50
269.9996485
51
0.0003515
0
ARC
8
DEFAULT_255_2_778
10
23.1129079
20
76.4447364
40
0.4997474
50
359.9887792
51
45.0206486
0
ARC
8
DEFAULT_255_2_778
10
23.1125811
20
76.4448171
40
0.4999214
50
44.9876157
51
90.0029524
0
ARC
8
DEFAULT_255_2_778
10
12.8125575
20
76.4449911
40
0.4997474
50
89.9887792
51
135.0206486
0
ARC
8
DEFAULT_255_2_778
10
12.8123028
20
76.4447364
40
0.4997474
50
134.9793514
51
180.0112208
0
LINE
8
DEFAULT_255_2_778
10
12.8126554
20
4.3446386
11
23.1125554
21
4.3446386
0
LINE
8
DEFAULT_255_2_778
10
23.6126554
20
4.8447386
11
23.6126554
21
76.4446386
0
LINE
8
DEFAULT_255_2_778
10
23.1125554
20
76.9447386
11
12.8126554
21
76.9447386
0
LINE
8
DEFAULT_255_2_778
10
12.3125554
20
76.4446386
11
12.3125554
21
4.8447386
0
ARC
8
DEFAULT_255_2_778
10
17.9346103
20
8.6578081
40
1.297198
50
148.2770855
51
180.1324007
0
ARC
8
DEFAULT_255_2_778
10
17.9337585
20
8.6583248
40
1.2962017
50
97.0226393
51
148.276717
0
ARC
8
DEFAULT_255_2_778
10
17.9369675
20
8.6305568
40
1.3241537
50
89.9849309
51
97.0135513
0
ARC
8
DEFAULT_255_2_778
10
17.9403134
20
8.6575159
40
1.297198
50
58.2770855
51
90.1324007
0
ARC
8
DEFAULT_255_2_778
10
17.9408301
20
8.6583677
40
1.2962017
50
7.0226393
51
58.276717
0
ARC
8
DEFAULT_255_2_778
10
17.9130621
20
8.6551587
40
1.3241537
50
359.9849309
51
7.0135513
0
ARC
8
DEFAULT_255_2_778
10
17.9400212
20
8.6518129
40
1.297198
50
328.2770855
51
0.1324007
0
ARC
8
DEFAULT_255_2_778
10
17.940873
20
8.6512961
40
1.2962017
50
277.0226393
51
328.276717
0
ARC
8
DEFAULT_255_2_778
10
17.937664
20
8.6790642
40
1.3241537
50
269.9849309
51
277.0135513
0
ARC
8
DEFAULT_255_2_778
10
17.9343182
20
8.652105
40
1.297198
50
238.2770855
51
270.1324007
0
ARC
8
DEFAULT_255_2_778
10
17.9338014
20
8.6512532
40
1.2962017
50
187.0226393
51
238.276717
0
ARC
8
DEFAULT_255_2_778
10
17.9615694
20
8.6544622
40
1.3241537
50
179.9849309
51
187.0135513
0
ARC
8
DEFAULT_255_2_778
10
13.8124272
20
75.444899
40
0.5000115
50
90.0242252
51
179.9986839
0
ARC
8
DEFAULT_255_2_778
10
13.8124914
20
5.844886
40
0.5000756
50
179.9972001
51
269.9913338
0
ARC
8
DEFAULT_255_2_778
10
22.1124188
20
5.8449074
40
0.5000969
50
269.9996485
51
0.0003515
0
ARC
8
DEFAULT_255_2_778
10
22.1124201
20
75.4448641
40
0.5000956
50
0.0053149
51
45.0041129
0
ARC
8
DEFAULT_255_2_778
10
22.1125092
20
75.4449111
40
0.4999994
50
45.0075237
51
90.0107106
0
ARC
8
DEFAULT_255_2_778
10
19.5415292
20
65.9892839
40
1.4958871
50
359.9473959
51
34.3318016
0
ARC
8
DEFAULT_255_2_778
10
19.5383586
20
65.9894459
40
1.4984153
50
34.2583099
51
77.6006949
0
ARC
8
DEFAULT_255_2_778
10
19.5351762
20
65.973559
40
1.514615
50
77.6121623
51
80.9961105
0
ARC
8
DEFAULT_255_2_778
10
16.337476
20
66.4926838
40
1.5022485
50
81.0179043
51
84.5858442
0
ARC
8
DEFAULT_255_2_778
10
16.3376946
20
66.4949746
40
1.4999472
50
84.5859002
51
89.9997483
0
ARC
8
DEFAULT_255_2_778
10
16.3376896
20
66.4947565
40
1.5001654
50
89.9995601
51
130.5047439
0
ARC
8
DEFAULT_255_2_778
10
16.3374286
20
66.494734
40
1.5000129
50
130.4966047
51
179.9970773
0
ARC
8
DEFAULT_255_2_778
10
16.337533
20
14.7950352
40
1.5001173
50
180.0124014
51
229.5015595
0
ARC
8
DEFAULT_255_2_778
10
16.337579
20
14.7948949
40
1.5000406
50
229.4967437
51
269.9960717
0
ARC
8
DEFAULT_255_2_778
10
16.3374644
20
14.7941238
40
1.4992696
50
270.0004522
51
275.4592823
0
ARC
8
DEFAULT_255_2_778
10
16.3372353
20
14.7964787
40
1.5016356
50
275.4594356
51
278.9950907
0
ARC
8
DEFAULT_255_2_778
10
19.539176
20
15.2979569
40
1.4960087
50
278.9617076
51
313.3440316
0
ARC
8
DEFAULT_255_2_778
10
19.5387691
20
15.3011841
40
1.4986361
50
313.2706599
51
356.6077196
0
ARC
8
DEFAULT_255_2_778
10
19.5224438
20
15.3018444
40
1.514972
50
356.6193223
51
0.0024976
0
ARC
8
DEFAULT_255_2_778
10
17.9346103
20
72.6380081
40
1.297198
50
148.2770855
51
180.1324007
0
ARC
8
DEFAULT_255_2_778
10
17.9337585
20
72.6385248
40
1.2962017
50
97.0226393
51
148.276717
0
ARC
8
DEFAULT_255_2_778
10
17.9369675
20
72.6107568
40
1.3241537
50
89.9849309
51
97.0135513
0
ARC
8
DEFAULT_255_2_778
10
17.9403134
20
72.6377159
40
1.297198
50
58.2770855
51
90.1324007
0
ARC
8
DEFAULT_255_2_778
10
17.9408301
20
72.6385677
40
1.2962017
50
7.0226393
51
58.276717
0
ARC
8
DEFAULT_255_2_778
10
17.9130621
20
72.6353587
40
1.3241537
50
359.9849309
51
7.0135513
0
ARC
8
DEFAULT_255_2_778
10
17.9400212
20
72.6320129
40
1.297198
50
328.2770855
51
0.1324007
0
ARC
8
DEFAULT_255_2_778
10
17.940873
20
72.6314961
40
1.2962017
50
277.0226393
51
328.276717
0
ARC
8
DEFAULT_255_2_778
10
17.937664
20
72.6592642
40
1.3241537
50
269.9849309
51
277.0135513
0
ARC
8
DEFAULT_255_2_778
10
17.9343182
20
72.632305
40
1.297198
50
238.2770855
51
270.1324007
0
ARC
8
DEFAULT_255_2_778
10
17.9338014
20
72.6314532
40
1.2962017
50
187.0226393
51
238.276717
0
ARC
8
DEFAULT_255_2_778
10
17.9615694
20
72.6346622
40
1.3241537
50
179.9849309
51
187.0135513
0
LINE
8
DEFAULT_255_2_778
10
22.0624158
20
11.4049105
11
13.8124158
21
11.4049105
0
LINE
8
DEFAULT_255_2_778
10
16.6374158
20
8.6548105
11
16.6374158
21
8.6548105
0
LINE
8
DEFAULT_255_2_778
10
21.8624158
20
75.5949105
11
21.8624158
21
75.7949105
0
LINE
8
DEFAULT_255_2_778
10
21.8624158
20
75.7949105
11
22.0624158
21
75.7949105
0
LINE
8
DEFAULT_255_2_778
10
22.0624158
20
75.7949105
11
22.0624158
21
75.5949105
0
LINE
8
DEFAULT_255_2_778
10
22.0624158
20
75.5949105
11
21.8624158
21
75.5949105
0
LINE
8
DEFAULT_255_2_778
10
13.3124158
20
75.4449105
11
13.3124158
21
5.8449105
0
LINE
8
DEFAULT_255_2_778
10
13.8124158
20
5.3448105
11
22.1124158
21
5.3448105
0
LINE
8
DEFAULT_255_2_778
10
22.6125158
20
5.8449105
11
22.6125158
21
75.4449105
0
LINE
8
DEFAULT_255_2_778
10
22.1124158
20
75.9449105
11
13.8122158
21
75.9449105
0
LINE
8
DEFAULT_255_2_778
10
22.0624158
20
69.8849105
11
13.8124158
21
69.8849105
0
LINE
8
DEFAULT_255_2_778
10
13.8124158
20
69.8849105
11
13.8124158
21
5.9050105
0
LINE
8
DEFAULT_255_2_778
10
13.8124158
20
5.9050105
11
22.0624158
21
5.9050105
0
LINE
8
DEFAULT_255_2_778
10
22.0624158
20
5.9050105
11
22.0624158
21
75.3848105
0
LINE
8
DEFAULT_255_2_778
10
22.0624158
20
75.3848105
11
13.8124158
21
75.3848105
0
LINE
8
DEFAULT_255_2_778
10
13.8124158
20
75.3848105
11
13.8124158
21
69.8849105
0
LINE
8
DEFAULT_255_2_778
10
21.0374158
20
15.3016105
11
21.0374158
21
65.9879105
0
LINE
8
DEFAULT_255_2_778
10
19.7722158
20
67.4695105
11
16.5720158
21
67.9765105
0
LINE
8
DEFAULT_255_2_778
10
14.8374158
20
66.4948105
11
14.8374158
21
14.7947105
0
LINE
8
DEFAULT_255_2_778
10
16.5720158
20
13.3133105
11
19.7722158
21
13.8202105
0
LINE
8
DEFAULT_255_2_778
10
21.0374158
20
15.3019105
11
21.0374158
21
15.3016105
0
LINE
8
DEFAULT_255_2_778
10
22.1124158
20
5.3454105
11
22.1124158
21
75.9441105
0
LINE
8
DEFAULT_255_2_778
10
22.0624158
20
75.9449105
11
22.0624158
21
75.8748105
0
LINE
8
DEFAULT_255_2_778
10
22.0624158
20
75.8748105
11
22.0325158
21
75.8449105
0
LINE
8
DEFAULT_255_2_778
10
22.0325158
20
75.8449105
11
21.9325158
21
75.8449105
0
LINE
8
DEFAULT_255_2_778
10
21.9325158
20
75.5449105
11
22.0325158
21
75.5449105
0
LINE
8
DEFAULT_255_2_778
10
22.0325158
20
75.5449105
11
22.0624158
21
75.5150105
0
LINE
8
DEFAULT_255_2_778
10
22.0624158
20
75.5150105
11
22.0624158
21
75.3851105
0
LINE
8
DEFAULT_255_2_778
10
22.0124158
20
75.5949105
11
22.0124158
21
75.5449105
0
LINE
8
DEFAULT_255_2_778
10
22.0124158
20
75.5449105
11
22.0124158
21
75.3851105
0
LINE
8
DEFAULT_255_2_778
10
22.0124158
20
75.9452105
11
22.0124158
21
75.8452105
0
LINE
8
DEFAULT_255_2_778
10
22.0124158
20
75.8452105
11
22.0124158
21
75.7947105
0
LINE
8
DEFAULT_255_2_778
10
22.0624158
20
49.8351105
11
22.1124158
21
49.8351105
0
LINE
8
DEFAULT_255_2_778
10
22.0624158
20
42.2151105
11
22.1124158
21
42.2151105
0
LINE
8
DEFAULT_255_2_778
10
22.0624158
20
41.6150105
11
22.1124158
21
41.6150105
0
LINE
8
DEFAULT_255_2_778
10
22.0624158
20
44.7551105
11
22.1124158
21
44.7551105
0
LINE
8
DEFAULT_255_2_778
10
22.0624158
20
44.1550105
11
22.1124158
21
44.1550105
0
LINE
8
DEFAULT_255_2_778
10
22.0624158
20
47.2951105
11
22.1124158
21
47.2951105
0
LINE
8
DEFAULT_255_2_778
10
22.0624158
20
46.6950105
11
22.1124158
21
46.6950105
0
LINE
8
DEFAULT_255_2_778
10
22.0624158
20
49.2350105
11
22.1124158
21
49.2350105
0
LINE
8
DEFAULT_255_2_778
10
22.0624158
20
43.0451105
11
22.1124158
21
43.0451105
0
LINE
8
DEFAULT_255_2_778
10
22.0624158
20
44.0449105
11
22.1124158
21
44.0449105
0
LINE
8
DEFAULT_255_2_778
10
22.1124158
20
37.2449105
11
22.0624158
21
37.2449105
0
LINE
8
DEFAULT_255_2_778
10
22.0624158
20
32.0548105
11
22.1124158
21
32.0548105
0
LINE
8
DEFAULT_255_2_778
10
22.0624158
20
34.5948105
11
22.1124158
21
34.5948105
0
LINE
8
DEFAULT_255_2_778
10
22.0624158
20
33.9947105
11
22.1124158
21
33.9947105
0
LINE
8
DEFAULT_255_2_778
10
22.0624158
20
37.1348105
11
22.1124158
21
37.1348105
0
LINE
8
DEFAULT_255_2_778
10
22.0624158
20
36.5347105
11
22.1124158
21
36.5347105
0
LINE
8
DEFAULT_255_2_778
10
22.0624158
20
39.6748105
11
22.1124158
21
39.6748105
0
LINE
8
DEFAULT_255_2_778
10
22.0624158
20
39.0747105
11
22.1124158
21
39.0747105
0
LINE
8
DEFAULT_255_2_778
10
22.1124158
20
37.3147105
11
22.0624158
21
37.3147105
0
LINE
8
DEFAULT_255_2_778
10
22.0624158
20
37.6147105
11
22.1124158
21
37.6147105
0
LINE
8
DEFAULT_255_2_778
10
16.9173158
20
57.3249105
11
16.9173158
21
56.5348105
0
LINE
8
DEFAULT_255_2_778
10
16.9173158
20
56.5348105
11
16.4172158
21
56.5348105
0
LINE
8
DEFAULT_255_2_778
10
16.4172158
20
56.5348105
11
16.4172158
21
57.7749105
0
LINE
8
DEFAULT_255_2_778
10
16.4172158
20
57.7749105
11
16.9173158
21
57.7749105
0
LINE
8
DEFAULT_255_2_778
10
16.9173158
20
57.7749105
11
16.9173158
21
57.3249105
0
LINE
8
DEFAULT_255_2_778
10
16.9173158
20
59.8649105
11
16.9173158
21
59.0748105
0
LINE
8
DEFAULT_255_2_778
10
16.9173158
20
59.0748105
11
16.4172158
21
59.0748105
0
LINE
8
DEFAULT_255_2_778
10
16.4172158
20
59.0748105
11
16.4172158
21
60.3149105
0
LINE
8
DEFAULT_255_2_778
10
16.4172158
20
60.3149105
11
16.9173158
21
60.3149105
0
LINE
8
DEFAULT_255_2_778
10
16.9173158
20
60.3149105
11
16.9173158
21
59.8649105
0
LINE
8
DEFAULT_255_2_778
10
16.9173158
20
61.6148105
11
16.9173158
21
62.8549105
0
LINE
8
DEFAULT_255_2_778
10
16.9173158
20
62.8549105
11
16.4172158
21
62.8549105
0
LINE
8
DEFAULT_255_2_778
10
16.4172158
20
62.8549105
11
16.4172158
21
61.6148105
0
LINE
8
DEFAULT_255_2_778
10
16.4172158
20
61.6148105
11
16.9173158
21
61.6148105
0
LINE
8
DEFAULT_255_2_778
10
16.9173158
20
64.6049105
11
16.9173158
21
65.3949105
0
LINE
8
DEFAULT_255_2_778
10
16.9173158
20
65.3949105
11
16.4172158
21
65.3949105
0
LINE
8
DEFAULT_255_2_778
10
16.4172158
20
65.3949105
11
16.4172158
21
64.1548105
0
LINE
8
DEFAULT_255_2_778
10
16.4172158
20
64.1548105
11
16.9173158
21
64.1548105
0
LINE
8
DEFAULT_255_2_778
10
16.9173158
20
64.1548105
11
16.9173158
21
64.6049105
0
LINE
8
DEFAULT_255_2_778
10
19.4573158
20
57.3249105
11
19.4573158
21
57.7749105
0
LINE
8
DEFAULT_255_2_778
10
19.4573158
20
57.7749105
11
18.9572158
21
57.7749105
0
LINE
8
DEFAULT_255_2_778
10
18.9572158
20
57.7749105
11
18.9572158
21
56.5348105
0
LINE
8
DEFAULT_255_2_778
10
18.9572158
20
56.5348105
11
19.4573158
21
56.5348105
0
LINE
8
DEFAULT_255_2_778
10
19.4573158
20
56.5348105
11
19.4573158
21
57.3249105
0
LINE
8
DEFAULT_255_2_778
10
19.4573158
20
59.8649105
11
19.4573158
21
59.0748105
0
LINE
8
DEFAULT_255_2_778
10
19.4573158
20
59.0748105
11
18.9572158
21
59.0748105
0
LINE
8
DEFAULT_255_2_778
10
18.9572158
20
59.0748105
11
18.9572158
21
60.3149105
0
LINE
8
DEFAULT_255_2_778
10
18.9572158
20
60.3149105
11
19.4573158
21
60.3149105
0
LINE
8
DEFAULT_255_2_778
10
19.4573158
20
60.3149105
11
19.4573158
21
59.8649105
0
LINE
8
DEFAULT_255_2_778
10
18.9572158
20
62.4049105
11
18.9572158
21
61.6148105
0
LINE
8
DEFAULT_255_2_778
10
18.9572158
20
61.6148105
11
19.4573158
21
61.6148105
0
LINE
8
DEFAULT_255_2_778
10
19.4573158
20
61.6148105
11
19.4573158
21
62.8549105
0
LINE
8
DEFAULT_255_2_778
10
19.4573158
20
62.8549105
11
18.9572158
21
62.8549105
0
LINE
8
DEFAULT_255_2_778
10
18.9572158
20
62.8549105
11
18.9572158
21
62.4049105
0
LINE
8
DEFAULT_255_2_778
10
19.4573158
20
64.6049105
11
19.4573158
21
65.3949105
0
LINE
8
DEFAULT_255_2_778
10
19.4573158
20
65.3949105
11
18.9572158
21
65.3949105
0
LINE
8
DEFAULT_255_2_778
10
18.9572158
20
65.3949105
11
18.9572158
21
64.1548105
0
LINE
8
DEFAULT_255_2_778
10
18.9572158
20
64.1548105
11
19.4573158
21
64.1548105
0
LINE
8
DEFAULT_255_2_778
10
19.4573158
20
64.1548105
11
19.4573158
21
64.6049105
0
LINE
8
DEFAULT_255_2_778
10
19.4573158
20
47.1649105
11
19.4573158
21
46.3748105
0
LINE
8
DEFAULT_255_2_778
10
19.4573158
20
46.3748105
11
18.9572158
21
46.3748105
0
LINE
8
DEFAULT_255_2_778
10
18.9572158
20
46.3748105
11
18.9572158
21
47.6149105
0
LINE
8
DEFAULT_255_2_778
10
18.9572158
20
47.6149105
11
19.4573158
21
47.6149105
0
LINE
8
DEFAULT_255_2_778
10
19.4573158
20
47.6149105
11
19.4573158
21
47.1649105
0
LINE
8
DEFAULT_255_2_778
10
19.4573158
20
49.3649105
11
19.4573158
21
50.1549105
0
LINE
8
DEFAULT_255_2_778
10
19.4573158
20
50.1549105
11
18.9572158
21
50.1549105
0
LINE
8
DEFAULT_255_2_778
10
18.9572158
20
50.1549105
11
18.9572158
21
48.9148105
0
LINE
8
DEFAULT_255_2_778
10
18.9572158
20
48.9148105
11
19.4573158
21
48.9148105
0
LINE
8
DEFAULT_255_2_778
10
19.4573158
20
48.9148105
11
19.4573158
21
49.3649105
0
LINE
8
DEFAULT_255_2_778
10
19.4573158
20
52.2449105
11
19.4573158
21
51.4548105
0
LINE
8
DEFAULT_255_2_778
10
19.4573158
20
51.4548105
11
18.9572158
21
51.4548105
0
LINE
8
DEFAULT_255_2_778
10
18.9572158
20
51.4548105
11
18.9572158
21
52.6949105
0
LINE
8
DEFAULT_255_2_778
10
18.9572158
20
52.6949105
11
19.4573158
21
52.6949105
0
LINE
8
DEFAULT_255_2_778
10
19.4573158
20
52.6949105
11
19.4573158
21
52.2449105
0
LINE
8
DEFAULT_255_2_778
10
19.4573158
20
54.7849105
11
19.4573158
21
53.9948105
0
LINE
8
DEFAULT_255_2_778
10
19.4573158
20
53.9948105
11
18.9572158
21
53.9948105
0
LINE
8
DEFAULT_255_2_778
10
18.9572158
20
53.9948105
11
18.9572158
21
55.2349105
0
LINE
8
DEFAULT_255_2_778
10
18.9572158
20
55.2349105
11
19.4573158
21
55.2349105
0
LINE
8
DEFAULT_255_2_778
10
19.4573158
20
55.2349105
11
19.4573158
21
54.7849105
0
LINE
8
DEFAULT_255_2_778
10
16.4172158
20
46.5066105
11
16.4172158
21
47.6149105
0
LINE
8
DEFAULT_255_2_778
10
16.4172158
20
47.6149105
11
16.9173158
21
47.6149105
0
LINE
8
DEFAULT_255_2_778
10
16.9173158
20
47.6149105
11
16.9173158
21
46.3748105
0
LINE
8
DEFAULT_255_2_778
10
16.9173158
20
46.3748105
11
16.4172158
21
46.3748105
0
LINE
8
DEFAULT_255_2_778
10
16.4172158
20
46.3748105
11
16.4172158
21
46.5066105
0
LINE
8
DEFAULT_255_2_778
10
16.9173158
20
49.3649105
11
16.9173158
21
50.1549105
0
LINE
8
DEFAULT_255_2_778
10
16.9173158
20
50.1549105
11
16.4172158
21
50.1549105
0
LINE
8
DEFAULT_255_2_778
10
16.4172158
20
50.1549105
11
16.4172158
21
48.9148105
0
LINE
8
DEFAULT_255_2_778
10
16.4172158
20
48.9148105
11
16.9173158
21
48.9148105
0
LINE
8
DEFAULT_255_2_778
10
16.9173158
20
48.9148105
11
16.9173158
21
49.3649105
0
LINE
8
DEFAULT_255_2_778
10
16.4172158
20
52.6949105
11
16.9173158
21
52.6949105
0
LINE
8
DEFAULT_255_2_778
10
16.9173158
20
52.6949105
11
16.9173158
21
51.4548105
0
LINE
8
DEFAULT_255_2_778
10
16.9173158
20
51.4548105
11
16.4172158
21
51.4548105
0
LINE
8
DEFAULT_255_2_778
10
16.4172158
20
51.4548105
11
16.4172158
21
52.6949105
0
LINE
8
DEFAULT_255_2_778
10
16.9173158
20
54.4449105
11
16.9173158
21
55.2349105
0
LINE
8
DEFAULT_255_2_778
10
16.9173158
20
55.2349105
11
16.4172158
21
55.2349105
0
LINE
8
DEFAULT_255_2_778
10
16.4172158
20
55.2349105
11
16.4172158
21
53.9948105
0
LINE
8
DEFAULT_255_2_778
10
16.4172158
20
53.9948105
11
16.9173158
21
53.9948105
0
LINE
8
DEFAULT_255_2_778
10
16.9173158
20
53.9948105
11
16.9173158
21
54.4449105
0
LINE
8
DEFAULT_255_2_778
10
19.4573158
20
36.6649105
11
19.4573158
21
37.4549105
0
LINE
8
DEFAULT_255_2_778
10
19.4573158
20
37.4549105
11
18.9572158
21
37.4549105
0
LINE
8
DEFAULT_255_2_778
10
18.9572158
20
37.4549105
11
18.9572158
21
36.2148105
0
LINE
8
DEFAULT_255_2_778
10
18.9572158
20
36.2148105
11
19.4573158
21
36.2148105
0
LINE
8
DEFAULT_255_2_778
10
19.4573158
20
36.2148105
11
19.4573158
21
36.6649105
0
LINE
8
DEFAULT_255_2_778
10
19.4573158
20
39.2049105
11
19.4573158
21
39.9949105
0
LINE
8
DEFAULT_255_2_778
10
19.4573158
20
39.9949105
11
18.9572158
21
39.9949105
0
LINE
8
DEFAULT_255_2_778
10
18.9572158
20
39.9949105
11
18.9572158
21
38.7548105
0
LINE
8
DEFAULT_255_2_778
10
18.9572158
20
38.7548105
11
19.4573158
21
38.7548105
0
LINE
8
DEFAULT_255_2_778
10
19.4573158
20
38.7548105
11
19.4573158
21
39.2049105
0
LINE
8
DEFAULT_255_2_778
10
19.4573158
20
42.0849105
11
19.4573158
21
41.2948105
0
LINE
8
DEFAULT_255_2_778
10
19.4573158
20
41.2948105
11
18.9572158
21
41.2948105
0
LINE
8
DEFAULT_255_2_778
10
18.9572158
20
41.2948105
11
18.9572158
21
42.5349105
0
LINE
8
DEFAULT_255_2_778
10
18.9572158
20
42.5349105
11
19.4573158
21
42.5349105
0
LINE
8
DEFAULT_255_2_778
10
19.4573158
20
42.5349105
11
19.4573158
21
42.0849105
0
LINE
8
DEFAULT_255_2_778
10
18.9572158
20
45.0749105
11
19.4573158
21
45.0749105
0
LINE
8
DEFAULT_255_2_778
10
19.4573158
20
45.0749105
11
19.4573158
21
43.8348105
0
LINE
8
DEFAULT_255_2_778
10
19.4573158
20
43.8348105
11
18.9572158
21
43.8348105
0
LINE
8
DEFAULT_255_2_778
10
18.9572158
20
43.8348105
11
18.9572158
21
45.0749105
0
LINE
8
DEFAULT_255_2_778
10
16.9173158
20
36.6649105
11
16.9173158
21
37.4549105
0
LINE
8
DEFAULT_255_2_778
10
16.9173158
20
37.4549105
11
16.4172158
21
37.4549105
0
LINE
8
DEFAULT_255_2_778
10
16.4172158
20
37.4549105
11
16.4172158
21
36.2148105
0
LINE
8
DEFAULT_255_2_778
10
16.4172158
20
36.2148105
11
16.9173158
21
36.2148105
0
LINE
8
DEFAULT_255_2_778
10
16.9173158
20
36.2148105
11
16.9173158
21
36.6649105
0
LINE
8
DEFAULT_255_2_778
10
16.9173158
20
39.2049105
11
16.9173158
21
39.9949105
0
LINE
8
DEFAULT_255_2_778
10
16.9173158
20
39.9949105
11
16.4172158
21
39.9949105
0
LINE
8
DEFAULT_255_2_778
10
16.4172158
20
39.9949105
11
16.4172158
21
38.7548105
0
LINE
8
DEFAULT_255_2_778
10
16.4172158
20
38.7548105
11
16.9173158
21
38.7548105
0
LINE
8
DEFAULT_255_2_778
10
16.9173158
20
38.7548105
11
16.9173158
21
39.2049105
0
LINE
8
DEFAULT_255_2_778
10
16.4172158
20
42.5349105
11
16.9173158
21
42.5349105
0
LINE
8
DEFAULT_255_2_778
10
16.9173158
20
42.5349105
11
16.9173158
21
41.2948105
0
LINE
8
DEFAULT_255_2_778
10
16.9173158
20
41.2948105
11
16.4172158
21
41.2948105
0
LINE
8
DEFAULT_255_2_778
10
16.4172158
20
41.2948105
11
16.4172158
21
42.5349105
0
LINE
8
DEFAULT_255_2_778
10
16.9173158
20
43.8348105
11
16.9173158
21
45.0749105
0
LINE
8
DEFAULT_255_2_778
10
16.9173158
20
45.0749105
11
16.4172158
21
45.0749105
0
LINE
8
DEFAULT_255_2_778
10
16.4172158
20
45.0749105
11
16.4172158
21
43.8348105
0
LINE
8
DEFAULT_255_2_778
10
16.4172158
20
43.8348105
11
16.9173158
21
43.8348105
0
LINE
8
DEFAULT_255_2_778
10
19.4573158
20
27.2949105
11
18.9572158
21
27.2949105
0
LINE
8
DEFAULT_255_2_778
10
18.9572158
20
27.2949105
11
18.9572158
21
26.0548105
0
LINE
8
DEFAULT_255_2_778
10
18.9572158
20
26.0548105
11
19.4573158
21
26.0548105
0
LINE
8
DEFAULT_255_2_778
10
19.4573158
20
26.0548105
11
19.4573158
21
27.2949105
0
LINE
8
DEFAULT_255_2_778
10
19.4573158
20
29.3849105
11
19.4573158
21
28.5948105
0
LINE
8
DEFAULT_255_2_778
10
19.4573158
20
28.5948105
11
18.9572158
21
28.5948105
0
LINE
8
DEFAULT_255_2_778
10
18.9572158
20
28.5948105
11
18.9572158
21
29.8349105
0
LINE
8
DEFAULT_255_2_778
10
18.9572158
20
29.8349105
11
19.4573158
21
29.8349105
0
LINE
8
DEFAULT_255_2_778
10
19.4573158
20
29.8349105
11
19.4573158
21
29.3849105
0
LINE
8
DEFAULT_255_2_778
10
19.4573158
20
31.5849105
11
19.4573158
21
32.3749105
0
LINE
8
DEFAULT_255_2_778
10
19.4573158
20
32.3749105
11
18.9572158
21
32.3749105
0
LINE
8
DEFAULT_255_2_778
10
18.9572158
20
32.3749105
11
18.9572158
21
31.1348105
0
LINE
8
DEFAULT_255_2_778
10
18.9572158
20
31.1348105
11
19.4573158
21
31.1348105
0
LINE
8
DEFAULT_255_2_778
10
19.4573158
20
31.1348105
11
19.4573158
21
31.5849105
0
LINE
8
DEFAULT_255_2_778
10
19.4573158
20
34.4649105
11
19.4573158
21
34.9149105
0
LINE
8
DEFAULT_255_2_778
10
19.4573158
20
34.9149105
11
18.9572158
21
34.9149105
0
LINE
8
DEFAULT_255_2_778
10
18.9572158
20
34.9149105
11
18.9572158
21
33.6748105
0
LINE
8
DEFAULT_255_2_778
10
18.9572158
20
33.6748105
11
19.4573158
21
33.6748105
0
LINE
8
DEFAULT_255_2_778
10
19.4573158
20
33.6748105
11
19.4573158
21
34.4649105
0
LINE
8
DEFAULT_255_2_778
10
16.9173158
20
26.8449105
11
16.9173158
21
26.0548105
0
LINE
8
DEFAULT_255_2_778
10
16.9173158
20
26.0548105
11
16.4172158
21
26.0548105
0
LINE
8
DEFAULT_255_2_778
10
16.4172158
20
26.0548105
11
16.4172158
21
27.2949105
0
LINE
8
DEFAULT_255_2_778
10
16.4172158
20
27.2949105
11
16.9173158
21
27.2949105
0
LINE
8
DEFAULT_255_2_778
10
16.9173158
20
27.2949105
11
16.9173158
21
26.8449105
0
LINE
8
DEFAULT_255_2_778
10
16.9173158
20
29.3849105
11
16.9173158
21
28.5948105
0
LINE
8
DEFAULT_255_2_778
10
16.9173158
20
28.5948105
11
16.4172158
21
28.5948105
0
LINE
8
DEFAULT_255_2_778
10
16.4172158
20
28.5948105
11
16.4172158
21
29.8349105
0
LINE
8
DEFAULT_255_2_778
10
16.4172158
20
29.8349105
11
16.9173158
21
29.8349105
0
LINE
8
DEFAULT_255_2_778
10
16.9173158
20
29.8349105
11
16.9173158
21
29.3849105
0
LINE
8
DEFAULT_255_2_778
10
16.9173158
20
31.5849105
11
16.9173158
21
32.3749105
0
LINE
8
DEFAULT_255_2_778
10
16.9173158
20
32.3749105
11
16.4172158
21
32.3749105
0
LINE
8
DEFAULT_255_2_778
10
16.4172158
20
32.3749105
11
16.4172158
21
31.1348105
0
LINE
8
DEFAULT_255_2_778
10
16.4172158
20
31.1348105
11
16.9173158
21
31.1348105
0
LINE
8
DEFAULT_255_2_778
10
16.9173158
20
31.1348105
11
16.9173158
21
31.5849105
0
LINE
8
DEFAULT_255_2_778
10
16.4172158
20
34.9149105
11
16.9173158
21
34.9149105
0
LINE
8
DEFAULT_255_2_778
10
16.9173158
20
34.9149105
11
16.9173158
21
33.6748105
0
LINE
8
DEFAULT_255_2_778
10
16.9173158
20
33.6748105
11
16.4172158
21
33.6748105
0
LINE
8
DEFAULT_255_2_778
10
16.4172158
20
33.6748105
11
16.4172158
21
34.9149105
0
LINE
8
DEFAULT_255_2_778
10
19.4573158
20
16.6849105
11
19.4573158
21
17.1349105
0
LINE
8
DEFAULT_255_2_778
10
19.4573158
20
17.1349105
11
18.9572158
21
17.1349105
0
LINE
8
DEFAULT_255_2_778
10
18.9572158
20
17.1349105
11
18.9572158
21
15.8948105
0
LINE
8
DEFAULT_255_2_778
10
18.9572158
20
15.8948105
11
19.4573158
21
15.8948105
0
LINE
8
DEFAULT_255_2_778
10
19.4573158
20
15.8948105
11
19.4573158
21
16.6849105
0
LINE
8
DEFAULT_255_2_778
10
18.9572158
20
19.6749105
11
19.4573158
21
19.6749105
0
LINE
8
DEFAULT_255_2_778
10
19.4573158
20
19.6749105
11
19.4573158
21
18.4348105
0
LINE
8
DEFAULT_255_2_778
10
19.4573158
20
18.4348105
11
18.9572158
21
18.4348105
0
LINE
8
DEFAULT_255_2_778
10
18.9572158
20
18.4348105
11
18.9572158
21
19.6749105
0
LINE
8
DEFAULT_255_2_778
10
19.4573158
20
22.2149105
11
18.9572158
21
22.2149105
0
LINE
8
DEFAULT_255_2_778
10
18.9572158
20
22.2149105
11
18.9572158
21
20.9748105
0
LINE
8
DEFAULT_255_2_778
10
18.9572158
20
20.9748105
11
19.4573158
21
20.9748105
0
LINE
8
DEFAULT_255_2_778
10
19.4573158
20
20.9748105
11
19.4573158
21
22.2149105
0
LINE
8
DEFAULT_255_2_778
10
19.4573158
20
23.9649105
11
19.4573158
21
24.7549105
0
LINE
8
DEFAULT_255_2_778
10
19.4573158
20
24.7549105
11
18.9572158
21
24.7549105
0
LINE
8
DEFAULT_255_2_778
10
18.9572158
20
24.7549105
11
18.9572158
21
23.5148105
0
LINE
8
DEFAULT_255_2_778
10
18.9572158
20
23.5148105
11
19.4573158
21
23.5148105
0
LINE
8
DEFAULT_255_2_778
10
19.4573158
20
23.5148105
11
19.4573158
21
23.9649105
0
LINE
8
DEFAULT_255_2_778
10
16.4172158
20
17.1349105
11
16.9173158
21
17.1349105
0
LINE
8
DEFAULT_255_2_778
10
16.9173158
20
17.1349105
11
16.9173158
21
15.8948105
0
LINE
8
DEFAULT_255_2_778
10
16.9173158
20
15.8948105
11
16.4172158
21
15.8948105
0
LINE
8
DEFAULT_255_2_778
10
16.4172158
20
15.8948105
11
16.4172158
21
17.1349105
0
LINE
8
DEFAULT_255_2_778
10
16.9173158
20
19.2249105
11
16.9173158
21
19.6749105
0
LINE
8
DEFAULT_255_2_778
10
16.9173158
20
19.6749105
11
16.4172158
21
19.6749105
0
LINE
8
DEFAULT_255_2_778
10
16.4172158
20
19.6749105
11
16.4172158
21
18.4348105
0
LINE
8
DEFAULT_255_2_778
10
16.4172158
20
18.4348105
11
16.9173158
21
18.4348105
0
LINE
8
DEFAULT_255_2_778
10
16.9173158
20
18.4348105
11
16.9173158
21
19.2249105
0
LINE
8
DEFAULT_255_2_778
10
16.9173158
20
22.0832105
11
16.9173158
21
20.9748105
0
LINE
8
DEFAULT_255_2_778
10
16.9173158
20
20.9748105
11
16.4172158
21
20.9748105
0
LINE
8
DEFAULT_255_2_778
10
16.4172158
20
20.9748105
11
16.4172158
21
22.2149105
0
LINE
8
DEFAULT_255_2_778
10
16.4172158
20
22.2149105
11
16.9173158
21
22.2149105
0
LINE
8
DEFAULT_255_2_778
10
16.9173158
20
22.2149105
11
16.9173158
21
22.0832105
0
LINE
8
DEFAULT_255_2_778
10
16.9173158
20
23.9649105
11
16.9173158
21
24.7549105
0
LINE
8
DEFAULT_255_2_778
10
16.9173158
20
24.7549105
11
16.4172158
21
24.7549105
0
LINE
8
DEFAULT_255_2_778
10
16.4172158
20
24.7549105
11
16.4172158
21
23.5148105
0
LINE
8
DEFAULT_255_2_778
10
16.4172158
20
23.5148105
11
16.9173158
21
23.5148105
0
LINE
8
DEFAULT_255_2_778
10
16.9173158
20
23.5148105
11
16.9173158
21
23.9649105
0
LINE
8
DEFAULT_255_2_778
10
22.0624158
20
62.5348105
11
22.1124158
21
62.5348105
0
LINE
8
DEFAULT_255_2_778
10
22.0624158
20
61.9347105
11
22.1124158
21
61.9347105
0
LINE
8
DEFAULT_255_2_778
10
22.0624158
20
65.0748105
11
22.1124158
21
65.0748105
0
LINE
8
DEFAULT_255_2_778
10
22.0624158
20
64.4747105
11
22.1124158
21
64.4747105
0
LINE
8
DEFAULT_255_2_778
10
22.0624158
20
52.3748105
11
22.1124158
21
52.3748105
0
LINE
8
DEFAULT_255_2_778
10
22.0624158
20
51.7747105
11
22.1124158
21
51.7747105
0
LINE
8
DEFAULT_255_2_778
10
22.0624158
20
59.0947105
11
22.1124158
21
59.0947105
0
LINE
8
DEFAULT_255_2_778
10
22.0624158
20
54.9148105
11
22.1124158
21
54.9148105
0
LINE
8
DEFAULT_255_2_778
10
22.0624158
20
54.3147105
11
22.1124158
21
54.3147105
0
LINE
8
DEFAULT_255_2_778
10
22.0624158
20
57.4548105
11
22.1124158
21
57.4548105
0
LINE
8
DEFAULT_255_2_778
10
22.0624158
20
56.8547105
11
22.1124158
21
56.8547105
0
LINE
8
DEFAULT_255_2_778
10
22.0624158
20
59.9948105
11
22.1124158
21
59.9948105
0
LINE
8
DEFAULT_255_2_778
10
22.0624158
20
59.3947105
11
22.1124158
21
59.3947105
0
LINE
8
DEFAULT_255_2_778
10
22.0624158
20
24.4348105
11
22.1124158
21
24.4348105
0
LINE
8
DEFAULT_255_2_778
10
22.0624158
20
23.8347105
11
22.1124158
21
23.8347105
0
LINE
8
DEFAULT_255_2_778
10
22.1124158
20
31.3947105
11
22.0624158
21
31.3947105
0
LINE
8
DEFAULT_255_2_778
10
22.0624158
20
26.9748105
11
22.1124158
21
26.9748105
0
LINE
8
DEFAULT_255_2_778
10
22.0624158
20
26.3747105
11
22.1124158
21
26.3747105
0
LINE
8
DEFAULT_255_2_778
10
22.0624158
20
29.5148105
11
22.1124158
21
29.5148105
0
LINE
8
DEFAULT_255_2_778
10
22.0624158
20
28.9147105
11
22.1124158
21
28.9147105
0
LINE
8
DEFAULT_255_2_778
10
22.0624158
20
31.4547105
11
22.1124158
21
31.4547105
0
LINE
8
DEFAULT_255_2_778
10
22.0624158
20
14.7447105
11
22.1124158
21
14.7447105
0
LINE
8
DEFAULT_255_2_778
10
22.0624158
20
16.8148105
11
22.1124158
21
16.8148105
0
LINE
8
DEFAULT_255_2_778
10
22.0624158
20
16.2147105
11
22.1124158
21
16.2147105
0
LINE
8
DEFAULT_255_2_778
10
22.0624158
20
19.3548105
11
22.1124158
21
19.3548105
0
LINE
8
DEFAULT_255_2_778
10
22.0624158
20
18.7547105
11
22.1124158
21
18.7547105
0
LINE
8
DEFAULT_255_2_778
10
22.0624158
20
21.8948105
11
22.1124158
21
21.8948105
0
LINE
8
DEFAULT_255_2_778
10
22.0624158
20
21.2947105
11
22.1124158
21
21.2947105
0
LINE
8
DEFAULT_255_2_778
10
16.4625158
20
75.9444105
11
16.4625158
21
75.3851105
0
LINE
8
DEFAULT_255_2_778
10
17.4624158
20
75.9444105
11
17.4624158
21
75.3851105
0
LINE
8
DEFAULT_255_2_778
10
16.3625158
20
75.9449105
11
16.3625158
21
75.8050105
0
LINE
8
DEFAULT_255_2_778
10
16.3625158
20
75.8050105
11
14.3625158
21
75.8050105
0
LINE
8
DEFAULT_255_2_778
10
14.3625158
20
75.8050105
11
14.3625158
21
75.9449105
0
LINE
8
DEFAULT_255_2_778
10
14.3625158
20
75.3848105
11
14.3625158
21
75.5848105
0
LINE
8
DEFAULT_255_2_778
10
14.3625158
20
75.5848105
11
16.3625158
21
75.5848105
0
LINE
8
DEFAULT_255_2_778
10
16.3625158
20
75.5848105
11
16.3625158
21
75.3848105
0
LINE
8
DEFAULT_255_2_778
10
13.8124158
20
57.4947105
11
13.3126158
21
57.4947105
0
LINE
8
DEFAULT_255_2_778
10
13.3126158
20
58.4949105
11
13.8127158
21
58.4949105
0
LINE
8
DEFAULT_255_2_778
10
21.9328158
20
75.3848105
11
21.9328158
21
75.5949105
0
LINE
8
DEFAULT_255_2_778
10
21.9328158
20
75.7949105
11
21.9328158
21
75.9449105
0
LINE
8
DEFAULT_255_2_778
10
22.0627158
20
12.9995105
11
22.1127158
21
12.9995105
0
LINE
8
DEFAULT_255_2_778
10
22.0627158
20
14.1541105
11
22.1127158
21
14.1541105
0
LINE
8
DEFAULT_255_2_778
10
22.0627158
20
10.6900105
11
22.1127158
21
10.6900105
0
LINE
8
DEFAULT_255_2_778
10
22.1127158
20
15.8446105
11
22.0627158
21
15.8446105
0
LINE
8
DEFAULT_255_2_778
10
22.1127158
20
19.8445105
11
22.0627158
21
19.8445105
0
LINE
8
DEFAULT_255_2_778
10
22.1127158
20
17.8446105
11
22.0627158
21
17.8446105
0
LINE
8
DEFAULT_255_2_778
10
22.0627158
20
15.2445105
11
22.1127158
21
15.2445105
0
LINE
8
DEFAULT_255_2_778
10
20.7628158
20
5.3446105
11
20.7628158
21
5.9047105
0
LINE
8
DEFAULT_255_2_778
10
21.9627158
20
5.9047105
11
21.9627158
21
5.3446105
0
LINE
8
DEFAULT_255_2_778
10
19.2626158
20
5.3446105
11
19.2626158
21
5.9044105
0
LINE
8
DEFAULT_255_2_778
10
21.4626158
20
5.3446105
11
21.4626158
21
5.9047105
0
LINE
8
DEFAULT_255_2_778
10
17.1626158
20
5.9050105
11
17.1626158
21
5.3448105
0
LINE
8
DEFAULT_255_2_778
10
13.3126158
20
12.9995105
11
13.8127158
21
12.9995105
0
LINE
8
DEFAULT_255_2_778
10
13.3126158
20
14.1541105
11
13.8127158
21
14.1541105
0
LINE
8
DEFAULT_255_2_778
10
13.3126158
20
10.6900105
11
13.8127158
21
10.6900105
0
LINE
8
DEFAULT_255_2_778
10
13.3126158
20
9.5353105
11
13.8127158
21
9.5353105
0
LINE
8
DEFAULT_255_2_778
10
13.8127158
20
15.8448105
11
13.3126158
21
15.8448105
0
LINE
8
DEFAULT_255_2_778
10
13.8127158
20
19.8448105
11
13.3126158
21
19.8448105
0
LINE
8
DEFAULT_255_2_778
10
13.8127158
20
17.8448105
11
13.3126158
21
17.8448105
0
LINE
8
DEFAULT_255_2_778
10
13.8124158
20
35.1660105
11
13.3126158
21
35.1660105
0
LINE
8
DEFAULT_255_2_778
10
13.3126158
20
31.1446105
11
13.8127158
21
31.1446105
0
LINE
8
DEFAULT_255_2_778
10
13.8127158
20
28.6660105
11
13.3129158
21
28.6660105
0
LINE
8
DEFAULT_255_2_778
10
13.8130158
20
26.6446105
11
13.3129158
21
26.6446105
0
LINE
8
DEFAULT_255_2_778
10
13.3129158
20
32.1445105
11
13.8130158
21
32.1445105
0
LINE
8
DEFAULT_255_2_778
10
22.1129158
20
74.0344105
11
22.0629158
21
74.0344105
0
LINE
8
DEFAULT_255_2_778
10
22.0629158
20
71.2343105
11
22.1129158
21
71.2343105
0
LINE
8
DEFAULT_255_2_778
10
22.0629158
20
7.2543105
11
22.1129158
21
7.2543105
0
LINE
8
DEFAULT_255_2_778
10
22.1129158
20
10.0544105
11
22.0629158
21
10.0544105
0
LINE
8
DEFAULT_255_2_778
10
16.6374158
20
72.6350105
11
16.6374158
21
72.6350105
0
LINE
8
DEFAULT_255_2_778
10
14.5623158
20
70.3850105
11
15.5621158
21
70.3850105
0
LINE
8
DEFAULT_255_2_778
10
15.5621158
20
70.3850105
11
15.5621158
21
74.3850105
0
LINE
8
DEFAULT_255_2_778
10
15.5621158
20
74.3850105
11
14.5623158
21
74.3850105
0
LINE
8
DEFAULT_255_2_778
10
14.5623158
20
74.3850105
11
14.5623158
21
70.3850105
0
LINE
8
DEFAULT_255_2_778
10
15.5621158
20
6.9048105
11
15.5621158
21
10.9048105
0
LINE
8
DEFAULT_255_2_778
10
15.5621158
20
10.9048105
11
14.5623158
21
10.9048105
0
LINE
8
DEFAULT_255_2_778
10
14.5623158
20
10.9048105
11
14.5623158
21
6.9048105
0
LINE
8
DEFAULT_255_2_778
10
14.5623158
20
6.9048105
11
15.5621158
21
6.9048105
0
LINE
8
DEFAULT_255_2_778
10
13.3121158
20
15.0447105
11
13.8119158
21
15.0447105
0
LINE
8
DEFAULT_255_2_778
10
19.2620158
20
5.8446105
11
17.1621158
21
5.8446105
0
LINE
8
DEFAULT_255_2_778
10
22.1121158
20
5.5446105
11
21.9621158
21
5.5446105
0
LINE
8
DEFAULT_255_2_778
10
22.1121158
20
28.6660105
11
22.0621158
21
28.6660105
0
LINE
8
DEFAULT_255_2_778
10
22.1121158
20
35.1660105
11
22.0621158
21
35.1660105
0
ENDSEC
0
EOF