0
SECTION
2
HEADER
9
$MEASUREMENT
70
1
0
ENDSEC
0
SECTION
2
TABLES
0
TABLE
2
LTYPE
0
LTYPE
72
65
70
64
2
CONTINUOUS
3
______
73
0
40
0
0
ENDTAB
0
TABLE
2
LAYER
0
LAYER
2
DEFAULT_255_2_778
70
0
62
255
6
CONTINUOUS
0
ENDTAB
0
ENDSEC
0
SECTION
2
ENTITIES
0
ARC
8
DEFAULT_255_2_778
10
1.3623556
20
93.6181491
40
0.500513
50
90.0136278
51
134.9519215
0
ARC
8
DEFAULT_255_2_778
10
1.155442
20
93.4113698
40
0.5002057
50
134.9848649
51
179.966524
0
ARC
8
DEFAULT_255_2_778
10
1.1556163
20
34.7261262
40
0.5003799
50
180.0416959
51
225.0068342
0
ARC
8
DEFAULT_255_2_778
10
2.8557031
20
28.4257792
40
0.5002665
50
180.0019602
51
224.963603
0
ARC
8
DEFAULT_255_2_778
10
3.5553335
20
25.318759
40
0.5000969
50
179.9996485
51
270.0003515
0
LINE
8
DEFAULT_255_2_778
10
84.6551366
20
104.4551621
11
84.6551366
21
88.8187621
0
LINE
8
DEFAULT_255_2_778
10
84.6551366
20
88.8187621
11
82.6551366
21
88.8187621
0
LINE
8
DEFAULT_255_2_778
10
82.6551366
20
88.8187621
11
82.6551366
21
80.8188621
0
LINE
8
DEFAULT_255_2_778
10
82.6551366
20
80.8188621
11
84.6551366
21
80.8188621
0
LINE
8
DEFAULT_255_2_778
10
84.6551366
20
80.8188621
11
84.6551366
21
21.8188621
0
LINE
8
DEFAULT_255_2_778
10
84.6551366
20
21.8188621
11
82.6551366
21
21.8188621
0
LINE
8
DEFAULT_255_2_778
10
82.6551366
20
21.8188621
11
82.6551366
21
13.8189621
0
LINE
8
DEFAULT_255_2_778
10
82.6551366
20
13.8189621
11
84.6551366
21
13.8189621
0
LINE
8
DEFAULT_255_2_778
10
84.6551366
20
13.8189621
11
84.6551366
21
0.6765621
0
LINE
8
DEFAULT_255_2_778
10
84.6551366
20
0.6765621
11
69.4781366
21
3.0802621
0
LINE
8
DEFAULT_255_2_778
10
0.8015366
20
93.7651621
11
1.0087366
21
93.9723621
0
LINE
8
DEFAULT_255_2_778
10
1.3622366
20
94.1186621
11
8.4551366
21
94.1186621
0
LINE
8
DEFAULT_255_2_778
10
8.4551366
20
94.1186621
11
8.4551366
21
94.6186621
0
LINE
8
DEFAULT_255_2_778
10
8.4551366
20
94.6186621
11
19.3552366
21
94.6186621
0
LINE
8
DEFAULT_255_2_778
10
19.3552366
20
94.6186621
11
84.6551366
21
104.9612621
0
LINE
8
DEFAULT_255_2_778
10
84.6551366
20
104.9612621
11
84.6551366
21
104.4551621
0
LINE
8
DEFAULT_255_2_778
10
0.6552366
20
93.4116621
11
0.6552366
21
34.7257621
0
LINE
8
DEFAULT_255_2_778
10
0.8018366
20
34.3722621
11
2.3554366
21
32.8186621
0
LINE
8
DEFAULT_255_2_778
10
2.3554366
20
32.8186621
11
2.3554366
21
28.4257621
0
LINE
8
DEFAULT_255_2_778
10
2.5017366
20
28.0722621
11
3.0552366
21
27.5187621
0
LINE
8
DEFAULT_255_2_778
10
3.0552366
20
27.5187621
11
3.0552366
21
25.3187621
0
LINE
8
DEFAULT_255_2_778
10
84.7551366
20
91.6188621
11
84.6551366
21
91.6188621
0
LINE
8
DEFAULT_255_2_778
10
84.6551366
20
10.8187621
11
84.7551366
21
10.8187621
0
ARC
8
DEFAULT_255_2_778
10
2.9554519
20
13.5392768
40
0.4999728
50
121.6261271
51
179.9976202
0
ARC
8
DEFAULT_255_2_778
10
1.2057801
20
4.3186441
40
1.0003119
50
135.0140784
51
180.0136584
0
ARC
8
DEFAULT_255_2_778
10
1.2048912
20
4.3183999
40
0.9994229
50
179.9996751
51
183.3035589
0
ARC
8
DEFAULT_255_2_778
10
1.2042601
20
4.318423
40
0.9987942
50
183.3069635
51
202.5126332
0
ARC
8
DEFAULT_255_2_778
10
1.2055811
20
4.3188913
40
1.0001937
50
202.5084421
51
269.9998828
0
ARC
8
DEFAULT_255_2_778
10
6.4986308
20
3.8185569
40
0.4998593
50
269.9940647
51
314.9828922
0
ARC
8
DEFAULT_255_2_778
10
7.2053137
20
4.525714
40
0.5002653
50
315.0363508
51
359.9981137
0
ARC
8
DEFAULT_255_2_778
10
8.0056885
20
6.5184881
40
0.3001094
50
90.0208901
51
179.9791099
0
ARC
8
DEFAULT_255_2_778
10
13.6504449
20
3.7187407
40
1.0001432
50
209.998117
51
269.9847705
0
ARC
8
DEFAULT_255_2_778
10
18.7170424
20
3.218639
40
0.5000414
50
269.9927398
51
329.9972631
0
ARC
8
DEFAULT_255_2_778
10
60.0927179
20
-56.1824357
40
60.0011332
50
81.0000813
51
89.9999416
0
ARC
8
DEFAULT_255_2_778
10
60.0922172
20
161.8202494
40
60.0011519
50
270.0000591
51
278.9999166
0
LINE
8
DEFAULT_255_2_778
10
2.455179
20
28.1256976
11
2.455179
21
24.8186976
0
LINE
8
DEFAULT_255_2_778
10
2.455179
20
24.8186976
11
5.055279
21
24.8186976
0
LINE
8
DEFAULT_255_2_778
10
5.055279
20
24.8186976
11
5.055279
21
15.4185976
0
LINE
8
DEFAULT_255_2_778
10
5.055279
20
15.4185976
11
2.693279
21
13.9649976
0
LINE
8
DEFAULT_255_2_778
10
2.455479
20
13.5392976
11
2.455479
21
6.9828976
0
LINE
8
DEFAULT_255_2_778
10
2.455479
20
6.9828976
11
0.498279
21
5.0257976
0
LINE
8
DEFAULT_255_2_778
10
1.205579
20
3.3186976
11
6.498579
21
3.3186976
0
LINE
8
DEFAULT_255_2_778
10
6.851979
20
3.4649976
11
7.559279
21
4.1721976
0
LINE
8
DEFAULT_255_2_778
10
7.705579
20
4.5256976
11
7.705579
21
6.5185976
0
LINE
8
DEFAULT_255_2_778
10
8.005579
20
6.8185976
11
10.705679
21
6.8185976
0
LINE
8
DEFAULT_255_2_778
10
10.705679
20
6.8185976
11
12.784279
21
3.2186976
0
LINE
8
DEFAULT_255_2_778
10
13.650179
20
2.7185976
11
18.716979
21
2.7185976
0
LINE
8
DEFAULT_255_2_778
10
19.150079
20
2.9685976
11
19.640879
21
3.8186976
0
LINE
8
DEFAULT_255_2_778
10
19.640879
20
3.8186976
11
60.092779
21
3.8186976
0
LINE
8
DEFAULT_255_2_778
10
15.255179
20
100.5188976
11
15.255179
21
101.3189976
0
LINE
8
DEFAULT_255_2_778
10
15.255179
20
101.3189976
11
15.755279
21
101.3189976
0
LINE
8
DEFAULT_255_2_778
10
15.755279
20
101.3189976
11
15.755279
21
101.8190976
0
LINE
8
DEFAULT_255_2_778
10
15.755279
20
101.8190976
11
60.092279
21
101.8190976
0
ARC
8
DEFAULT_255_2_778
10
109.500562
20
27.2618116
40
0.5002455
50
43.0310872
51
88.9724202
0
ARC
8
DEFAULT_255_2_778
10
109.5009141
20
27.2619865
40
0.4998688
50
359.997352
51
43.043972
0
ARC
8
DEFAULT_255_2_778
10
109.5005716
20
27.261961
40
0.5002113
50
357.0796793
51
0.0002718
0
ARC
8
DEFAULT_255_2_778
10
107.3882369
20
0.3190437
40
0.500067
50
270.0225062
51
353.965921
0
ARC
8
DEFAULT_255_2_778
10
27.5059616
20
104.738486
40
0.2992717
50
359.9982031
51
30.0784638
0
ARC
8
DEFAULT_255_2_778
10
27.0545029
20
105.5185641
40
0.3002126
50
30.0234226
51
89.9942075
0
ARC
8
DEFAULT_255_2_778
10
22.55587
20
105.5187263
40
0.3000503
50
90.0070022
51
149.9944512
0
ARC
8
DEFAULT_255_2_778
10
22.1071092
20
104.737761
40
0.3018762
50
150.0925447
51
179.9211131
0
LINE
8
DEFAULT_255_2_778
10
27.8149333
20
101.9087767
11
27.8149333
21
101.7288767
0
LINE
8
DEFAULT_255_2_778
10
84.7554333
20
5.8186767
11
84.6554333
21
5.8186767
0
LINE
8
DEFAULT_255_2_778
10
104.5878333
20
27.8478767
11
109.5095333
21
27.7619767
0
LINE
8
DEFAULT_255_2_778
10
110.0001333
20
27.2364767
11
109.6082333
21
20.4832767
0
LINE
8
DEFAULT_255_2_778
10
109.6082333
20
20.4832767
11
109.1251333
21
13.7371767
0
LINE
8
DEFAULT_255_2_778
10
109.1251333
20
13.7371767
11
108.5510333
21
6.9982767
0
LINE
8
DEFAULT_255_2_778
10
108.5510333
20
6.9982767
11
107.8855333
21
0.2664767
0
LINE
8
DEFAULT_255_2_778
10
107.3884333
20
-0.1810233
11
94.7913333
21
-0.1810233
0
LINE
8
DEFAULT_255_2_778
10
27.8052333
20
101.8187767
11
27.8052333
21
104.7384767
0
LINE
8
DEFAULT_255_2_778
10
27.7649333
20
104.8884767
11
27.3144333
21
105.6687767
0
LINE
8
DEFAULT_255_2_778
10
27.0545333
20
105.8187767
11
22.5558333
21
105.8187767
0
LINE
8
DEFAULT_255_2_778
10
22.2960333
20
105.6687767
11
21.8454333
21
104.8882767
0
LINE
8
DEFAULT_255_2_778
10
21.8052333
20
104.7381767
11
21.8052333
21
101.8185767
0
ARC
8
DEFAULT_255_2_778
10
-389.4738321
20
52.8089404
40
493.6214278
50
2.9913662
51
5.0611883
0
ARC
8
DEFAULT_255_2_778
10
94.7913763
20
45.818644
40
60.000165
50
89.999985
51
98.9999908
0
ARC
8
DEFAULT_255_2_778
10
94.7924037
20
59.8320374
40
60.0132285
50
261.0009914
51
269.9990341
0
LINE
8
DEFAULT_255_2_778
10
103.523892
20
27.8665089
11
103.865992
21
35.9299089
0
LINE
8
DEFAULT_255_2_778
10
103.527092
20
78.0688089
11
103.518392
21
78.0902089
0
LINE
8
DEFAULT_255_2_778
10
103.518392
20
78.0902089
11
103.511792
21
78.1278089
0
LINE
8
DEFAULT_255_2_778
10
103.511792
20
78.1278089
11
103.501192
21
78.2151089
0
LINE
8
DEFAULT_255_2_778
10
103.501192
20
78.2151089
11
103.488692
21
78.3545089
0
LINE
8
DEFAULT_255_2_778
10
103.488692
20
78.3545089
11
103.480492
21
78.4707089
0
LINE
8
DEFAULT_255_2_778
10
103.480492
20
78.4707089
11
103.474992
21
78.5688089
0
LINE
8
DEFAULT_255_2_778
10
102.222992
20
96.3560089
11
102.212392
21
96.4753089
0
LINE
8
DEFAULT_255_2_778
10
102.212392
20
96.4753089
11
102.181692
21
96.8330089
0
LINE
8
DEFAULT_255_2_778
10
102.181692
20
96.8330089
11
102.162092
21
97.0688089
0
LINE
8
DEFAULT_255_2_778
10
102.162092
20
97.0688089
11
102.143092
21
97.3021089
0
LINE
8
DEFAULT_255_2_778
10
102.143092
20
97.3021089
11
102.124792
21
97.5334089
0
LINE
8
DEFAULT_255_2_778
10
102.124792
20
97.5334089
11
102.107092
21
97.7622089
0
LINE
8
DEFAULT_255_2_778
10
102.107092
20
97.7622089
11
102.090092
21
97.9887089
0
LINE
8
DEFAULT_255_2_778
10
102.090092
20
97.9887089
11
102.041992
21
98.6571089
0
LINE
8
DEFAULT_255_2_778
10
102.041992
20
98.6571089
11
102.039592
21
98.6838089
0
LINE
8
DEFAULT_255_2_778
10
102.039592
20
98.6838089
11
102.036692
21
98.7105089
0
LINE
8
DEFAULT_255_2_778
10
102.036692
20
98.7105089
11
102.028492
21
98.7637089
0
LINE
8
DEFAULT_255_2_778
10
102.028492
20
98.7637089
11
102.017692
21
98.8161089
0
LINE
8
DEFAULT_255_2_778
10
102.017692
20
98.8161089
11
102.003892
21
98.8677089
0
LINE
8
DEFAULT_255_2_778
10
102.003892
20
98.8677089
11
101.968192
21
98.9685089
0
LINE
8
DEFAULT_255_2_778
10
101.968192
20
98.9685089
11
101.921092
21
99.0661089
0
LINE
8
DEFAULT_255_2_778
10
101.921092
20
99.0661089
11
101.781392
21
99.3188089
0
LINE
8
DEFAULT_255_2_778
10
101.781392
20
99.3188089
11
100.149992
21
102.1443089
0
LINE
8
DEFAULT_255_2_778
10
100.149992
20
102.1443089
11
100.016092
21
102.6435089
0
LINE
8
DEFAULT_255_2_778
10
100.016092
20
102.6435089
11
100.016092
21
105.0290089
0
LINE
8
DEFAULT_255_2_778
10
100.016092
20
105.0290089
11
99.989392
21
105.1288089
0
LINE
8
DEFAULT_255_2_778
10
99.989392
20
105.1288089
11
99.650392
21
105.7185089
0
LINE
8
DEFAULT_255_2_778
10
99.650392
20
105.7185089
11
99.487392
21
105.8188089
0
LINE
8
DEFAULT_255_2_778
10
99.487392
20
105.8188089
11
94.791392
21
105.8188089
0
LINE
8
DEFAULT_255_2_778
10
85.405292
20
105.0801089
11
84.755192
21
104.9772089
0
LINE
8
DEFAULT_255_2_778
10
84.755192
20
104.9772089
11
84.755192
21
0.6604089
0
LINE
8
DEFAULT_255_2_778
10
84.755192
20
0.6604089
11
85.405292
21
0.5575089
0
LINE
8
DEFAULT_255_2_778
10
19.640392
20
3.8188089
11
19.351792
21
4.3188089
0
LINE
8
DEFAULT_255_2_778
10
2.455192
20
6.9829089
11
2.955292
21
6.7757089
0
LINE
8
DEFAULT_255_2_778
10
3.055292
20
27.5188089
11
3.555292
21
27.7260089
0
LINE
8
DEFAULT_255_2_778
10
2.355192
20
32.8187089
11
2.855292
21
33.0258089
0
LINE
8
DEFAULT_255_2_778
10
5.055292
20
24.8187089
11
5.555292
21
25.3188089
0
LINE
8
DEFAULT_255_2_778
10
10.705192
20
6.8186089
11
10.993792
21
7.3187089
0
LINE
8
DEFAULT_255_2_778
10
5.055292
20
15.4189089
11
5.555292
21
15.1395089
0
LINE
8
DEFAULT_255_2_778
10
6.512592
20
3.3192089
11
6.515792
21
3.3192089
0
LINE
8
DEFAULT_255_2_778
10
64.905292
20
3.6253089
11
65.405392
21
3.5830089
0
LINE
8
DEFAULT_255_2_778
10
66.705292
20
3.4531089
11
67.205392
21
3.3954089
0
LINE
8
DEFAULT_255_2_778
10
6.510192
20
3.3190089
11
6.497992
21
3.3190089
0
LINE
8
DEFAULT_255_2_778
10
103.229992
20
27.3714089
11
103.381592
21
27.6003089
0
LINE
8
DEFAULT_255_2_778
10
103.381592
20
27.6003089
11
103.435592
21
27.7069089
0
LINE
8
DEFAULT_255_2_778
10
103.435592
20
27.7069089
11
103.445892
21
27.7392089
0
LINE
8
DEFAULT_255_2_778
10
103.445892
20
27.7392089
11
103.449592
21
27.7596089
0
LINE
8
DEFAULT_255_2_778
10
103.449592
20
27.7596089
11
103.458592
21
27.8241089
0
LINE
8
DEFAULT_255_2_778
10
103.458592
20
27.8241089
11
103.464092
21
27.8517089
0
LINE
8
DEFAULT_255_2_778
10
103.464092
20
27.8517089
11
103.469192
21
27.8654089
0
LINE
8
DEFAULT_255_2_778
10
103.469192
20
27.8654089
11
104.587792
21
27.8477089
0
LINE
8
DEFAULT_255_2_778
10
92.6161762
20
-0.1417889
11
92.1169762
21
-0.1216889
0
LINE
8
DEFAULT_255_2_778
10
84.6551762
20
102.9187111
11
84.7551762
21
102.9187111
0
LINE
8
DEFAULT_255_2_778
10
84.6551762
20
103.9188111
11
84.7551762
21
103.9188111
0
LINE
8
DEFAULT_255_2_778
10
84.6551762
20
102.8187111
11
84.7551762
21
102.8187111
0
LINE
8
DEFAULT_255_2_778
10
84.7551762
20
99.6188111
11
84.6551762
21
99.6188111
0
LINE
8
DEFAULT_255_2_778
10
84.7551762
20
13.8189111
11
84.6551762
21
13.8189111
0
LINE
8
DEFAULT_255_2_778
10
84.6551762
20
13.8189111
11
84.6551762
21
21.8189111
0
LINE
8
DEFAULT_255_2_778
10
84.6551762
20
21.8189111
11
84.7551762
21
21.8189111
0
LINE
8
DEFAULT_255_2_778
10
84.7551762
20
80.8188111
11
84.6551762
21
80.8188111
0
LINE
8
DEFAULT_255_2_778
10
84.6551762
20
80.8188111
11
84.6551762
21
88.8188111
0
LINE
8
DEFAULT_255_2_778
10
84.6551762
20
88.8188111
11
84.7551762
21
88.8188111
0
LINE
8
DEFAULT_255_2_778
10
84.7551762
20
1.8187111
11
84.6551762
21
1.8187111
0
ARC
8
DEFAULT_255_2_778
10
9.8053608
20
15.9196751
40
0.5000543
50
180.006227
51
269.9937788
0
ARC
8
DEFAULT_255_2_778
10
9.8053821
20
23.920145
40
0.5000757
50
90.0086621
51
180.0027821
0
ARC
8
DEFAULT_255_2_778
10
9.8053216
20
23.4201003
40
0.5008794
50
246.4263968
51
269.9753929
0
ARC
8
DEFAULT_255_2_778
10
16.0561149
20
21.9225861
40
0.9966352
50
48.3587374
51
90.0637212
0
ARC
8
DEFAULT_255_2_778
10
16.0573921
20
21.9203121
40
0.9974888
50
1.7400337
51
48.500357
0
ARC
8
DEFAULT_255_2_778
10
16.0365747
20
21.9191619
40
1.0183317
50
0.0089366
51
1.769154
0
ARC
8
DEFAULT_255_2_778
10
16.0585012
20
17.9179588
40
0.9964063
50
318.3636078
51
0.0840629
0
ARC
8
DEFAULT_255_2_778
10
16.0558309
20
17.9170448
40
0.9977979
50
271.7494141
51
318.504711
0
ARC
8
DEFAULT_255_2_778
10
16.0546461
20
17.9387317
40
1.0195111
50
270.0202529
51
271.7787585
0
ARC
8
DEFAULT_255_2_778
10
9.8052418
20
16.420162
40
0.4990587
50
89.9925687
51
113.6172382
0
ARC
8
DEFAULT_255_2_778
10
101.7500911
20
31.8187609
40
0.5005537
50
357.6023894
51
359.9993026
0
ARC
8
DEFAULT_255_2_778
10
101.7506553
20
31.8187343
40
0.4999894
50
0.0023454
51
43.8035198
0
ARC
8
DEFAULT_255_2_778
10
101.7505179
20
31.8187273
40
0.5000934
50
43.7932002
51
89.9783894
0
ARC
8
DEFAULT_255_2_778
10
96.8554034
20
31.8187238
40
0.5000969
50
89.9996485
51
180.0003515
0
ARC
8
DEFAULT_255_2_778
10
96.8553819
20
29.8187962
40
0.5000754
50
180.0086483
51
270.0028154
0
ARC
8
DEFAULT_255_2_778
10
101.662594
20
29.8187645
40
0.5000438
50
270.001429
51
357.3586713
0
ARC
8
DEFAULT_255_2_778
10
101.5491227
20
75.8187588
40
0.499962
50
2.5061825
51
90.0018538
0
ARC
8
DEFAULT_255_2_778
10
96.8550821
20
75.8186451
40
0.5000756
50
89.9971984
51
179.9913379
0
ARC
8
DEFAULT_255_2_778
10
96.8551034
20
73.8187177
40
0.5000969
50
179.9996485
51
270.0003515
0
ARC
8
DEFAULT_255_2_778
10
101.6328442
20
73.818615
40
0.4999942
50
270.0071396
51
316.1481065
0
ARC
8
DEFAULT_255_2_778
10
101.6329617
20
73.8186583
40
0.4999394
50
316.1351969
51
359.9991862
0
ARC
8
DEFAULT_255_2_778
10
101.6322779
20
73.8186427
40
0.5006232
50
0.0009676
51
2.2756114
0
ARC
8
DEFAULT_255_2_778
10
102.1837668
20
53.8187791
40
0.5001415
50
0.1536954
51
89.9954514
0
ARC
8
DEFAULT_255_2_778
10
96.8551034
20
53.8188238
40
0.5000969
50
89.9996485
51
180.0003515
0
ARC
8
DEFAULT_255_2_778
10
96.8550819
20
51.8188962
40
0.5000754
50
180.0086483
51
270.0028154
0
ARC
8
DEFAULT_255_2_778
10
102.1851094
20
51.8189186
40
0.5000979
50
269.9996638
51
359.8971315
0
LINE
8
DEFAULT_255_2_778
10
84.7552065
20
5.1686207
11
84.6552065
21
5.1686207
0
LINE
8
DEFAULT_255_2_778
10
17.0552065
20
15.4185207
11
17.4454065
21
15.4571207
0
LINE
8
DEFAULT_255_2_778
10
17.4454065
20
15.4571207
11
17.8206065
21
15.5709207
0
LINE
8
DEFAULT_255_2_778
10
17.8206065
20
15.5709207
11
18.1664065
21
15.7559207
0
LINE
8
DEFAULT_255_2_778
10
18.1664065
20
15.7559207
11
18.4696065
21
16.0046207
0
LINE
8
DEFAULT_255_2_778
10
18.4696065
20
16.0046207
11
18.7183065
21
16.3078207
0
LINE
8
DEFAULT_255_2_778
10
18.7183065
20
16.3078207
11
18.9033065
21
16.6536207
0
LINE
8
DEFAULT_255_2_778
10
18.9033065
20
16.6536207
11
19.0171065
21
17.0288207
0
LINE
8
DEFAULT_255_2_778
10
19.0171065
20
17.0288207
11
19.0557065
21
17.4190207
0
LINE
8
DEFAULT_255_2_778
10
19.0557065
20
17.4190207
11
19.0557065
21
22.4191207
0
LINE
8
DEFAULT_255_2_778
10
19.0557065
20
22.4191207
11
19.0171065
21
22.8094207
0
LINE
8
DEFAULT_255_2_778
10
19.0171065
20
22.8094207
11
18.9033065
21
23.1846207
0
LINE
8
DEFAULT_255_2_778
10
18.9033065
20
23.1846207
11
18.7183065
21
23.5304207
0
LINE
8
DEFAULT_255_2_778
10
18.7183065
20
23.5304207
11
18.4696065
21
23.8336207
0
LINE
8
DEFAULT_255_2_778
10
18.4696065
20
23.8336207
11
18.1664065
21
24.0823207
0
LINE
8
DEFAULT_255_2_778
10
18.1664065
20
24.0823207
11
17.8206065
21
24.2672207
0
LINE
8
DEFAULT_255_2_778
10
17.8206065
20
24.2672207
11
17.4454065
21
24.3810207
0
LINE
8
DEFAULT_255_2_778
10
17.4454065
20
24.3810207
11
17.0552065
21
24.4196207
0
LINE
8
DEFAULT_255_2_778
10
9.3053065
20
23.9196207
11
9.3053065
21
15.9196207
0
LINE
8
DEFAULT_255_2_778
10
9.8053065
20
15.4196207
11
19.0554065
21
15.4196207
0
LINE
8
DEFAULT_255_2_778
10
19.0554065
20
15.4196207
11
19.6431065
21
15.5079207
0
LINE
8
DEFAULT_255_2_778
10
19.6431065
20
15.5079207
11
20.2177065
21
15.7921207
0
LINE
8
DEFAULT_255_2_778
10
20.2177065
20
15.7921207
11
20.6831065
21
16.2575207
0
LINE
8
DEFAULT_255_2_778
10
20.6831065
20
16.2575207
11
20.9673065
21
16.8322207
0
LINE
8
DEFAULT_255_2_778
10
20.9673065
20
16.8322207
11
21.0557065
21
17.4198207
0
LINE
8
DEFAULT_255_2_778
10
21.0557065
20
17.4198207
11
21.0557065
21
22.4199207
0
LINE
8
DEFAULT_255_2_778
10
21.0557065
20
22.4199207
11
20.9673065
21
23.0076207
0
LINE
8
DEFAULT_255_2_778
10
20.9673065
20
23.0076207
11
20.6831065
21
23.5822207
0
LINE
8
DEFAULT_255_2_778
10
20.6831065
20
23.5822207
11
20.2177065
21
24.0476207
0
LINE
8
DEFAULT_255_2_778
10
20.2177065
20
24.0476207
11
19.6431065
21
24.3318207
0
LINE
8
DEFAULT_255_2_778
10
19.6431065
20
24.3318207
11
19.0554065
21
24.4202207
0
LINE
8
DEFAULT_255_2_778
10
19.0554065
20
24.4202207
11
9.8053065
21
24.4202207
0
LINE
8
DEFAULT_255_2_778
10
9.3053065
20
23.9201207
11
9.3053065
21
23.9196207
0
LINE
8
DEFAULT_255_2_778
10
9.3053065
20
23.4195207
11
9.3069065
21
23.3856207
0
LINE
8
DEFAULT_255_2_778
10
9.3069065
20
23.3856207
11
9.3098065
21
23.3518207
0
LINE
8
DEFAULT_255_2_778
10
9.3098065
20
23.3518207
11
9.3148065
21
23.3219207
0
LINE
8
DEFAULT_255_2_778
10
9.3148065
20
23.3219207
11
9.3217065
21
23.2920207
0
LINE
8
DEFAULT_255_2_778
10
9.3217065
20
23.2920207
11
9.3381065
21
23.2407207
0
LINE
8
DEFAULT_255_2_778
10
9.3381065
20
23.2407207
11
9.3659065
21
23.1803207
0
LINE
8
DEFAULT_255_2_778
10
9.3659065
20
23.1803207
11
9.4066065
21
23.1174207
0
LINE
8
DEFAULT_255_2_778
10
9.4066065
20
23.1174207
11
9.4436065
21
23.0737207
0
LINE
8
DEFAULT_255_2_778
10
9.4436065
20
23.0737207
11
9.4807065
21
23.0385207
0
LINE
8
DEFAULT_255_2_778
10
9.4807065
20
23.0385207
11
9.5225065
21
23.0068207
0
LINE
8
DEFAULT_255_2_778
10
9.5225065
20
23.0068207
11
9.6050065
21
22.9610207
0
LINE
8
DEFAULT_255_2_778
10
9.8051065
20
22.9192207
11
16.0550065
21
22.9192207
0
LINE
8
DEFAULT_255_2_778
10
17.0549065
20
21.9193207
11
17.0549065
21
17.9194207
0
LINE
8
DEFAULT_255_2_778
10
16.0550065
20
16.9192207
11
9.8053065
21
16.9192207
0
LINE
8
DEFAULT_255_2_778
10
9.6053065
20
16.8774207
11
9.5844065
21
16.8676207
0
LINE
8
DEFAULT_255_2_778
10
9.5844065
20
16.8676207
11
9.5021065
21
16.8168207
0
LINE
8
DEFAULT_255_2_778
10
9.5021065
20
16.8168207
11
9.4439065
21
16.7650207
0
LINE
8
DEFAULT_255_2_778
10
9.4439065
20
16.7650207
11
9.3913065
21
16.6996207
0
LINE
8
DEFAULT_255_2_778
10
9.3913065
20
16.6996207
11
9.3759065
21
16.6756207
0
LINE
8
DEFAULT_255_2_778
10
9.3759065
20
16.6756207
11
9.3492065
21
16.6253207
0
LINE
8
DEFAULT_255_2_778
10
9.3492065
20
16.6253207
11
9.3296065
21
16.5737207
0
LINE
8
DEFAULT_255_2_778
10
9.3296065
20
16.5737207
11
9.3132065
21
16.4972207
0
LINE
8
DEFAULT_255_2_778
10
9.3132065
20
16.4972207
11
9.3050065
21
16.4194207
0
LINE
8
DEFAULT_255_2_778
10
41.0550065
20
87.7194207
11
43.0550065
21
87.7194207
0
LINE
8
DEFAULT_255_2_778
10
43.0550065
20
87.7194207
11
43.2995065
21
87.6556207
0
LINE
8
DEFAULT_255_2_778
10
43.2995065
20
87.6556207
11
43.4910065
21
87.4640207
0
LINE
8
DEFAULT_255_2_778
10
43.4910065
20
87.4640207
11
43.5548065
21
87.2196207
0
LINE
8
DEFAULT_255_2_778
10
43.5548065
20
87.2196207
11
43.5548065
21
68.2196207
0
LINE
8
DEFAULT_255_2_778
10
43.5548065
20
68.2196207
11
43.4910065
21
67.9751207
0
LINE
8
DEFAULT_255_2_778
10
43.4910065
20
67.9751207
11
43.2995065
21
67.7835207
0
LINE
8
DEFAULT_255_2_778
10
43.2995065
20
67.7835207
11
43.0550065
21
67.7198207
0
LINE
8
DEFAULT_255_2_778
10
43.0550065
20
67.7198207
11
41.0550065
21
67.7198207
0
LINE
8
DEFAULT_255_2_778
10
41.0550065
20
67.7198207
11
40.8105065
21
67.7835207
0
LINE
8
DEFAULT_255_2_778
10
40.8105065
20
67.7835207
11
40.6190065
21
67.9751207
0
LINE
8
DEFAULT_255_2_778
10
40.6190065
20
67.9751207
11
40.5552065
21
68.2196207
0
LINE
8
DEFAULT_255_2_778
10
40.5552065
20
68.2196207
11
40.5552065
21
87.2185207
0
LINE
8
DEFAULT_255_2_778
10
40.5552065
20
87.2185207
11
40.5936065
21
87.4098207
0
LINE
8
DEFAULT_255_2_778
10
40.5936065
20
87.4098207
11
40.7015065
21
87.5722207
0
LINE
8
DEFAULT_255_2_778
10
40.7015065
20
87.5722207
11
40.8640065
21
87.6802207
0
LINE
8
DEFAULT_255_2_778
10
40.8640065
20
87.6802207
11
41.0550065
21
87.7194207
0
LINE
8
DEFAULT_255_2_778
10
41.0550065
20
40.2192207
11
40.8640065
21
40.2579207
0
LINE
8
DEFAULT_255_2_778
10
40.8640065
20
40.2579207
11
40.7015065
21
40.3658207
0
LINE
8
DEFAULT_255_2_778
10
40.7015065
20
40.3658207
11
40.5936065
21
40.5283207
0
LINE
8
DEFAULT_255_2_778
10
40.5936065
20
40.5283207
11
40.5549065
21
40.7193207
0
LINE
8
DEFAULT_255_2_778
10
40.5549065
20
40.7193207
11
40.5549065
21
59.7193207
0
LINE
8
DEFAULT_255_2_778
10
40.5549065
20
59.7193207
11
40.5936065
21
59.9103207
0
LINE
8
DEFAULT_255_2_778
10
40.5936065
20
59.9103207
11
40.7015065
21
60.0728207
0
LINE
8
DEFAULT_255_2_778
10
40.7015065
20
60.0728207
11
40.8640065
21
60.1807207
0
LINE
8
DEFAULT_255_2_778
10
40.8640065
20
60.1807207
11
41.0550065
21
60.2194207
0
LINE
8
DEFAULT_255_2_778
10
41.0550065
20
60.2194207
11
43.0550065
21
60.2194207
0
LINE
8
DEFAULT_255_2_778
10
43.0550065
20
60.2194207
11
43.2995065
21
60.1556207
0
LINE
8
DEFAULT_255_2_778
10
43.2995065
20
60.1556207
11
43.4910065
21
59.9640207
0
LINE
8
DEFAULT_255_2_778
10
43.4910065
20
59.9640207
11
43.5548065
21
59.7196207
0
LINE
8
DEFAULT_255_2_778
10
43.5548065
20
59.7196207
11
43.5548065
21
40.7196207
0
LINE
8
DEFAULT_255_2_778
10
43.5548065
20
40.7196207
11
43.4910065
21
40.4751207
0
LINE
8
DEFAULT_255_2_778
10
43.4910065
20
40.4751207
11
43.2995065
21
40.2835207
0
LINE
8
DEFAULT_255_2_778
10
43.2995065
20
40.2835207
11
43.0550065
21
40.2195207
0
LINE
8
DEFAULT_255_2_778
10
43.0550065
20
40.2195207
11
41.0550065
21
40.2192207
0
LINE
8
DEFAULT_255_2_778
10
67.0551065
20
40.2192207
11
65.0551065
21
40.2192207
0
LINE
8
DEFAULT_255_2_778
10
65.0551065
20
40.2192207
11
64.8641065
21
40.2579207
0
LINE
8
DEFAULT_255_2_778
10
64.8641065
20
40.2579207
11
64.7016065
21
40.3658207
0
LINE
8
DEFAULT_255_2_778
10
64.7016065
20
40.3658207
11
64.5937065
21
40.5283207
0
LINE
8
DEFAULT_255_2_778
10
64.5937065
20
40.5283207
11
64.5550065
21
40.7193207
0
LINE
8
DEFAULT_255_2_778
10
64.5550065
20
40.7193207
11
64.5550065
21
59.7193207
0
LINE
8
DEFAULT_255_2_778
10
64.5550065
20
59.7193207
11
64.5937065
21
59.9103207
0
LINE
8
DEFAULT_255_2_778
10
64.5937065
20
59.9103207
11
64.7016065
21
60.0728207
0
LINE
8
DEFAULT_255_2_778
10
64.7016065
20
60.0728207
11
64.8641065
21
60.1807207
0
LINE
8
DEFAULT_255_2_778
10
64.8641065
20
60.1807207
11
65.0551065
21
60.2194207
0
LINE
8
DEFAULT_255_2_778
10
65.0551065
20
60.2194207
11
67.0551065
21
60.2194207
0
LINE
8
DEFAULT_255_2_778
10
67.0551065
20
60.2194207
11
67.2995065
21
60.1556207
0
LINE
8
DEFAULT_255_2_778
10
67.2995065
20
60.1556207
11
67.4911065
21
59.9640207
0
LINE
8
DEFAULT_255_2_778
10
67.4911065
20
59.9640207
11
67.5549065
21
59.7196207
0
LINE
8
DEFAULT_255_2_778
10
67.5549065
20
59.7196207
11
67.5549065
21
40.7196207
0
LINE
8
DEFAULT_255_2_778
10
67.5549065
20
40.7196207
11
67.4911065
21
40.4751207
0
LINE
8
DEFAULT_255_2_778
10
67.4911065
20
40.4751207
11
67.2995065
21
40.2835207
0
LINE
8
DEFAULT_255_2_778
10
67.2995065
20
40.2835207
11
67.0551065
21
40.2192207
0
LINE
8
DEFAULT_255_2_778
10
41.0550065
20
32.7194207
11
43.0550065
21
32.7194207
0
LINE
8
DEFAULT_255_2_778
10
43.0550065
20
32.7194207
11
43.2995065
21
32.6556207
0
LINE
8
DEFAULT_255_2_778
10
43.2995065
20
32.6556207
11
43.4910065
21
32.4640207
0
LINE
8
DEFAULT_255_2_778
10
43.4910065
20
32.4640207
11
43.5548065
21
32.2196207
0
LINE
8
DEFAULT_255_2_778
10
43.5548065
20
32.2196207
11
43.5548065
21
13.2196207
0
LINE
8
DEFAULT_255_2_778
10
43.5548065
20
13.2196207
11
43.4910065
21
12.9751207
0
LINE
8
DEFAULT_255_2_778
10
43.4910065
20
12.9751207
11
43.2995065
21
12.7835207
0
LINE
8
DEFAULT_255_2_778
10
43.2995065
20
12.7835207
11
43.0550065
21
12.7198207
0
LINE
8
DEFAULT_255_2_778
10
43.0550065
20
12.7198207
11
41.0550065
21
12.7198207
0
LINE
8
DEFAULT_255_2_778
10
41.0550065
20
12.7198207
11
40.8640065
21
12.7584207
0
LINE
8
DEFAULT_255_2_778
10
40.8640065
20
12.7584207
11
40.7015065
21
12.8663207
0
LINE
8
DEFAULT_255_2_778
10
40.7015065
20
12.8663207
11
40.5936065
21
13.0288207
0
LINE
8
DEFAULT_255_2_778
10
40.5936065
20
13.0288207
11
40.5549065
21
13.2198207
0
LINE
8
DEFAULT_255_2_778
10
40.5549065
20
13.2198207
11
40.5549065
21
32.2198207
0
LINE
8
DEFAULT_255_2_778
10
40.5549065
20
32.2198207
11
40.5933065
21
32.4111207
0
LINE
8
DEFAULT_255_2_778
10
40.5933065
20
32.4111207
11
40.7013065
21
32.5736207
0
LINE
8
DEFAULT_255_2_778
10
40.7013065
20
32.5736207
11
40.8637065
21
32.6815207
0
LINE
8
DEFAULT_255_2_778
10
40.8637065
20
32.6815207
11
41.0550065
21
32.7194207
0
LINE
8
DEFAULT_255_2_778
10
67.0551065
20
32.7194207
11
67.2995065
21
32.6556207
0
LINE
8
DEFAULT_255_2_778
10
67.2995065
20
32.6556207
11
67.4911065
21
32.4640207
0
LINE
8
DEFAULT_255_2_778
10
67.4911065
20
32.4640207
11
67.5549065
21
32.2196207
0
LINE
8
DEFAULT_255_2_778
10
67.5549065
20
32.2196207
11
67.5549065
21
13.2196207
0
LINE
8
DEFAULT_255_2_778
10
67.5549065
20
13.2196207
11
67.4911065
21
12.9751207
0
LINE
8
DEFAULT_255_2_778
10
67.4911065
20
12.9751207
11
67.2995065
21
12.7835207
0
LINE
8
DEFAULT_255_2_778
10
67.2995065
20
12.7835207
11
67.0551065
21
12.7198207
0
LINE
8
DEFAULT_255_2_778
10
67.0551065
20
12.7198207
11
65.0551065
21
12.7198207
0
LINE
8
DEFAULT_255_2_778
10
65.0551065
20
12.7198207
11
64.8641065
21
12.7584207
0
LINE
8
DEFAULT_255_2_778
10
64.8641065
20
12.7584207
11
64.7016065
21
12.8663207
0
LINE
8
DEFAULT_255_2_778
10
64.7016065
20
12.8663207
11
64.5937065
21
13.0288207
0
LINE
8
DEFAULT_255_2_778
10
64.5937065
20
13.0288207
11
64.5550065
21
13.2198207
0
LINE
8
DEFAULT_255_2_778
10
64.5550065
20
13.2198207
11
64.5550065
21
32.2198207
0
LINE
8
DEFAULT_255_2_778
10
64.5550065
20
32.2198207
11
64.5937065
21
32.4111207
0
LINE
8
DEFAULT_255_2_778
10
64.5937065
20
32.4111207
11
64.7016065
21
32.5736207
0
LINE
8
DEFAULT_255_2_778
10
64.7016065
20
32.5736207
11
64.8641065
21
32.6815207
0
LINE
8
DEFAULT_255_2_778
10
64.8641065
20
32.6815207
11
65.0551065
21
32.7201207
0
LINE
8
DEFAULT_255_2_778
10
65.0551065
20
32.7201207
11
67.0551065
21
32.7194207
0
LINE
8
DEFAULT_255_2_778
10
67.0551065
20
87.7194207
11
67.2995065
21
87.6556207
0
LINE
8
DEFAULT_255_2_778
10
67.2995065
20
87.6556207
11
67.4911065
21
87.4640207
0
LINE
8
DEFAULT_255_2_778
10
67.4911065
20
87.4640207
11
67.5549065
21
87.2196207
0
LINE
8
DEFAULT_255_2_778
10
67.5549065
20
87.2196207
11
67.5549065
21
68.2196207
0
LINE
8
DEFAULT_255_2_778
10
67.5549065
20
68.2196207
11
67.4911065
21
67.9751207
0
LINE
8
DEFAULT_255_2_778
10
67.4911065
20
67.9751207
11
67.2995065
21
67.7835207
0
LINE
8
DEFAULT_255_2_778
10
67.2995065
20
67.7835207
11
67.0551065
21
67.7198207
0
LINE
8
DEFAULT_255_2_778
10
67.0551065
20
67.7198207
11
65.0551065
21
67.7198207
0
LINE
8
DEFAULT_255_2_778
10
65.0551065
20
67.7198207
11
64.8106065
21
67.7835207
0
LINE
8
DEFAULT_255_2_778
10
64.8106065
20
67.7835207
11
64.6191065
21
67.9751207
0
LINE
8
DEFAULT_255_2_778
10
64.6191065
20
67.9751207
11
64.5553065
21
68.2196207
0
LINE
8
DEFAULT_255_2_778
10
64.5553065
20
68.2196207
11
64.5553065
21
87.2185207
0
LINE
8
DEFAULT_255_2_778
10
64.5553065
20
87.2185207
11
64.5939065
21
87.4098207
0
LINE
8
DEFAULT_255_2_778
10
64.5939065
20
87.4098207
11
64.7019065
21
87.5722207
0
LINE
8
DEFAULT_255_2_778
10
64.7019065
20
87.5722207
11
64.8643065
21
87.6802207
0
LINE
8
DEFAULT_255_2_778
10
64.8643065
20
87.6802207
11
65.0554065
21
87.7188207
0
LINE
8
DEFAULT_255_2_778
10
65.0554065
20
87.7188207
11
67.0551065
21
87.7194207
0
LINE
8
DEFAULT_255_2_778
10
24.7553065
20
60.5186207
11
28.5553065
21
60.5186207
0
LINE
8
DEFAULT_255_2_778
10
28.5553065
20
60.5186207
11
28.6497065
21
60.5099207
0
LINE
8
DEFAULT_255_2_778
10
28.6497065
20
60.5099207
11
28.7394065
21
60.4834207
0
LINE
8
DEFAULT_255_2_778
10
28.7394065
20
60.4834207
11
28.8312065
21
60.4358207
0
LINE
8
DEFAULT_255_2_778
10
28.8312065
20
60.4358207
11
28.9090065
21
60.3720207
0
LINE
8
DEFAULT_255_2_778
10
28.9090065
20
60.3720207
11
28.9741065
21
60.2918207
0
LINE
8
DEFAULT_255_2_778
10
28.9741065
20
60.2918207
11
29.0202065
21
60.2024207
0
LINE
8
DEFAULT_255_2_778
10
29.0202065
20
60.2024207
11
29.0464065
21
60.1114207
0
LINE
8
DEFAULT_255_2_778
10
29.0464065
20
60.1114207
11
29.0551065
21
60.0185207
0
LINE
8
DEFAULT_255_2_778
10
29.0551065
20
60.0185207
11
29.0551065
21
39.2186207
0
LINE
8
DEFAULT_255_2_778
10
29.0551065
20
39.2186207
11
28.9913065
21
38.9741207
0
LINE
8
DEFAULT_255_2_778
10
28.9913065
20
38.9741207
11
28.7998065
21
38.7825207
0
LINE
8
DEFAULT_255_2_778
10
28.7998065
20
38.7825207
11
28.5553065
21
38.7188207
0
LINE
8
DEFAULT_255_2_778
10
28.5553065
20
38.7188207
11
24.7553065
21
38.7188207
0
LINE
8
DEFAULT_255_2_778
10
24.7553065
20
38.7188207
11
24.6609065
21
38.7275207
0
LINE
8
DEFAULT_255_2_778
10
24.6609065
20
38.7275207
11
24.5712065
21
38.7537207
0
LINE
8
DEFAULT_255_2_778
10
24.5712065
20
38.7537207
11
24.4794065
21
38.8013207
0
LINE
8
DEFAULT_255_2_778
10
24.4794065
20
38.8013207
11
24.4016065
21
38.8651207
0
LINE
8
DEFAULT_255_2_778
10
24.4016065
20
38.8651207
11
24.3365065
21
38.9453207
0
LINE
8
DEFAULT_255_2_778
10
24.3365065
20
38.9453207
11
24.2902065
21
39.0347207
0
LINE
8
DEFAULT_255_2_778
10
24.2902065
20
39.0347207
11
24.2640065
21
39.1257207
0
LINE
8
DEFAULT_255_2_778
10
24.2640065
20
39.1257207
11
24.2553065
21
39.2186207
0
LINE
8
DEFAULT_255_2_778
10
24.2553065
20
39.2186207
11
24.2553065
21
60.0185207
0
LINE
8
DEFAULT_255_2_778
10
24.2553065
20
60.0185207
11
24.2640065
21
60.1130207
0
LINE
8
DEFAULT_255_2_778
10
24.2640065
20
60.1130207
11
24.2902065
21
60.2027207
0
LINE
8
DEFAULT_255_2_778
10
24.2902065
20
60.2027207
11
24.3378065
21
60.2945207
0
LINE
8
DEFAULT_255_2_778
10
24.3378065
20
60.2945207
11
24.4016065
21
60.3723207
0
LINE
8
DEFAULT_255_2_778
10
24.4016065
20
60.3723207
11
24.4818065
21
60.4374207
0
LINE
8
DEFAULT_255_2_778
10
24.4818065
20
60.4374207
11
24.5712065
21
60.4834207
0
LINE
8
DEFAULT_255_2_778
10
24.5712065
20
60.4834207
11
24.6622065
21
60.5099207
0
LINE
8
DEFAULT_255_2_778
10
24.6622065
20
60.5099207
11
24.7553065
21
60.5186207
0
LINE
8
DEFAULT_255_2_778
10
68.5553065
20
60.5186207
11
64.7553065
21
60.5186207
0
LINE
8
DEFAULT_255_2_778
10
64.7553065
20
60.5186207
11
64.6622065
21
60.5099207
0
LINE
8
DEFAULT_255_2_778
10
64.6622065
20
60.5099207
11
64.5712065
21
60.4834207
0
LINE
8
DEFAULT_255_2_778
10
64.5712065
20
60.4834207
11
64.4817065
21
60.4374207
0
LINE
8
DEFAULT_255_2_778
10
64.4817065
20
60.4374207
11
64.4016065
21
60.3723207
0
LINE
8
DEFAULT_255_2_778
10
64.4016065
20
60.3723207
11
64.3378065
21
60.2945207
0
LINE
8
DEFAULT_255_2_778
10
64.3378065
20
60.2945207
11
64.2902065
21
60.2027207
0
LINE
8
DEFAULT_255_2_778
10
64.2902065
20
60.2027207
11
64.2637065
21
60.1130207
0
LINE
8
DEFAULT_255_2_778
10
64.2637065
20
60.1130207
11
64.2550065
21
60.0185207
0
LINE
8
DEFAULT_255_2_778
10
64.2550065
20
60.0185207
11
64.2550065
21
39.2186207
0
LINE
8
DEFAULT_255_2_778
10
64.2550065
20
39.2186207
11
64.2637065
21
39.1257207
0
LINE
8
DEFAULT_255_2_778
10
64.2637065
20
39.1257207
11
64.2902065
21
39.0347207
0
LINE
8
DEFAULT_255_2_778
10
64.2902065
20
39.0347207
11
64.3362065
21
38.9453207
0
LINE
8
DEFAULT_255_2_778
10
64.3362065
20
38.9453207
11
64.4013065
21
38.8651207
0
LINE
8
DEFAULT_255_2_778
10
64.4013065
20
38.8651207
11
64.4791065
21
38.8013207
0
LINE
8
DEFAULT_255_2_778
10
64.4791065
20
38.8013207
11
64.5709065
21
38.7537207
0
LINE
8
DEFAULT_255_2_778
10
64.5709065
20
38.7537207
11
64.6606065
21
38.7275207
0
LINE
8
DEFAULT_255_2_778
10
64.6606065
20
38.7275207
11
64.7551065
21
38.7188207
0
LINE
8
DEFAULT_255_2_778
10
64.7551065
20
38.7188207
11
68.5550065
21
38.7188207
0
LINE
8
DEFAULT_255_2_778
10
68.5550065
20
38.7188207
11
68.7995065
21
38.7825207
0
LINE
8
DEFAULT_255_2_778
10
68.7995065
20
38.7825207
11
68.9910065
21
38.9741207
0
LINE
8
DEFAULT_255_2_778
10
68.9910065
20
38.9741207
11
69.0548065
21
39.2186207
0
LINE
8
DEFAULT_255_2_778
10
69.0548065
20
39.2186207
11
69.0548065
21
60.0185207
0
LINE
8
DEFAULT_255_2_778
10
69.0548065
20
60.0185207
11
69.0461065
21
60.1114207
0
LINE
8
DEFAULT_255_2_778
10
69.0461065
20
60.1114207
11
69.0199065
21
60.2024207
0
LINE
8
DEFAULT_255_2_778
10
69.0199065
20
60.2024207
11
68.9738065
21
60.2918207
0
LINE
8
DEFAULT_255_2_778
10
68.9738065
20
60.2918207
11
68.9087065
21
60.3720207
0
LINE
8
DEFAULT_255_2_778
10
68.9087065
20
60.3720207
11
68.8310065
21
60.4358207
0
LINE
8
DEFAULT_255_2_778
10
68.8310065
20
60.4358207
11
68.7394065
21
60.4834207
0
LINE
8
DEFAULT_255_2_778
10
68.7394065
20
60.4834207
11
68.6497065
21
60.5099207
0
LINE
8
DEFAULT_255_2_778
10
68.6497065
20
60.5099207
11
68.5553065
21
60.5186207
0
LINE
8
DEFAULT_255_2_778
10
24.7553065
20
33.0186207
11
28.5553065
21
33.0186207
0
LINE
8
DEFAULT_255_2_778
10
28.5553065
20
33.0186207
11
28.6497065
21
33.0099207
0
LINE
8
DEFAULT_255_2_778
10
28.6497065
20
33.0099207
11
28.7394065
21
32.9837207
0
LINE
8
DEFAULT_255_2_778
10
28.7394065
20
32.9837207
11
28.8312065
21
32.9360207
0
LINE
8
DEFAULT_255_2_778
10
28.8312065
20
32.9360207
11
28.9090065
21
32.8723207
0
LINE
8
DEFAULT_255_2_778
10
28.9090065
20
32.8723207
11
28.9741065
21
32.7921207
0
LINE
8
DEFAULT_255_2_778
10
28.9741065
20
32.7921207
11
29.0202065
21
32.7027207
0
LINE
8
DEFAULT_255_2_778
10
29.0202065
20
32.7027207
11
29.0464065
21
32.6117207
0
LINE
8
DEFAULT_255_2_778
10
29.0464065
20
32.6117207
11
29.0551065
21
32.5185207
0
LINE
8
DEFAULT_255_2_778
10
29.0551065
20
32.5185207
11
29.0551065
21
11.7186207
0
LINE
8
DEFAULT_255_2_778
10
29.0551065
20
11.7186207
11
28.9913065
21
11.4741207
0
LINE
8
DEFAULT_255_2_778
10
28.9913065
20
11.4741207
11
28.7998065
21
11.2826207
0
LINE
8
DEFAULT_255_2_778
10
28.7998065
20
11.2826207
11
28.5553065
21
11.2188207
0
LINE
8
DEFAULT_255_2_778
10
28.5553065
20
11.2188207
11
24.7553065
21
11.2188207
0
LINE
8
DEFAULT_255_2_778
10
24.7553065
20
11.2188207
11
24.6609065
21
11.2275207
0
LINE
8
DEFAULT_255_2_778
10
24.6609065
20
11.2275207
11
24.5712065
21
11.2540207
0
LINE
8
DEFAULT_255_2_778
10
24.5712065
20
11.2540207
11
24.4794065
21
11.3016207
0
LINE
8
DEFAULT_255_2_778
10
24.4794065
20
11.3016207
11
24.4016065
21
11.3654207
0
LINE
8
DEFAULT_255_2_778
10
24.4016065
20
11.3654207
11
24.3365065
21
11.4455207
0
LINE
8
DEFAULT_255_2_778
10
24.3365065
20
11.4455207
11
24.2902065
21
11.5350207
0
LINE
8
DEFAULT_255_2_778
10
24.2902065
20
11.5350207
11
24.2640065
21
11.6260207
0
LINE
8
DEFAULT_255_2_778
10
24.2640065
20
11.6260207
11
24.2553065
21
11.7188207
0
LINE
8
DEFAULT_255_2_778
10
24.2553065
20
11.7188207
11
24.2553065
21
32.5185207
0
LINE
8
DEFAULT_255_2_778
10
24.2553065
20
32.5185207
11
24.2640065
21
32.6130207
0
LINE
8
DEFAULT_255_2_778
10
24.2640065
20
32.6130207
11
24.2902065
21
32.7027207
0
LINE
8
DEFAULT_255_2_778
10
24.2902065
20
32.7027207
11
24.3378065
21
32.7945207
0
LINE
8
DEFAULT_255_2_778
10
24.3378065
20
32.7945207
11
24.4016065
21
32.8723207
0
LINE
8
DEFAULT_255_2_778
10
24.4016065
20
32.8723207
11
24.4818065
21
32.9374207
0
LINE
8
DEFAULT_255_2_778
10
24.4818065
20
32.9374207
11
24.5712065
21
32.9834207
0
LINE
8
DEFAULT_255_2_778
10
24.5712065
20
32.9834207
11
24.6622065
21
33.0096207
0
LINE
8
DEFAULT_255_2_778
10
24.6622065
20
33.0096207
11
24.7553065
21
33.0186207
0
LINE
8
DEFAULT_255_2_778
10
68.5553065
20
33.0186207
11
64.7553065
21
33.0186207
0
LINE
8
DEFAULT_255_2_778
10
64.7553065
20
33.0186207
11
64.6622065
21
33.0099207
0
LINE
8
DEFAULT_255_2_778
10
64.6622065
20
33.0099207
11
64.5712065
21
32.9837207
0
LINE
8
DEFAULT_255_2_778
10
64.5712065
20
32.9837207
11
64.4817065
21
32.9376207
0
LINE
8
DEFAULT_255_2_778
10
64.4817065
20
32.9376207
11
64.4016065
21
32.8725207
0
LINE
8
DEFAULT_255_2_778
10
64.4016065
20
32.8725207
11
64.3378065
21
32.7948207
0
LINE
8
DEFAULT_255_2_778
10
64.3378065
20
32.7948207
11
64.2902065
21
32.7030207
0
LINE
8
DEFAULT_255_2_778
10
64.2902065
20
32.7030207
11
64.2637065
21
32.6133207
0
LINE
8
DEFAULT_255_2_778
10
64.2637065
20
32.6133207
11
64.2550065
21
32.5188207
0
LINE
8
DEFAULT_255_2_778
10
64.2550065
20
32.5188207
11
64.2550065
21
11.7188207
0
LINE
8
DEFAULT_255_2_778
10
64.2550065
20
11.7188207
11
64.2637065
21
11.6260207
0
LINE
8
DEFAULT_255_2_778
10
64.2637065
20
11.6260207
11
64.2902065
21
11.5350207
0
LINE
8
DEFAULT_255_2_778
10
64.2902065
20
11.5350207
11
64.3362065
21
11.4455207
0
LINE
8
DEFAULT_255_2_778
10
64.3362065
20
11.4455207
11
64.4013065
21
11.3654207
0
LINE
8
DEFAULT_255_2_778
10
64.4013065
20
11.3654207
11
64.4791065
21
11.3016207
0
LINE
8
DEFAULT_255_2_778
10
64.4791065
20
11.3016207
11
64.5709065
21
11.2540207
0
LINE
8
DEFAULT_255_2_778
10
64.5709065
20
11.2540207
11
64.6606065
21
11.2275207
0
LINE
8
DEFAULT_255_2_778
10
64.6606065
20
11.2275207
11
64.7551065
21
11.2188207
0
LINE
8
DEFAULT_255_2_778
10
64.7551065
20
11.2188207
11
68.5550065
21
11.2188207
0
LINE
8
DEFAULT_255_2_778
10
68.5550065
20
11.2188207
11
68.7995065
21
11.2826207
0
LINE
8
DEFAULT_255_2_778
10
68.7995065
20
11.2826207
11
68.9910065
21
11.4741207
0
LINE
8
DEFAULT_255_2_778
10
68.9910065
20
11.4741207
11
69.0548065
21
11.7186207
0
LINE
8
DEFAULT_255_2_778
10
69.0548065
20
11.7186207
11
69.0548065
21
32.5185207
0
LINE
8
DEFAULT_255_2_778
10
69.0548065
20
32.5185207
11
69.0461065
21
32.6117207
0
LINE
8
DEFAULT_255_2_778
10
69.0461065
20
32.6117207
11
69.0199065
21
32.7027207
0
LINE
8
DEFAULT_255_2_778
10
69.0199065
20
32.7027207
11
68.9738065
21
32.7921207
0
LINE
8
DEFAULT_255_2_778
10
68.9738065
20
32.7921207
11
68.9087065
21
32.8723207
0
LINE
8
DEFAULT_255_2_778
10
68.9087065
20
32.8723207
11
68.8310065
21
32.9360207
0
LINE
8
DEFAULT_255_2_778
10
68.8310065
20
32.9360207
11
68.7394065
21
32.9837207
0
LINE
8
DEFAULT_255_2_778
10
68.7394065
20
32.9837207
11
68.6497065
21
33.0099207
0
LINE
8
DEFAULT_255_2_778
10
68.6497065
20
33.0099207
11
68.5553065
21
33.0186207
0
LINE
8
DEFAULT_255_2_778
10
24.5553065
20
66.2603207
11
24.6609065
21
66.2272207
0
LINE
8
DEFAULT_255_2_778
10
24.6609065
20
66.2272207
11
24.7551065
21
66.2185207
0
LINE
8
DEFAULT_255_2_778
10
24.7551065
20
66.2185207
11
28.5550065
21
66.2185207
0
LINE
8
DEFAULT_255_2_778
10
28.5550065
20
66.2185207
11
28.7995065
21
66.2823207
0
LINE
8
DEFAULT_255_2_778
10
28.7995065
20
66.2823207
11
28.9911065
21
66.4738207
0
LINE
8
DEFAULT_255_2_778
10
28.9911065
20
66.4738207
11
29.0548065
21
66.7183207
0
LINE
8
DEFAULT_255_2_778
10
29.0548065
20
66.7183207
11
29.0548065
21
87.5185207
0
LINE
8
DEFAULT_255_2_778
10
29.0548065
20
87.5185207
11
28.9911065
21
87.7630207
0
LINE
8
DEFAULT_255_2_778
10
28.9911065
20
87.7630207
11
28.7995065
21
87.9546207
0
LINE
8
DEFAULT_255_2_778
10
28.7995065
20
87.9546207
11
28.5550065
21
88.0183207
0
LINE
8
DEFAULT_255_2_778
10
28.5550065
20
88.0183207
11
24.7553065
21
88.0183207
0
LINE
8
DEFAULT_255_2_778
10
24.7553065
20
88.0183207
11
24.6622065
21
88.0096207
0
LINE
8
DEFAULT_255_2_778
10
24.6622065
20
88.0096207
11
24.5712065
21
87.9831207
0
LINE
8
DEFAULT_255_2_778
10
24.5712065
20
87.9831207
11
24.4818065
21
87.9371207
0
LINE
8
DEFAULT_255_2_778
10
24.4818065
20
87.9371207
11
24.4016065
21
87.8720207
0
LINE
8
DEFAULT_255_2_778
10
24.4016065
20
87.8720207
11
24.3426065
21
87.8011207
0
LINE
8
DEFAULT_255_2_778
10
24.3426065
20
87.8011207
11
24.2971065
21
87.7186207
0
LINE
8
DEFAULT_255_2_778
10
24.2971065
20
87.7186207
11
24.2905065
21
87.7027207
0
LINE
8
DEFAULT_255_2_778
10
24.2905065
20
87.7027207
11
24.2643065
21
87.6130207
0
LINE
8
DEFAULT_255_2_778
10
24.2643065
20
87.6130207
11
24.2555065
21
87.5185207
0
LINE
8
DEFAULT_255_2_778
10
24.2555065
20
87.5185207
11
24.2555065
21
66.7186207
0
LINE
8
DEFAULT_255_2_778
10
24.2555065
20
66.7186207
11
24.3323065
21
66.4524207
0
LINE
8
DEFAULT_255_2_778
10
24.3323065
20
66.4524207
11
24.5553065
21
66.2603207
0
LINE
8
DEFAULT_255_2_778
10
75.0553065
20
67.7184207
11
75.2998065
21
67.7822207
0
LINE
8
DEFAULT_255_2_778
10
75.2998065
20
67.7822207
11
75.4913065
21
67.9738207
0
LINE
8
DEFAULT_255_2_778
10
75.4913065
20
67.9738207
11
75.5551065
21
68.2182207
0
LINE
8
DEFAULT_255_2_778
10
75.5551065
20
68.2182207
11
75.5551065
21
87.2185207
0
LINE
8
DEFAULT_255_2_778
10
75.5551065
20
87.2185207
11
75.4913065
21
87.4630207
0
LINE
8
DEFAULT_255_2_778
10
75.4913065
20
87.4630207
11
75.2998065
21
87.6545207
0
LINE
8
DEFAULT_255_2_778
10
75.2998065
20
87.6545207
11
75.0553065
21
87.7183207
0
LINE
8
DEFAULT_255_2_778
10
75.0553065
20
87.7183207
11
73.0553065
21
87.7183207
0
LINE
8
DEFAULT_255_2_778
10
73.0553065
20
87.7183207
11
72.8108065
21
87.6545207
0
LINE
8
DEFAULT_255_2_778
10
72.8108065
20
87.6545207
11
72.6193065
21
87.4630207
0
LINE
8
DEFAULT_255_2_778
10
72.6193065
20
87.4630207
11
72.5555065
21
87.2185207
0
LINE
8
DEFAULT_255_2_778
10
72.5555065
20
87.2185207
11
72.5555065
21
68.2185207
0
LINE
8
DEFAULT_255_2_778
10
72.5555065
20
68.2185207
11
72.6193065
21
67.9740207
0
LINE
8
DEFAULT_255_2_778
10
72.6193065
20
67.9740207
11
72.8108065
21
67.7825207
0
LINE
8
DEFAULT_255_2_778
10
72.8108065
20
67.7825207
11
73.0553065
21
67.7187207
0
LINE
8
DEFAULT_255_2_778
10
73.0553065
20
67.7187207
11
75.0553065
21
67.7184207
0
LINE
8
DEFAULT_255_2_778
10
27.5552065
20
13.2185207
11
27.4914065
21
12.9740207
0
LINE
8
DEFAULT_255_2_778
10
27.4914065
20
12.9740207
11
27.2998065
21
12.7825207
0
LINE
8
DEFAULT_255_2_778
10
27.2998065
20
12.7825207
11
27.0554065
21
12.7187207
0
LINE
8
DEFAULT_255_2_778
10
27.0554065
20
12.7187207
11
25.0554065
21
12.7187207
0
LINE
8
DEFAULT_255_2_778
10
25.0554065
20
12.7187207
11
24.8644065
21
12.7573207
0
LINE
8
DEFAULT_255_2_778
10
24.8644065
20
12.7573207
11
24.7019065
21
12.8653207
0
LINE
8
DEFAULT_255_2_778
10
24.7019065
20
12.8653207
11
24.5939065
21
13.0277207
0
LINE
8
DEFAULT_255_2_778
10
24.5939065
20
13.0277207
11
24.5553065
21
13.2188207
0
LINE
8
DEFAULT_255_2_778
10
24.5553065
20
13.2188207
11
24.5553065
21
32.2188207
0
LINE
8
DEFAULT_255_2_778
10
24.5553065
20
32.2188207
11
24.5939065
21
32.4101207
0
LINE
8
DEFAULT_255_2_778
10
24.5939065
20
32.4101207
11
24.7019065
21
32.5725207
0
LINE
8
DEFAULT_255_2_778
10
24.7019065
20
32.5725207
11
24.8644065
21
32.6805207
0
LINE
8
DEFAULT_255_2_778
10
24.8644065
20
32.6805207
11
25.0554065
21
32.7191207
0
LINE
8
DEFAULT_255_2_778
10
25.0554065
20
32.7191207
11
27.0554065
21
32.7191207
0
LINE
8
DEFAULT_255_2_778
10
27.0554065
20
32.7191207
11
27.2998065
21
32.6553207
0
LINE
8
DEFAULT_255_2_778
10
27.2998065
20
32.6553207
11
27.4914065
21
32.4638207
0
LINE
8
DEFAULT_255_2_778
10
27.4914065
20
32.4638207
11
27.5552065
21
32.2193207
0
LINE
8
DEFAULT_255_2_778
10
27.5552065
20
32.2193207
11
27.5552065
21
13.2185207
0
LINE
8
DEFAULT_255_2_778
10
16.5554065
20
40.7185207
11
16.5940065
21
40.5275207
0
LINE
8
DEFAULT_255_2_778
10
16.5940065
20
40.5275207
11
16.7020065
21
40.3650207
0
LINE
8
DEFAULT_255_2_778
10
16.7020065
20
40.3650207
11
16.8644065
21
40.2571207
0
LINE
8
DEFAULT_255_2_778
10
16.8644065
20
40.2571207
11
17.0557065
21
40.2184207
0
LINE
8
DEFAULT_255_2_778
10
17.0557065
20
40.2184207
11
19.0557065
21
40.2184207
0
LINE
8
DEFAULT_255_2_778
10
19.0557065
20
40.2184207
11
19.3002065
21
40.2825207
0
LINE
8
DEFAULT_255_2_778
10
19.3002065
20
40.2825207
11
19.4917065
21
40.4740207
0
LINE
8
DEFAULT_255_2_778
10
19.4917065
20
40.4740207
11
19.5555065
21
40.7185207
0
LINE
8
DEFAULT_255_2_778
10
19.5555065
20
40.7185207
11
19.5555065
21
59.7185207
0
LINE
8
DEFAULT_255_2_778
10
19.5555065
20
59.7185207
11
19.4917065
21
59.9630207
0
LINE
8
DEFAULT_255_2_778
10
19.4917065
20
59.9630207
11
19.3002065
21
60.1545207
0
LINE
8
DEFAULT_255_2_778
10
19.3002065
20
60.1545207
11
19.0557065
21
60.2183207
0
LINE
8
DEFAULT_255_2_778
10
19.0557065
20
60.2183207
11
17.0557065
21
60.2183207
0
LINE
8
DEFAULT_255_2_778
10
17.0557065
20
60.2183207
11
16.8644065
21
60.1797207
0
LINE
8
DEFAULT_255_2_778
10
16.8644065
20
60.1797207
11
16.7020065
21
60.0717207
0
LINE
8
DEFAULT_255_2_778
10
16.7020065
20
60.0717207
11
16.5940065
21
59.9093207
0
LINE
8
DEFAULT_255_2_778
10
16.5940065
20
59.9093207
11
16.5554065
21
59.7182207
0
LINE
8
DEFAULT_255_2_778
10
16.5554065
20
59.7182207
11
16.5554065
21
40.7185207
0
LINE
8
DEFAULT_255_2_778
10
27.5554065
20
68.2185207
11
27.4917065
21
67.9740207
0
LINE
8
DEFAULT_255_2_778
10
27.4917065
20
67.9740207
11
27.3001065
21
67.7825207
0
LINE
8
DEFAULT_255_2_778
10
27.3001065
20
67.7825207
11
27.0556065
21
67.7187207
0
LINE
8
DEFAULT_255_2_778
10
27.0556065
20
67.7187207
11
25.0556065
21
67.7187207
0
LINE
8
DEFAULT_255_2_778
10
25.0556065
20
67.7187207
11
24.8112065
21
67.7825207
0
LINE
8
DEFAULT_255_2_778
10
24.8112065
20
67.7825207
11
24.6196065
21
67.9740207
0
LINE
8
DEFAULT_255_2_778
10
24.6196065
20
67.9740207
11
24.5558065
21
68.2185207
0
LINE
8
DEFAULT_255_2_778
10
24.5558065
20
68.2185207
11
24.5558065
21
87.2185207
0
LINE
8
DEFAULT_255_2_778
10
24.5558065
20
87.2185207
11
24.5945065
21
87.4098207
0
LINE
8
DEFAULT_255_2_778
10
24.5945065
20
87.4098207
11
24.7024065
21
87.5722207
0
LINE
8
DEFAULT_255_2_778
10
24.7024065
20
87.5722207
11
24.8649065
21
87.6802207
0
LINE
8
DEFAULT_255_2_778
10
24.8649065
20
87.6802207
11
25.0559065
21
87.7188207
0
LINE
8
DEFAULT_255_2_778
10
25.0559065
20
87.7188207
11
27.0559065
21
87.7188207
0
LINE
8
DEFAULT_255_2_778
10
27.0559065
20
87.7188207
11
27.3004065
21
87.6551207
0
LINE
8
DEFAULT_255_2_778
10
27.3004065
20
87.6551207
11
27.4919065
21
87.4635207
0
LINE
8
DEFAULT_255_2_778
10
27.4919065
20
87.4635207
11
27.5557065
21
87.2190207
0
LINE
8
DEFAULT_255_2_778
10
27.5557065
20
87.2190207
11
27.5554065
21
68.2185207
0
LINE
8
DEFAULT_255_2_778
10
24.5553065
20
40.7185207
11
24.5939065
21
40.5275207
0
LINE
8
DEFAULT_255_2_778
10
24.5939065
20
40.5275207
11
24.7019065
21
40.3650207
0
LINE
8
DEFAULT_255_2_778
10
24.7019065
20
40.3650207
11
24.8644065
21
40.2571207
0
LINE
8
DEFAULT_255_2_778
10
24.8644065
20
40.2571207
11
25.0554065
21
40.2184207
0
LINE
8
DEFAULT_255_2_778
10
25.0554065
20
40.2184207
11
27.0554065
21
40.2184207
0
LINE
8
DEFAULT_255_2_778
10
27.0554065
20
40.2184207
11
27.2998065
21
40.2825207
0
LINE
8
DEFAULT_255_2_778
10
27.2998065
20
40.2825207
11
27.4914065
21
40.4740207
0
LINE
8
DEFAULT_255_2_778
10
27.4914065
20
40.4740207
11
27.5552065
21
40.7185207
0
LINE
8
DEFAULT_255_2_778
10
27.5552065
20
40.7185207
11
27.5552065
21
59.7185207
0
LINE
8
DEFAULT_255_2_778
10
27.5552065
20
59.7185207
11
27.4914065
21
59.9630207
0
LINE
8
DEFAULT_255_2_778
10
27.4914065
20
59.9630207
11
27.2998065
21
60.1545207
0
LINE
8
DEFAULT_255_2_778
10
27.2998065
20
60.1545207
11
27.0554065
21
60.2183207
0
LINE
8
DEFAULT_255_2_778
10
27.0554065
20
60.2183207
11
25.0554065
21
60.2183207
0
LINE
8
DEFAULT_255_2_778
10
25.0554065
20
60.2183207
11
24.8644065
21
60.1797207
0
LINE
8
DEFAULT_255_2_778
10
24.8644065
20
60.1797207
11
24.7019065
21
60.0717207
0
LINE
8
DEFAULT_255_2_778
10
24.7019065
20
60.0717207
11
24.5939065
21
59.9093207
0
LINE
8
DEFAULT_255_2_778
10
24.5939065
20
59.9093207
11
24.5553065
21
59.7182207
0
LINE
8
DEFAULT_255_2_778
10
24.5553065
20
59.7182207
11
24.5553065
21
40.7185207
0
LINE
8
DEFAULT_255_2_778
10
19.5552065
20
68.2185207
11
19.4915065
21
67.9740207
0
LINE
8
DEFAULT_255_2_778
10
19.4915065
20
67.9740207
11
19.2999065
21
67.7825207
0
LINE
8
DEFAULT_255_2_778
10
19.2999065
20
67.7825207
11
19.0554065
21
67.7187207
0
LINE
8
DEFAULT_255_2_778
10
19.0554065
20
67.7187207
11
17.0554065
21
67.7187207
0
LINE
8
DEFAULT_255_2_778
10
17.0554065
20
67.7187207
11
16.8110065
21
67.7825207
0
LINE
8
DEFAULT_255_2_778
10
16.8110065
20
67.7825207
11
16.6194065
21
67.9740207
0
LINE
8
DEFAULT_255_2_778
10
16.6194065
20
67.9740207
11
16.5556065
21
68.2185207
0
LINE
8
DEFAULT_255_2_778
10
16.5556065
20
68.2185207
11
16.5556065
21
87.2185207
0
LINE
8
DEFAULT_255_2_778
10
16.5556065
20
87.2185207
11
16.5943065
21
87.4098207
0
LINE
8
DEFAULT_255_2_778
10
16.5943065
20
87.4098207
11
16.7022065
21
87.5722207
0
LINE
8
DEFAULT_255_2_778
10
16.7022065
20
87.5722207
11
16.8647065
21
87.6802207
0
LINE
8
DEFAULT_255_2_778
10
16.8647065
20
87.6802207
11
17.0560065
21
87.7188207
0
LINE
8
DEFAULT_255_2_778
10
17.0560065
20
87.7188207
11
19.0560065
21
87.7188207
0
LINE
8
DEFAULT_255_2_778
10
19.0560065
20
87.7188207
11
19.3004065
21
87.6551207
0
LINE
8
DEFAULT_255_2_778
10
19.3004065
20
87.6551207
11
19.4920065
21
87.4635207
0
LINE
8
DEFAULT_255_2_778
10
19.4920065
20
87.4635207
11
19.5558065
21
87.2190207
0
LINE
8
DEFAULT_255_2_778
10
19.5558065
20
87.2190207
11
19.5552065
21
68.2185207
0
LINE
8
DEFAULT_255_2_778
10
19.5552065
20
27.7185207
11
19.4915065
21
27.4740207
0
LINE
8
DEFAULT_255_2_778
10
19.4915065
20
27.4740207
11
19.2999065
21
27.2824207
0
LINE
8
DEFAULT_255_2_778
10
19.2999065
20
27.2824207
11
19.0554065
21
27.2187207
0
LINE
8
DEFAULT_255_2_778
10
19.0554065
20
27.2187207
11
17.0554065
21
27.2187207
0
LINE
8
DEFAULT_255_2_778
10
17.0554065
20
27.2187207
11
16.8641065
21
27.2573207
0
LINE
8
DEFAULT_255_2_778
10
16.8641065
20
27.2573207
11
16.7017065
21
27.3652207
0
LINE
8
DEFAULT_255_2_778
10
16.7017065
20
27.3652207
11
16.5937065
21
27.5277207
0
LINE
8
DEFAULT_255_2_778
10
16.5937065
20
27.5277207
11
16.5551065
21
27.7190207
0
LINE
8
DEFAULT_255_2_778
10
16.5551065
20
27.7190207
11
16.5551065
21
32.2190207
0
LINE
8
DEFAULT_255_2_778
10
16.5551065
20
32.2190207
11
16.5937065
21
32.4101207
0
LINE
8
DEFAULT_255_2_778
10
16.5937065
20
32.4101207
11
16.7017065
21
32.5725207
0
LINE
8
DEFAULT_255_2_778
10
16.7017065
20
32.5725207
11
16.8641065
21
32.6805207
0
LINE
8
DEFAULT_255_2_778
10
16.8641065
20
32.6805207
11
17.0554065
21
32.7188207
0
LINE
8
DEFAULT_255_2_778
10
17.0554065
20
32.7188207
11
19.0554065
21
32.7188207
0
LINE
8
DEFAULT_255_2_778
10
19.0554065
20
32.7188207
11
19.2999065
21
32.6551207
0
LINE
8
DEFAULT_255_2_778
10
19.2999065
20
32.6551207
11
19.4915065
21
32.4635207
0
LINE
8
DEFAULT_255_2_778
10
19.4915065
20
32.4635207
11
19.5552065
21
32.2190207
0
LINE
8
DEFAULT_255_2_778
10
19.5552065
20
32.2190207
11
19.5552065
21
27.7185207
0
LINE
8
DEFAULT_255_2_778
10
72.5552065
20
40.7185207
11
72.5939065
21
40.5275207
0
LINE
8
DEFAULT_255_2_778
10
72.5939065
20
40.5275207
11
72.7018065
21
40.3650207
0
LINE
8
DEFAULT_255_2_778
10
72.7018065
20
40.3650207
11
72.8643065
21
40.2571207
0
LINE
8
DEFAULT_255_2_778
10
72.8643065
20
40.2571207
11
73.0553065
21
40.2184207
0
LINE
8
DEFAULT_255_2_778
10
73.0553065
20
40.2184207
11
75.0553065
21
40.2184207
0
LINE
8
DEFAULT_255_2_778
10
75.0553065
20
40.2184207
11
75.2998065
21
40.2825207
0
LINE
8
DEFAULT_255_2_778
10
75.2998065
20
40.2825207
11
75.4913065
21
40.4740207
0
LINE
8
DEFAULT_255_2_778
10
75.4913065
20
40.4740207
11
75.5551065
21
40.7185207
0
LINE
8
DEFAULT_255_2_778
10
75.5551065
20
40.7185207
11
75.5551065
21
59.7185207
0
LINE
8
DEFAULT_255_2_778
10
75.5551065
20
59.7185207
11
75.4913065
21
59.9630207
0
LINE
8
DEFAULT_255_2_778
10
75.4913065
20
59.9630207
11
75.2998065
21
60.1545207
0
LINE
8
DEFAULT_255_2_778
10
75.2998065
20
60.1545207
11
75.0553065
21
60.2183207
0
LINE
8
DEFAULT_255_2_778
10
75.0553065
20
60.2183207
11
73.0553065
21
60.2183207
0
LINE
8
DEFAULT_255_2_778
10
73.0553065
20
60.2183207
11
72.8643065
21
60.1797207
0
LINE
8
DEFAULT_255_2_778
10
72.8643065
20
60.1797207
11
72.7018065
21
60.0717207
0
LINE
8
DEFAULT_255_2_778
10
72.7018065
20
60.0717207
11
72.5939065
21
59.9093207
0
LINE
8
DEFAULT_255_2_778
10
72.5939065
20
59.9093207
11
72.5552065
21
59.7182207
0
LINE
8
DEFAULT_255_2_778
10
72.5552065
20
59.7182207
11
72.5552065
21
40.7185207
0
LINE
8
DEFAULT_255_2_778
10
51.5553065
20
13.2185207
11
51.4915065
21
12.9740207
0
LINE
8
DEFAULT_255_2_778
10
51.4915065
20
12.9740207
11
51.2999065
21
12.7825207
0
LINE
8
DEFAULT_255_2_778
10
51.2999065
20
12.7825207
11
51.0555065
21
12.7187207
0
LINE
8
DEFAULT_255_2_778
10
51.0555065
20
12.7187207
11
49.0555065
21
12.7187207
0
LINE
8
DEFAULT_255_2_778
10
49.0555065
20
12.7187207
11
48.8644065
21
12.7573207
0
LINE
8
DEFAULT_255_2_778
10
48.8644065
20
12.7573207
11
48.7020065
21
12.8653207
0
LINE
8
DEFAULT_255_2_778
10
48.7020065
20
12.8653207
11
48.5940065
21
13.0277207
0
LINE
8
DEFAULT_255_2_778
10
48.5940065
20
13.0277207
11
48.5554065
21
13.2188207
0
LINE
8
DEFAULT_255_2_778
10
48.5554065
20
13.2188207
11
48.5554065
21
32.2188207
0
LINE
8
DEFAULT_255_2_778
10
48.5554065
20
32.2188207
11
48.5940065
21
32.4101207
0
LINE
8
DEFAULT_255_2_778
10
48.5940065
20
32.4101207
11
48.7020065
21
32.5725207
0
LINE
8
DEFAULT_255_2_778
10
48.7020065
20
32.5725207
11
48.8644065
21
32.6805207
0
LINE
8
DEFAULT_255_2_778
10
48.8644065
20
32.6805207
11
49.0555065
21
32.7191207
0
LINE
8
DEFAULT_255_2_778
10
49.0555065
20
32.7191207
11
51.0555065
21
32.7191207
0
LINE
8
DEFAULT_255_2_778
10
51.0555065
20
32.7191207
11
51.2999065
21
32.6553207
0
LINE
8
DEFAULT_255_2_778
10
51.2999065
20
32.6553207
11
51.4915065
21
32.4638207
0
LINE
8
DEFAULT_255_2_778
10
51.4915065
20
32.4638207
11
51.5553065
21
32.2193207
0
LINE
8
DEFAULT_255_2_778
10
51.5553065
20
32.2193207
11
51.5553065
21
13.2185207
0
LINE
8
DEFAULT_255_2_778
10
48.5551065
20
40.7185207
11
48.5938065
21
40.5275207
0
LINE
8
DEFAULT_255_2_778
10
48.5938065
20
40.5275207
11
48.7017065
21
40.3650207
0
LINE
8
DEFAULT_255_2_778
10
48.7017065
20
40.3650207
11
48.8642065
21
40.2571207
0
LINE
8
DEFAULT_255_2_778
10
48.8642065
20
40.2571207
11
49.0552065
21
40.2184207
0
LINE
8
DEFAULT_255_2_778
10
49.0552065
20
40.2184207
11
51.0552065
21
40.2184207
0
LINE
8
DEFAULT_255_2_778
10
51.0552065
20
40.2184207
11
51.2997065
21
40.2825207
0
LINE
8
DEFAULT_255_2_778
10
51.2997065
20
40.2825207
11
51.4912065
21
40.4740207
0
LINE
8
DEFAULT_255_2_778
10
51.4912065
20
40.4740207
11
51.5550065
21
40.7185207
0
LINE
8
DEFAULT_255_2_778
10
51.5550065
20
40.7185207
11
51.5550065
21
59.7185207
0
LINE
8
DEFAULT_255_2_778
10
51.5550065
20
59.7185207
11
51.4912065
21
59.9630207
0
LINE
8
DEFAULT_255_2_778
10
51.4912065
20
59.9630207
11
51.2997065
21
60.1545207
0
LINE
8
DEFAULT_255_2_778
10
51.2997065
20
60.1545207
11
51.0552065
21
60.2183207
0
LINE
8
DEFAULT_255_2_778
10
51.0552065
20
60.2183207
11
49.0552065
21
60.2183207
0
LINE
8
DEFAULT_255_2_778
10
49.0552065
20
60.2183207
11
48.8642065
21
60.1797207
0
LINE
8
DEFAULT_255_2_778
10
48.8642065
20
60.1797207
11
48.7017065
21
60.0717207
0
LINE
8
DEFAULT_255_2_778
10
48.7017065
20
60.0717207
11
48.5938065
21
59.9093207
0
LINE
8
DEFAULT_255_2_778
10
48.5938065
20
59.9093207
11
48.5551065
21
59.7182207
0
LINE
8
DEFAULT_255_2_778
10
48.5551065
20
59.7182207
11
48.5551065
21
40.7185207
0
LINE
8
DEFAULT_255_2_778
10
59.5552065
20
13.2185207
11
59.4914065
21
12.9740207
0
LINE
8
DEFAULT_255_2_778
10
59.4914065
20
12.9740207
11
59.2999065
21
12.7825207
0
LINE
8
DEFAULT_255_2_778
10
59.2999065
20
12.7825207
11
59.0554065
21
12.7187207
0
LINE
8
DEFAULT_255_2_778
10
59.0554065
20
12.7187207
11
57.0554065
21
12.7187207
0
LINE
8
DEFAULT_255_2_778
10
57.0554065
20
12.7187207
11
56.8644065
21
12.7573207
0
LINE
8
DEFAULT_255_2_778
10
56.8644065
20
12.7573207
11
56.7019065
21
12.8653207
0
LINE
8
DEFAULT_255_2_778
10
56.7019065
20
12.8653207
11
56.5940065
21
13.0277207
0
LINE
8
DEFAULT_255_2_778
10
56.5940065
20
13.0277207
11
56.5553065
21
13.2188207
0
LINE
8
DEFAULT_255_2_778
10
56.5553065
20
13.2188207
11
56.5553065
21
32.2188207
0
LINE
8
DEFAULT_255_2_778
10
56.5553065
20
32.2188207
11
56.5940065
21
32.4101207
0
LINE
8
DEFAULT_255_2_778
10
56.5940065
20
32.4101207
11
56.7019065
21
32.5725207
0
LINE
8
DEFAULT_255_2_778
10
56.7019065
20
32.5725207
11
56.8644065
21
32.6805207
0
LINE
8
DEFAULT_255_2_778
10
56.8644065
20
32.6805207
11
57.0554065
21
32.7191207
0
LINE
8
DEFAULT_255_2_778
10
57.0554065
20
32.7191207
11
59.0554065
21
32.7191207
0
LINE
8
DEFAULT_255_2_778
10
59.0554065
20
32.7191207
11
59.2999065
21
32.6553207
0
LINE
8
DEFAULT_255_2_778
10
59.2999065
20
32.6553207
11
59.4914065
21
32.4638207
0
LINE
8
DEFAULT_255_2_778
10
59.4914065
20
32.4638207
11
59.5552065
21
32.2193207
0
LINE
8
DEFAULT_255_2_778
10
59.5552065
20
32.2193207
11
59.5552065
21
13.2185207
0
LINE
8
DEFAULT_255_2_778
10
56.5551065
20
40.7185207
11
56.5937065
21
40.5275207
0
LINE
8
DEFAULT_255_2_778
10
56.5937065
20
40.5275207
11
56.7017065
21
40.3650207
0
LINE
8
DEFAULT_255_2_778
10
56.7017065
20
40.3650207
11
56.8641065
21
40.2571207
0
LINE
8
DEFAULT_255_2_778
10
56.8641065
20
40.2571207
11
57.0551065
21
40.2184207
0
LINE
8
DEFAULT_255_2_778
10
57.0551065
20
40.2184207
11
59.0551065
21
40.2184207
0
LINE
8
DEFAULT_255_2_778
10
59.0551065
20
40.2184207
11
59.2996065
21
40.2825207
0
LINE
8
DEFAULT_255_2_778
10
59.2996065
20
40.2825207
11
59.4912065
21
40.4740207
0
LINE
8
DEFAULT_255_2_778
10
59.4912065
20
40.4740207
11
59.5549065
21
40.7185207
0
LINE
8
DEFAULT_255_2_778
10
59.5549065
20
40.7185207
11
59.5549065
21
59.7185207
0
LINE
8
DEFAULT_255_2_778
10
59.5549065
20
59.7185207
11
59.4912065
21
59.9630207
0
LINE
8
DEFAULT_255_2_778
10
59.4912065
20
59.9630207
11
59.2996065
21
60.1545207
0
LINE
8
DEFAULT_255_2_778
10
59.2996065
20
60.1545207
11
59.0551065
21
60.2183207
0
LINE
8
DEFAULT_255_2_778
10
59.0551065
20
60.2183207
11
57.0551065
21
60.2183207
0
LINE
8
DEFAULT_255_2_778
10
57.0551065
20
60.2183207
11
56.8641065
21
60.1797207
0
LINE
8
DEFAULT_255_2_778
10
56.8641065
20
60.1797207
11
56.7017065
21
60.0717207
0
LINE
8
DEFAULT_255_2_778
10
56.7017065
20
60.0717207
11
56.5937065
21
59.9093207
0
LINE
8
DEFAULT_255_2_778
10
56.5937065
20
59.9093207
11
56.5551065
21
59.7182207
0
LINE
8
DEFAULT_255_2_778
10
56.5551065
20
59.7182207
11
56.5551065
21
40.7185207
0
LINE
8
DEFAULT_255_2_778
10
51.5550065
20
68.2185207
11
51.4912065
21
67.9740207
0
LINE
8
DEFAULT_255_2_778
10
51.4912065
20
67.9740207
11
51.2997065
21
67.7825207
0
LINE
8
DEFAULT_255_2_778
10
51.2997065
20
67.7825207
11
51.0552065
21
67.7187207
0
LINE
8
DEFAULT_255_2_778
10
51.0552065
20
67.7187207
11
49.0552065
21
67.7187207
0
LINE
8
DEFAULT_255_2_778
10
49.0552065
20
67.7187207
11
48.8107065
21
67.7825207
0
LINE
8
DEFAULT_255_2_778
10
48.8107065
20
67.7825207
11
48.6192065
21
67.9740207
0
LINE
8
DEFAULT_255_2_778
10
48.6192065
20
67.9740207
11
48.5554065
21
68.2185207
0
LINE
8
DEFAULT_255_2_778
10
48.5554065
20
68.2185207
11
48.5554065
21
87.2185207
0
LINE
8
DEFAULT_255_2_778
10
48.5554065
20
87.2185207
11
48.5940065
21
87.4098207
0
LINE
8
DEFAULT_255_2_778
10
48.5940065
20
87.4098207
11
48.7020065
21
87.5722207
0
LINE
8
DEFAULT_255_2_778
10
48.7020065
20
87.5722207
11
48.8644065
21
87.6802207
0
LINE
8
DEFAULT_255_2_778
10
48.8644065
20
87.6802207
11
49.0555065
21
87.7188207
0
LINE
8
DEFAULT_255_2_778
10
49.0555065
20
87.7188207
11
51.0555065
21
87.7188207
0
LINE
8
DEFAULT_255_2_778
10
51.0555065
20
87.7188207
11
51.2999065
21
87.6551207
0
LINE
8
DEFAULT_255_2_778
10
51.2999065
20
87.6551207
11
51.4915065
21
87.4635207
0
LINE
8
DEFAULT_255_2_778
10
51.4915065
20
87.4635207
11
51.5553065
21
87.2190207
0
LINE
8
DEFAULT_255_2_778
10
51.5553065
20
87.2190207
11
51.5550065
21
68.2185207
0
LINE
8
DEFAULT_255_2_778
10
32.5550065
20
40.7185207
11
32.5936065
21
40.5275207
0
LINE
8
DEFAULT_255_2_778
10
32.5936065
20
40.5275207
11
32.7016065
21
40.3650207
0
LINE
8
DEFAULT_255_2_778
10
32.7016065
20
40.3650207
11
32.8640065
21
40.2571207
0
LINE
8
DEFAULT_255_2_778
10
32.8640065
20
40.2571207
11
33.0551065
21
40.2184207
0
LINE
8
DEFAULT_255_2_778
10
33.0551065
20
40.2184207
11
35.0550065
21
40.2184207
0
LINE
8
DEFAULT_255_2_778
10
35.0550065
20
40.2184207
11
35.2995065
21
40.2825207
0
LINE
8
DEFAULT_255_2_778
10
35.2995065
20
40.2825207
11
35.4911065
21
40.4740207
0
LINE
8
DEFAULT_255_2_778
10
35.4911065
20
40.4740207
11
35.5548065
21
40.7185207
0
LINE
8
DEFAULT_255_2_778
10
35.5548065
20
40.7185207
11
35.5548065
21
59.7185207
0
LINE
8
DEFAULT_255_2_778
10
35.5548065
20
59.7185207
11
35.4911065
21
59.9630207
0
LINE
8
DEFAULT_255_2_778
10
35.4911065
20
59.9630207
11
35.2995065
21
60.1545207
0
LINE
8
DEFAULT_255_2_778
10
35.2995065
20
60.1545207
11
35.0550065
21
60.2183207
0
LINE
8
DEFAULT_255_2_778
10
35.0550065
20
60.2183207
11
33.0551065
21
60.2183207
0
LINE
8
DEFAULT_255_2_778
10
33.0551065
20
60.2183207
11
32.8640065
21
60.1797207
0
LINE
8
DEFAULT_255_2_778
10
32.8640065
20
60.1797207
11
32.7016065
21
60.0717207
0
LINE
8
DEFAULT_255_2_778
10
32.7016065
20
60.0717207
11
32.5936065
21
59.9093207
0
LINE
8
DEFAULT_255_2_778
10
32.5936065
20
59.9093207
11
32.5550065
21
59.7182207
0
LINE
8
DEFAULT_255_2_778
10
32.5550065
20
59.7182207
11
32.5550065
21
40.7185207
0
LINE
8
DEFAULT_255_2_778
10
75.5551065
20
13.2185207
11
75.4913065
21
12.9740207
0
LINE
8
DEFAULT_255_2_778
10
75.4913065
20
12.9740207
11
75.2998065
21
12.7825207
0
LINE
8
DEFAULT_255_2_778
10
75.2998065
20
12.7825207
11
75.0553065
21
12.7187207
0
LINE
8
DEFAULT_255_2_778
10
75.0553065
20
12.7187207
11
73.0553065
21
12.7187207
0
LINE
8
DEFAULT_255_2_778
10
73.0553065
20
12.7187207
11
72.8643065
21
12.7573207
0
LINE
8
DEFAULT_255_2_778
10
72.8643065
20
12.7573207
11
72.7018065
21
12.8653207
0
LINE
8
DEFAULT_255_2_778
10
72.7018065
20
12.8653207
11
72.5939065
21
13.0277207
0
LINE
8
DEFAULT_255_2_778
10
72.5939065
20
13.0277207
11
72.5552065
21
13.2188207
0
LINE
8
DEFAULT_255_2_778
10
72.5552065
20
13.2188207
11
72.5552065
21
32.2188207
0
LINE
8
DEFAULT_255_2_778
10
72.5552065
20
32.2188207
11
72.5939065
21
32.4101207
0
LINE
8
DEFAULT_255_2_778
10
72.5939065
20
32.4101207
11
72.7018065
21
32.5725207
0
LINE
8
DEFAULT_255_2_778
10
72.7018065
20
32.5725207
11
72.8643065
21
32.6805207
0
LINE
8
DEFAULT_255_2_778
10
72.8643065
20
32.6805207
11
73.0553065
21
32.7191207
0
LINE
8
DEFAULT_255_2_778
10
73.0553065
20
32.7191207
11
75.0553065
21
32.7191207
0
LINE
8
DEFAULT_255_2_778
10
75.0553065
20
32.7191207
11
75.2998065
21
32.6553207
0
LINE
8
DEFAULT_255_2_778
10
75.2998065
20
32.6553207
11
75.4913065
21
32.4638207
0
LINE
8
DEFAULT_255_2_778
10
75.4913065
20
32.4638207
11
75.5551065
21
32.2193207
0
LINE
8
DEFAULT_255_2_778
10
75.5551065
20
32.2193207
11
75.5551065
21
13.2185207
0
LINE
8
DEFAULT_255_2_778
10
59.5552065
20
68.2185207
11
59.4914065
21
67.9740207
0
LINE
8
DEFAULT_255_2_778
10
59.4914065
20
67.9740207
11
59.2999065
21
67.7825207
0
LINE
8
DEFAULT_255_2_778
10
59.2999065
20
67.7825207
11
59.0554065
21
67.7187207
0
LINE
8
DEFAULT_255_2_778
10
59.0554065
20
67.7187207
11
57.0554065
21
67.7187207
0
LINE
8
DEFAULT_255_2_778
10
57.0554065
20
67.7187207
11
56.8109065
21
67.7825207
0
LINE
8
DEFAULT_255_2_778
10
56.8109065
20
67.7825207
11
56.6194065
21
67.9740207
0
LINE
8
DEFAULT_255_2_778
10
56.6194065
20
67.9740207
11
56.5556065
21
68.2185207
0
LINE
8
DEFAULT_255_2_778
10
56.5556065
20
68.2185207
11
56.5556065
21
87.2185207
0
LINE
8
DEFAULT_255_2_778
10
56.5556065
20
87.2185207
11
56.5942065
21
87.4098207
0
LINE
8
DEFAULT_255_2_778
10
56.5942065
20
87.4098207
11
56.7022065
21
87.5722207
0
LINE
8
DEFAULT_255_2_778
10
56.7022065
20
87.5722207
11
56.8646065
21
87.6802207
0
LINE
8
DEFAULT_255_2_778
10
56.8646065
20
87.6802207
11
57.0557065
21
87.7188207
0
LINE
8
DEFAULT_255_2_778
10
57.0557065
20
87.7188207
11
59.0557065
21
87.7188207
0
LINE
8
DEFAULT_255_2_778
10
59.0557065
20
87.7188207
11
59.3001065
21
87.6551207
0
LINE
8
DEFAULT_255_2_778
10
59.3001065
20
87.6551207
11
59.4917065
21
87.4635207
0
LINE
8
DEFAULT_255_2_778
10
59.4917065
20
87.4635207
11
59.5555065
21
87.2190207
0
LINE
8
DEFAULT_255_2_778
10
59.5555065
20
87.2190207
11
59.5552065
21
68.2185207
0
LINE
8
DEFAULT_255_2_778
10
35.5551065
20
68.2185207
11
35.4913065
21
67.9740207
0
LINE
8
DEFAULT_255_2_778
10
35.4913065
20
67.9740207
11
35.2998065
21
67.7825207
0
LINE
8
DEFAULT_255_2_778
10
35.2998065
20
67.7825207
11
35.0553065
21
67.7187207
0
LINE
8
DEFAULT_255_2_778
10
35.0553065
20
67.7187207
11
33.0553065
21
67.7187207
0
LINE
8
DEFAULT_255_2_778
10
33.0553065
20
67.7187207
11
32.8108065
21
67.7825207
0
LINE
8
DEFAULT_255_2_778
10
32.8108065
20
67.7825207
11
32.6193065
21
67.9740207
0
LINE
8
DEFAULT_255_2_778
10
32.6193065
20
67.9740207
11
32.5555065
21
68.2185207
0
LINE
8
DEFAULT_255_2_778
10
32.5555065
20
68.2185207
11
32.5555065
21
87.2185207
0
LINE
8
DEFAULT_255_2_778
10
32.5555065
20
87.2185207
11
32.5942065
21
87.4098207
0
LINE
8
DEFAULT_255_2_778
10
32.5942065
20
87.4098207
11
32.7021065
21
87.5722207
0
LINE
8
DEFAULT_255_2_778
10
32.7021065
20
87.5722207
11
32.8646065
21
87.6802207
0
LINE
8
DEFAULT_255_2_778
10
32.8646065
20
87.6802207
11
33.0556065
21
87.7188207
0
LINE
8
DEFAULT_255_2_778
10
33.0556065
20
87.7188207
11
35.0556065
21
87.7188207
0
LINE
8
DEFAULT_255_2_778
10
35.0556065
20
87.7188207
11
35.3000065
21
87.6551207
0
LINE
8
DEFAULT_255_2_778
10
35.3000065
20
87.6551207
11
35.4916065
21
87.4635207
0
LINE
8
DEFAULT_255_2_778
10
35.4916065
20
87.4635207
11
35.5554065
21
87.2190207
0
LINE
8
DEFAULT_255_2_778
10
35.5554065
20
87.2190207
11
35.5551065
21
68.2185207
0
LINE
8
DEFAULT_255_2_778
10
35.5551065
20
13.2185207
11
35.4913065
21
12.9740207
0
LINE
8
DEFAULT_255_2_778
10
35.4913065
20
12.9740207
11
35.2998065
21
12.7825207
0
LINE
8
DEFAULT_255_2_778
10
35.2998065
20
12.7825207
11
35.0553065
21
12.7187207
0
LINE
8
DEFAULT_255_2_778
10
35.0553065
20
12.7187207
11
33.0553065
21
12.7187207
0
LINE
8
DEFAULT_255_2_778
10
33.0553065
20
12.7187207
11
32.8643065
21
12.7573207
0
LINE
8
DEFAULT_255_2_778
10
32.8643065
20
12.7573207
11
32.7018065
21
12.8653207
0
LINE
8
DEFAULT_255_2_778
10
32.7018065
20
12.8653207
11
32.5939065
21
13.0277207
0
LINE
8
DEFAULT_255_2_778
10
32.5939065
20
13.0277207
11
32.5553065
21
13.2188207
0
LINE
8
DEFAULT_255_2_778
10
32.5553065
20
13.2188207
11
32.5553065
21
32.2188207
0
LINE
8
DEFAULT_255_2_778
10
32.5553065
20
32.2188207
11
32.5939065
21
32.4101207
0
LINE
8
DEFAULT_255_2_778
10
32.5939065
20
32.4101207
11
32.7018065
21
32.5725207
0
LINE
8
DEFAULT_255_2_778
10
32.7018065
20
32.5725207
11
32.8643065
21
32.6805207
0
LINE
8
DEFAULT_255_2_778
10
32.8643065
20
32.6805207
11
33.0553065
21
32.7191207
0
LINE
8
DEFAULT_255_2_778
10
33.0553065
20
32.7191207
11
35.0553065
21
32.7191207
0
LINE
8
DEFAULT_255_2_778
10
35.0553065
20
32.7191207
11
35.2998065
21
32.6553207
0
LINE
8
DEFAULT_255_2_778
10
35.2998065
20
32.6553207
11
35.4913065
21
32.4638207
0
LINE
8
DEFAULT_255_2_778
10
35.4913065
20
32.4638207
11
35.5551065
21
32.2193207
0
LINE
8
DEFAULT_255_2_778
10
35.5551065
20
32.2193207
11
35.5551065
21
13.2185207
0
LINE
8
DEFAULT_255_2_778
10
16.5554065
20
66.2603207
11
16.3321065
21
66.4524207
0
LINE
8
DEFAULT_255_2_778
10
16.3321065
20
66.4524207
11
16.2553065
21
66.7186207
0
LINE
8
DEFAULT_255_2_778
10
16.2553065
20
66.7186207
11
16.2553065
21
87.5185207
0
LINE
8
DEFAULT_255_2_778
10
16.2553065
20
87.5185207
11
16.2641065
21
87.6130207
0
LINE
8
DEFAULT_255_2_778
10
16.2641065
20
87.6130207
11
16.2903065
21
87.7027207
0
LINE
8
DEFAULT_255_2_778
10
16.2903065
20
87.7027207
11
16.3379065
21
87.7945207
0
LINE
8
DEFAULT_255_2_778
10
16.3379065
20
87.7945207
11
16.4017065
21
87.8723207
0
LINE
8
DEFAULT_255_2_778
10
16.4017065
20
87.8723207
11
16.4818065
21
87.9374207
0
LINE
8
DEFAULT_255_2_778
10
16.4818065
20
87.9374207
11
16.5713065
21
87.9834207
0
LINE
8
DEFAULT_255_2_778
10
16.5713065
20
87.9834207
11
16.6623065
21
88.0099207
0
LINE
8
DEFAULT_255_2_778
10
16.6623065
20
88.0099207
11
16.7551065
21
88.0186207
0
LINE
8
DEFAULT_255_2_778
10
16.7551065
20
88.0186207
11
20.5551065
21
88.0186207
0
LINE
8
DEFAULT_255_2_778
10
20.5551065
20
88.0186207
11
20.7996065
21
87.9548207
0
LINE
8
DEFAULT_255_2_778
10
20.7996065
20
87.9548207
11
20.9911065
21
87.7633207
0
LINE
8
DEFAULT_255_2_778
10
20.9911065
20
87.7633207
11
21.0549065
21
87.5188207
0
LINE
8
DEFAULT_255_2_778
10
21.0549065
20
87.5188207
11
21.0549065
21
66.7188207
0
LINE
8
DEFAULT_255_2_778
10
21.0549065
20
66.7188207
11
20.9911065
21
66.4744207
0
LINE
8
DEFAULT_255_2_778
10
20.9911065
20
66.4744207
11
20.7996065
21
66.2828207
0
LINE
8
DEFAULT_255_2_778
10
20.7996065
20
66.2828207
11
20.5551065
21
66.2190207
0
LINE
8
DEFAULT_255_2_778
10
20.5551065
20
66.2190207
11
16.7554065
21
66.2190207
0
LINE
8
DEFAULT_255_2_778
10
16.7554065
20
66.2190207
11
16.6612065
21
66.2278207
0
LINE
8
DEFAULT_255_2_778
10
16.6612065
20
66.2278207
11
16.5554065
21
66.2603207
0
LINE
8
DEFAULT_255_2_778
10
32.5553065
20
66.2603207
11
32.3320065
21
66.4524207
0
LINE
8
DEFAULT_255_2_778
10
32.3320065
20
66.4524207
11
32.2552065
21
66.7186207
0
LINE
8
DEFAULT_255_2_778
10
32.2552065
20
66.7186207
11
32.2552065
21
87.5185207
0
LINE
8
DEFAULT_255_2_778
10
32.2552065
20
87.5185207
11
32.2640065
21
87.6130207
0
LINE
8
DEFAULT_255_2_778
10
32.2640065
20
87.6130207
11
32.2904065
21
87.7027207
0
LINE
8
DEFAULT_255_2_778
10
32.2904065
20
87.7027207
11
32.3380065
21
87.7945207
0
LINE
8
DEFAULT_255_2_778
10
32.3380065
20
87.7945207
11
32.4018065
21
87.8723207
0
LINE
8
DEFAULT_255_2_778
10
32.4018065
20
87.8723207
11
32.4820065
21
87.9374207
0
LINE
8
DEFAULT_255_2_778
10
32.4820065
20
87.9374207
11
32.5714065
21
87.9834207
0
LINE
8
DEFAULT_255_2_778
10
32.5714065
20
87.9834207
11
32.6624065
21
88.0099207
0
LINE
8
DEFAULT_255_2_778
10
32.6624065
20
88.0099207
11
32.7553065
21
88.0186207
0
LINE
8
DEFAULT_255_2_778
10
32.7553065
20
88.0186207
11
36.5552065
21
88.0186207
0
LINE
8
DEFAULT_255_2_778
10
36.5552065
20
88.0186207
11
36.7997065
21
87.9548207
0
LINE
8
DEFAULT_255_2_778
10
36.7997065
20
87.9548207
11
36.9913065
21
87.7633207
0
LINE
8
DEFAULT_255_2_778
10
36.9913065
20
87.7633207
11
37.0550065
21
87.5188207
0
LINE
8
DEFAULT_255_2_778
10
37.0550065
20
87.5188207
11
37.0550065
21
66.7188207
0
LINE
8
DEFAULT_255_2_778
10
37.0550065
20
66.7188207
11
36.9913065
21
66.4744207
0
LINE
8
DEFAULT_255_2_778
10
36.9913065
20
66.4744207
11
36.7997065
21
66.2828207
0
LINE
8
DEFAULT_255_2_778
10
36.7997065
20
66.2828207
11
36.5552065
21
66.2190207
0
LINE
8
DEFAULT_255_2_778
10
36.5552065
20
66.2190207
11
32.7553065
21
66.2190207
0
LINE
8
DEFAULT_255_2_778
10
32.7553065
20
66.2190207
11
32.6611065
21
66.2278207
0
LINE
8
DEFAULT_255_2_778
10
32.6611065
20
66.2278207
11
32.5553065
21
66.2603207
0
LINE
8
DEFAULT_255_2_778
10
40.2552065
20
87.5185207
11
40.2639065
21
87.6130207
0
LINE
8
DEFAULT_255_2_778
10
40.2639065
20
87.6130207
11
40.2901065
21
87.7027207
0
LINE
8
DEFAULT_255_2_778
10
40.2901065
20
87.7027207
11
40.3377065
21
87.7945207
0
LINE
8
DEFAULT_255_2_778
10
40.3377065
20
87.7945207
11
40.4015065
21
87.8723207
0
LINE
8
DEFAULT_255_2_778
10
40.4015065
20
87.8723207
11
40.4816065
21
87.9374207
0
LINE
8
DEFAULT_255_2_778
10
40.4816065
20
87.9374207
11
40.5711065
21
87.9834207
0
LINE
8
DEFAULT_255_2_778
10
40.5711065
20
87.9834207
11
40.6621065
21
88.0099207
0
LINE
8
DEFAULT_255_2_778
10
40.6621065
20
88.0099207
11
40.7550065
21
88.0186207
0
LINE
8
DEFAULT_255_2_778
10
40.7550065
20
88.0186207
11
44.5549065
21
88.0186207
0
LINE
8
DEFAULT_255_2_778
10
44.5549065
20
88.0186207
11
44.7994065
21
87.9548207
0
LINE
8
DEFAULT_255_2_778
10
44.7994065
20
87.9548207
11
44.9909065
21
87.7633207
0
LINE
8
DEFAULT_255_2_778
10
44.9909065
20
87.7633207
11
45.0547065
21
87.5188207
0
LINE
8
DEFAULT_255_2_778
10
45.0547065
20
87.5188207
11
45.0547065
21
66.7188207
0
LINE
8
DEFAULT_255_2_778
10
45.0547065
20
66.7188207
11
44.9909065
21
66.4744207
0
LINE
8
DEFAULT_255_2_778
10
44.9909065
20
66.4744207
11
44.7994065
21
66.2828207
0
LINE
8
DEFAULT_255_2_778
10
44.7994065
20
66.2828207
11
44.5549065
21
66.2190207
0
LINE
8
DEFAULT_255_2_778
10
44.5549065
20
66.2190207
11
40.7552065
21
66.2190207
0
LINE
8
DEFAULT_255_2_778
10
40.7552065
20
66.2190207
11
40.6563065
21
66.2288207
0
LINE
8
DEFAULT_255_2_778
10
40.6563065
20
66.2288207
11
40.5552065
21
66.2606207
0
LINE
8
DEFAULT_255_2_778
10
40.5552065
20
66.2606207
11
40.3319065
21
66.4527207
0
LINE
8
DEFAULT_255_2_778
10
40.3319065
20
66.4527207
11
40.2552065
21
66.7188207
0
LINE
8
DEFAULT_255_2_778
10
40.2552065
20
66.7188207
11
40.2552065
21
87.5185207
0
LINE
8
DEFAULT_255_2_778
10
48.5551065
20
66.2603207
11
48.3318065
21
66.4524207
0
LINE
8
DEFAULT_255_2_778
10
48.3318065
20
66.4524207
11
48.2551065
21
66.7186207
0
LINE
8
DEFAULT_255_2_778
10
48.2551065
20
66.7186207
11
48.2551065
21
87.5185207
0
LINE
8
DEFAULT_255_2_778
10
48.2551065
20
87.5185207
11
48.2638065
21
87.6130207
0
LINE
8
DEFAULT_255_2_778
10
48.2638065
20
87.6130207
11
48.2900065
21
87.7027207
0
LINE
8
DEFAULT_255_2_778
10
48.2900065
20
87.7027207
11
48.3377065
21
87.7945207
0
LINE
8
DEFAULT_255_2_778
10
48.3377065
20
87.7945207
11
48.4014065
21
87.8723207
0
LINE
8
DEFAULT_255_2_778
10
48.4014065
20
87.8723207
11
48.4816065
21
87.9374207
0
LINE
8
DEFAULT_255_2_778
10
48.4816065
20
87.9374207
11
48.5710065
21
87.9834207
0
LINE
8
DEFAULT_255_2_778
10
48.5710065
20
87.9834207
11
48.6620065
21
88.0099207
0
LINE
8
DEFAULT_255_2_778
10
48.6620065
20
88.0099207
11
48.7549065
21
88.0186207
0
LINE
8
DEFAULT_255_2_778
10
48.7549065
20
88.0186207
11
52.5548065
21
88.0186207
0
LINE
8
DEFAULT_255_2_778
10
52.5548065
20
88.0186207
11
52.7993065
21
87.9548207
0
LINE
8
DEFAULT_255_2_778
10
52.7993065
20
87.9548207
11
52.9909065
21
87.7633207
0
LINE
8
DEFAULT_255_2_778
10
52.9909065
20
87.7633207
11
53.0546065
21
87.5188207
0
LINE
8
DEFAULT_255_2_778
10
53.0546065
20
87.5188207
11
53.0546065
21
66.7188207
0
LINE
8
DEFAULT_255_2_778
10
53.0546065
20
66.7188207
11
52.9909065
21
66.4744207
0
LINE
8
DEFAULT_255_2_778
10
52.9909065
20
66.4744207
11
52.7993065
21
66.2828207
0
LINE
8
DEFAULT_255_2_778
10
52.7993065
20
66.2828207
11
52.5548065
21
66.2190207
0
LINE
8
DEFAULT_255_2_778
10
52.5548065
20
66.2190207
11
48.7549065
21
66.2190207
0
LINE
8
DEFAULT_255_2_778
10
48.7549065
20
66.2190207
11
48.6607065
21
66.2278207
0
LINE
8
DEFAULT_255_2_778
10
48.6607065
20
66.2278207
11
48.5551065
21
66.2603207
0
LINE
8
DEFAULT_255_2_778
10
56.5551065
20
66.2603207
11
56.3318065
21
66.4524207
0
LINE
8
DEFAULT_255_2_778
10
56.3318065
20
66.4524207
11
56.2550065
21
66.7186207
0
LINE
8
DEFAULT_255_2_778
10
56.2550065
20
66.7186207
11
56.2550065
21
87.5185207
0
LINE
8
DEFAULT_255_2_778
10
56.2550065
20
87.5185207
11
56.2638065
21
87.6130207
0
LINE
8
DEFAULT_255_2_778
10
56.2638065
20
87.6130207
11
56.2902065
21
87.7027207
0
LINE
8
DEFAULT_255_2_778
10
56.2902065
20
87.7027207
11
56.3379065
21
87.7945207
0
LINE
8
DEFAULT_255_2_778
10
56.3379065
20
87.7945207
11
56.4016065
21
87.8723207
0
LINE
8
DEFAULT_255_2_778
10
56.4016065
20
87.8723207
11
56.4818065
21
87.9374207
0
LINE
8
DEFAULT_255_2_778
10
56.4818065
20
87.9374207
11
56.5712065
21
87.9834207
0
LINE
8
DEFAULT_255_2_778
10
56.5712065
20
87.9834207
11
56.6622065
21
88.0099207
0
LINE
8
DEFAULT_255_2_778
10
56.6622065
20
88.0099207
11
56.7554065
21
88.0186207
0
LINE
8
DEFAULT_255_2_778
10
56.7554065
20
88.0186207
11
60.5553065
21
88.0186207
0
LINE
8
DEFAULT_255_2_778
10
60.5553065
20
88.0186207
11
60.7998065
21
87.9548207
0
LINE
8
DEFAULT_255_2_778
10
60.7998065
20
87.9548207
11
60.9914065
21
87.7633207
0
LINE
8
DEFAULT_255_2_778
10
60.9914065
20
87.7633207
11
61.0551065
21
87.5188207
0
LINE
8
DEFAULT_255_2_778
10
61.0551065
20
87.5188207
11
61.0551065
21
66.7188207
0
LINE
8
DEFAULT_255_2_778
10
61.0551065
20
66.7188207
11
60.9914065
21
66.4744207
0
LINE
8
DEFAULT_255_2_778
10
60.9914065
20
66.4744207
11
60.7998065
21
66.2828207
0
LINE
8
DEFAULT_255_2_778
10
60.7998065
20
66.2828207
11
60.5553065
21
66.2190207
0
LINE
8
DEFAULT_255_2_778
10
60.5553065
20
66.2190207
11
56.7554065
21
66.2190207
0
LINE
8
DEFAULT_255_2_778
10
56.7554065
20
66.2190207
11
56.6612065
21
66.2278207
0
LINE
8
DEFAULT_255_2_778
10
56.6612065
20
66.2278207
11
56.5551065
21
66.2603207
0
LINE
8
DEFAULT_255_2_778
10
68.5550065
20
88.0186207
11
64.7551065
21
88.0186207
0
LINE
8
DEFAULT_255_2_778
10
64.7551065
20
88.0186207
11
64.6619065
21
88.0099207
0
LINE
8
DEFAULT_255_2_778
10
64.6619065
20
88.0099207
11
64.5709065
21
87.9834207
0
LINE
8
DEFAULT_255_2_778
10
64.5709065
20
87.9834207
11
64.4815065
21
87.9374207
0
LINE
8
DEFAULT_255_2_778
10
64.4815065
20
87.9374207
11
64.4013065
21
87.8723207
0
LINE
8
DEFAULT_255_2_778
10
64.4013065
20
87.8723207
11
64.3375065
21
87.7945207
0
LINE
8
DEFAULT_255_2_778
10
64.3375065
20
87.7945207
11
64.2899065
21
87.7027207
0
LINE
8
DEFAULT_255_2_778
10
64.2899065
20
87.7027207
11
64.2635065
21
87.6130207
0
LINE
8
DEFAULT_255_2_778
10
64.2635065
20
87.6130207
11
64.2547065
21
87.5185207
0
LINE
8
DEFAULT_255_2_778
10
64.2547065
20
87.5185207
11
64.2547065
21
66.7186207
0
LINE
8
DEFAULT_255_2_778
10
64.2547065
20
66.7186207
11
64.3315065
21
66.4524207
0
LINE
8
DEFAULT_255_2_778
10
64.3315065
20
66.4524207
11
64.5548065
21
66.2603207
0
LINE
8
DEFAULT_255_2_778
10
64.5548065
20
66.2603207
11
64.6606065
21
66.2272207
0
LINE
8
DEFAULT_255_2_778
10
64.6606065
20
66.2272207
11
64.7548065
21
66.2185207
0
LINE
8
DEFAULT_255_2_778
10
64.7548065
20
66.2185207
11
68.5547065
21
66.2185207
0
LINE
8
DEFAULT_255_2_778
10
68.5547065
20
66.2185207
11
68.7992065
21
66.2823207
0
LINE
8
DEFAULT_255_2_778
10
68.7992065
20
66.2823207
11
68.9908065
21
66.4738207
0
LINE
8
DEFAULT_255_2_778
10
68.9908065
20
66.4738207
11
69.0545065
21
66.7183207
0
LINE
8
DEFAULT_255_2_778
10
69.0545065
20
66.7183207
11
69.0545065
21
87.5185207
0
LINE
8
DEFAULT_255_2_778
10
69.0545065
20
87.5185207
11
68.9908065
21
87.7630207
0
LINE
8
DEFAULT_255_2_778
10
68.9908065
20
87.7630207
11
68.7992065
21
87.9546207
0
LINE
8
DEFAULT_255_2_778
10
68.7992065
20
87.9546207
11
68.5550065
21
88.0186207
0
LINE
8
DEFAULT_255_2_778
10
72.7550065
20
66.2185207
11
72.5105065
21
66.2823207
0
LINE
8
DEFAULT_255_2_778
10
72.5105065
20
66.2823207
11
72.3190065
21
66.4738207
0
LINE
8
DEFAULT_255_2_778
10
72.3190065
20
66.4738207
11
72.2549065
21
66.7183207
0
LINE
8
DEFAULT_255_2_778
10
72.2549065
20
66.7183207
11
72.2549065
21
87.5185207
0
LINE
8
DEFAULT_255_2_778
10
72.2549065
20
87.5185207
11
72.3187065
21
87.7630207
0
LINE
8
DEFAULT_255_2_778
10
72.3187065
20
87.7630207
11
72.5103065
21
87.9546207
0
LINE
8
DEFAULT_255_2_778
10
72.5103065
20
87.9546207
11
72.7547065
21
88.0183207
0
LINE
8
DEFAULT_255_2_778
10
72.7547065
20
88.0183207
11
76.5547065
21
88.0183207
0
LINE
8
DEFAULT_255_2_778
10
76.5547065
20
88.0183207
11
76.7991065
21
87.9546207
0
LINE
8
DEFAULT_255_2_778
10
76.7991065
20
87.9546207
11
76.9907065
21
87.7630207
0
LINE
8
DEFAULT_255_2_778
10
76.9907065
20
87.7630207
11
77.0545065
21
87.5185207
0
LINE
8
DEFAULT_255_2_778
10
77.0545065
20
87.5185207
11
77.0545065
21
66.7186207
0
LINE
8
DEFAULT_255_2_778
10
77.0545065
20
66.7186207
11
76.9907065
21
66.4741207
0
LINE
8
DEFAULT_255_2_778
10
76.9907065
20
66.4741207
11
76.7991065
21
66.2825207
0
LINE
8
DEFAULT_255_2_778
10
76.7991065
20
66.2825207
11
76.5547065
21
66.2188207
0
LINE
8
DEFAULT_255_2_778
10
76.5547065
20
66.2188207
11
72.7550065
21
66.2185207
0
LINE
8
DEFAULT_255_2_778
10
16.2553065
20
39.2186207
11
16.2641065
21
39.1257207
0
LINE
8
DEFAULT_255_2_778
10
16.2641065
20
39.1257207
11
16.2903065
21
39.0347207
0
LINE
8
DEFAULT_255_2_778
10
16.2903065
20
39.0347207
11
16.3366065
21
38.9453207
0
LINE
8
DEFAULT_255_2_778
10
16.3366065
20
38.9453207
11
16.4017065
21
38.8651207
0
LINE
8
DEFAULT_255_2_778
10
16.4017065
20
38.8651207
11
16.4794065
21
38.8013207
0
LINE
8
DEFAULT_255_2_778
10
16.4794065
20
38.8013207
11
16.5713065
21
38.7537207
0
LINE
8
DEFAULT_255_2_778
10
16.5713065
20
38.7537207
11
16.6609065
21
38.7275207
0
LINE
8
DEFAULT_255_2_778
10
16.6609065
20
38.7275207
11
16.7554065
21
38.7188207
0
LINE
8
DEFAULT_255_2_778
10
16.7554065
20
38.7188207
11
20.5553065
21
38.7188207
0
LINE
8
DEFAULT_255_2_778
10
20.5553065
20
38.7188207
11
20.7998065
21
38.7825207
0
LINE
8
DEFAULT_255_2_778
10
20.7998065
20
38.7825207
11
20.9914065
21
38.9741207
0
LINE
8
DEFAULT_255_2_778
10
20.9914065
20
38.9741207
11
21.0551065
21
39.2186207
0
LINE
8
DEFAULT_255_2_778
10
21.0551065
20
39.2186207
11
21.0551065
21
60.0185207
0
LINE
8
DEFAULT_255_2_778
10
21.0551065
20
60.0185207
11
21.0464065
21
60.1114207
0
LINE
8
DEFAULT_255_2_778
10
21.0464065
20
60.1114207
11
21.0202065
21
60.2024207
0
LINE
8
DEFAULT_255_2_778
10
21.0202065
20
60.2024207
11
20.9742065
21
60.2918207
0
LINE
8
DEFAULT_255_2_778
10
20.9742065
20
60.2918207
11
20.9091065
21
60.3720207
0
LINE
8
DEFAULT_255_2_778
10
20.9091065
20
60.3720207
11
20.8313065
21
60.4358207
0
LINE
8
DEFAULT_255_2_778
10
20.8313065
20
60.4358207
11
20.7395065
21
60.4834207
0
LINE
8
DEFAULT_255_2_778
10
20.7395065
20
60.4834207
11
20.6498065
21
60.5099207
0
LINE
8
DEFAULT_255_2_778
10
20.6498065
20
60.5099207
11
20.5553065
21
60.5186207
0
LINE
8
DEFAULT_255_2_778
10
20.5553065
20
60.5186207
11
16.7554065
21
60.5186207
0
LINE
8
DEFAULT_255_2_778
10
16.7554065
20
60.5186207
11
16.6625065
21
60.5099207
0
LINE
8
DEFAULT_255_2_778
10
16.6625065
20
60.5099207
11
16.5715065
21
60.4834207
0
LINE
8
DEFAULT_255_2_778
10
16.5715065
20
60.4834207
11
16.4821065
21
60.4374207
0
LINE
8
DEFAULT_255_2_778
10
16.4821065
20
60.4374207
11
16.4019065
21
60.3723207
0
LINE
8
DEFAULT_255_2_778
10
16.4019065
20
60.3723207
11
16.3382065
21
60.2945207
0
LINE
8
DEFAULT_255_2_778
10
16.3382065
20
60.2945207
11
16.2905065
21
60.2027207
0
LINE
8
DEFAULT_255_2_778
10
16.2905065
20
60.2027207
11
16.2643065
21
60.1130207
0
LINE
8
DEFAULT_255_2_778
10
16.2643065
20
60.1130207
11
16.2556065
21
60.0185207
0
LINE
8
DEFAULT_255_2_778
10
16.2556065
20
60.0185207
11
16.2553065
21
39.2186207
0
LINE
8
DEFAULT_255_2_778
10
32.2552065
20
39.2186207
11
32.2640065
21
39.1257207
0
LINE
8
DEFAULT_255_2_778
10
32.2640065
20
39.1257207
11
32.2904065
21
39.0347207
0
LINE
8
DEFAULT_255_2_778
10
32.2904065
20
39.0347207
11
32.3364065
21
38.9453207
0
LINE
8
DEFAULT_255_2_778
10
32.3364065
20
38.9453207
11
32.4015065
21
38.8651207
0
LINE
8
DEFAULT_255_2_778
10
32.4015065
20
38.8651207
11
32.4793065
21
38.8013207
0
LINE
8
DEFAULT_255_2_778
10
32.4793065
20
38.8013207
11
32.5711065
21
38.7537207
0
LINE
8
DEFAULT_255_2_778
10
32.5711065
20
38.7537207
11
32.6608065
21
38.7275207
0
LINE
8
DEFAULT_255_2_778
10
32.6608065
20
38.7275207
11
32.7553065
21
38.7188207
0
LINE
8
DEFAULT_255_2_778
10
32.7553065
20
38.7188207
11
36.5552065
21
38.7188207
0
LINE
8
DEFAULT_255_2_778
10
36.5552065
20
38.7188207
11
36.7997065
21
38.7825207
0
LINE
8
DEFAULT_255_2_778
10
36.7997065
20
38.7825207
11
36.9913065
21
38.9741207
0
LINE
8
DEFAULT_255_2_778
10
36.9913065
20
38.9741207
11
37.0550065
21
39.2186207
0
LINE
8
DEFAULT_255_2_778
10
37.0550065
20
39.2186207
11
37.0550065
21
60.0185207
0
LINE
8
DEFAULT_255_2_778
10
37.0550065
20
60.0185207
11
37.0463065
21
60.1114207
0
LINE
8
DEFAULT_255_2_778
10
37.0463065
20
60.1114207
11
37.0201065
21
60.2024207
0
LINE
8
DEFAULT_255_2_778
10
37.0201065
20
60.2024207
11
36.9741065
21
60.2918207
0
LINE
8
DEFAULT_255_2_778
10
36.9741065
20
60.2918207
11
36.9090065
21
60.3720207
0
LINE
8
DEFAULT_255_2_778
10
36.9090065
20
60.3720207
11
36.8312065
21
60.4358207
0
LINE
8
DEFAULT_255_2_778
10
36.8312065
20
60.4358207
11
36.7394065
21
60.4834207
0
LINE
8
DEFAULT_255_2_778
10
36.7394065
20
60.4834207
11
36.6497065
21
60.5099207
0
LINE
8
DEFAULT_255_2_778
10
36.6497065
20
60.5099207
11
36.5552065
21
60.5186207
0
LINE
8
DEFAULT_255_2_778
10
36.5552065
20
60.5186207
11
32.7553065
21
60.5186207
0
LINE
8
DEFAULT_255_2_778
10
32.7553065
20
60.5186207
11
32.6624065
21
60.5099207
0
LINE
8
DEFAULT_255_2_778
10
32.6624065
20
60.5099207
11
32.5714065
21
60.4834207
0
LINE
8
DEFAULT_255_2_778
10
32.5714065
20
60.4834207
11
32.4820065
21
60.4374207
0
LINE
8
DEFAULT_255_2_778
10
32.4820065
20
60.4374207
11
32.4018065
21
60.3723207
0
LINE
8
DEFAULT_255_2_778
10
32.4018065
20
60.3723207
11
32.3380065
21
60.2945207
0
LINE
8
DEFAULT_255_2_778
10
32.3380065
20
60.2945207
11
32.2904065
21
60.2027207
0
LINE
8
DEFAULT_255_2_778
10
32.2904065
20
60.2027207
11
32.2640065
21
60.1130207
0
LINE
8
DEFAULT_255_2_778
10
32.2640065
20
60.1130207
11
32.2552065
21
60.0185207
0
LINE
8
DEFAULT_255_2_778
10
32.2552065
20
60.0185207
11
32.2552065
21
39.2186207
0
LINE
8
DEFAULT_255_2_778
10
40.2552065
20
39.2186207
11
40.2639065
21
39.1257207
0
LINE
8
DEFAULT_255_2_778
10
40.2639065
20
39.1257207
11
40.2901065
21
39.0347207
0
LINE
8
DEFAULT_255_2_778
10
40.2901065
20
39.0347207
11
40.3364065
21
38.9453207
0
LINE
8
DEFAULT_255_2_778
10
40.3364065
20
38.9453207
11
40.4015065
21
38.8651207
0
LINE
8
DEFAULT_255_2_778
10
40.4015065
20
38.8651207
11
40.4793065
21
38.8013207
0
LINE
8
DEFAULT_255_2_778
10
40.4793065
20
38.8013207
11
40.5711065
21
38.7537207
0
LINE
8
DEFAULT_255_2_778
10
40.5711065
20
38.7537207
11
40.6608065
21
38.7275207
0
LINE
8
DEFAULT_255_2_778
10
40.6608065
20
38.7275207
11
40.7552065
21
38.7188207
0
LINE
8
DEFAULT_255_2_778
10
40.7552065
20
38.7188207
11
44.5552065
21
38.7188207
0
LINE
8
DEFAULT_255_2_778
10
44.5552065
20
38.7188207
11
44.7996065
21
38.7825207
0
LINE
8
DEFAULT_255_2_778
10
44.7996065
20
38.7825207
11
44.9912065
21
38.9741207
0
LINE
8
DEFAULT_255_2_778
10
44.9912065
20
38.9741207
11
45.0550065
21
39.2186207
0
LINE
8
DEFAULT_255_2_778
10
45.0550065
20
39.2186207
11
45.0550065
21
60.0185207
0
LINE
8
DEFAULT_255_2_778
10
45.0550065
20
60.0185207
11
45.0462065
21
60.1114207
0
LINE
8
DEFAULT_255_2_778
10
45.0462065
20
60.1114207
11
45.0198065
21
60.2024207
0
LINE
8
DEFAULT_255_2_778
10
45.0198065
20
60.2024207
11
44.9737065
21
60.2918207
0
LINE
8
DEFAULT_255_2_778
10
44.9737065
20
60.2918207
11
44.9087065
21
60.3720207
0
LINE
8
DEFAULT_255_2_778
10
44.9087065
20
60.3720207
11
44.8309065
21
60.4358207
0
LINE
8
DEFAULT_255_2_778
10
44.8309065
20
60.4358207
11
44.7391065
21
60.4834207
0
LINE
8
DEFAULT_255_2_778
10
44.7391065
20
60.4834207
11
44.6494065
21
60.5099207
0
LINE
8
DEFAULT_255_2_778
10
44.6494065
20
60.5099207
11
44.5549065
21
60.5186207
0
LINE
8
DEFAULT_255_2_778
10
44.5549065
20
60.5186207
11
40.7552065
21
60.5186207
0
LINE
8
DEFAULT_255_2_778
10
40.7552065
20
60.5186207
11
40.6624065
21
60.5099207
0
LINE
8
DEFAULT_255_2_778
10
40.6624065
20
60.5099207
11
40.5713065
21
60.4834207
0
LINE
8
DEFAULT_255_2_778
10
40.5713065
20
60.4834207
11
40.4819065
21
60.4374207
0
LINE
8
DEFAULT_255_2_778
10
40.4819065
20
60.4374207
11
40.4017065
21
60.3723207
0
LINE
8
DEFAULT_255_2_778
10
40.4017065
20
60.3723207
11
40.3380065
21
60.2945207
0
LINE
8
DEFAULT_255_2_778
10
40.3380065
20
60.2945207
11
40.2904065
21
60.2027207
0
LINE
8
DEFAULT_255_2_778
10
40.2904065
20
60.2027207
11
40.2642065
21
60.1130207
0
LINE
8
DEFAULT_255_2_778
10
40.2642065
20
60.1130207
11
40.2554065
21
60.0185207
0
LINE
8
DEFAULT_255_2_778
10
40.2554065
20
60.0185207
11
40.2552065
21
39.2186207
0
LINE
8
DEFAULT_255_2_778
10
48.2551065
20
39.2186207
11
48.2638065
21
39.1257207
0
LINE
8
DEFAULT_255_2_778
10
48.2638065
20
39.1257207
11
48.2900065
21
39.0347207
0
LINE
8
DEFAULT_255_2_778
10
48.2900065
20
39.0347207
11
48.3361065
21
38.9453207
0
LINE
8
DEFAULT_255_2_778
10
48.3361065
20
38.9453207
11
48.4012065
21
38.8651207
0
LINE
8
DEFAULT_255_2_778
10
48.4012065
20
38.8651207
11
48.4789065
21
38.8013207
0
LINE
8
DEFAULT_255_2_778
10
48.4789065
20
38.8013207
11
48.5705065
21
38.7537207
0
LINE
8
DEFAULT_255_2_778
10
48.5705065
20
38.7537207
11
48.6602065
21
38.7275207
0
LINE
8
DEFAULT_255_2_778
10
48.6602065
20
38.7275207
11
48.7546065
21
38.7188207
0
LINE
8
DEFAULT_255_2_778
10
48.7546065
20
38.7188207
11
52.5546065
21
38.7188207
0
LINE
8
DEFAULT_255_2_778
10
52.5546065
20
38.7188207
11
52.7991065
21
38.7825207
0
LINE
8
DEFAULT_255_2_778
10
52.7991065
20
38.7825207
11
52.9906065
21
38.9741207
0
LINE
8
DEFAULT_255_2_778
10
52.9906065
20
38.9741207
11
53.0544065
21
39.2186207
0
LINE
8
DEFAULT_255_2_778
10
53.0544065
20
39.2186207
11
53.0544065
21
60.0185207
0
LINE
8
DEFAULT_255_2_778
10
53.0544065
20
60.0185207
11
53.0457065
21
60.1114207
0
LINE
8
DEFAULT_255_2_778
10
53.0457065
20
60.1114207
11
53.0192065
21
60.2024207
0
LINE
8
DEFAULT_255_2_778
10
53.0192065
20
60.2024207
11
52.9732065
21
60.2918207
0
LINE
8
DEFAULT_255_2_778
10
52.9732065
20
60.2918207
11
52.9081065
21
60.3720207
0
LINE
8
DEFAULT_255_2_778
10
52.9081065
20
60.3720207
11
52.8303065
21
60.4358207
0
LINE
8
DEFAULT_255_2_778
10
52.8303065
20
60.4358207
11
52.7385065
21
60.4834207
0
LINE
8
DEFAULT_255_2_778
10
52.7385065
20
60.4834207
11
52.6488065
21
60.5099207
0
LINE
8
DEFAULT_255_2_778
10
52.6488065
20
60.5099207
11
52.5543065
21
60.5186207
0
LINE
8
DEFAULT_255_2_778
10
52.5543065
20
60.5186207
11
48.7544065
21
60.5186207
0
LINE
8
DEFAULT_255_2_778
10
48.7544065
20
60.5186207
11
48.6615065
21
60.5099207
0
LINE
8
DEFAULT_255_2_778
10
48.6615065
20
60.5099207
11
48.5705065
21
60.4834207
0
LINE
8
DEFAULT_255_2_778
10
48.5705065
20
60.4834207
11
48.4811065
21
60.4374207
0
LINE
8
DEFAULT_255_2_778
10
48.4811065
20
60.4374207
11
48.4009065
21
60.3723207
0
LINE
8
DEFAULT_255_2_778
10
48.4009065
20
60.3723207
11
48.3371065
21
60.2945207
0
LINE
8
DEFAULT_255_2_778
10
48.3371065
20
60.2945207
11
48.2895065
21
60.2027207
0
LINE
8
DEFAULT_255_2_778
10
48.2895065
20
60.2027207
11
48.2633065
21
60.1130207
0
LINE
8
DEFAULT_255_2_778
10
48.2633065
20
60.1130207
11
48.2546065
21
60.0185207
0
LINE
8
DEFAULT_255_2_778
10
48.2546065
20
60.0185207
11
48.2551065
21
39.2186207
0
LINE
8
DEFAULT_255_2_778
10
56.2550065
20
39.2186207
11
56.2638065
21
39.1257207
0
LINE
8
DEFAULT_255_2_778
10
56.2638065
20
39.1257207
11
56.2902065
21
39.0347207
0
LINE
8
DEFAULT_255_2_778
10
56.2902065
20
39.0347207
11
56.3363065
21
38.9453207
0
LINE
8
DEFAULT_255_2_778
10
56.3363065
20
38.9453207
11
56.4014065
21
38.8651207
0
LINE
8
DEFAULT_255_2_778
10
56.4014065
20
38.8651207
11
56.4791065
21
38.8013207
0
LINE
8
DEFAULT_255_2_778
10
56.4791065
20
38.8013207
11
56.5710065
21
38.7537207
0
LINE
8
DEFAULT_255_2_778
10
56.5710065
20
38.7537207
11
56.6607065
21
38.7275207
0
LINE
8
DEFAULT_255_2_778
10
56.6607065
20
38.7275207
11
56.7551065
21
38.7188207
0
LINE
8
DEFAULT_255_2_778
10
56.7551065
20
38.7188207
11
60.5551065
21
38.7188207
0
LINE
8
DEFAULT_255_2_778
10
60.5551065
20
38.7188207
11
60.7995065
21
38.7825207
0
LINE
8
DEFAULT_255_2_778
10
60.7995065
20
38.7825207
11
60.9911065
21
38.9741207
0
LINE
8
DEFAULT_255_2_778
10
60.9911065
20
38.9741207
11
61.0549065
21
39.2186207
0
LINE
8
DEFAULT_255_2_778
10
61.0549065
20
39.2186207
11
61.0549065
21
60.0185207
0
LINE
8
DEFAULT_255_2_778
10
61.0549065
20
60.0185207
11
61.0461065
21
60.1114207
0
LINE
8
DEFAULT_255_2_778
10
61.0461065
20
60.1114207
11
61.0197065
21
60.2024207
0
LINE
8
DEFAULT_255_2_778
10
61.0197065
20
60.2024207
11
60.9736065
21
60.2918207
0
LINE
8
DEFAULT_255_2_778
10
60.9736065
20
60.2918207
11
60.9085065
21
60.3720207
0
LINE
8
DEFAULT_255_2_778
10
60.9085065
20
60.3720207
11
60.8308065
21
60.4358207
0
LINE
8
DEFAULT_255_2_778
10
60.8308065
20
60.4358207
11
60.7389065
21
60.4834207
0
LINE
8
DEFAULT_255_2_778
10
60.7389065
20
60.4834207
11
60.6492065
21
60.5099207
0
LINE
8
DEFAULT_255_2_778
10
60.6492065
20
60.5099207
11
60.5548065
21
60.5186207
0
LINE
8
DEFAULT_255_2_778
10
60.5548065
20
60.5186207
11
56.7548065
21
60.5186207
0
LINE
8
DEFAULT_255_2_778
10
56.7548065
20
60.5186207
11
56.6617065
21
60.5099207
0
LINE
8
DEFAULT_255_2_778
10
56.6617065
20
60.5099207
11
56.5707065
21
60.4834207
0
LINE
8
DEFAULT_255_2_778
10
56.5707065
20
60.4834207
11
56.4813065
21
60.4374207
0
LINE
8
DEFAULT_255_2_778
10
56.4813065
20
60.4374207
11
56.4011065
21
60.3723207
0
LINE
8
DEFAULT_255_2_778
10
56.4011065
20
60.3723207
11
56.3373065
21
60.2945207
0
LINE
8
DEFAULT_255_2_778
10
56.3373065
20
60.2945207
11
56.2897065
21
60.2027207
0
LINE
8
DEFAULT_255_2_778
10
56.2897065
20
60.2027207
11
56.2632065
21
60.1130207
0
LINE
8
DEFAULT_255_2_778
10
56.2632065
20
60.1130207
11
56.2545065
21
60.0185207
0
LINE
8
DEFAULT_255_2_778
10
56.2545065
20
60.0185207
11
56.2550065
21
39.2186207
0
LINE
8
DEFAULT_255_2_778
10
72.2549065
20
39.2186207
11
72.2637065
21
39.1257207
0
LINE
8
DEFAULT_255_2_778
10
72.2637065
20
39.1257207
11
72.2899065
21
39.0347207
0
LINE
8
DEFAULT_255_2_778
10
72.2899065
20
39.0347207
11
72.3362065
21
38.9453207
0
LINE
8
DEFAULT_255_2_778
10
72.3362065
20
38.9453207
11
72.4012065
21
38.8651207
0
LINE
8
DEFAULT_255_2_778
10
72.4012065
20
38.8651207
11
72.4790065
21
38.8013207
0
LINE
8
DEFAULT_255_2_778
10
72.4790065
20
38.8013207
11
72.5708065
21
38.7537207
0
LINE
8
DEFAULT_255_2_778
10
72.5708065
20
38.7537207
11
72.6605065
21
38.7275207
0
LINE
8
DEFAULT_255_2_778
10
72.6605065
20
38.7275207
11
72.7550065
21
38.7188207
0
LINE
8
DEFAULT_255_2_778
10
72.7550065
20
38.7188207
11
76.5549065
21
38.7188207
0
LINE
8
DEFAULT_255_2_778
10
76.5549065
20
38.7188207
11
76.7994065
21
38.7825207
0
LINE
8
DEFAULT_255_2_778
10
76.7994065
20
38.7825207
11
76.9910065
21
38.9741207
0
LINE
8
DEFAULT_255_2_778
10
76.9910065
20
38.9741207
11
77.0547065
21
39.2186207
0
LINE
8
DEFAULT_255_2_778
10
77.0547065
20
39.2186207
11
77.0547065
21
60.0185207
0
LINE
8
DEFAULT_255_2_778
10
77.0547065
20
60.0185207
11
77.0460065
21
60.1114207
0
LINE
8
DEFAULT_255_2_778
10
77.0460065
20
60.1114207
11
77.0195065
21
60.2024207
0
LINE
8
DEFAULT_255_2_778
10
77.0195065
20
60.2024207
11
76.9735065
21
60.2918207
0
LINE
8
DEFAULT_255_2_778
10
76.9735065
20
60.2918207
11
76.9084065
21
60.3720207
0
LINE
8
DEFAULT_255_2_778
10
76.9084065
20
60.3720207
11
76.8306065
21
60.4358207
0
LINE
8
DEFAULT_255_2_778
10
76.8306065
20
60.4358207
11
76.7388065
21
60.4834207
0
LINE
8
DEFAULT_255_2_778
10
76.7388065
20
60.4834207
11
76.6491065
21
60.5099207
0
LINE
8
DEFAULT_255_2_778
10
76.6491065
20
60.5099207
11
76.5547065
21
60.5186207
0
LINE
8
DEFAULT_255_2_778
10
76.5547065
20
60.5186207
11
72.7547065
21
60.5186207
0
LINE
8
DEFAULT_255_2_778
10
72.7547065
20
60.5186207
11
72.6616065
21
60.5099207
0
LINE
8
DEFAULT_255_2_778
10
72.6616065
20
60.5099207
11
72.5706065
21
60.4834207
0
LINE
8
DEFAULT_255_2_778
10
72.5706065
20
60.4834207
11
72.4811065
21
60.4374207
0
LINE
8
DEFAULT_255_2_778
10
72.4811065
20
60.4374207
11
72.4010065
21
60.3723207
0
LINE
8
DEFAULT_255_2_778
10
72.4010065
20
60.3723207
11
72.3372065
21
60.2945207
0
LINE
8
DEFAULT_255_2_778
10
72.3372065
20
60.2945207
11
72.2896065
21
60.2027207
0
LINE
8
DEFAULT_255_2_778
10
72.2896065
20
60.2027207
11
72.2634065
21
60.1130207
0
LINE
8
DEFAULT_255_2_778
10
72.2634065
20
60.1130207
11
72.2547065
21
60.0185207
0
LINE
8
DEFAULT_255_2_778
10
72.2547065
20
60.0185207
11
72.2549065
21
39.2186207
0
LINE
8
DEFAULT_255_2_778
10
32.2552065
20
11.7186207
11
32.2640065
21
11.6257207
0
LINE
8
DEFAULT_255_2_778
10
32.2640065
20
11.6257207
11
32.2904065
21
11.5347207
0
LINE
8
DEFAULT_255_2_778
10
32.2904065
20
11.5347207
11
32.3364065
21
11.4453207
0
LINE
8
DEFAULT_255_2_778
10
32.3364065
20
11.4453207
11
32.4015065
21
11.3651207
0
LINE
8
DEFAULT_255_2_778
10
32.4015065
20
11.3651207
11
32.4793065
21
11.3013207
0
LINE
8
DEFAULT_255_2_778
10
32.4793065
20
11.3013207
11
32.5711065
21
11.2537207
0
LINE
8
DEFAULT_255_2_778
10
32.5711065
20
11.2537207
11
32.6608065
21
11.2273207
0
LINE
8
DEFAULT_255_2_778
10
32.6608065
20
11.2273207
11
32.7553065
21
11.2185207
0
LINE
8
DEFAULT_255_2_778
10
32.7553065
20
11.2185207
11
36.5552065
21
11.2185207
0
LINE
8
DEFAULT_255_2_778
10
36.5552065
20
11.2185207
11
36.7997065
21
11.2823207
0
LINE
8
DEFAULT_255_2_778
10
36.7997065
20
11.2823207
11
36.9913065
21
11.4738207
0
LINE
8
DEFAULT_255_2_778
10
36.9913065
20
11.4738207
11
37.0550065
21
11.7183207
0
LINE
8
DEFAULT_255_2_778
10
37.0550065
20
11.7183207
11
37.0550065
21
32.5185207
0
LINE
8
DEFAULT_255_2_778
10
37.0550065
20
32.5185207
11
37.0463065
21
32.6117207
0
LINE
8
DEFAULT_255_2_778
10
37.0463065
20
32.6117207
11
37.0201065
21
32.7027207
0
LINE
8
DEFAULT_255_2_778
10
37.0201065
20
32.7027207
11
36.9741065
21
32.7921207
0
LINE
8
DEFAULT_255_2_778
10
36.9741065
20
32.7921207
11
36.9090065
21
32.8723207
0
LINE
8
DEFAULT_255_2_778
10
36.9090065
20
32.8723207
11
36.8312065
21
32.9360207
0
LINE
8
DEFAULT_255_2_778
10
36.8312065
20
32.9360207
11
36.7394065
21
32.9837207
0
LINE
8
DEFAULT_255_2_778
10
36.7394065
20
32.9837207
11
36.6497065
21
33.0099207
0
LINE
8
DEFAULT_255_2_778
10
36.6497065
20
33.0099207
11
36.5552065
21
33.0186207
0
LINE
8
DEFAULT_255_2_778
10
36.5552065
20
33.0186207
11
32.7553065
21
33.0186207
0
LINE
8
DEFAULT_255_2_778
10
32.7553065
20
33.0186207
11
32.6624065
21
33.0099207
0
LINE
8
DEFAULT_255_2_778
10
32.6624065
20
33.0099207
11
32.5714065
21
32.9837207
0
LINE
8
DEFAULT_255_2_778
10
32.5714065
20
32.9837207
11
32.4820065
21
32.9376207
0
LINE
8
DEFAULT_255_2_778
10
32.4820065
20
32.9376207
11
32.4018065
21
32.8725207
0
LINE
8
DEFAULT_255_2_778
10
32.4018065
20
32.8725207
11
32.3380065
21
32.7948207
0
LINE
8
DEFAULT_255_2_778
10
32.3380065
20
32.7948207
11
32.2904065
21
32.7030207
0
LINE
8
DEFAULT_255_2_778
10
32.2904065
20
32.7030207
11
32.2640065
21
32.6133207
0
LINE
8
DEFAULT_255_2_778
10
32.2640065
20
32.6133207
11
32.2552065
21
32.5188207
0
LINE
8
DEFAULT_255_2_778
10
32.2552065
20
32.5188207
11
32.2552065
21
11.7186207
0
LINE
8
DEFAULT_255_2_778
10
40.2552065
20
11.7186207
11
40.2639065
21
11.6257207
0
LINE
8
DEFAULT_255_2_778
10
40.2639065
20
11.6257207
11
40.2901065
21
11.5347207
0
LINE
8
DEFAULT_255_2_778
10
40.2901065
20
11.5347207
11
40.3364065
21
11.4453207
0
LINE
8
DEFAULT_255_2_778
10
40.3364065
20
11.4453207
11
40.4015065
21
11.3651207
0
LINE
8
DEFAULT_255_2_778
10
40.4015065
20
11.3651207
11
40.4793065
21
11.3013207
0
LINE
8
DEFAULT_255_2_778
10
40.4793065
20
11.3013207
11
40.5711065
21
11.2537207
0
LINE
8
DEFAULT_255_2_778
10
40.5711065
20
11.2537207
11
40.6608065
21
11.2273207
0
LINE
8
DEFAULT_255_2_778
10
40.6608065
20
11.2273207
11
40.7552065
21
11.2185207
0
LINE
8
DEFAULT_255_2_778
10
40.7552065
20
11.2185207
11
44.5552065
21
11.2185207
0
LINE
8
DEFAULT_255_2_778
10
44.5552065
20
11.2185207
11
44.7996065
21
11.2823207
0
LINE
8
DEFAULT_255_2_778
10
44.7996065
20
11.2823207
11
44.9912065
21
11.4738207
0
LINE
8
DEFAULT_255_2_778
10
44.9912065
20
11.4738207
11
45.0550065
21
11.7183207
0
LINE
8
DEFAULT_255_2_778
10
45.0550065
20
11.7183207
11
45.0550065
21
32.5185207
0
LINE
8
DEFAULT_255_2_778
10
45.0550065
20
32.5185207
11
45.0462065
21
32.6117207
0
LINE
8
DEFAULT_255_2_778
10
45.0462065
20
32.6117207
11
45.0198065
21
32.7027207
0
LINE
8
DEFAULT_255_2_778
10
45.0198065
20
32.7027207
11
44.9737065
21
32.7921207
0
LINE
8
DEFAULT_255_2_778
10
44.9737065
20
32.7921207
11
44.9087065
21
32.8723207
0
LINE
8
DEFAULT_255_2_778
10
44.9087065
20
32.8723207
11
44.8309065
21
32.9360207
0
LINE
8
DEFAULT_255_2_778
10
44.8309065
20
32.9360207
11
44.7391065
21
32.9837207
0
LINE
8
DEFAULT_255_2_778
10
44.7391065
20
32.9837207
11
44.6494065
21
33.0099207
0
LINE
8
DEFAULT_255_2_778
10
44.6494065
20
33.0099207
11
44.5549065
21
33.0186207
0
LINE
8
DEFAULT_255_2_778
10
44.5549065
20
33.0186207
11
40.7552065
21
33.0186207
0
LINE
8
DEFAULT_255_2_778
10
40.7552065
20
33.0186207
11
40.6624065
21
33.0099207
0
LINE
8
DEFAULT_255_2_778
10
40.6624065
20
33.0099207
11
40.5713065
21
32.9837207
0
LINE
8
DEFAULT_255_2_778
10
40.5713065
20
32.9837207
11
40.4819065
21
32.9376207
0
LINE
8
DEFAULT_255_2_778
10
40.4819065
20
32.9376207
11
40.4017065
21
32.8725207
0
LINE
8
DEFAULT_255_2_778
10
40.4017065
20
32.8725207
11
40.3380065
21
32.7948207
0
LINE
8
DEFAULT_255_2_778
10
40.3380065
20
32.7948207
11
40.2904065
21
32.7030207
0
LINE
8
DEFAULT_255_2_778
10
40.2904065
20
32.7030207
11
40.2642065
21
32.6133207
0
LINE
8
DEFAULT_255_2_778
10
40.2642065
20
32.6133207
11
40.2554065
21
32.5188207
0
LINE
8
DEFAULT_255_2_778
10
40.2554065
20
32.5188207
11
40.2552065
21
11.7186207
0
LINE
8
DEFAULT_255_2_778
10
48.2551065
20
11.7186207
11
48.2638065
21
11.6257207
0
LINE
8
DEFAULT_255_2_778
10
48.2638065
20
11.6257207
11
48.2900065
21
11.5347207
0
LINE
8
DEFAULT_255_2_778
10
48.2900065
20
11.5347207
11
48.3361065
21
11.4453207
0
LINE
8
DEFAULT_255_2_778
10
48.3361065
20
11.4453207
11
48.4012065
21
11.3651207
0
LINE
8
DEFAULT_255_2_778
10
48.4012065
20
11.3651207
11
48.4789065
21
11.3013207
0
LINE
8
DEFAULT_255_2_778
10
48.4789065
20
11.3013207
11
48.5705065
21
11.2537207
0
LINE
8
DEFAULT_255_2_778
10
48.5705065
20
11.2537207
11
48.6602065
21
11.2273207
0
LINE
8
DEFAULT_255_2_778
10
48.6602065
20
11.2273207
11
48.7546065
21
11.2185207
0
LINE
8
DEFAULT_255_2_778
10
48.7546065
20
11.2185207
11
52.5546065
21
11.2185207
0
LINE
8
DEFAULT_255_2_778
10
52.5546065
20
11.2185207
11
52.7991065
21
11.2823207
0
LINE
8
DEFAULT_255_2_778
10
52.7991065
20
11.2823207
11
52.9906065
21
11.4738207
0
LINE
8
DEFAULT_255_2_778
10
52.9906065
20
11.4738207
11
53.0544065
21
11.7183207
0
LINE
8
DEFAULT_255_2_778
10
53.0544065
20
11.7183207
11
53.0544065
21
32.5185207
0
LINE
8
DEFAULT_255_2_778
10
53.0544065
20
32.5185207
11
53.0457065
21
32.6117207
0
LINE
8
DEFAULT_255_2_778
10
53.0457065
20
32.6117207
11
53.0192065
21
32.7027207
0
LINE
8
DEFAULT_255_2_778
10
53.0192065
20
32.7027207
11
52.9732065
21
32.7921207
0
LINE
8
DEFAULT_255_2_778
10
52.9732065
20
32.7921207
11
52.9081065
21
32.8723207
0
LINE
8
DEFAULT_255_2_778
10
52.9081065
20
32.8723207
11
52.8303065
21
32.9360207
0
LINE
8
DEFAULT_255_2_778
10
52.8303065
20
32.9360207
11
52.7385065
21
32.9837207
0
LINE
8
DEFAULT_255_2_778
10
52.7385065
20
32.9837207
11
52.6488065
21
33.0099207
0
LINE
8
DEFAULT_255_2_778
10
52.6488065
20
33.0099207
11
52.5543065
21
33.0186207
0
LINE
8
DEFAULT_255_2_778
10
52.5543065
20
33.0186207
11
48.7544065
21
33.0186207
0
LINE
8
DEFAULT_255_2_778
10
48.7544065
20
33.0186207
11
48.6615065
21
33.0099207
0
LINE
8
DEFAULT_255_2_778
10
48.6615065
20
33.0099207
11
48.5705065
21
32.9837207
0
LINE
8
DEFAULT_255_2_778
10
48.5705065
20
32.9837207
11
48.4811065
21
32.9376207
0
LINE
8
DEFAULT_255_2_778
10
48.4811065
20
32.9376207
11
48.4009065
21
32.8725207
0
LINE
8
DEFAULT_255_2_778
10
48.4009065
20
32.8725207
11
48.3371065
21
32.7948207
0
LINE
8
DEFAULT_255_2_778
10
48.3371065
20
32.7948207
11
48.2895065
21
32.7030207
0
LINE
8
DEFAULT_255_2_778
10
48.2895065
20
32.7030207
11
48.2633065
21
32.6133207
0
LINE
8
DEFAULT_255_2_778
10
48.2633065
20
32.6133207
11
48.2546065
21
32.5188207
0
LINE
8
DEFAULT_255_2_778
10
48.2546065
20
32.5188207
11
48.2551065
21
11.7186207
0
LINE
8
DEFAULT_255_2_778
10
56.2550065
20
11.7186207
11
56.2638065
21
11.6257207
0
LINE
8
DEFAULT_255_2_778
10
56.2638065
20
11.6257207
11
56.2902065
21
11.5347207
0
LINE
8
DEFAULT_255_2_778
10
56.2902065
20
11.5347207
11
56.3363065
21
11.4453207
0
LINE
8
DEFAULT_255_2_778
10
56.3363065
20
11.4453207
11
56.4014065
21
11.3651207
0
LINE
8
DEFAULT_255_2_778
10
56.4014065
20
11.3651207
11
56.4791065
21
11.3013207
0
LINE
8
DEFAULT_255_2_778
10
56.4791065
20
11.3013207
11
56.5710065
21
11.2537207
0
LINE
8
DEFAULT_255_2_778
10
56.5710065
20
11.2537207
11
56.6607065
21
11.2273207
0
LINE
8
DEFAULT_255_2_778
10
56.6607065
20
11.2273207
11
56.7551065
21
11.2185207
0
LINE
8
DEFAULT_255_2_778
10
56.7551065
20
11.2185207
11
60.5551065
21
11.2185207
0
LINE
8
DEFAULT_255_2_778
10
60.5551065
20
11.2185207
11
60.7995065
21
11.2823207
0
LINE
8
DEFAULT_255_2_778
10
60.7995065
20
11.2823207
11
60.9911065
21
11.4738207
0
LINE
8
DEFAULT_255_2_778
10
60.9911065
20
11.4738207
11
61.0549065
21
11.7183207
0
LINE
8
DEFAULT_255_2_778
10
61.0549065
20
11.7183207
11
61.0549065
21
32.5185207
0
LINE
8
DEFAULT_255_2_778
10
61.0549065
20
32.5185207
11
61.0461065
21
32.6117207
0
LINE
8
DEFAULT_255_2_778
10
61.0461065
20
32.6117207
11
61.0197065
21
32.7027207
0
LINE
8
DEFAULT_255_2_778
10
61.0197065
20
32.7027207
11
60.9736065
21
32.7921207
0
LINE
8
DEFAULT_255_2_778
10
60.9736065
20
32.7921207
11
60.9085065
21
32.8723207
0
LINE
8
DEFAULT_255_2_778
10
60.9085065
20
32.8723207
11
60.8308065
21
32.9360207
0
LINE
8
DEFAULT_255_2_778
10
60.8308065
20
32.9360207
11
60.7389065
21
32.9837207
0
LINE
8
DEFAULT_255_2_778
10
60.7389065
20
32.9837207
11
60.6492065
21
33.0099207
0
LINE
8
DEFAULT_255_2_778
10
60.6492065
20
33.0099207
11
60.5548065
21
33.0186207
0
LINE
8
DEFAULT_255_2_778
10
60.5548065
20
33.0186207
11
56.7548065
21
33.0186207
0
LINE
8
DEFAULT_255_2_778
10
56.7548065
20
33.0186207
11
56.6617065
21
33.0099207
0
LINE
8
DEFAULT_255_2_778
10
56.6617065
20
33.0099207
11
56.5707065
21
32.9837207
0
LINE
8
DEFAULT_255_2_778
10
56.5707065
20
32.9837207
11
56.4813065
21
32.9376207
0
LINE
8
DEFAULT_255_2_778
10
56.4813065
20
32.9376207
11
56.4011065
21
32.8725207
0
LINE
8
DEFAULT_255_2_778
10
56.4011065
20
32.8725207
11
56.3373065
21
32.7948207
0
LINE
8
DEFAULT_255_2_778
10
56.3373065
20
32.7948207
11
56.2897065
21
32.7030207
0
LINE
8
DEFAULT_255_2_778
10
56.2897065
20
32.7030207
11
56.2632065
21
32.6133207
0
LINE
8
DEFAULT_255_2_778
10
56.2632065
20
32.6133207
11
56.2545065
21
32.5188207
0
LINE
8
DEFAULT_255_2_778
10
56.2545065
20
32.5188207
11
56.2550065
21
11.7186207
0
LINE
8
DEFAULT_255_2_778
10
72.2549065
20
11.7186207
11
72.2637065
21
11.6257207
0
LINE
8
DEFAULT_255_2_778
10
72.2637065
20
11.6257207
11
72.2899065
21
11.5347207
0
LINE
8
DEFAULT_255_2_778
10
72.2899065
20
11.5347207
11
72.3362065
21
11.4453207
0
LINE
8
DEFAULT_255_2_778
10
72.3362065
20
11.4453207
11
72.4012065
21
11.3651207
0
LINE
8
DEFAULT_255_2_778
10
72.4012065
20
11.3651207
11
72.4790065
21
11.3013207
0
LINE
8
DEFAULT_255_2_778
10
72.4790065
20
11.3013207
11
72.5708065
21
11.2537207
0
LINE
8
DEFAULT_255_2_778
10
72.5708065
20
11.2537207
11
72.6605065
21
11.2273207
0
LINE
8
DEFAULT_255_2_778
10
72.6605065
20
11.2273207
11
72.7550065
21
11.2185207
0
LINE
8
DEFAULT_255_2_778
10
72.7550065
20
11.2185207
11
76.5549065
21
11.2185207
0
LINE
8
DEFAULT_255_2_778
10
76.5549065
20
11.2185207
11
76.7994065
21
11.2823207
0
LINE
8
DEFAULT_255_2_778
10
76.7994065
20
11.2823207
11
76.9910065
21
11.4738207
0
LINE
8
DEFAULT_255_2_778
10
76.9910065
20
11.4738207
11
77.0547065
21
11.7183207
0
LINE
8
DEFAULT_255_2_778
10
77.0547065
20
11.7183207
11
77.0547065
21
32.5185207
0
LINE
8
DEFAULT_255_2_778
10
77.0547065
20
32.5185207
11
77.0460065
21
32.6117207
0
LINE
8
DEFAULT_255_2_778
10
77.0460065
20
32.6117207
11
77.0195065
21
32.7027207
0
LINE
8
DEFAULT_255_2_778
10
77.0195065
20
32.7027207
11
76.9735065
21
32.7921207
0
LINE
8
DEFAULT_255_2_778
10
76.9735065
20
32.7921207
11
76.9084065
21
32.8723207
0
LINE
8
DEFAULT_255_2_778
10
76.9084065
20
32.8723207
11
76.8306065
21
32.9360207
0
LINE
8
DEFAULT_255_2_778
10
76.8306065
20
32.9360207
11
76.7388065
21
32.9837207
0
LINE
8
DEFAULT_255_2_778
10
76.7388065
20
32.9837207
11
76.6491065
21
33.0099207
0
LINE
8
DEFAULT_255_2_778
10
76.6491065
20
33.0099207
11
76.5547065
21
33.0186207
0
LINE
8
DEFAULT_255_2_778
10
76.5547065
20
33.0186207
11
72.7547065
21
33.0186207
0
LINE
8
DEFAULT_255_2_778
10
72.7547065
20
33.0186207
11
72.6616065
21
33.0099207
0
LINE
8
DEFAULT_255_2_778
10
72.6616065
20
33.0099207
11
72.5706065
21
32.9837207
0
LINE
8
DEFAULT_255_2_778
10
72.5706065
20
32.9837207
11
72.4811065
21
32.9376207
0
LINE
8
DEFAULT_255_2_778
10
72.4811065
20
32.9376207
11
72.4010065
21
32.8725207
0
LINE
8
DEFAULT_255_2_778
10
72.4010065
20
32.8725207
11
72.3372065
21
32.7948207
0
LINE
8
DEFAULT_255_2_778
10
72.3372065
20
32.7948207
11
72.2896065
21
32.7030207
0
LINE
8
DEFAULT_255_2_778
10
72.2896065
20
32.7030207
11
72.2634065
21
32.6133207
0
LINE
8
DEFAULT_255_2_778
10
72.2634065
20
32.6133207
11
72.2547065
21
32.5188207
0
LINE
8
DEFAULT_255_2_778
10
72.2547065
20
32.5188207
11
72.2549065
21
11.7186207
0
LINE
8
DEFAULT_255_2_778
10
16.2553065
20
26.2185207
11
16.2641065
21
26.1254207
0
LINE
8
DEFAULT_255_2_778
10
16.2641065
20
26.1254207
11
16.2903065
21
26.0344207
0
LINE
8
DEFAULT_255_2_778
10
16.2903065
20
26.0344207
11
16.3366065
21
25.9450207
0
LINE
8
DEFAULT_255_2_778
10
16.3366065
20
25.9450207
11
16.4017065
21
25.8651207
0
LINE
8
DEFAULT_255_2_778
10
16.4017065
20
25.8651207
11
16.4797065
21
25.8013207
0
LINE
8
DEFAULT_255_2_778
10
16.4797065
20
25.8013207
11
16.5713065
21
25.7537207
0
LINE
8
DEFAULT_255_2_778
10
16.5713065
20
25.7537207
11
16.6609065
21
25.7272207
0
LINE
8
DEFAULT_255_2_778
10
16.6609065
20
25.7272207
11
16.7551065
21
25.7185207
0
LINE
8
DEFAULT_255_2_778
10
16.7551065
20
25.7185207
11
20.5551065
21
25.7185207
0
LINE
8
DEFAULT_255_2_778
10
20.5551065
20
25.7185207
11
20.7996065
21
25.7822207
0
LINE
8
DEFAULT_255_2_778
10
20.7996065
20
25.7822207
11
20.9911065
21
25.9738207
0
LINE
8
DEFAULT_255_2_778
10
20.9911065
20
25.9738207
11
21.0549065
21
26.2183207
0
LINE
8
DEFAULT_255_2_778
10
21.0549065
20
26.2183207
11
21.0549065
21
32.5185207
0
LINE
8
DEFAULT_255_2_778
10
21.0549065
20
32.5185207
11
21.0461065
21
32.6117207
0
LINE
8
DEFAULT_255_2_778
10
21.0461065
20
32.6117207
11
21.0200065
21
32.7027207
0
LINE
8
DEFAULT_255_2_778
10
21.0200065
20
32.7027207
11
20.9739065
21
32.7921207
0
LINE
8
DEFAULT_255_2_778
10
20.9739065
20
32.7921207
11
20.9088065
21
32.8723207
0
LINE
8
DEFAULT_255_2_778
10
20.9088065
20
32.8723207
11
20.8310065
21
32.9360207
0
LINE
8
DEFAULT_255_2_778
10
20.8310065
20
32.9360207
11
20.7392065
21
32.9837207
0
LINE
8
DEFAULT_255_2_778
10
20.7392065
20
32.9837207
11
20.6495065
21
33.0099207
0
LINE
8
DEFAULT_255_2_778
10
20.6495065
20
33.0099207
11
20.5551065
21
33.0186207
0
LINE
8
DEFAULT_255_2_778
10
20.5551065
20
33.0186207
11
16.7554065
21
33.0186207
0
LINE
8
DEFAULT_255_2_778
10
16.7554065
20
33.0186207
11
16.6625065
21
33.0099207
0
LINE
8
DEFAULT_255_2_778
10
16.6625065
20
33.0099207
11
16.5715065
21
32.9837207
0
LINE
8
DEFAULT_255_2_778
10
16.5715065
20
32.9837207
11
16.4821065
21
32.9376207
0
LINE
8
DEFAULT_255_2_778
10
16.4821065
20
32.9376207
11
16.4019065
21
32.8725207
0
LINE
8
DEFAULT_255_2_778
10
16.4019065
20
32.8725207
11
16.3382065
21
32.7948207
0
LINE
8
DEFAULT_255_2_778
10
16.3382065
20
32.7948207
11
16.2905065
21
32.7032207
0
LINE
8
DEFAULT_255_2_778
10
16.2905065
20
32.7032207
11
16.2643065
21
32.6135207
0
LINE
8
DEFAULT_255_2_778
10
16.2643065
20
32.6135207
11
16.2556065
21
32.5191207
0
LINE
8
DEFAULT_255_2_778
10
16.2556065
20
32.5191207
11
16.2553065
21
26.2185207
0
LINE
8
DEFAULT_255_2_778
10
88.7054065
20
87.8186207
11
90.4374065
21
87.8186207
0
LINE
8
DEFAULT_255_2_778
10
90.4374065
20
87.8186207
11
90.4374065
21
86.8187207
0
LINE
8
DEFAULT_255_2_778
10
90.4374065
20
86.8187207
11
89.2552065
21
86.8187207
0
LINE
8
DEFAULT_255_2_778
10
89.2552065
20
86.8187207
11
89.2552065
21
85.3188207
0
LINE
8
DEFAULT_255_2_778
10
89.2552065
20
85.3188207
11
90.4374065
21
85.3188207
0
LINE
8
DEFAULT_255_2_778
10
90.4374065
20
85.3188207
11
90.4374065
21
84.3187207
0
LINE
8
DEFAULT_255_2_778
10
90.4374065
20
84.3187207
11
89.2552065
21
84.3187207
0
LINE
8
DEFAULT_255_2_778
10
89.2552065
20
84.3187207
11
89.2552065
21
82.8187207
0
LINE
8
DEFAULT_255_2_778
10
89.2552065
20
82.8187207
11
90.4374065
21
82.8187207
0
LINE
8
DEFAULT_255_2_778
10
90.4374065
20
82.8187207
11
90.4374065
21
81.8189207
0
LINE
8
DEFAULT_255_2_778
10
90.4374065
20
81.8189207
11
88.7054065
21
81.8189207
0
LINE
8
DEFAULT_255_2_778
10
88.2553065
20
81.8189207
11
88.2553065
21
81.5688207
0
LINE
8
DEFAULT_255_2_778
10
88.2553065
20
81.5688207
11
90.6554065
21
81.5688207
0
LINE
8
DEFAULT_255_2_778
10
90.6554065
20
81.5688207
11
90.6554065
21
88.0686207
0
LINE
8
DEFAULT_255_2_778
10
90.6554065
20
88.0686207
11
88.2553065
21
88.0686207
0
LINE
8
DEFAULT_255_2_778
10
88.2553065
20
88.0686207
11
88.2553065
21
87.8186207
0
LINE
8
DEFAULT_255_2_778
10
88.2553065
20
87.8186207
11
88.2553065
21
81.8186207
0
LINE
8
DEFAULT_255_2_778
10
88.2553065
20
81.8186207
11
88.7054065
21
81.8186207
0
LINE
8
DEFAULT_255_2_778
10
88.7054065
20
81.8186207
11
88.7054065
21
87.8186207
0
LINE
8
DEFAULT_255_2_778
10
88.7054065
20
87.8186207
11
88.2553065
21
87.8186207
0
LINE
8
DEFAULT_255_2_778
10
102.1618065
20
29.7957207
11
102.2502065
21
31.7978207
0
LINE
8
DEFAULT_255_2_778
10
101.7507065
20
32.3188207
11
96.8554065
21
32.3188207
0
LINE
8
DEFAULT_255_2_778
10
96.3553065
20
31.8187207
11
96.3553065
21
29.8187207
0
LINE
8
DEFAULT_255_2_778
10
96.8554065
20
29.3187207
11
101.6626065
21
29.3187207
0
LINE
8
DEFAULT_255_2_778
10
102.1621065
20
29.7957207
11
102.1618065
21
29.7957207
0
LINE
8
DEFAULT_255_2_778
10
102.1325065
20
73.8385207
11
102.0486065
21
75.8406207
0
LINE
8
DEFAULT_255_2_778
10
101.5491065
20
76.3187207
11
96.8551065
21
76.3187207
0
LINE
8
DEFAULT_255_2_778
10
96.3550065
20
75.8187207
11
96.3550065
21
73.8187207
0
LINE
8
DEFAULT_255_2_778
10
96.8551065
20
73.3186207
11
101.6329065
21
73.3186207
0
LINE
8
DEFAULT_255_2_778
10
102.1325065
20
73.8385207
11
102.1325065
21
73.8385207
0
LINE
8
DEFAULT_255_2_778
10
102.6852065
20
51.8180207
11
102.6839065
21
53.8201207
0
LINE
8
DEFAULT_255_2_778
10
102.1838065
20
54.3189207
11
96.8551065
21
54.3189207
0
LINE
8
DEFAULT_255_2_778
10
96.3550065
20
53.8188207
11
96.3550065
21
51.8188207
0
LINE
8
DEFAULT_255_2_778
10
96.8551065
20
51.3188207
11
102.1851065
21
51.3188207
0
LINE
8
DEFAULT_255_2_778
10
102.6852065
20
51.8180207
11
102.6852065
21
51.8180207
0
LINE
8
DEFAULT_255_2_778
10
88.7054065
20
20.8187207
11
90.4374065
21
20.8187207
0
LINE
8
DEFAULT_255_2_778
10
90.4374065
20
20.8187207
11
90.4374065
21
19.8188207
0
LINE
8
DEFAULT_255_2_778
10
90.4374065
20
19.8188207
11
89.2552065
21
19.8188207
0
LINE
8
DEFAULT_255_2_778
10
89.2552065
20
19.8188207
11
89.2552065
21
18.3189207
0
LINE
8
DEFAULT_255_2_778
10
89.2552065
20
18.3189207
11
90.4374065
21
18.3189207
0
LINE
8
DEFAULT_255_2_778
10
90.4374065
20
18.3189207
11
90.4374065
21
17.3190207
0
LINE
8
DEFAULT_255_2_778
10
90.4374065
20
17.3190207
11
89.2552065
21
17.3190207
0
LINE
8
DEFAULT_255_2_778
10
89.2552065
20
17.3190207
11
89.2552065
21
15.8191207
0
LINE
8
DEFAULT_255_2_778
10
89.2552065
20
15.8191207
11
90.4374065
21
15.8191207
0
LINE
8
DEFAULT_255_2_778
10
90.4374065
20
15.8191207
11
90.4374065
21
14.8192207
0
LINE
8
DEFAULT_255_2_778
10
90.4374065
20
14.8192207
11
88.7054065
21
14.8192207
0
LINE
8
DEFAULT_255_2_778
10
88.7054065
20
14.8192207
11
88.7054065
21
20.8187207
0
LINE
8
DEFAULT_255_2_778
10
88.7054065
20
20.8187207
11
88.2553065
21
20.8187207
0
LINE
8
DEFAULT_255_2_778
10
88.2553065
20
20.8187207
11
88.2553065
21
14.8187207
0
LINE
8
DEFAULT_255_2_778
10
88.2553065
20
14.8187207
11
88.7054065
21
14.8187207
0
LINE
8
DEFAULT_255_2_778
10
88.2553065
20
14.8187207
11
88.2553065
21
14.5687207
0
LINE
8
DEFAULT_255_2_778
10
88.2553065
20
14.5687207
11
90.6554065
21
14.5687207
0
LINE
8
DEFAULT_255_2_778
10
90.6554065
20
14.5687207
11
90.6554065
21
21.0687207
0
LINE
8
DEFAULT_255_2_778
10
90.6554065
20
21.0687207
11
88.2553065
21
21.0687207
0
LINE
8
DEFAULT_255_2_778
10
88.2553065
20
21.0687207
11
88.2553065
21
20.8187207
0
ARC
8
DEFAULT_255_2_778
10
9.3550179
20
100.5190328
40
0.4995933
50
89.9814564
51
135.011762
0
ARC
8
DEFAULT_255_2_778
10
9.3552752
20
100.5185797
40
0.5000956
50
134.9958871
51
179.9946851
0
ARC
8
DEFAULT_255_2_778
10
16.5549005
20
95.6779319
40
0.0996209
50
179.9458286
51
227.7196691
0
ARC
8
DEFAULT_255_2_778
10
16.5555442
20
95.6782394
40
0.100282
50
227.5657549
51
269.9737638
0
ARC
8
DEFAULT_255_2_778
10
16.5554985
20
95.6780284
40
0.1000709
50
269.9998841
51
274.9191588
0
ARC
8
DEFAULT_255_2_778
10
17.4551847
20
96.660321
40
1.000112
50
275.00744
51
351.8839178
0
ARC
8
DEFAULT_255_2_778
10
17.4550549
20
99.9777612
40
1.0002928
50
8.1360139
51
84.9860005
0
ARC
8
DEFAULT_255_2_778
10
16.5553908
20
100.9589921
40
0.1010084
50
85.0652959
51
89.9983339
0
ARC
8
DEFAULT_255_2_778
10
16.5551473
20
100.9607551
40
0.0992457
50
89.8577207
51
132.6711405
0
ARC
8
DEFAULT_255_2_778
10
16.5558472
20
100.9596022
40
0.1005681
50
132.5191541
51
179.8154985
0
ARC
8
DEFAULT_255_2_778
10
4.6055731
20
94.1672113
40
0.1511153
50
90.149178
51
134.8066146
0
ARC
8
DEFAULT_255_2_778
10
4.6039176
20
94.1689161
40
0.1487392
50
134.8169657
51
180.2272882
0
ARC
8
DEFAULT_255_2_778
10
9.6552752
20
101.3183797
40
0.5000956
50
134.9958871
51
179.9946851
0
ARC
8
DEFAULT_255_2_778
10
9.655254
20
101.3186042
40
0.4999219
50
89.9970639
51
135.0123541
0
ARC
8
DEFAULT_255_2_778
10
14.2552332
20
101.3184305
40
0.5000956
50
44.9958871
51
89.9946851
0
ARC
8
DEFAULT_255_2_778
10
14.255284
20
101.3183797
40
0.5000956
50
0.0053149
51
45.0041129
0
ARC
8
DEFAULT_255_2_778
10
14.7553332
20
100.5183305
40
0.5000956
50
44.9958871
51
89.9946851
0
ARC
8
DEFAULT_255_2_778
10
14.755384
20
100.5182797
40
0.5000956
50
0.0053149
51
45.0041129
0
ARC
8
DEFAULT_255_2_778
10
-389.3412844
20
52.8190453
40
493.9960643
50
357.9505244
51
359.4545992
0
ARC
8
DEFAULT_255_2_778
10
-389.3364809
20
52.8189966
40
493.9912603
50
359.4545995
51
359.999998
0
ARC
8
DEFAULT_255_2_778
10
-389.3164818
20
52.8192874
40
493.9712612
50
359.9999643
51
5.3533799
0
ARC
8
DEFAULT_255_2_778
10
-389.3815918
20
52.8183795
40
493.5364446
50
358.2726386
51
359.9051094
0
ARC
8
DEFAULT_255_2_778
10
-389.4060957
20
52.818372
40
493.5609486
50
359.905115
51
360
0
ARC
8
DEFAULT_255_2_778
10
-389.3772784
20
52.8183914
40
493.5321314
50
359.9999977
51
2.3068789
0
ARC
8
DEFAULT_255_2_778
10
107.4198205
20
105.0234358
40
0.4998806
50
5.9813955
51
86.9888192
0
ARC
8
DEFAULT_255_2_778
10
100.6789119
20
103.4825774
40
0.5011631
50
86.0105088
51
89.9996555
0
ARC
8
DEFAULT_255_2_778
10
100.6788345
20
103.4840348
40
0.4997058
50
89.9907761
51
137.032487
0
ARC
8
DEFAULT_255_2_778
10
100.6790504
20
103.4836188
40
0.5001474
50
137.0144723
51
180.0002451
0
ARC
8
DEFAULT_255_2_778
10
100.6793084
20
103.4836232
40
0.5004055
50
180.0007455
51
186.1588412
0
ARC
8
DEFAULT_255_2_778
10
100.6803789
20
103.4837337
40
0.5014817
50
186.158281
51
188.0017161
0
ARC
8
DEFAULT_255_2_778
10
103.0551795
20
103.8185041
40
2.8997622
50
188.0201361
51
225.0905104
0
ARC
8
DEFAULT_255_2_778
10
104.0657813
20
35.9189419
40
0.2000159
50
223.9495139
51
269.9995021
0
ARC
8
DEFAULT_255_2_778
10
104.0651954
20
35.9189889
40
0.1996271
50
179.9602521
51
224.0759263
0
ARC
8
DEFAULT_255_2_778
10
104.0677485
20
35.9191215
40
0.2021801
50
178.0996275
51
179.998328
0
ARC
8
DEFAULT_255_2_778
10
104.1329368
20
38.0191838
40
0.1998426
50
89.9303788
51
178.3247433
0
LINE
8
DEFAULT_255_2_778
10
15.2551796
20
95.3187261
11
15.7552796
21
95.3187261
0
LINE
8
DEFAULT_255_2_778
10
15.7552796
20
95.3187261
11
15.7552796
21
101.3187261
0
LINE
8
DEFAULT_255_2_778
10
15.7552796
20
95.5687261
11
16.4552796
21
95.5687261
0
LINE
8
DEFAULT_255_2_778
10
16.4552796
20
95.5687261
11
16.4552796
21
101.0686261
0
LINE
8
DEFAULT_255_2_778
10
16.4552796
20
101.0686261
11
15.7552796
21
101.0686261
0
LINE
8
DEFAULT_255_2_778
10
15.2551796
20
98.8639261
11
15.2551796
21
97.7733261
0
LINE
8
DEFAULT_255_2_778
10
15.2551796
20
97.7733261
11
15.2551796
21
94.6184261
0
LINE
8
DEFAULT_255_2_778
10
8.8551796
20
100.5186261
11
8.8551796
21
97.2330261
0
LINE
8
DEFAULT_255_2_778
10
8.8551796
20
97.2330261
11
8.8564796
21
97.0438261
0
LINE
8
DEFAULT_255_2_778
10
8.8564796
20
97.0438261
11
8.8588796
21
96.9808261
0
LINE
8
DEFAULT_255_2_778
10
8.8588796
20
96.9808261
11
8.8609796
21
96.9493261
0
LINE
8
DEFAULT_255_2_778
10
8.8609796
20
96.9493261
11
8.8635796
21
96.9179261
0
LINE
8
DEFAULT_255_2_778
10
8.8635796
20
96.9179261
11
8.8670796
21
96.8864261
0
LINE
8
DEFAULT_255_2_778
10
8.8670796
20
96.8864261
11
8.8715796
21
96.8551261
0
LINE
8
DEFAULT_255_2_778
10
8.8715796
20
96.8551261
11
8.8834796
21
96.7935261
0
LINE
8
DEFAULT_255_2_778
10
8.8834796
20
96.7935261
11
8.9001796
21
96.7332261
0
LINE
8
DEFAULT_255_2_778
10
8.9001796
20
96.7332261
11
8.9292796
21
96.6527261
0
LINE
8
DEFAULT_255_2_778
10
8.9292796
20
96.6527261
11
8.9879796
21
96.5242261
0
LINE
8
DEFAULT_255_2_778
10
8.9879796
20
96.5242261
11
9.0416796
21
96.4276261
0
LINE
8
DEFAULT_255_2_778
10
9.0416796
20
96.4276261
11
9.1001796
21
96.3358261
0
LINE
8
DEFAULT_255_2_778
10
9.1001796
20
96.3358261
11
9.1617796
21
96.2495261
0
LINE
8
DEFAULT_255_2_778
10
9.1617796
20
96.2495261
11
9.2250796
21
96.1693261
0
LINE
8
DEFAULT_255_2_778
10
9.2250796
20
96.1693261
11
9.3554796
21
96.0262261
0
LINE
8
DEFAULT_255_2_778
10
8.9554796
20
94.1191261
11
8.4553796
21
94.6192261
0
LINE
8
DEFAULT_255_2_778
10
8.4553796
20
94.6192261
11
8.4553796
21
96.7329261
0
LINE
8
DEFAULT_255_2_778
10
8.4553796
20
96.7329261
11
8.4553796
21
98.5114261
0
LINE
8
DEFAULT_255_2_778
10
8.4553796
20
98.5114261
11
8.4553796
21
99.2742261
0
LINE
8
DEFAULT_255_2_778
10
8.4553796
20
99.2742261
11
8.8553796
21
99.6962261
0
LINE
8
DEFAULT_255_2_778
10
8.4553796
20
94.1188261
11
8.9554796
21
93.6188261
0
LINE
8
DEFAULT_255_2_778
10
15.2554796
20
101.3187261
11
14.7553796
21
101.3187261
0
LINE
8
DEFAULT_255_2_778
10
14.2552796
20
101.8187261
11
15.7552796
21
101.8187261
0
LINE
8
DEFAULT_255_2_778
10
12.5553796
20
101.8187261
11
12.5553796
21
102.1188261
0
LINE
8
DEFAULT_255_2_778
10
12.5553796
20
102.1188261
11
12.2552796
21
102.1188261
0
LINE
8
DEFAULT_255_2_778
10
12.2552796
20
102.1188261
11
12.2552796
21
101.8187261
0
LINE
8
DEFAULT_255_2_778
10
10.9553796
20
101.8187261
11
10.9553796
21
102.1188261
0
LINE
8
DEFAULT_255_2_778
10
10.9553796
20
102.1188261
11
11.2554796
21
102.1188261
0
LINE
8
DEFAULT_255_2_778
10
11.2554796
20
102.1188261
11
11.2554796
21
101.8187261
0
LINE
8
DEFAULT_255_2_778
10
13.8554796
20
101.8187261
11
13.8554796
21
102.1188261
0
LINE
8
DEFAULT_255_2_778
10
13.8554796
20
102.1188261
11
13.5554796
21
102.1188261
0
LINE
8
DEFAULT_255_2_778
10
13.5554796
20
102.1188261
11
13.5554796
21
101.8187261
0
LINE
8
DEFAULT_255_2_778
10
15.2554796
20
95.3259261
11
15.1884796
21
95.2221261
0
LINE
8
DEFAULT_255_2_778
10
15.1884796
20
95.2221261
11
15.0053796
21
95.1465261
0
LINE
8
DEFAULT_255_2_778
10
15.0053796
20
95.1465261
11
14.7553796
21
95.1187261
0
LINE
8
DEFAULT_255_2_778
10
14.7553796
20
95.1187261
11
9.3620796
21
95.1187261
0
LINE
8
DEFAULT_255_2_778
10
9.3620796
20
95.1187261
11
9.0085796
21
94.9724261
0
LINE
8
DEFAULT_255_2_778
10
9.0085796
20
94.9724261
11
8.6551796
21
94.6189261
0
LINE
8
DEFAULT_255_2_778
10
9.1551796
20
100.9771261
11
9.1551796
21
101.0189261
0
LINE
8
DEFAULT_255_2_778
10
19.3551796
20
94.6189261
11
19.3945796
21
94.1188261
0
LINE
8
DEFAULT_255_2_778
10
16.5640796
20
95.5783261
11
17.5424796
21
95.6640261
0
LINE
8
DEFAULT_255_2_778
10
18.4452796
20
96.5191261
11
18.4330796
21
96.5191261
0
LINE
8
DEFAULT_255_2_778
10
18.4330796
20
96.5191261
11
18.4497796
21
96.6276261
0
LINE
8
DEFAULT_255_2_778
10
18.4497796
20
96.6276261
11
18.4552796
21
96.7377261
0
LINE
8
DEFAULT_255_2_778
10
18.4552796
20
96.7377261
11
18.4552796
21
97.8193261
0
LINE
8
DEFAULT_255_2_778
10
18.4552796
20
97.8193261
11
18.4330796
21
97.8193261
0
LINE
8
DEFAULT_255_2_778
10
18.4330796
20
97.8193261
11
18.4388796
21
97.9436261
0
LINE
8
DEFAULT_255_2_778
10
18.4388796
20
97.9436261
11
18.4425796
21
98.0683261
0
LINE
8
DEFAULT_255_2_778
10
18.4425796
20
98.0683261
11
18.4425796
21
98.5689261
0
LINE
8
DEFAULT_255_2_778
10
18.4425796
20
98.5689261
11
18.4388796
21
98.6943261
0
LINE
8
DEFAULT_255_2_778
10
18.4388796
20
98.6943261
11
18.4330796
21
98.8194261
0
LINE
8
DEFAULT_255_2_778
10
18.4330796
20
98.8194261
11
18.4552796
21
98.8194261
0
LINE
8
DEFAULT_255_2_778
10
18.4552796
20
98.8194261
11
18.4539796
21
99.9561261
0
LINE
8
DEFAULT_255_2_778
10
18.4539796
20
99.9561261
11
18.4520796
21
99.9836261
0
LINE
8
DEFAULT_255_2_778
10
18.4520796
20
99.9836261
11
18.4497796
21
100.0111261
0
LINE
8
DEFAULT_255_2_778
10
18.4497796
20
100.0111261
11
18.4428796
21
100.0656261
0
LINE
8
DEFAULT_255_2_778
10
18.4428796
20
100.0656261
11
18.4330796
21
100.1193261
0
LINE
8
DEFAULT_255_2_778
10
18.4330796
20
100.1193261
11
18.4452796
21
100.1193261
0
LINE
8
DEFAULT_255_2_778
10
17.5424796
20
100.9742261
11
16.5640796
21
101.0596261
0
LINE
8
DEFAULT_255_2_778
10
8.7829796
20
99.6187261
11
8.4550796
21
99.6187261
0
LINE
8
DEFAULT_255_2_778
10
8.4550796
20
99.2740261
11
8.4550796
21
99.7685261
0
LINE
8
DEFAULT_255_2_778
10
8.4550796
20
99.7685261
11
3.9550796
21
99.7685261
0
LINE
8
DEFAULT_255_2_778
10
3.9550796
20
99.7685261
11
3.9550796
21
96.8684261
0
LINE
8
DEFAULT_255_2_778
10
3.9550796
20
96.8684261
11
8.4550796
21
96.8684261
0
LINE
8
DEFAULT_255_2_778
10
8.6588796
20
99.6185261
11
8.8551796
21
99.8164261
0
LINE
8
DEFAULT_255_2_778
10
8.6603796
20
99.6185261
11
8.8551796
21
99.8137261
0
LINE
8
DEFAULT_255_2_778
10
8.8551796
20
99.7926261
11
8.6683796
21
99.6185261
0
LINE
8
DEFAULT_255_2_778
10
8.4550796
20
94.3183261
11
4.6051796
21
94.3183261
0
LINE
8
DEFAULT_255_2_778
10
4.4551796
20
94.1683261
11
4.4551796
21
94.1183261
0
LINE
8
DEFAULT_255_2_778
10
14.7550796
20
101.0184261
11
9.1551796
21
101.0184261
0
LINE
8
DEFAULT_255_2_778
10
9.1551796
20
101.0184261
11
9.1551796
21
101.3184261
0
LINE
8
DEFAULT_255_2_778
10
9.9552796
20
101.8185261
11
9.9552796
21
102.1185261
0
LINE
8
DEFAULT_255_2_778
10
9.9552796
20
102.1185261
11
9.6552796
21
102.1185261
0
LINE
8
DEFAULT_255_2_778
10
9.6552796
20
102.1185261
11
9.6552796
21
101.8185261
0
LINE
8
DEFAULT_255_2_778
10
9.6552796
20
101.8185261
11
14.2552796
21
101.8185261
0
LINE
8
DEFAULT_255_2_778
10
14.7553796
20
101.3184261
11
14.7553796
21
101.0184261
0
LINE
8
DEFAULT_255_2_778
10
15.2554796
20
100.5183261
11
15.2554796
21
98.8639261
0
LINE
8
DEFAULT_255_2_778
10
104.0712796
20
41.4085261
11
104.0712796
21
41.2286261
0
LINE
8
DEFAULT_255_2_778
10
104.0551796
20
41.3186261
11
104.0209796
21
41.3186261
0
LINE
8
DEFAULT_255_2_778
10
104.0709796
20
71.4086261
11
104.0709796
21
71.2287261
0
LINE
8
DEFAULT_255_2_778
10
104.0551796
20
71.3186261
11
103.8082796
21
71.3186261
0
LINE
8
DEFAULT_255_2_778
10
104.0712796
20
65.4086261
11
104.0712796
21
65.2287261
0
LINE
8
DEFAULT_255_2_778
10
104.0551796
20
65.3187261
11
103.9966796
21
65.3187261
0
LINE
8
DEFAULT_255_2_778
10
104.9211796
20
34.6124261
11
104.6880796
21
34.6577261
0
LINE
8
DEFAULT_255_2_778
10
104.6880796
20
34.6577261
11
104.6271796
21
34.6815261
0
LINE
8
DEFAULT_255_2_778
10
104.6271796
20
34.6815261
11
104.5332796
21
34.7389261
0
LINE
8
DEFAULT_255_2_778
10
104.5332796
20
34.7389261
11
104.4832796
21
34.7831261
0
LINE
8
DEFAULT_255_2_778
10
104.4832796
20
34.7831261
11
104.4260796
21
34.8524261
0
LINE
8
DEFAULT_255_2_778
10
104.4260796
20
34.8524261
11
104.3919796
21
34.9104261
0
LINE
8
DEFAULT_255_2_778
10
104.3919796
20
34.9104261
11
104.3734796
21
34.9516261
0
LINE
8
DEFAULT_255_2_778
10
104.3734796
20
34.9516261
11
104.3654796
21
34.9731261
0
LINE
8
DEFAULT_255_2_778
10
104.3654796
20
34.9731261
11
104.3527796
21
35.0167261
0
LINE
8
DEFAULT_255_2_778
10
104.3527796
20
35.0167261
11
104.3440796
21
35.0612261
0
LINE
8
DEFAULT_255_2_778
10
104.3440796
20
35.0612261
11
104.3411796
21
35.0837261
0
LINE
8
DEFAULT_255_2_778
10
104.3411796
20
35.0837261
11
104.3387796
21
35.1525261
0
LINE
8
DEFAULT_255_2_778
10
102.5001796
20
98.9059261
11
102.4996796
21
98.9128261
0
LINE
8
DEFAULT_255_2_778
10
102.4996796
20
98.9128261
11
102.4991796
21
98.9194261
0
LINE
8
DEFAULT_255_2_778
10
110.1508796
20
34.8866261
11
104.9237796
21
34.6135261
0
LINE
8
DEFAULT_255_2_778
10
104.9237796
20
34.6135261
11
104.9258796
21
34.7641261
0
LINE
8
DEFAULT_255_2_778
10
104.9258796
20
34.7641261
11
104.9308796
21
34.8125261
0
LINE
8
DEFAULT_255_2_778
10
104.9308796
20
34.8125261
11
105.1526796
21
42.7209261
0
LINE
8
DEFAULT_255_2_778
10
105.1526796
20
42.7209261
11
105.2502796
21
50.6306261
0
LINE
8
DEFAULT_255_2_778
10
105.2502796
20
50.6306261
11
105.2518796
21
54.5858261
0
LINE
8
DEFAULT_255_2_778
10
105.2518796
20
54.5858261
11
105.2219796
21
58.5414261
0
LINE
8
DEFAULT_255_2_778
10
105.2219796
20
58.5414261
11
105.1952796
21
60.5191261
0
LINE
8
DEFAULT_255_2_778
10
105.1952796
20
60.5191261
11
105.1605796
21
62.4969261
0
LINE
8
DEFAULT_255_2_778
10
105.1605796
20
62.4969261
11
105.1179796
21
64.4746261
0
LINE
8
DEFAULT_255_2_778
10
105.1179796
20
64.4746261
11
105.0674796
21
66.4521261
0
LINE
8
DEFAULT_255_2_778
10
105.0674796
20
66.4521261
11
104.9425796
21
70.4061261
0
LINE
8
DEFAULT_255_2_778
10
104.9425796
20
70.4061261
11
104.7861796
21
74.3589261
0
LINE
8
DEFAULT_255_2_778
10
104.7861796
20
74.3589261
11
104.6959796
21
76.3349261
0
LINE
8
DEFAULT_255_2_778
10
104.6959796
20
76.3349261
11
104.5980796
21
78.3105261
0
LINE
8
DEFAULT_255_2_778
10
104.5980796
20
78.3105261
11
104.4922796
21
80.2859261
0
LINE
8
DEFAULT_255_2_778
10
104.4922796
20
80.2859261
11
104.3784796
21
82.2607261
0
LINE
8
DEFAULT_255_2_778
10
104.3784796
20
82.2607261
11
103.8442796
21
90.1546261
0
LINE
8
DEFAULT_255_2_778
10
103.8442796
20
90.1546261
11
103.1838796
21
98.0392261
0
LINE
8
DEFAULT_255_2_778
10
103.1838796
20
98.0392261
11
102.6282796
21
98.5530261
0
LINE
8
DEFAULT_255_2_778
10
102.6282796
20
98.5530261
11
102.5977796
21
98.5943261
0
LINE
8
DEFAULT_255_2_778
10
102.5977796
20
98.5943261
11
102.5729796
21
98.6390261
0
LINE
8
DEFAULT_255_2_778
10
102.5729796
20
98.6390261
11
102.5438796
21
98.7096261
0
LINE
8
DEFAULT_255_2_778
10
102.5438796
20
98.7096261
11
102.5287796
21
98.7578261
0
LINE
8
DEFAULT_255_2_778
10
102.5287796
20
98.7578261
11
102.5168796
21
98.8067261
0
LINE
8
DEFAULT_255_2_778
10
102.5168796
20
98.8067261
11
102.5075796
21
98.8562261
0
LINE
8
DEFAULT_255_2_778
10
102.5075796
20
98.8562261
11
102.4993796
21
98.9197261
0
LINE
8
DEFAULT_255_2_778
10
102.4993796
20
98.9197261
11
102.3062796
21
99.5163261
0
LINE
8
DEFAULT_255_2_778
10
102.3062796
20
99.5163261
11
102.2006796
21
99.6989261
0
LINE
8
DEFAULT_255_2_778
10
102.2006796
20
99.6989261
11
100.4086796
21
102.8027261
0
LINE
8
DEFAULT_255_2_778
10
100.4086796
20
102.8027261
11
100.3737796
21
102.8734261
0
LINE
8
DEFAULT_255_2_778
10
100.3737796
20
102.8734261
11
100.3485796
21
102.9474261
0
LINE
8
DEFAULT_255_2_778
10
100.3485796
20
102.9474261
11
100.3395796
21
102.9858261
0
LINE
8
DEFAULT_255_2_778
10
100.3395796
20
102.9858261
11
100.3332796
21
103.0247261
0
LINE
8
DEFAULT_255_2_778
10
100.3332796
20
103.0247261
11
100.3295796
21
103.0639261
0
LINE
8
DEFAULT_255_2_778
10
100.3295796
20
103.0639261
11
100.3295796
21
103.1422261
0
LINE
8
DEFAULT_255_2_778
10
100.3295796
20
103.1422261
11
100.3334796
21
103.1813261
0
LINE
8
DEFAULT_255_2_778
10
100.3334796
20
103.1813261
11
100.3401796
21
103.2202261
0
LINE
8
DEFAULT_255_2_778
10
100.3401796
20
103.2202261
11
100.3491796
21
103.2583261
0
LINE
8
DEFAULT_255_2_778
10
100.3491796
20
103.2583261
11
100.3742796
21
103.3321261
0
LINE
8
DEFAULT_255_2_778
10
100.3742796
20
103.3321261
11
100.4089796
21
103.4025261
0
LINE
8
DEFAULT_255_2_778
10
100.4089796
20
103.4025261
11
101.8037796
21
105.8187261
0
LINE
8
DEFAULT_255_2_778
10
101.8037796
20
105.8187261
11
103.7148796
21
105.7184261
0
LINE
8
DEFAULT_255_2_778
10
103.7148796
20
105.7184261
11
104.6231796
21
105.6695261
0
LINE
8
DEFAULT_255_2_778
10
104.6231796
20
105.6695261
11
104.8192796
21
105.6488261
0
LINE
8
DEFAULT_255_2_778
10
104.8192796
20
105.6488261
11
105.1110796
21
105.5975261
0
LINE
8
DEFAULT_255_2_778
10
105.1110796
20
105.5975261
11
105.3023796
21
105.5480261
0
LINE
8
DEFAULT_255_2_778
10
105.3023796
20
105.5480261
11
105.5349796
21
105.4650261
0
LINE
8
DEFAULT_255_2_778
10
105.5349796
20
105.4650261
11
105.7339796
21
105.3596261
0
LINE
8
DEFAULT_255_2_778
10
105.7339796
20
105.3596261
11
105.7950796
21
105.3149261
0
LINE
8
DEFAULT_255_2_778
10
105.7950796
20
105.3149261
11
105.8511796
21
105.2631261
0
LINE
8
DEFAULT_255_2_778
10
105.8511796
20
105.2631261
11
105.8839796
21
105.2237261
0
LINE
8
DEFAULT_255_2_778
10
105.8839796
20
105.2237261
11
105.9109796
21
105.1795261
0
LINE
8
DEFAULT_255_2_778
10
105.9109796
20
105.1795261
11
105.9212796
21
105.1557261
0
LINE
8
DEFAULT_255_2_778
10
105.9212796
20
105.1557261
11
105.9289796
21
105.1308261
0
LINE
8
DEFAULT_255_2_778
10
105.9289796
20
105.1308261
11
105.9334796
21
105.1049261
0
LINE
8
DEFAULT_255_2_778
10
105.9334796
20
105.1049261
11
106.1691796
21
102.8220261
0
LINE
8
DEFAULT_255_2_778
10
106.1691796
20
102.8220261
11
106.3924796
21
100.5379261
0
LINE
8
DEFAULT_255_2_778
10
106.3924796
20
100.5379261
11
106.3964796
21
100.4916261
0
LINE
8
DEFAULT_255_2_778
10
106.3964796
20
100.4916261
11
106.3990796
21
100.4453261
0
LINE
8
DEFAULT_255_2_778
10
106.3990796
20
100.4453261
11
106.3990796
21
100.2601261
0
LINE
8
DEFAULT_255_2_778
10
106.3990796
20
100.2601261
11
106.3927796
21
100.1683261
0
LINE
8
DEFAULT_255_2_778
10
106.3927796
20
100.1683261
11
106.3673796
21
99.9868261
0
LINE
8
DEFAULT_255_2_778
10
106.3673796
20
99.9868261
11
106.3249796
21
99.8082261
0
LINE
8
DEFAULT_255_2_778
10
106.3249796
20
99.8082261
11
106.2974796
21
99.7198261
0
LINE
8
DEFAULT_255_2_778
10
106.2974796
20
99.7198261
11
106.2657796
21
99.6327261
0
LINE
8
DEFAULT_255_2_778
10
106.2657796
20
99.6327261
11
106.2302796
21
99.5478261
0
LINE
8
DEFAULT_255_2_778
10
106.2302796
20
99.5478261
11
106.1911796
21
99.4650261
0
LINE
8
DEFAULT_255_2_778
10
106.1911796
20
99.4650261
11
106.1016796
21
99.3052261
0
LINE
8
DEFAULT_255_2_778
10
106.1016796
20
99.3052261
11
105.9976796
21
99.1536261
0
LINE
8
DEFAULT_255_2_778
10
105.9976796
20
99.1536261
11
105.8794796
21
99.0112261
0
LINE
8
DEFAULT_255_2_778
10
105.8794796
20
99.0112261
11
105.8159796
21
98.9448261
0
LINE
8
DEFAULT_255_2_778
10
105.8159796
20
98.9448261
11
105.7497796
21
98.8816261
0
LINE
8
DEFAULT_255_2_778
10
105.7497796
20
98.8816261
11
105.6095796
21
98.7641261
0
LINE
8
DEFAULT_255_2_778
10
105.6095796
20
98.7641261
11
105.4190796
21
98.6347261
0
LINE
8
DEFAULT_255_2_778
10
105.4190796
20
98.6347261
11
105.2981796
21
98.5675261
0
LINE
8
DEFAULT_255_2_778
10
105.2981796
20
98.5675261
11
105.1317796
21
98.4911261
0
LINE
8
DEFAULT_255_2_778
10
105.1317796
20
98.4911261
11
104.9594796
21
98.4294261
0
LINE
8
DEFAULT_255_2_778
10
104.9594796
20
98.4294261
11
104.7811796
21
98.3829261
0
LINE
8
DEFAULT_255_2_778
10
104.7811796
20
98.3829261
11
103.1833796
21
98.0389261
0
LINE
8
DEFAULT_255_2_778
10
103.8670796
20
35.9626261
11
103.8691796
21
36.0251261
0
LINE
8
DEFAULT_255_2_778
10
103.7548796
20
72.6839261
11
103.7463796
21
72.8969261
0
LINE
8
DEFAULT_255_2_778
10
103.7463796
20
72.8969261
11
103.5338796
21
77.5683261
0
LINE
8
DEFAULT_255_2_778
10
103.5338796
20
77.5683261
11
103.5315796
21
77.6176261
0
LINE
8
DEFAULT_255_2_778
10
103.5315796
20
77.6176261
11
103.5323796
21
78.0660261
0
LINE
8
DEFAULT_255_2_778
10
103.5323796
20
78.0660261
11
103.5346796
21
78.0684261
0
LINE
8
DEFAULT_255_2_778
10
110.3400796
20
35.0789261
11
110.5741796
21
43.8374261
0
LINE
8
DEFAULT_255_2_778
10
110.5741796
20
43.8374261
11
110.6548796
21
52.5972261
0
LINE
8
DEFAULT_255_2_778
10
110.6548796
20
52.5972261
11
110.6511796
21
54.7875261
0
LINE
8
DEFAULT_255_2_778
10
110.6511796
20
54.7875261
11
110.6376796
21
56.9777261
0
LINE
8
DEFAULT_255_2_778
10
110.6376796
20
56.9777261
11
110.6146796
21
59.1682261
0
LINE
8
DEFAULT_255_2_778
10
110.6146796
20
59.1682261
11
110.5821796
21
61.3586261
0
LINE
8
DEFAULT_255_2_778
10
110.5821796
20
61.3586261
11
110.4882796
21
65.7388261
0
LINE
8
DEFAULT_255_2_778
10
110.4882796
20
65.7388261
11
110.3559796
21
70.1177261
0
LINE
8
DEFAULT_255_2_778
10
110.3559796
20
70.1177261
11
110.1852796
21
74.4952261
0
LINE
8
DEFAULT_255_2_778
10
110.1852796
20
74.4952261
11
109.9762796
21
78.8714261
0
LINE
8
DEFAULT_255_2_778
10
109.9762796
20
78.8714261
11
109.7288796
21
83.2458261
0
LINE
8
DEFAULT_255_2_778
10
109.7288796
20
83.2458261
11
109.4430796
21
87.6175261
0
LINE
8
DEFAULT_255_2_778
10
109.4430796
20
87.6175261
11
109.1189796
21
91.9863261
0
LINE
8
DEFAULT_255_2_778
10
109.1189796
20
91.9863261
11
108.7565796
21
96.3524261
0
LINE
8
DEFAULT_255_2_778
10
108.7565796
20
96.3524261
11
108.3559796
21
100.7157261
0
LINE
8
DEFAULT_255_2_778
10
108.3559796
20
100.7157261
11
107.9169796
21
105.0755261
0
LINE
8
DEFAULT_255_2_778
10
107.4460796
20
105.5226261
11
106.3268796
21
105.5814261
0
LINE
8
DEFAULT_255_2_778
10
106.3268796
20
105.5814261
11
104.5250796
21
105.6758261
0
LINE
8
DEFAULT_255_2_778
10
100.7425796
20
103.9804261
11
100.7137796
21
103.9825261
0
LINE
8
DEFAULT_255_2_778
10
99.4873796
20
105.8187261
11
105.2550796
21
105.8187261
0
LINE
8
DEFAULT_255_2_778
10
105.2550796
20
105.8187261
11
105.8450796
21
105.6261261
0
LINE
8
DEFAULT_255_2_778
10
102.4014796
20
99.3187261
11
101.7810796
21
99.3187261
0
LINE
8
DEFAULT_255_2_778
10
104.0093796
20
78.0687261
11
103.5270796
21
78.0687261
0
LINE
8
DEFAULT_255_2_778
10
104.0871796
20
41.3186261
11
104.5154796
21
41.0712261
0
LINE
8
DEFAULT_255_2_778
10
104.0434796
20
42.3187261
11
104.5435796
21
42.3187261
0
LINE
8
DEFAULT_255_2_778
10
104.6210796
20
47.0106261
11
104.1244796
21
47.2974261
0
LINE
8
DEFAULT_255_2_778
10
104.1347796
20
48.3189261
11
104.6348796
21
48.3189261
0
LINE
8
DEFAULT_255_2_778
10
104.6551796
20
52.9909261
11
104.1551796
21
53.2796261
0
LINE
8
DEFAULT_255_2_778
10
104.1530796
20
54.3186261
11
104.6530796
21
54.3186261
0
LINE
8
DEFAULT_255_2_778
10
104.5983796
20
60.3186261
11
104.0982796
21
60.3186261
0
LINE
8
DEFAULT_255_2_778
10
104.1125796
20
59.3039261
11
104.6163796
21
59.0131261
0
LINE
8
DEFAULT_255_2_778
10
104.0871796
20
65.3187261
11
104.5030796
21
65.0787261
0
LINE
8
DEFAULT_255_2_778
10
104.4707796
20
66.3188261
11
103.9704796
21
66.3188261
0
LINE
8
DEFAULT_255_2_778
10
104.0871796
20
71.3189261
11
104.3133796
21
71.1882261
0
LINE
8
DEFAULT_255_2_778
10
104.2699796
20
72.3187261
11
103.7696796
21
72.3187261
0
LINE
8
DEFAULT_255_2_778
10
103.9331796
20
38.0227261
11
103.9331796
21
38.0192261
0
LINE
8
DEFAULT_255_2_778
10
104.3591796
20
35.7189261
11
104.0657796
21
35.7189261
0
LINE
8
DEFAULT_255_2_778
10
103.8656796
20
35.9258261
11
103.8656796
21
35.9264261
0
LINE
8
DEFAULT_255_2_778
10
103.8656796
20
35.9264261
11
103.8691796
21
36.0259261
0
LINE
8
DEFAULT_255_2_778
10
103.8691796
20
36.0259261
11
103.9302796
21
37.9250261
0
LINE
8
DEFAULT_255_2_778
10
103.9302796
20
37.9250261
11
103.9305796
21
37.9348261
0
LINE
8
DEFAULT_255_2_778
10
103.9305796
20
37.9348261
11
103.9331796
21
38.0250261
0
LINE
8
DEFAULT_255_2_778
10
103.9331796
20
38.0250261
11
103.9331796
21
38.0250261
0
LINE
8
DEFAULT_255_2_778
10
104.1331796
20
38.2190261
11
104.4392796
21
38.2190261
0
ENDSEC
0
EOF