0
SECTION
2
HEADER
9
$MEASUREMENT
70
1
0
ENDSEC
0
SECTION
2
TABLES
0
TABLE
2
LTYPE
0
LTYPE
72
65
70
64
2
CONTINUOUS
3
______
73
0
40
0
0
ENDTAB
0
TABLE
2
LAYER
0
LAYER
2
DEFAULT_255_2_778
70
0
62
255
6
CONTINUOUS
0
LAYER
2
DEFAULT_255_1_388
70
0
62
255
6
CONTINUOUS
0
ENDTAB
0
ENDSEC
0
SECTION
2
ENTITIES
0
ARC
8
DEFAULT_255_2_778
10
3.5700693
20
28.1802037
40
0.7914215
50
129.1312896
51
180.1450914
0
ARC
8
DEFAULT_255_2_778
10
3.5703345
20
28.1806908
40
0.7912112
50
89.854026
51
129.1684493
0
ARC
8
DEFAULT_255_2_778
10
25.7993937
20
28.1803773
40
0.7915249
50
39.4792447
51
90.147911
0
ARC
8
DEFAULT_255_2_778
10
25.7999935
20
28.180224
40
0.7911595
50
359.8533901
51
39.5154338
0
ARC
8
DEFAULT_255_2_778
10
25.7996693
20
-1.9863486
40
0.7914836
50
309.4761667
51
0.1482649
0
ARC
8
DEFAULT_255_2_778
10
25.799398
20
-1.9867797
40
0.7913235
50
269.8517415
51
309.511178
0
ARC
8
DEFAULT_255_2_778
10
3.570342
20
-1.9867215
40
0.7913815
50
219.1282118
51
270.1454017
0
ARC
8
DEFAULT_255_2_778
10
3.5700247
20
-1.986339
40
0.7913769
50
179.8524075
51
219.1641908
0
LINE
8
DEFAULT_255_2_778
10
3.5723503
20
28.9718996
11
25.7973503
21
28.9718996
0
LINE
8
DEFAULT_255_2_778
10
26.5911503
20
28.1781996
11
26.5911503
21
-1.9843004
0
LINE
8
DEFAULT_255_2_778
10
25.7973503
20
-2.7781004
11
3.5723503
21
-2.7781004
0
LINE
8
DEFAULT_255_2_778
10
2.7786503
20
-1.9843004
11
2.7786503
21
28.1781996
0
LINE
8
DEFAULT_255_1_388
10
10.7501322
20
-0.6398
11
10.4646058
21
-0.1076005
0
LINE
8
DEFAULT_255_1_388
10
10.4646058
20
-0.1076005
11
10.1555868
21
-0.1076005
0
LINE
8
DEFAULT_255_1_388
10
10.1555868
20
-0.1076005
11
10.1555868
21
-0.6398
0
LINE
8
DEFAULT_255_1_388
10
10.1555868
20
-0.6398
11
9.9811988
21
-0.6398
0
LINE
8
DEFAULT_255_1_388
10
9.9811988
20
-0.6398
11
9.9811988
21
0.6757898
0
LINE
8
DEFAULT_255_1_388
10
9.9811988
20
0.6757898
11
10.4167169
21
0.6757898
0
LINE
8
DEFAULT_255_1_388
10
10.6272474
20
-0.0705544
11
10.9362665
21
-0.6289572
0
LINE
8
DEFAULT_255_1_388
10
10.9362665
20
-0.6289572
11
10.9362665
21
-0.6398
0
LINE
8
DEFAULT_255_1_388
10
10.9362665
20
-0.6398
11
10.7501322
21
-0.6398
0
LINE
8
DEFAULT_255_1_388
10
10.1555868
20
0.5330267
11
10.1555868
21
0.0342591
0
LINE
8
DEFAULT_255_1_388
10
10.1555868
20
0.0342591
11
10.4221383
21
0.0342591
0
LINE
8
DEFAULT_255_1_388
10
10.4212347
20
0.5330267
11
10.1555868
21
0.5330267
0
ARC
8
DEFAULT_255_1_388
10
10.4214015
20
-0.1073654
40
0.7831693
50
80.6535681
51
90.3427203
0
ARC
8
DEFAULT_255_1_388
10
10.4685925
20
0.1696722
40
0.5021479
50
65.6987674
51
80.8330164
0
ARC
8
DEFAULT_255_1_388
10
10.5223219
20
0.2928479
40
0.3677787
50
50.0019152
51
65.4304412
0
ARC
8
DEFAULT_255_1_388
10
10.5469035
20
0.3260603
40
0.3265454
50
11.6284215
51
49.5603681
0
ARC
8
DEFAULT_255_1_388
10
10.3741521
20
0.2838524
40
0.5043009
50
359.5655533
51
12.3693319
0
ARC
8
DEFAULT_255_1_388
10
10.4952858
20
0.2768038
40
0.3831661
50
341.998418
51
0.4822212
0
ARC
8
DEFAULT_255_1_388
10
10.5397044
20
0.2647479
40
0.3372036
50
323.8610842
51
341.6141514
0
ARC
8
DEFAULT_255_1_388
10
10.505759
20
0.2909615
40
0.3800784
50
296.7019299
51
323.6876213
0
ARC
8
DEFAULT_255_1_388
10
10.4561548
20
0.3796532
40
0.4816219
50
290.808313
51
297.2325929
0
ARC
8
DEFAULT_255_1_388
10
10.4250342
20
0.4385377
40
0.404289
50
269.5895908
51
281.8058892
0
ARC
8
DEFAULT_255_1_388
10
10.4532608
20
0.309436
40
0.2721459
50
281.5499321
51
303.9358954
0
ARC
8
DEFAULT_255_1_388
10
10.4687143
20
0.2826588
40
0.2413121
50
304.4410786
51
311.211123
0
ARC
8
DEFAULT_255_1_388
10
10.4835548
20
0.2670152
40
0.2197678
50
310.9874923
51
356.2715203
0
ARC
8
DEFAULT_255_1_388
10
10.3985294
20
0.2796992
40
0.3055212
50
354.9346315
51
0.0617816
0
ARC
8
DEFAULT_255_1_388
10
10.3774135
20
0.2827427
40
0.3266482
50
359.5239293
51
12.8808621
0
ARC
8
DEFAULT_255_1_388
10
10.4873898
20
0.3096638
40
0.2134449
50
12.417206
51
43.1023141
0
ARC
8
DEFAULT_255_1_388
10
10.4943228
20
0.3138253
40
0.2055463
50
43.575886
51
48.2047245
0
ARC
8
DEFAULT_255_1_388
10
10.4752489
20
0.2889151
40
0.2368418
50
48.7809155
51
72.6968768
0
ARC
8
DEFAULT_255_1_388
10
10.4353853
20
0.1679385
40
0.364206
50
72.3699892
51
84.8793749
0
ARC
8
DEFAULT_255_1_388
10
10.4187859
20
0.0169651
40
0.5160674
50
84.5398226
51
89.7281165
0
LINE
8
DEFAULT_255_1_388
10
11.4856336
20
-0.6398
11
11.1214972
21
-0.6398
0
LINE
8
DEFAULT_255_1_388
10
11.1214972
20
-0.6398
11
11.1214972
21
0.6757898
0
LINE
8
DEFAULT_255_1_388
10
11.1214972
20
0.6757898
11
11.4928622
21
0.6757898
0
LINE
8
DEFAULT_255_1_388
10
12.0729505
20
0.0622696
11
12.0729505
21
-0.0217619
0
LINE
8
DEFAULT_255_1_388
10
11.49738
20
0.5330267
11
11.2949815
21
0.5330267
0
LINE
8
DEFAULT_255_1_388
10
11.2949815
20
0.5330267
11
11.2949815
21
-0.4979404
0
LINE
8
DEFAULT_255_1_388
10
11.2949815
20
-0.4979404
11
11.4775016
21
-0.4979404
0
LINE
8
DEFAULT_255_1_388
10
11.9012733
20
-0.0181477
11
11.9012733
21
0.0586553
0
ARC
8
DEFAULT_255_1_388
10
11.4972416
20
0.0159436
40
0.6598608
50
75.4100343
51
90.3802731
0
ARC
8
DEFAULT_255_1_388
10
11.5230662
20
0.1235691
40
0.5492049
50
60.1455157
51
75.1889627
0
ARC
8
DEFAULT_255_1_388
10
11.5409253
20
0.1546914
40
0.5133226
50
26.525419
51
60.1451222
0
ARC
8
DEFAULT_255_1_388
10
11.414904
20
0.0878642
40
0.6559324
50
7.4029944
51
26.832209
0
ARC
8
DEFAULT_255_1_388
10
11.2355437
20
0.0599229
40
0.8374103
50
0.1605597
51
7.7176135
0
ARC
8
DEFAULT_255_1_388
10
11.2539837
20
-0.0260679
40
0.8189782
50
348.7289744
51
0.30125
0
ARC
8
DEFAULT_255_1_388
10
11.4403301
20
-0.0630844
40
0.628991
50
333.0706936
51
348.7181455
0
ARC
8
DEFAULT_255_1_388
10
11.5490929
20
-0.1221551
40
0.5052808
50
299.2531435
51
333.4571133
0
ARC
8
DEFAULT_255_1_388
10
11.508496
20
-0.0450371
40
0.5924066
50
278.1072193
51
299.0340218
0
ARC
8
DEFAULT_255_1_388
10
11.4797009
20
0.1245979
40
0.7644209
50
270.4446841
51
278.4508355
0
ARC
8
DEFAULT_255_1_388
10
11.4820492
20
0.02003
40
0.5179903
50
269.4969684
51
284.0204874
0
ARC
8
DEFAULT_255_1_388
10
11.5220211
20
-0.1335585
40
0.3592968
50
283.7699076
51
318.1557121
0
ARC
8
DEFAULT_255_1_388
10
11.4840756
20
-0.1051601
40
0.4065308
50
318.7417595
51
343.687252
0
ARC
8
DEFAULT_255_1_388
10
11.2811335
20
-0.0417725
40
0.6191194
50
343.3324891
51
355.8548594
0
ARC
8
DEFAULT_255_1_388
10
11.0450372
20
-0.0193281
40
0.856237
50
355.4988754
51
0.0789913
0
ARC
8
DEFAULT_255_1_388
10
11.1331171
20
0.063408
40
0.7681709
50
359.6455047
51
9.8607559
0
ARC
8
DEFAULT_255_1_388
10
11.3986895
20
0.1113664
40
0.498312
50
9.6573037
51
26.1931522
0
ARC
8
DEFAULT_255_1_388
10
11.503097
20
0.1598587
40
0.3832303
50
26.5777895
51
40.1533752
0
ARC
8
DEFAULT_255_1_388
10
11.5318635
20
0.182302
40
0.3467742
50
40.3839958
51
80.1430923
0
ARC
8
DEFAULT_255_1_388
10
11.495089
20
0.0192486
40
0.5137832
50
79.2153636
51
89.7445174
0
LINE
8
DEFAULT_255_1_388
10
13.1409637
20
0.6757898
11
13.1409637
21
0.5818191
0
LINE
8
DEFAULT_255_1_388
10
13.1409637
20
0.5818191
11
12.5961144
21
-0.6398
0
LINE
8
DEFAULT_255_1_388
10
12.5961144
20
-0.6398
11
12.4208229
21
-0.6398
0
LINE
8
DEFAULT_255_1_388
10
12.4208229
20
-0.6398
11
12.9638651
21
0.538448
0
LINE
8
DEFAULT_255_1_388
10
12.9638651
20
0.538448
11
12.2518563
21
0.538448
0
LINE
8
DEFAULT_255_1_388
10
12.2518563
20
0.538448
11
12.2518563
21
0.6757898
0
LINE
8
DEFAULT_255_1_388
10
12.2518563
20
0.6757898
11
13.1409637
21
0.6757898
0
ARC
8
DEFAULT_255_1_388
10
13.8110628
20
0.329572
40
0.3175098
50
338.8762533
51
0.5167111
0
ARC
8
DEFAULT_255_1_388
10
13.8300222
20
0.32446
40
0.2979894
50
325.8415285
51
338.4793574
0
ARC
8
DEFAULT_255_1_388
10
13.7860855
20
0.3549242
40
0.351452
50
296.7587686
51
325.7536481
0
ARC
8
DEFAULT_255_1_388
10
13.7532483
20
0.4103363
40
0.4157374
50
296.0927901
51
297.3613472
0
ARC
8
DEFAULT_255_1_388
10
13.7826678
20
-0.3279407
40
0.395855
50
47.9007294
51
67.1948823
0
ARC
8
DEFAULT_255_1_388
10
13.8047321
20
-0.3002401
40
0.360516
50
35.2363914
51
47.551141
0
ARC
8
DEFAULT_255_1_388
10
13.8341724
20
-0.2805907
40
0.3251343
50
359.2759765
51
35.4014143
0
ARC
8
DEFAULT_255_1_388
10
13.7503651
20
-0.2888213
40
0.4089365
50
343.1293083
51
0.5775513
0
ARC
8
DEFAULT_255_1_388
10
13.8318764
20
-0.3112664
40
0.3244269
50
310.8496669
51
342.7449331
0
ARC
8
DEFAULT_255_1_388
10
13.7848639
20
-0.2576087
40
0.3957651
50
281.5472888
51
310.9170406
0
ARC
8
DEFAULT_255_1_388
10
13.7447514
20
-0.0829186
40
0.5749654
50
269.619248
51
281.9789564
0
ARC
8
DEFAULT_255_1_388
10
13.7366291
20
-0.0828224
40
0.5750649
50
257.4585678
51
270.4285689
0
ARC
8
DEFAULT_255_1_388
10
13.6937811
20
-0.2632259
40
0.389671
50
228.7554326
51
257.8484789
0
ARC
8
DEFAULT_255_1_388
10
13.6589297
20
-0.3051772
40
0.335154
50
184.0104975
51
228.5071184
0
ARC
8
DEFAULT_255_1_388
10
13.7897689
20
-0.285257
40
0.4671891
50
179.9315832
51
185.3253753
0
ARC
8
DEFAULT_255_1_388
10
13.6574202
20
-0.2810408
40
0.33486
50
145.6796023
51
180.6259786
0
ARC
8
DEFAULT_255_1_388
10
13.6757968
20
-0.2938729
40
0.3572723
50
115.5537685
51
145.6415986
0
ARC
8
DEFAULT_255_1_388
10
13.7141012
20
-0.3624913
40
0.4357296
50
113.243307
51
116.2057839
0
ARC
8
DEFAULT_255_1_388
10
13.6969663
20
0.3572379
40
0.3549126
50
222.9549744
51
244.1370481
0
ARC
8
DEFAULT_255_1_388
10
13.6832307
20
0.3418378
40
0.3343711
50
213.3436887
51
222.6274467
0
ARC
8
DEFAULT_255_1_388
10
13.6616376
20
0.3271653
40
0.3082678
50
180.431584
51
213.271499
0
ARC
8
DEFAULT_255_1_388
10
13.7251375
20
0.3324296
40
0.3718363
50
179.9991191
51
181.1690594
0
ARC
8
DEFAULT_255_1_388
10
13.7723831
20
0.3363072
40
0.4190996
50
164.6186169
51
180.529336
0
ARC
8
DEFAULT_255_1_388
10
13.671348
20
0.363478
40
0.3144772
50
132.2455553
51
164.5090724
0
ARC
8
DEFAULT_255_1_388
10
13.7036458
20
0.326907
40
0.3632644
50
100.7053914
51
132.1386381
0
ARC
8
DEFAULT_255_1_388
10
13.7379519
20
0.1719118
40
0.5219578
50
89.6730358
51
101.2451698
0
ARC
8
DEFAULT_255_1_388
10
13.744951
20
0.1915648
40
0.5023124
50
76.287748
51
90.4586006
0
ARC
8
DEFAULT_255_1_388
10
13.7794012
20
0.3290671
40
0.3605639
50
47.8240511
51
76.4266241
0
ARC
8
DEFAULT_255_1_388
10
13.8044397
20
0.3583599
40
0.3220463
50
6.9168387
51
47.6262497
0
ARC
8
DEFAULT_255_1_388
10
13.670985
20
0.3337004
40
0.4575765
50
359.8415968
51
7.9697453
0
ARC
8
DEFAULT_255_1_388
10
13.7094119
20
-0.2783481
40
0.2827228
50
359.445363
51
16.9256873
0
ARC
8
DEFAULT_255_1_388
10
13.7621553
20
-0.2638219
40
0.2280396
50
17.2920767
51
45.4630727
0
ARC
8
DEFAULT_255_1_388
10
13.7560689
20
-0.2690676
40
0.2360485
50
45.30305
51
83.1920945
0
ARC
8
DEFAULT_255_1_388
10
13.7399433
20
-0.3592527
40
0.3275527
50
82.2612665
51
90.1434275
0
ARC
8
DEFAULT_255_1_388
10
13.736471
20
-0.3330131
40
0.3013237
50
89.4956434
51
104.8580688
0
ARC
8
DEFAULT_255_1_388
10
13.7165899
20
-0.2576545
40
0.2233867
50
104.8856641
51
135.244616
0
ARC
8
DEFAULT_255_1_388
10
13.7221888
20
-0.2626648
40
0.2308906
50
135.3399546
51
172.1044062
0
ARC
8
DEFAULT_255_1_388
10
13.8129413
20
-0.2800333
40
0.3232034
50
171.2645637
51
180.186429
0
ARC
8
DEFAULT_255_1_388
10
13.7939417
20
-0.2836574
40
0.304213
50
179.5154935
51
193.6464289
0
ARC
8
DEFAULT_255_1_388
10
13.7021093
20
-0.3070527
40
0.209456
50
193.3540274
51
225.8258581
0
ARC
8
DEFAULT_255_1_388
10
13.7066966
20
-0.2990924
40
0.2183738
50
226.4180634
51
255.8552336
0
ARC
8
DEFAULT_255_1_388
10
13.7355432
20
-0.1937479
40
0.3275812
50
255.4654104
51
268.7987425
0
ARC
8
DEFAULT_255_1_388
10
13.7408609
20
-0.0995455
40
0.4218877
50
268.3449238
51
270.0094605
0
ARC
8
DEFAULT_255_1_388
10
13.7434842
20
-0.1763906
40
0.3450519
50
269.5759586
51
282.0820163
0
ARC
8
DEFAULT_255_1_388
10
13.7687878
20
-0.2882637
40
0.2303642
50
281.752014
51
306.6056188
0
ARC
8
DEFAULT_255_1_388
10
13.7798686
20
-0.3064198
40
0.2091906
50
307.1346085
51
314.027845
0
ARC
8
DEFAULT_255_1_388
10
13.7758198
20
-0.3034541
40
0.2141385
50
314.2552483
51
350.1694025
0
ARC
8
DEFAULT_255_1_388
10
13.6800435
20
-0.2826825
40
0.312082
50
349.4140529
51
0.2933014
0
ARC
8
DEFAULT_255_1_388
10
13.7385712
20
0.2976924
40
0.2588377
50
89.477747
51
105.729729
0
ARC
8
DEFAULT_255_1_388
10
13.7232632
20
0.3545367
40
0.1999733
50
105.9233417
51
135.1660906
0
ARC
8
DEFAULT_255_1_388
10
13.7255663
20
0.3529412
40
0.2027322
50
135.3052302
51
168.9883645
0
ARC
8
DEFAULT_255_1_388
10
13.818668
20
0.3315996
40
0.2982129
50
168.3801673
51
180.3602268
0
ARC
8
DEFAULT_255_1_388
10
13.7929796
20
0.3273622
40
0.2725291
50
179.5033122
51
194.9125571
0
ARC
8
DEFAULT_255_1_388
10
13.7271203
20
0.3100427
40
0.204431
50
194.9720816
51
224.194444
0
ARC
8
DEFAULT_255_1_388
10
13.7239569
20
0.3074635
40
0.2003651
50
224.2962453
51
262.015664
0
ARC
8
DEFAULT_255_1_388
10
13.7399572
20
0.3897315
40
0.2840925
50
261.1245923
51
270.1962896
0
ARC
8
DEFAULT_255_1_388
10
13.7433054
20
0.3686859
40
0.2630559
50
269.4827276
51
285.0987215
0
ARC
8
DEFAULT_255_1_388
10
13.760649
20
0.3036175
40
0.1957162
50
285.1585357
51
315.9484501
0
ARC
8
DEFAULT_255_1_388
10
13.7506363
20
0.3128315
40
0.2093195
50
316.0413965
51
351.916092
0
ARC
8
DEFAULT_255_1_388
10
13.6681738
20
0.3287323
40
0.2932279
50
351.105835
51
0.1939062
0
ARC
8
DEFAULT_255_1_388
10
13.6977372
20
0.3321224
40
0.2636739
50
359.4789618
51
16.0678224
0
ARC
8
DEFAULT_255_1_388
10
13.7512844
20
0.3465721
40
0.2082215
50
16.3252067
51
44.7913869
0
ARC
8
DEFAULT_255_1_388
10
13.7492906
20
0.346632
40
0.2095992
50
44.3957814
51
88.2499162
0
ARC
8
DEFAULT_255_1_388
10
13.741024
20
0.2778006
40
0.2787189
50
86.9833854
51
90.0192215
0
LINE
8
DEFAULT_255_1_388
10
15.3845143
20
0.0152842
11
15.3845143
21
-0.4672192
0
LINE
8
DEFAULT_255_1_388
10
14.3707149
20
-0.0452546
11
14.3707149
21
0.0694981
0
LINE
8
DEFAULT_255_1_388
10
15.3845143
20
0.2899678
11
15.2110299
21
0.2899678
0
LINE
8
DEFAULT_255_1_388
10
14.5451029
20
0.0740159
11
14.5451029
21
-0.0335083
0
LINE
8
DEFAULT_255_1_388
10
15.2119334
20
-0.4211374
11
15.2119334
21
-0.1256718
0
LINE
8
DEFAULT_255_1_388
10
15.2119334
20
-0.1256718
11
14.9074322
21
-0.1256718
0
LINE
8
DEFAULT_255_1_388
10
14.9074322
20
-0.1256718
11
14.9074322
21
0.0152842
0
LINE
8
DEFAULT_255_1_388
10
14.9074322
20
0.0152842
11
15.3845143
21
0.0152842
0
ARC
8
DEFAULT_255_1_388
10
15.0659743
20
-0.2429716
40
0.3895571
50
295.8437277
51
324.8549962
0
ARC
8
DEFAULT_255_1_388
10
15.0192125
20
-0.1583381
40
0.4861381
50
291.5691164
51
296.4556269
0
ARC
8
DEFAULT_255_1_388
10
14.9617128
20
-0.0047199
40
0.6501442
50
278.6622213
51
291.3047061
0
ARC
8
DEFAULT_255_1_388
10
14.923516
20
0.2369557
40
0.8948168
50
270.0200506
51
278.7494673
0
ARC
8
DEFAULT_255_1_388
10
14.9191364
20
0.4215453
40
1.0794166
50
270.0022372
51
270.2490917
0
ARC
8
DEFAULT_255_1_388
10
14.9149256
20
-0.0743173
40
0.5835695
50
253.5785313
51
270.4175629
0
ARC
8
DEFAULT_255_1_388
10
14.8954253
20
-0.1498375
40
0.5056241
50
238.8203954
51
253.2788387
0
ARC
8
DEFAULT_255_1_388
10
14.8932168
20
-0.1555776
40
0.4995712
50
206.7883476
51
238.696262
0
ARC
8
DEFAULT_255_1_388
10
14.9807564
20
-0.1031153
40
0.6014056
50
206.1137778
51
207.4912776
0
ARC
8
DEFAULT_255_1_388
10
15.04744
20
-0.0747716
40
0.6737692
50
188.6922336
51
205.782076
0
ARC
8
DEFAULT_255_1_388
10
15.2562759
20
-0.0392545
40
0.8855812
50
180.3881972
51
188.9218085
0
ARC
8
DEFAULT_255_1_388
10
15.3943916
20
0.0758622
40
1.0236965
50
170.2024645
51
180.3561986
0
ARC
8
DEFAULT_255_1_388
10
15.0385067
20
0.1395101
40
0.6621746
50
154.2856519
51
170.3893388
0
ARC
8
DEFAULT_255_1_388
10
14.894303
20
0.2055192
40
0.5036209
50
139.8400879
51
153.9334639
0
ARC
8
DEFAULT_255_1_388
10
14.8538934
20
0.2378716
40
0.4518751
50
98.4190017
51
139.6707015
0
ARC
8
DEFAULT_255_1_388
10
14.8965901
20
0.0302755
40
0.6635912
50
89.7660128
51
99.4415389
0
ARC
8
DEFAULT_255_1_388
10
14.9039298
20
0.0376517
40
0.6562258
50
78.0552044
51
90.4042252
0
ARC
8
DEFAULT_255_1_388
10
14.9494362
20
0.2422661
40
0.4466287
50
54.6380186
51
78.3338577
0
ARC
8
DEFAULT_255_1_388
10
14.970866
20
0.2783444
40
0.4048184
50
50.0313964
51
54.1562739
0
ARC
8
DEFAULT_255_1_388
10
14.9587554
20
0.2674798
40
0.4209308
50
18.1092229
51
49.7179911
0
ARC
8
DEFAULT_255_1_388
10
14.7948634
20
0.2074399
40
0.5953982
50
7.967396
51
18.698492
0
ARC
8
DEFAULT_255_1_388
10
14.8117895
20
0.2213236
40
0.4050986
50
9.7558763
51
27.3214087
0
ARC
8
DEFAULT_255_1_388
10
14.938636
20
0.2847087
40
0.2633168
50
27.736147
51
84.5257861
0
ARC
8
DEFAULT_255_1_388
10
14.9017769
20
0.0997988
40
0.4513019
50
82.1064239
51
90.1997295
0
ARC
8
DEFAULT_255_1_388
10
14.8961785
20
0.1569501
40
0.3941684
50
89.4148952
51
105.5824837
0
ARC
8
DEFAULT_255_1_388
10
14.8672666
20
0.2622043
40
0.2850167
50
105.6678541
51
144.2649156
0
ARC
8
DEFAULT_255_1_388
10
14.9677558
20
0.1907024
40
0.4083468
50
144.3560675
51
162.8564185
0
ARC
8
DEFAULT_255_1_388
10
15.2022001
20
0.1154083
40
0.6545749
50
162.6076338
51
173.6779811
0
ARC
8
DEFAULT_255_1_388
10
15.5466116
20
0.0735422
40
1.0015089
50
173.4670996
51
179.9729015
0
ARC
8
DEFAULT_255_1_388
10
15.3318987
20
-0.0382364
40
0.78681
50
179.6556955
51
190.007958
0
ARC
8
DEFAULT_255_1_388
10
15.0713268
20
-0.086034
40
0.5218997
50
189.8117884
51
206.6795375
0
ARC
8
DEFAULT_255_1_388
10
14.9762714
20
-0.1303486
40
0.4170788
50
207.1031171
51
217.7074698
0
ARC
8
DEFAULT_255_1_388
10
14.9049145
20
-0.1924404
40
0.3226945
50
216.7345117
51
265.6812141
0
ARC
8
DEFAULT_255_1_388
10
14.9196287
20
-0.090697
40
0.4253149
50
264.7367524
51
270.0610826
0
ARC
8
DEFAULT_255_1_388
10
14.9222472
20
0.2288173
40
0.7448321
50
269.8334494
51
276.0538364
0
ARC
8
DEFAULT_255_1_388
10
14.9455335
20
0.0148924
40
0.5296446
50
275.9894423
51
284.4615914
0
ARC
8
DEFAULT_255_1_388
10
14.9676848
20
-0.078343
40
0.4338353
50
284.7038488
51
286.4938196
0
ARC
8
DEFAULT_255_1_388
10
15.0135997
20
-0.2262629
40
0.2789738
50
286.0770429
51
304.2629628
0
ARC
8
DEFAULT_255_1_388
10
15.0286155
20
-0.250832
40
0.2502188
50
304.5886247
51
317.1074126
0
LINE
8
DEFAULT_255_1_388
10
16.6847435
20
0.6757898
11
16.6847435
21
-0.6398
0
LINE
8
DEFAULT_255_1_388
10
16.6847435
20
-0.6398
11
16.5103556
21
-0.6398
0
LINE
8
DEFAULT_255_1_388
10
16.5103556
20
-0.6398
11
16.5103556
21
-0.0317011
0
LINE
8
DEFAULT_255_1_388
10
16.5103556
20
-0.0317011
11
15.8471393
21
-0.0317011
0
LINE
8
DEFAULT_255_1_388
10
15.8471393
20
-0.0317011
11
15.8471393
21
-0.6398
0
LINE
8
DEFAULT_255_1_388
10
15.8471393
20
-0.6398
11
15.6736549
21
-0.6398
0
LINE
8
DEFAULT_255_1_388
10
15.6736549
20
-0.6398
11
15.6736549
21
0.6757898
0
LINE
8
DEFAULT_255_1_388
10
15.6736549
20
0.6757898
11
15.8471393
21
0.6757898
0
LINE
8
DEFAULT_255_1_388
10
15.8471393
20
0.6757898
11
15.8471393
21
0.1101585
0
LINE
8
DEFAULT_255_1_388
10
15.8471393
20
0.1101585
11
16.5103556
21
0.1101585
0
LINE
8
DEFAULT_255_1_388
10
16.5103556
20
0.1101585
11
16.5103556
21
0.6757898
0
LINE
8
DEFAULT_255_1_388
10
16.5103556
20
0.6757898
11
16.6847435
21
0.6757898
0
LINE
8
DEFAULT_255_1_388
10
17.0687584
20
0.6757898
11
17.2765782
21
-0.2250639
0
LINE
8
DEFAULT_255_1_388
10
17.2765782
20
-0.2250639
11
17.301878
21
-0.3985483
0
LINE
8
DEFAULT_255_1_388
10
17.301878
20
-0.3985483
11
17.3389242
21
-0.2422316
0
LINE
8
DEFAULT_255_1_388
10
17.3389242
20
-0.2422316
11
17.5991507
21
0.6757898
0
LINE
8
DEFAULT_255_1_388
10
17.5991507
20
0.6757898
11
17.7455282
21
0.6757898
0
LINE
8
DEFAULT_255_1_388
10
17.7455282
20
0.6757898
11
17.9994298
21
-0.2422316
0
LINE
8
DEFAULT_255_1_388
10
17.9994298
20
-0.2422316
11
18.0355724
21
-0.401259
0
LINE
8
DEFAULT_255_1_388
10
18.0355724
20
-0.401259
11
18.0635829
21
-0.2241604
0
LINE
8
DEFAULT_255_1_388
10
18.0635829
20
-0.2241604
11
18.2677884
21
0.6757898
0
LINE
8
DEFAULT_255_1_388
10
18.2677884
20
0.6757898
11
18.4421764
21
0.6757898
0
LINE
8
DEFAULT_255_1_388
10
18.4421764
20
0.6757898
11
18.1232181
21
-0.6398
0
LINE
8
DEFAULT_255_1_388
10
18.1232181
20
-0.6398
11
17.9650943
21
-0.6398
0
LINE
8
DEFAULT_255_1_388
10
17.9650943
20
-0.6398
11
17.694025
21
0.3188819
0
LINE
8
DEFAULT_255_1_388
10
17.694025
20
0.3188819
11
17.673243
21
0.4191775
0
LINE
8
DEFAULT_255_1_388
10
17.673243
20
0.4191775
11
17.652461
21
0.3188819
0
LINE
8
DEFAULT_255_1_388
10
17.652461
20
0.3188819
11
17.3714525
21
-0.6398
0
LINE
8
DEFAULT_255_1_388
10
17.3714525
20
-0.6398
11
17.2133287
21
-0.6398
0
LINE
8
DEFAULT_255_1_388
10
17.2133287
20
-0.6398
11
16.895274
21
0.6757898
0
LINE
8
DEFAULT_255_1_388
10
16.895274
20
0.6757898
11
17.0687584
21
0.6757898
0
LINE
8
DEFAULT_255_2_778
10
10.5738396
20
25.0243073
11
9.3932396
21
25.0243073
0
LINE
8
DEFAULT_255_2_778
10
9.3932396
20
25.0243073
11
9.9837396
21
26.0469073
0
LINE
8
DEFAULT_255_2_778
10
9.9837396
20
26.0469073
11
11.1643396
21
26.0469073
0
LINE
8
DEFAULT_255_2_778
10
11.1643396
20
26.0469073
11
10.5738396
21
25.0243073
0
LINE
8
DEFAULT_255_2_778
10
10.5738396
20
25.0243073
11
10.5738396
21
25.0243073
0
LINE
8
DEFAULT_255_2_778
10
11.7546396
20
25.0243073
11
12.9354396
21
25.0243073
0
LINE
8
DEFAULT_255_2_778
10
12.9354396
20
25.0243073
11
12.3451396
21
26.0469073
0
LINE
8
DEFAULT_255_2_778
10
12.3451396
20
26.0469073
11
11.1643396
21
26.0469073
0
LINE
8
DEFAULT_255_2_778
10
11.1643396
20
26.0469073
11
11.7546396
21
25.0243073
0
LINE
8
DEFAULT_255_2_778
10
11.7546396
20
25.0243073
11
11.7546396
21
25.0243073
0
LINE
8
DEFAULT_255_2_778
10
11.7545823
20
27.0695146
11
11.1642823
21
28.0921146
0
LINE
8
DEFAULT_255_2_778
10
11.1642823
20
28.0921146
11
10.5737823
21
27.0695146
0
LINE
8
DEFAULT_255_2_778
10
10.5737823
20
27.0695146
11
11.1642823
21
26.0469146
0
LINE
8
DEFAULT_255_2_778
10
11.1642823
20
26.0469146
11
11.7545823
21
27.0695146
0
LINE
8
DEFAULT_255_2_778
10
11.7545823
20
27.0695146
11
11.7545823
21
27.0695146
0
ARC
8
DEFAULT_255_2_778
10
16.5183731
20
26.7157426
40
0.5650491
50
268.7543645
51
289.1417717
0
ARC
8
DEFAULT_255_2_778
10
16.606208
20
26.4605531
40
0.2951681
50
289.2776255
51
3.7648372
0
ARC
8
DEFAULT_255_2_778
10
16.3901618
20
26.4871085
40
0.5106278
50
359.1949826
51
0.0020862
0
ARC
8
DEFAULT_255_2_778
10
16.547449
20
26.4730832
40
0.1541914
50
280.2616216
51
358.5297855
0
ARC
8
DEFAULT_255_2_778
10
16.5080075
20
26.585655
40
0.2726346
50
269.5969454
51
284.2065679
0
ARC
8
DEFAULT_255_2_778
10
16.4981883
20
26.5698788
40
0.2569732
50
246.5218562
51
271.7619895
0
ARC
8
DEFAULT_255_2_778
10
16.4527498
20
26.4619164
40
0.1398527
50
188.0764216
51
245.9747848
0
ARC
8
DEFAULT_255_2_778
10
16.4833113
20
26.4689608
40
0.1711218
50
179.9443312
51
188.9740498
0
ARC
8
DEFAULT_255_2_778
10
16.4924507
20
26.4757849
40
0.3763411
50
178.2272621
51
205.8283807
0
ARC
8
DEFAULT_255_2_778
10
16.4132476
20
26.4580833
40
0.2979176
50
209.4028057
51
263.0375728
0
ARC
8
DEFAULT_255_2_778
10
16.5005111
20
26.8327629
40
0.6816586
50
259.5722942
51
270.4689037
0
ARC
8
DEFAULT_255_2_778
10
17.411252
20
26.8889767
40
0.1217154
50
2.0482843
51
87.015299
0
ARC
8
DEFAULT_255_2_778
10
17.4057913
20
26.8933868
40
0.1270984
50
353.0742102
51
359.9730821
0
ARC
8
DEFAULT_255_2_778
10
17.4111345
20
26.8901717
40
0.1214332
50
270.7420557
51
354.2761882
0
ARC
8
DEFAULT_255_2_778
10
17.4065072
20
26.9267509
40
0.1581238
50
269.9936646
51
272.2471507
0
ARC
8
DEFAULT_255_2_778
10
17.414084
20
26.4755295
40
0.1400686
50
358.2807293
51
95.6106825
0
ARC
8
DEFAULT_255_2_778
10
17.4103233
20
26.4716963
40
0.1437669
50
266.9962473
51
359.8528392
0
ARC
8
DEFAULT_255_2_778
10
17.4725249
20
26.5119988
40
0.3335288
50
268.2414507
51
302.0223478
0
ARC
8
DEFAULT_255_2_778
10
17.5091261
20
26.436683
40
0.2504234
50
304.0600275
51
2.0468005
0
ARC
8
DEFAULT_255_2_778
10
17.4835388
20
26.443488
40
0.2758592
50
0.4442832
51
66.1293704
0
ARC
8
DEFAULT_255_2_778
10
17.5193244
20
26.508436
40
0.202088
50
67.956084
51
75.8901834
0
ARC
8
DEFAULT_255_2_778
10
17.5042026
20
26.915722
40
0.2208874
50
286.9473417
51
358.0074963
0
ARC
8
DEFAULT_255_2_778
10
17.4710866
20
26.9245045
40
0.2544031
50
356.2897886
51
0.0050857
0
ARC
8
DEFAULT_255_2_778
10
17.497262
20
26.9295946
40
0.2282839
50
358.7280137
51
81.8073164
0
ARC
8
DEFAULT_255_2_778
10
17.4216369
20
26.6781283
40
0.4895182
50
77.2355086
51
90.5088275
0
ARC
8
DEFAULT_255_2_778
10
17.5842747
20
25.7135989
40
0.1302704
50
89.9972707
51
92.6773048
0
ARC
8
DEFAULT_255_2_778
10
17.5844071
20
25.71437
40
0.1294993
50
45.0546048
51
90.0558451
0
ARC
8
DEFAULT_255_2_778
10
17.5844118
20
25.714219
40
0.1296029
50
0.001866
51
45.1031959
0
ARC
8
DEFAULT_255_2_778
10
17.5845123
20
25.7142202
40
0.1295026
50
357.4803735
51
0.0013544
0
ARC
8
DEFAULT_255_2_778
10
17.5901979
20
25.7103512
40
0.1237052
50
339.8672523
51
359.1550732
0
ARC
8
DEFAULT_255_2_778
10
17.5794513
20
25.7075079
40
0.1329691
50
272.0853006
51
342.6124646
0
ARC
8
DEFAULT_255_2_778
10
17.6596145
20
25.7457661
40
0.2575135
50
286.787355
51
290.6121696
0
ARC
8
DEFAULT_255_2_778
10
17.6689461
20
25.7314533
40
0.24086
50
289.7330405
51
342.3216972
0
ARC
8
DEFAULT_255_2_778
10
17.641261
20
25.7362954
40
0.268735
50
343.130572
51
0.3905272
0
ARC
8
DEFAULT_255_2_778
10
17.6578783
20
25.7536767
40
0.2525904
50
356.4706028
51
80.1788963
0
ARC
8
DEFAULT_255_2_778
10
17.5921649
20
25.5267163
40
0.4881286
50
77.1212301
51
90.4900821
0
ARC
8
DEFAULT_255_2_778
10
17.5166337
20
25.229036
40
0.1865405
50
50.1507009
51
92.9634648
0
ARC
8
DEFAULT_255_2_778
10
17.5301354
20
25.2573678
40
0.1563319
50
12.621233
51
47.2950617
0
ARC
8
DEFAULT_255_2_778
10
16.8485884
20
25.1244726
40
0.8506657
50
2.8173892
51
11.3253986
0
ARC
8
DEFAULT_255_2_778
10
-29.2295733
20
21.6281175
40
47.060992
50
4.3048394
51
4.3117143
0
ARC
8
DEFAULT_255_2_778
10
18.5500859
20
25.200584
40
0.8523717
50
182.6850102
51
191.2954256
0
ARC
8
DEFAULT_255_2_778
10
17.9656837
20
25.0942399
40
0.2586603
50
193.5512904
51
195.3825538
0
ARC
8
DEFAULT_255_2_778
10
19.3507425
20
25.3531408
40
1.4700994
50
182.6283124
51
192.8725697
0
ARC
8
DEFAULT_255_2_778
10
17.6207606
20
25.2802215
40
0.261487
50
1.2064311
51
30.4123358
0
ARC
8
DEFAULT_255_2_778
10
17.6663626
20
25.295276
40
0.2147766
50
33.1081154
51
71.7312197
0
LINE
8
DEFAULT_255_2_778
10
13.4657897
20
25.4598271
11
13.9385897
21
25.4598271
0
LINE
8
DEFAULT_255_2_778
10
13.9385897
20
25.4598271
11
13.9385897
21
25.6312271
0
LINE
8
DEFAULT_255_2_778
10
13.9385897
20
25.6312271
11
13.4657897
21
25.6312271
0
LINE
8
DEFAULT_255_2_778
10
13.4657897
20
25.6312271
11
13.4657897
21
25.8421271
0
LINE
8
DEFAULT_255_2_778
10
13.4657897
20
25.8421271
11
13.9977897
21
25.8421271
0
LINE
8
DEFAULT_255_2_778
10
13.9977897
20
25.8421271
11
13.9977897
21
26.0135271
0
LINE
8
DEFAULT_255_2_778
10
13.9977897
20
26.0135271
11
13.4657897
21
26.0135271
0
LINE
8
DEFAULT_255_2_778
10
13.4657897
20
26.0135271
11
13.2651897
21
26.0135271
0
LINE
8
DEFAULT_255_2_778
10
13.2651897
20
26.0135271
11
13.2651897
21
25.8421271
0
LINE
8
DEFAULT_255_2_778
10
13.2651897
20
25.8421271
11
13.2651897
21
25.1957271
0
LINE
8
DEFAULT_255_2_778
10
13.2651897
20
25.1957271
11
13.2651897
21
25.0242271
0
LINE
8
DEFAULT_255_2_778
10
13.2651897
20
25.0242271
11
13.4657897
21
25.0242271
0
LINE
8
DEFAULT_255_2_778
10
13.4657897
20
25.0242271
11
14.0118897
21
25.0242271
0
LINE
8
DEFAULT_255_2_778
10
14.0118897
20
25.0242271
11
14.0118897
21
25.1957271
0
LINE
8
DEFAULT_255_2_778
10
14.0118897
20
25.1957271
11
13.4657897
21
25.1957271
0
LINE
8
DEFAULT_255_2_778
10
13.4657897
20
25.1957271
11
13.4657897
21
25.4595271
0
LINE
8
DEFAULT_255_2_778
10
13.4657897
20
25.4595271
11
13.4657897
21
25.4598271
0
LINE
8
DEFAULT_255_2_778
10
13.4519897
20
26.9139271
11
13.6620897
21
26.1786271
0
LINE
8
DEFAULT_255_2_778
10
13.6620897
20
26.1786271
11
13.6704897
21
26.1786271
0
LINE
8
DEFAULT_255_2_778
10
13.6704897
20
26.1786271
11
13.8464897
21
26.1786271
0
LINE
8
DEFAULT_255_2_778
10
13.8464897
20
26.1786271
11
13.8546897
21
26.1786271
0
LINE
8
DEFAULT_255_2_778
10
13.8546897
20
26.1786271
11
14.0647897
21
26.9139271
0
LINE
8
DEFAULT_255_2_778
10
14.0647897
20
26.9139271
11
14.0647897
21
26.1786271
0
LINE
8
DEFAULT_255_2_778
10
14.0647897
20
26.1786271
11
14.2515897
21
26.1786271
0
LINE
8
DEFAULT_255_2_778
10
14.2515897
20
26.1786271
11
14.2515897
21
27.1679271
0
LINE
8
DEFAULT_255_2_778
10
14.2515897
20
27.1679271
11
14.1496897
21
27.1679271
0
LINE
8
DEFAULT_255_2_778
10
14.1496897
20
27.1679271
11
14.0615897
21
27.1679271
0
LINE
8
DEFAULT_255_2_778
10
14.0615897
20
27.1679271
11
13.9655897
21
27.1679271
0
LINE
8
DEFAULT_255_2_778
10
13.9655897
20
27.1679271
11
13.7583897
21
26.4736271
0
LINE
8
DEFAULT_255_2_778
10
13.7583897
20
26.4736271
11
13.5511897
21
27.1679271
0
LINE
8
DEFAULT_255_2_778
10
13.5511897
20
27.1679271
11
13.4551897
21
27.1679271
0
LINE
8
DEFAULT_255_2_778
10
13.4551897
20
27.1679271
11
13.3670897
21
27.1679271
0
LINE
8
DEFAULT_255_2_778
10
13.3670897
20
27.1679271
11
13.2651897
21
27.1679271
0
LINE
8
DEFAULT_255_2_778
10
13.2651897
20
27.1679271
11
13.2651897
21
26.1786271
0
LINE
8
DEFAULT_255_2_778
10
13.2651897
20
26.1786271
11
13.4519897
21
26.1786271
0
LINE
8
DEFAULT_255_2_778
10
13.4519897
20
26.1786271
11
13.4519897
21
26.9139271
0
LINE
8
DEFAULT_255_2_778
10
13.4519897
20
26.9139271
11
13.4519897
21
26.9139271
0
LINE
8
DEFAULT_255_2_778
10
18.0057897
20
27.1679271
11
17.8064897
21
27.1679271
0
LINE
8
DEFAULT_255_2_778
10
17.8064897
20
27.1679271
11
17.8064897
21
26.1786271
0
LINE
8
DEFAULT_255_2_778
10
17.8064897
20
26.1786271
11
18.0057897
21
26.1786271
0
LINE
8
DEFAULT_255_2_778
10
18.0057897
20
26.1786271
11
18.0057897
21
27.1679271
0
LINE
8
DEFAULT_255_2_778
10
18.0057897
20
27.1679271
11
18.0057897
21
27.1679271
0
LINE
8
DEFAULT_255_2_778
10
18.1681897
20
26.0138271
11
17.9689897
21
26.0138271
0
LINE
8
DEFAULT_255_2_778
10
17.9689897
20
26.0138271
11
17.9689897
21
25.0245271
0
LINE
8
DEFAULT_255_2_778
10
17.9689897
20
25.0245271
11
18.1681897
21
25.0245271
0
LINE
8
DEFAULT_255_2_778
10
18.1681897
20
25.0245271
11
18.1681897
21
26.0138271
0
LINE
8
DEFAULT_255_2_778
10
18.1681897
20
26.0138271
11
18.1681897
21
26.0138271
0
LINE
8
DEFAULT_255_2_778
10
19.9765897
20
27.1679271
11
19.7773897
21
27.1679271
0
LINE
8
DEFAULT_255_2_778
10
19.7773897
20
27.1679271
11
19.7773897
21
26.1786271
0
LINE
8
DEFAULT_255_2_778
10
19.7773897
20
26.1786271
11
19.9765897
21
26.1786271
0
LINE
8
DEFAULT_255_2_778
10
19.9765897
20
26.1786271
11
19.9765897
21
27.1679271
0
LINE
8
DEFAULT_255_2_778
10
19.9765897
20
27.1679271
11
19.9765897
21
27.1679271
0
LINE
8
DEFAULT_255_2_778
10
14.5298897
20
27.1679271
11
14.3306897
21
27.1679271
0
LINE
8
DEFAULT_255_2_778
10
14.3306897
20
27.1679271
11
14.3306897
21
26.1786271
0
LINE
8
DEFAULT_255_2_778
10
14.3306897
20
26.1786271
11
14.5298897
21
26.1786271
0
LINE
8
DEFAULT_255_2_778
10
14.5298897
20
26.1786271
11
14.5298897
21
27.1679271
0
LINE
8
DEFAULT_255_2_778
10
14.5298897
20
27.1679271
11
14.5298897
21
27.1679271
0
LINE
8
DEFAULT_255_2_778
10
19.4989897
20
26.7819271
11
19.1029897
21
26.7819271
0
LINE
8
DEFAULT_255_2_778
10
19.1029897
20
26.7819271
11
19.1029897
21
27.1676271
0
LINE
8
DEFAULT_255_2_778
10
19.1029897
20
27.1676271
11
18.9068897
21
27.1676271
0
LINE
8
DEFAULT_255_2_778
10
18.9068897
20
27.1676271
11
18.9068897
21
26.1786271
0
LINE
8
DEFAULT_255_2_778
10
18.9068897
20
26.1786271
11
19.1029897
21
26.1786271
0
LINE
8
DEFAULT_255_2_778
10
19.1029897
20
26.1786271
11
19.1029897
21
26.6104271
0
LINE
8
DEFAULT_255_2_778
10
19.1029897
20
26.6104271
11
19.4989897
21
26.6104271
0
LINE
8
DEFAULT_255_2_778
10
19.4989897
20
26.6104271
11
19.4989897
21
26.1786271
0
LINE
8
DEFAULT_255_2_778
10
19.4989897
20
26.1786271
11
19.6950897
21
26.1786271
0
LINE
8
DEFAULT_255_2_778
10
19.6950897
20
26.1786271
11
19.6950897
21
27.1676271
0
LINE
8
DEFAULT_255_2_778
10
19.6950897
20
27.1676271
11
19.4989897
21
27.1676271
0
LINE
8
DEFAULT_255_2_778
10
19.4989897
20
27.1676271
11
19.4989897
21
26.7819271
0
LINE
8
DEFAULT_255_2_778
10
19.4989897
20
26.7819271
11
19.4989897
21
26.7819271
0
LINE
8
DEFAULT_255_2_778
10
14.8246897
20
26.1786271
11
15.0280897
21
26.1786271
0
LINE
8
DEFAULT_255_2_778
10
15.0280897
20
26.1786271
11
15.0280897
21
26.9965271
0
LINE
8
DEFAULT_255_2_778
10
15.0280897
20
26.9965271
11
15.2696897
21
26.9965271
0
LINE
8
DEFAULT_255_2_778
10
15.2696897
20
26.9965271
11
15.2696897
21
27.1679271
0
LINE
8
DEFAULT_255_2_778
10
15.2696897
20
27.1679271
11
15.0280897
21
27.1679271
0
LINE
8
DEFAULT_255_2_778
10
15.0280897
20
27.1679271
11
14.8246897
21
27.1679271
0
LINE
8
DEFAULT_255_2_778
10
14.8246897
20
27.1679271
11
14.5830897
21
27.1679271
0
LINE
8
DEFAULT_255_2_778
10
14.5830897
20
27.1679271
11
14.5830897
21
26.9965271
0
LINE
8
DEFAULT_255_2_778
10
14.5830897
20
26.9965271
11
14.8246897
21
26.9965271
0
LINE
8
DEFAULT_255_2_778
10
14.8246897
20
26.9965271
11
14.8246897
21
26.1786271
0
LINE
8
DEFAULT_255_2_778
10
14.8246897
20
26.1786271
11
14.8246897
21
26.1786271
0
LINE
8
DEFAULT_255_2_778
10
16.6422897
20
25.0245271
11
16.8454897
21
25.0245271
0
LINE
8
DEFAULT_255_2_778
10
16.8454897
20
25.0245271
11
16.8454897
21
25.8423271
0
LINE
8
DEFAULT_255_2_778
10
16.8454897
20
25.8423271
11
17.0873897
21
25.8423271
0
LINE
8
DEFAULT_255_2_778
10
17.0873897
20
25.8423271
11
17.0873897
21
26.0141271
0
LINE
8
DEFAULT_255_2_778
10
17.0873897
20
26.0141271
11
16.8454897
21
26.0141271
0
LINE
8
DEFAULT_255_2_778
10
16.8454897
20
26.0141271
11
16.6422897
21
26.0141271
0
LINE
8
DEFAULT_255_2_778
10
16.6422897
20
26.0141271
11
16.4004897
21
26.0141271
0
LINE
8
DEFAULT_255_2_778
10
16.4004897
20
26.0141271
11
16.4004897
21
25.8423271
0
LINE
8
DEFAULT_255_2_778
10
16.4004897
20
25.8423271
11
16.6422897
21
25.8423271
0
LINE
8
DEFAULT_255_2_778
10
16.6422897
20
25.8423271
11
16.6422897
21
25.0245271
0
LINE
8
DEFAULT_255_2_778
10
16.6422897
20
25.0245271
11
16.6422897
21
25.0245271
0
LINE
8
DEFAULT_255_2_778
10
16.9007897
20
26.4871271
11
16.9007897
21
27.1676271
0
LINE
8
DEFAULT_255_2_778
10
16.9007897
20
27.1676271
11
16.7015897
21
27.1676271
0
LINE
8
DEFAULT_255_2_778
10
16.7015897
20
27.1676271
11
16.7015897
21
26.4691271
0
LINE
8
DEFAULT_255_2_778
10
16.3121897
20
26.4691271
11
16.3121897
21
27.1676271
0
LINE
8
DEFAULT_255_2_778
10
16.3121897
20
27.1676271
11
16.1162897
21
27.1676271
0
LINE
8
DEFAULT_255_2_778
10
16.1162897
20
27.1676271
11
16.1162897
21
26.4874271
0
LINE
8
DEFAULT_255_2_778
10
15.0000897
20
25.4598271
11
15.4730897
21
25.4598271
0
LINE
8
DEFAULT_255_2_778
10
15.4730897
20
25.4598271
11
15.4730897
21
25.6312271
0
LINE
8
DEFAULT_255_2_778
10
15.4730897
20
25.6312271
11
15.0000897
21
25.6312271
0
LINE
8
DEFAULT_255_2_778
10
15.0000897
20
25.6312271
11
15.0000897
21
25.8421271
0
LINE
8
DEFAULT_255_2_778
10
15.0000897
20
25.8421271
11
15.5321897
21
25.8421271
0
LINE
8
DEFAULT_255_2_778
10
15.5321897
20
25.8421271
11
15.5321897
21
26.0135271
0
LINE
8
DEFAULT_255_2_778
10
15.5321897
20
26.0135271
11
15.0000897
21
26.0135271
0
LINE
8
DEFAULT_255_2_778
10
15.0000897
20
26.0135271
11
14.7997897
21
26.0135271
0
LINE
8
DEFAULT_255_2_778
10
14.7997897
20
26.0135271
11
14.7997897
21
25.8421271
0
LINE
8
DEFAULT_255_2_778
10
14.7997897
20
25.8421271
11
14.7997897
21
25.1957271
0
LINE
8
DEFAULT_255_2_778
10
14.7997897
20
25.1957271
11
14.7997897
21
25.0242271
0
LINE
8
DEFAULT_255_2_778
10
14.7997897
20
25.0242271
11
15.0000897
21
25.0242271
0
LINE
8
DEFAULT_255_2_778
10
15.0000897
20
25.0242271
11
15.5461897
21
25.0242271
0
LINE
8
DEFAULT_255_2_778
10
15.5461897
20
25.0242271
11
15.5461897
21
25.1957271
0
LINE
8
DEFAULT_255_2_778
10
15.5461897
20
25.1957271
11
15.0000897
21
25.1957271
0
LINE
8
DEFAULT_255_2_778
10
15.0000897
20
25.1957271
11
15.0000897
21
25.4595271
0
LINE
8
DEFAULT_255_2_778
10
15.0000897
20
25.4595271
11
15.0000897
21
25.4598271
0
LINE
8
DEFAULT_255_2_778
10
17.4064897
20
26.7686271
11
17.1690897
21
26.7686271
0
LINE
8
DEFAULT_255_2_778
10
17.1690897
20
26.7686271
11
17.1690897
21
27.0102271
0
LINE
8
DEFAULT_255_2_778
10
17.1690897
20
27.0102271
11
17.4175897
21
27.0102271
0
LINE
8
DEFAULT_255_2_778
10
17.4175897
20
27.0102271
11
17.4175897
21
27.0105271
0
LINE
8
DEFAULT_255_2_778
10
17.4027897
20
26.3278271
11
17.1690897
21
26.3278271
0
LINE
8
DEFAULT_255_2_778
10
17.1690897
20
26.3278271
11
17.1690897
21
26.6149271
0
LINE
8
DEFAULT_255_2_778
10
17.1690897
20
26.6149271
11
17.4003897
21
26.6149271
0
LINE
8
DEFAULT_255_2_778
10
17.1767897
20
26.1786271
11
17.4622897
21
26.1786271
0
LINE
8
DEFAULT_255_2_778
10
17.4172897
20
27.1676271
11
17.1770897
21
27.1676271
0
LINE
8
DEFAULT_255_2_778
10
17.1770897
20
27.1676271
11
16.9722897
21
27.1676271
0
LINE
8
DEFAULT_255_2_778
10
16.9722897
20
27.1676271
11
16.9711897
21
27.1676271
0
LINE
8
DEFAULT_255_2_778
10
16.9711897
20
27.1676271
11
16.9711897
21
26.1786271
0
LINE
8
DEFAULT_255_2_778
10
16.9711897
20
26.1786271
11
16.9722897
21
26.1786271
0
LINE
8
DEFAULT_255_2_778
10
16.9722897
20
26.1786271
11
17.1770897
21
26.1786271
0
LINE
8
DEFAULT_255_2_778
10
17.1770897
20
26.1786271
11
17.1767897
21
26.1786271
0
LINE
8
DEFAULT_255_2_778
10
17.3368897
20
25.5743271
11
17.3368897
21
25.8437271
0
LINE
8
DEFAULT_255_2_778
10
17.3368897
20
25.8437271
11
17.5781897
21
25.8437271
0
LINE
8
DEFAULT_255_2_778
10
17.5842897
20
25.5746271
11
17.3370897
21
25.5746271
0
LINE
8
DEFAULT_255_2_778
10
17.3370897
20
25.5746271
11
17.3368897
21
25.5743271
0
LINE
8
DEFAULT_255_2_778
10
17.5879897
20
26.0148271
11
17.3368897
21
26.0148271
0
LINE
8
DEFAULT_255_2_778
10
17.3368897
20
26.0148271
11
17.1383897
21
26.0148271
0
LINE
8
DEFAULT_255_2_778
10
17.1383897
20
26.0148271
11
17.1362897
21
26.0148271
0
LINE
8
DEFAULT_255_2_778
10
17.1362897
20
26.0148271
11
17.1362897
21
25.0256271
0
LINE
8
DEFAULT_255_2_778
10
17.1362897
20
25.0256271
11
17.3368897
21
25.0256271
0
LINE
8
DEFAULT_255_2_778
10
17.3368897
20
25.0256271
11
17.3368897
21
25.4153271
0
LINE
8
DEFAULT_255_2_778
10
17.3368897
20
25.4153271
11
17.5069897
21
25.4153271
0
LINE
8
DEFAULT_255_2_778
10
17.7162897
20
25.0256271
11
17.9175897
21
25.0256271
0
LINE
8
DEFAULT_255_2_778
10
14.2763897
20
26.0138271
11
14.0760897
21
26.0138271
0
LINE
8
DEFAULT_255_2_778
10
14.0760897
20
26.0138271
11
14.0760897
21
25.1960271
0
LINE
8
DEFAULT_255_2_778
10
14.0760897
20
25.1960271
11
14.0760897
21
25.0245271
0
LINE
8
DEFAULT_255_2_778
10
14.0760897
20
25.0245271
11
14.2763897
21
25.0245271
0
LINE
8
DEFAULT_255_2_778
10
14.2763897
20
25.0245271
11
14.7428897
21
25.0245271
0
LINE
8
DEFAULT_255_2_778
10
14.7428897
20
25.0245271
11
14.7428897
21
25.1960271
0
LINE
8
DEFAULT_255_2_778
10
14.7428897
20
25.1960271
11
14.2763897
21
25.1960271
0
LINE
8
DEFAULT_255_2_778
10
14.2763897
20
25.1960271
11
14.2763897
21
26.0138271
0
LINE
8
DEFAULT_255_2_778
10
14.2763897
20
26.0138271
11
14.2763897
21
26.0138271
0
ARC
8
DEFAULT_255_2_778
10
15.4584271
20
25.6396969
40
0.9681224
50
72.4822103
51
81.3184214
0
ARC
8
DEFAULT_255_2_778
10
15.7160297
20
26.4163918
40
0.1503783
50
28.8883513
51
77.0092434
0
ARC
8
DEFAULT_255_2_778
10
15.7432379
20
26.4453196
40
0.113238
50
358.9917455
51
22.7117017
0
ARC
8
DEFAULT_255_2_778
10
15.7394861
20
26.4494918
40
0.1171346
50
289.2958104
51
356.9831562
0
ARC
8
DEFAULT_255_2_778
10
15.6668261
20
26.6069882
40
0.2902651
50
268.4665462
51
292.5613311
0
ARC
8
DEFAULT_255_2_778
10
15.6496856
20
26.5479179
40
0.2312808
50
236.4956947
51
272.3225735
0
ARC
8
DEFAULT_255_2_778
10
15.6106646
20
26.4796839
40
0.1529307
50
178.9722202
51
234.5742435
0
ARC
8
DEFAULT_255_2_778
10
15.5656113
20
26.4701079
40
0.3002058
50
177.6481608
51
245.5596397
0
ARC
8
DEFAULT_255_2_778
10
15.6409971
20
26.6423561
40
0.488217
50
245.8690375
51
267.169035
0
ARC
8
DEFAULT_255_2_778
10
15.6671503
20
26.8933916
40
0.7403648
50
266.1069867
51
270.0547972
0
ARC
8
DEFAULT_255_2_778
10
15.6772894
20
26.7246135
40
0.5716642
50
269.0547216
51
287.7147747
0
ARC
8
DEFAULT_255_2_778
10
15.7598889
20
26.4789091
40
0.3125017
50
286.995984
51
325.1221533
0
ARC
8
DEFAULT_255_2_778
10
15.7678294
20
26.462361
40
0.2966627
50
326.8673922
51
0.8625726
0
ARC
8
DEFAULT_255_2_778
10
15.7898286
20
26.4709409
40
0.2746606
50
359.1417932
51
76.9739731
0
ARC
8
DEFAULT_255_2_778
10
15.6705461
20
26.1900719
40
0.577616
50
71.7185727
51
79.1315439
0
ARC
8
DEFAULT_255_2_778
10
14.2492968
20
18.836467
40
8.0673056
50
79.0662148
51
79.6216572
0
ARC
8
DEFAULT_255_2_778
10
16.4356585
20
30.7141581
40
4.0099443
50
259.1227669
51
259.4665204
0
ARC
8
DEFAULT_255_2_778
10
15.7836732
20
27.4191142
40
0.6513291
50
249.9945768
51
260.7485895
0
ARC
8
DEFAULT_255_2_778
10
15.5880401
20
26.9080999
40
0.1046098
50
178.6705173
51
254.9333545
0
ARC
8
DEFAULT_255_2_778
10
15.6049957
20
26.9046688
40
0.1216785
50
93.288632
51
177.2403935
0
ARC
8
DEFAULT_255_2_778
10
15.6585677
20
26.7176752
40
0.3143588
50
89.6189463
51
101.1057977
0
ARC
8
DEFAULT_255_2_778
10
15.6722733
20
26.829516
40
0.2028439
50
53.5634072
51
93.2825843
0
ARC
8
DEFAULT_255_2_778
10
15.7018505
20
26.8877144
40
0.1388739
50
357.1985816
51
49.1152298
0
ARC
8
DEFAULT_255_2_778
10
15.7254907
20
26.8809274
40
0.3087677
50
359.9999335
51
2.3703878
0
ARC
8
DEFAULT_255_2_778
10
15.7353555
20
26.8824337
40
0.298851
50
2.1600756
51
60.1092229
0
ARC
8
DEFAULT_255_2_778
10
15.6766212
20
26.7758133
40
0.4205645
50
60.4106856
51
86.1444419
0
ARC
8
DEFAULT_255_2_778
10
15.6536151
20
26.5991228
40
0.5985046
50
85.0843314
51
90.0628677
0
ARC
8
DEFAULT_255_2_778
10
15.6529718
20
26.7225466
40
0.4750804
50
90.001616
51
92.2300394
0
ARC
8
DEFAULT_255_2_778
10
15.6281193
20
26.827687
40
0.3696351
50
89.0131319
51
149.6364996
0
ARC
8
DEFAULT_255_2_778
10
15.5505461
20
26.8999055
40
0.2671974
50
154.5962367
51
180.4885883
0
ARC
8
DEFAULT_255_2_778
10
15.5651524
20
26.898384
40
0.281795
50
180.1539064
51
255.1120325
0
ARC
8
DEFAULT_255_2_778
10
15.7094242
20
27.221232
40
0.6333958
50
249.9962237
51
260.4976723
0
ARC
8
DEFAULT_255_2_778
10
18.2470963
20
25.6408351
40
0.967002
50
72.4685023
51
81.3064395
0
ARC
8
DEFAULT_255_2_778
10
18.5045397
20
26.416427
40
0.1503535
50
28.8782248
51
76.9904304
0
ARC
8
DEFAULT_255_2_778
10
18.5317197
20
26.4453189
40
0.1132561
50
358.9922779
51
22.7082666
0
ARC
8
DEFAULT_255_2_778
10
18.5280402
20
26.4494088
40
0.1170763
50
289.2761556
51
357.0223042
0
ARC
8
DEFAULT_255_2_778
10
18.4553612
20
26.6072836
40
0.2905613
50
268.4611814
51
292.5289055
0
ARC
8
DEFAULT_255_2_778
10
18.4381801
20
26.5488175
40
0.2321799
50
236.6698634
51
272.3149402
0
ARC
8
DEFAULT_255_2_778
10
18.39878
20
26.4796762
40
0.1528464
50
178.9687581
51
234.7686008
0
ARC
8
DEFAULT_255_2_778
10
18.3540113
20
26.4701079
40
0.3002058
50
177.6481608
51
245.5596397
0
ARC
8
DEFAULT_255_2_778
10
18.4293971
20
26.6423561
40
0.488217
50
245.8690375
51
267.169035
0
ARC
8
DEFAULT_255_2_778
10
18.4555503
20
26.8933916
40
0.7403648
50
266.1069867
51
270.0547972
0
ARC
8
DEFAULT_255_2_778
10
18.4656836
20
26.7252451
40
0.5722957
50
269.0563423
51
287.7048702
0
ARC
8
DEFAULT_255_2_778
10
18.548344
20
26.4792682
40
0.312856
50
286.9832601
51
325.0871916
0
ARC
8
DEFAULT_255_2_778
10
18.5567708
20
26.4623856
40
0.2964208
50
326.8311942
51
0.8585267
0
ARC
8
DEFAULT_255_2_778
10
18.5785756
20
26.4710282
40
0.2746149
50
359.1234265
51
76.9343785
0
ARC
8
DEFAULT_255_2_778
10
18.4596421
20
26.1911965
40
0.5764934
50
71.6999697
51
79.1198353
0
ARC
8
DEFAULT_255_2_778
10
17.0173657
20
18.7144392
40
8.1910887
50
79.0843627
51
79.6321368
0
ARC
8
DEFAULT_255_2_778
10
19.2200266
20
30.6939177
40
3.9892176
50
259.1314419
51
259.4772924
0
ARC
8
DEFAULT_255_2_778
10
18.5723251
20
27.4185131
40
0.6507003
50
249.9919323
51
260.7592458
0
ARC
8
DEFAULT_255_2_778
10
18.376901
20
26.9080546
40
0.1045718
50
178.6452075
51
254.9151907
0
ARC
8
DEFAULT_255_2_778
10
18.3939581
20
26.9046016
40
0.121744
50
93.2745253
51
177.21023
0
ARC
8
DEFAULT_255_2_778
10
18.4475726
20
26.7175052
40
0.3145287
50
89.6200387
51
101.1027534
0
ARC
8
DEFAULT_255_2_778
10
18.4613489
20
26.8308453
40
0.2015212
50
53.1490002
51
93.3256649
0
ARC
8
DEFAULT_255_2_778
10
18.4902753
20
26.8876519
40
0.1391457
50
357.2298288
51
48.6469881
0
ARC
8
DEFAULT_255_2_778
10
18.5137232
20
26.8809226
40
0.3092351
50
0.0008291
51
2.3676985
0
ARC
8
DEFAULT_255_2_778
10
18.5240744
20
26.8824868
40
0.2988304
50
2.1500394
51
60.0956838
0
ARC
8
DEFAULT_255_2_778
10
18.4654399
20
26.7759909
40
0.4203859
50
60.40452
51
86.1455285
0
ARC
8
DEFAULT_255_2_778
10
18.4424157
20
26.5991686
40
0.5984588
50
85.0841409
51
90.0629301
0
ARC
8
DEFAULT_255_2_778
10
18.4417778
20
26.7221392
40
0.4754878
50
90.0023409
51
92.3231329
0
ARC
8
DEFAULT_255_2_778
10
18.4167555
20
26.8274604
40
0.3698206
50
89.1093915
51
149.6400816
0
ARC
8
DEFAULT_255_2_778
10
18.338761
20
26.8998917
40
0.2669122
50
154.6001925
51
180.486137
0
ARC
8
DEFAULT_255_2_778
10
18.3537607
20
26.8985152
40
0.2819037
50
180.1805176
51
255.132702
0
ARC
8
DEFAULT_255_2_778
10
18.4982264
20
27.2217784
40
0.6339516
50
250.0026216
51
260.4967164
0
ARC
8
DEFAULT_255_2_778
10
16.008917
20
25.4289283
40
0.2519711
50
190.2626864
51
267.3480013
0
ARC
8
DEFAULT_255_2_778
10
16.2443543
20
25.5202548
40
0.5022041
50
179.6723028
51
195.7380858
0
ARC
8
DEFAULT_255_2_778
10
16.1790511
20
25.5357671
40
0.4370755
50
148.7005643
51
181.6572045
0
ARC
8
DEFAULT_255_2_778
10
15.9957576
20
25.6458723
40
0.2232598
50
89.6148479
51
148.4074796
0
ARC
8
DEFAULT_255_2_778
10
16.0060936
20
25.667949
40
0.201372
50
41.9769772
51
92.5146611
0
ARC
8
DEFAULT_255_2_778
10
15.9522078
20
25.6302523
40
0.2667646
50
15.1848537
51
40.2549591
0
ARC
8
DEFAULT_255_2_778
10
16.028123
20
25.6405326
40
0.3935735
50
8.7091682
51
82.0550801
0
ARC
8
DEFAULT_255_2_778
10
15.9931241
20
25.4940871
40
0.543642
50
80.5350289
51
90.1544743
0
ARC
8
DEFAULT_255_2_778
10
15.9818804
20
25.5827192
40
0.4551129
50
88.7689246
51
119.6437418
0
ARC
8
DEFAULT_255_2_778
10
16.0077717
20
25.5864647
40
0.4653013
50
122.644121
51
173.3997839
0
ARC
8
DEFAULT_255_2_778
10
16.2711934
20
25.5221568
40
0.7351371
50
170.7798304
51
180.1348114
0
ARC
8
DEFAULT_255_2_778
10
16.1377257
20
25.5067615
40
0.6018225
50
178.6988735
51
210.5289552
0
ARC
8
DEFAULT_255_2_778
10
15.970325
20
25.4159953
40
0.4115783
50
211.4828222
51
265.8686737
0
ARC
8
DEFAULT_255_2_778
10
15.9909864
20
25.5407011
40
0.5375742
50
264.6297133
51
270.0503073
0
ARC
8
DEFAULT_255_2_778
10
16.0020995
20
25.4725749
40
0.4695684
50
268.7014824
51
300.1403067
0
ARC
8
DEFAULT_255_2_778
10
16.0350333
20
25.3941852
40
0.385394
50
301.7580058
51
353.77968
0
ARC
8
DEFAULT_255_2_778
10
16.0012256
20
25.3885219
40
0.2113379
50
268.8430278
51
350.1661143
0
ARC
8
DEFAULT_255_2_778
10
18.6896799
20
25.4288824
40
0.2519281
50
190.2538303
51
267.3332171
0
ARC
8
DEFAULT_255_2_778
10
18.9252249
20
25.5202581
40
0.5022746
50
179.672724
51
195.7362088
0
ARC
8
DEFAULT_255_2_778
10
18.8600432
20
25.5357917
40
0.4372682
50
148.7196987
51
181.6596982
0
ARC
8
DEFAULT_255_2_778
10
18.676443
20
25.6459906
40
0.2231415
50
89.6108896
51
148.4244661
0
ARC
8
DEFAULT_255_2_778
10
18.686876
20
25.667967
40
0.2013576
50
42.5913083
51
92.5383066
0
ARC
8
DEFAULT_255_2_778
10
18.6345542
20
25.6315973
40
0.2646316
50
15.0085433
51
40.7215892
0
ARC
8
DEFAULT_255_2_778
10
18.708623
20
25.6405326
40
0.3935735
50
8.7091682
51
82.0550801
0
ARC
8
DEFAULT_255_2_778
10
18.6736241
20
25.4940871
40
0.543642
50
80.5350289
51
90.1544743
0
ARC
8
DEFAULT_255_2_778
10
18.6623804
20
25.5827192
40
0.4551129
50
88.7689246
51
119.6437418
0
ARC
8
DEFAULT_255_2_778
10
18.6882717
20
25.5864647
40
0.4653013
50
122.644121
51
173.3997839
0
ARC
8
DEFAULT_255_2_778
10
18.9516934
20
25.5221568
40
0.7351371
50
170.7798304
51
180.1348114
0
ARC
8
DEFAULT_255_2_778
10
18.8177822
20
25.50682
40
0.6013778
50
178.7034849
51
210.5604279
0
ARC
8
DEFAULT_255_2_778
10
18.6511312
20
25.4163377
40
0.4119265
50
211.5090145
51
265.8592607
0
ARC
8
DEFAULT_255_2_778
10
18.6716883
20
25.5404521
40
0.5373252
50
264.628472
51
270.0501277
0
ARC
8
DEFAULT_255_2_778
10
18.682837
20
25.4723685
40
0.4693629
50
268.6963312
51
300.2191972
0
ARC
8
DEFAULT_255_2_778
10
18.7155684
20
25.3944124
40
0.3856821
50
301.8465101
51
353.7503927
0
ARC
8
DEFAULT_255_2_778
10
18.6820648
20
25.3883604
40
0.2111733
50
268.8857714
51
350.2028431
0
LINE
8
DEFAULT_255_2_778
10
15.4577584
20
26.4824271
11
15.2656584
21
26.4824271
0
LINE
8
DEFAULT_255_2_778
10
15.8405584
20
26.8809271
11
16.0342584
21
26.8809271
0
LINE
8
DEFAULT_255_2_778
10
18.2459584
20
26.4824271
11
18.0540584
21
26.4824271
0
LINE
8
DEFAULT_255_2_778
10
18.6292584
20
26.8809271
11
18.8229584
21
26.8809271
0
LINE
8
DEFAULT_255_2_778
10
16.2096584
20
25.7001271
11
16.4171584
21
25.7001271
0
LINE
8
DEFAULT_255_2_778
10
16.4181584
20
25.3524271
11
16.2094584
21
25.3524271
0
LINE
8
DEFAULT_255_2_778
10
18.8901584
20
25.7001271
11
19.0976584
21
25.7001271
0
LINE
8
DEFAULT_255_2_778
10
19.0989584
20
25.3524271
11
18.8901584
21
25.3524271
0
LINE
8
DEFAULT_255_1_388
10
10.0052155
20
23.4889567
11
10.0052155
21
22.5113
0
LINE
8
DEFAULT_255_1_388
10
10.0052155
20
22.5113
11
9.8380561
21
22.5113
0
LINE
8
DEFAULT_255_1_388
10
9.8380561
20
22.5113
11
9.8380561
21
23.4889567
0
LINE
8
DEFAULT_255_1_388
10
9.8380561
20
23.4889567
11
10.0052155
21
23.4889567
0
ARC
8
DEFAULT_255_1_388
10
9.9345923
20
23.7493428
40
0.1100948
50
161.4148232
51
180.5532607
0
ARC
8
DEFAULT_255_1_388
10
9.9206233
20
23.7531875
40
0.0956324
50
138.1830164
51
160.9307633
0
ARC
8
DEFAULT_255_1_388
10
9.908242
20
23.7639313
40
0.0792417
50
104.6371663
51
138.0036136
0
ARC
8
DEFAULT_255_1_388
10
9.9202959
20
23.7226963
40
0.1221906
50
92.0601206
51
105.2198859
0
ARC
8
DEFAULT_255_1_388
10
9.9229323
20
23.6838583
40
0.161103
50
89.9790681
51
92.5006086
0
ARC
8
DEFAULT_255_1_388
10
9.9240499
20
23.7094998
40
0.1354654
50
78.0234649
51
90.4478111
0
ARC
8
DEFAULT_255_1_388
10
9.9344083
20
23.7560203
40
0.0878096
50
55.0521508
51
78.336297
0
ARC
8
DEFAULT_255_1_388
10
9.9400618
20
23.7655168
40
0.0767913
50
42.0506198
51
54.4508489
0
ARC
8
DEFAULT_255_1_388
10
9.924865
20
23.7515821
40
0.0974091
50
1.7493657
51
42.1498724
0
ARC
8
DEFAULT_255_1_388
10
9.8962556
20
23.7483166
40
0.1261276
50
359.9832635
51
2.8353994
0
ARC
8
DEFAULT_255_1_388
10
9.9148966
20
23.7472412
40
0.1074916
50
342.1062453
51
0.5535864
0
ARC
8
DEFAULT_255_1_388
10
9.930939
20
23.7428197
40
0.0908695
50
316.7110111
51
341.6513114
0
ARC
8
DEFAULT_255_1_388
10
9.9384822
20
23.7360607
40
0.0807447
50
285.4398289
51
316.5320129
0
ARC
8
DEFAULT_255_1_388
10
9.9260993
20
23.7772023
40
0.1237022
50
272.3543902
51
285.8951677
0
ARC
8
DEFAULT_255_1_388
10
9.9230703
20
23.8187742
40
0.1653687
50
269.9725761
51
272.8112722
0
ARC
8
DEFAULT_255_1_388
10
9.9219755
20
23.7936727
40
0.1402709
50
258.8433431
51
270.4148607
0
ARC
8
DEFAULT_255_1_388
10
9.9118535
20
23.7446739
40
0.0902407
50
238.54281
51
259.1289544
0
ARC
8
DEFAULT_255_1_388
10
9.9041856
20
23.7307694
40
0.0743817
50
222.5056676
51
237.9918132
0
ARC
8
DEFAULT_255_1_388
10
9.918545
20
23.7438295
40
0.0937918
50
184.1070774
51
222.4604165
0
ARC
8
DEFAULT_255_1_388
10
9.9487863
20
23.7481538
40
0.1242838
50
179.9419581
51
185.0970785
0
LINE
8
DEFAULT_255_1_388
10
11.3036376
20
23.2106589
11
11.3036376
21
23.1266274
0
LINE
8
DEFAULT_255_1_388
10
11.0732287
20
22.5826816
11
11.3081554
21
22.3983544
0
LINE
8
DEFAULT_255_1_388
10
11.3081554
20
22.3983544
11
11.1897885
21
22.2890231
0
LINE
8
DEFAULT_255_1_388
10
11.1897885
20
22.2890231
11
10.9123942
21
22.5094929
0
LINE
8
DEFAULT_255_1_388
10
10.2446601
20
23.1148811
11
10.2446601
21
23.2097553
0
LINE
8
DEFAULT_255_1_388
10
11.1301532
20
23.1139775
11
11.1301532
21
23.2115625
0
LINE
8
DEFAULT_255_1_388
10
10.4181444
20
23.2233088
11
10.4181444
21
23.1266274
0
ARC
8
DEFAULT_255_1_388
10
10.2963256
20
23.1222529
40
1.0073215
50
351.4530536
51
0.2488167
0
ARC
8
DEFAULT_255_1_388
10
10.5871424
20
23.0772749
40
0.7130509
50
338.6860608
51
351.554089
0
ARC
8
DEFAULT_255_1_388
10
10.6923881
20
23.0400573
40
0.6014866
50
336.2886209
51
338.3448103
0
ARC
8
DEFAULT_255_1_388
10
10.7304125
20
23.0191952
40
0.5582958
50
321.1168943
51
336.6796496
0
ARC
8
DEFAULT_255_1_388
10
10.8014899
20
22.9644644
40
0.4686152
50
305.4418419
51
320.8706891
0
ARC
8
DEFAULT_255_1_388
10
10.7793763
20
23.0485492
40
0.5552257
50
271.6372169
51
283.8614231
0
ARC
8
DEFAULT_255_1_388
10
10.7751217
20
23.1226271
40
0.6293984
50
269.993693
51
271.8317035
0
ARC
8
DEFAULT_255_1_388
10
10.7709041
20
23.031468
40
0.5382553
50
252.5221437
51
270.441579
0
ARC
8
DEFAULT_255_1_388
10
10.7547292
20
22.9708046
40
0.4755426
50
237.5349961
51
252.1858334
0
ARC
8
DEFAULT_255_1_388
10
10.7647668
20
22.983612
40
0.4917393
50
209.0632754
51
237.3492577
0
ARC
8
DEFAULT_255_1_388
10
10.8626993
20
23.0451104
40
0.6072464
50
205.118533
51
209.6465345
0
ARC
8
DEFAULT_255_1_388
10
10.9522995
20
23.0831174
40
0.7045164
50
188.7216633
51
204.8239753
0
ARC
8
DEFAULT_255_1_388
10
11.1769771
20
23.1209387
40
0.9323368
50
180.3722704
51
188.9253909
0
ARC
8
DEFAULT_255_1_388
10
11.1739332
20
23.2142416
40
0.929284
50
169.5253055
51
180.2766048
0
ARC
8
DEFAULT_255_1_388
10
10.9599131
20
23.2536024
40
0.7116745
50
155.8314601
51
169.5088611
0
ARC
8
DEFAULT_255_1_388
10
10.8158594
20
23.3204312
40
0.5528904
50
139.6259579
51
156.0379072
0
ARC
8
DEFAULT_255_1_388
10
10.7495128
20
23.3738143
40
0.4677708
50
122.6414784
51
139.3431662
0
ARC
8
DEFAULT_255_1_388
10
10.7608383
20
23.3531787
40
0.4912586
50
93.0224537
51
122.4556091
0
ARC
8
DEFAULT_255_1_388
10
10.7729904
20
23.2445776
40
0.6003837
50
89.9756766
51
93.6340839
0
ARC
8
DEFAULT_255_1_388
10
10.7773602
20
23.2873547
40
0.5576216
50
73.9666049
51
90.4228101
0
ARC
8
DEFAULT_255_1_388
10
10.7980251
20
23.3678139
40
0.4745905
50
57.5177173
51
73.6814962
0
ARC
8
DEFAULT_255_1_388
10
10.7930474
20
23.3637592
40
0.4806881
50
28.7260666
51
57.2767723
0
ARC
8
DEFAULT_255_1_388
10
10.6905881
20
23.3004397
40
0.6010032
50
24.2451459
51
29.3250018
0
ARC
8
DEFAULT_255_1_388
10
10.5864346
20
23.2573744
40
0.713663
50
9.0643887
51
23.9639114
0
ARC
8
DEFAULT_255_1_388
10
10.3326783
20
23.2147505
40
0.9709678
50
359.7585581
51
9.1891216
0
ARC
8
DEFAULT_255_1_388
10
10.1915372
20
23.2162562
40
0.9386278
50
359.7134836
51
7.9655743
0
ARC
8
DEFAULT_255_1_388
10
10.5248071
20
23.2643391
40
0.6019121
50
7.8289718
51
20.0423308
0
ARC
8
DEFAULT_255_1_388
10
10.7075538
20
23.3308145
40
0.4074504
50
20.0676743
51
35.9162425
0
ARC
8
DEFAULT_255_1_388
10
10.7947417
20
23.3956196
40
0.2988273
50
35.659429
51
85.1578517
0
ARC
8
DEFAULT_255_1_388
10
10.7739579
20
23.2701214
40
0.4257521
50
83.7963246
51
90.0959039
0
ARC
8
DEFAULT_255_1_388
10
10.7691124
20
23.3526384
40
0.3432594
50
89.3101324
51
109.9889786
0
ARC
8
DEFAULT_255_1_388
10
10.7598314
20
23.3926665
40
0.3025108
50
110.9286914
51
143.9411475
0
ARC
8
DEFAULT_255_1_388
10
10.8645616
20
23.3125455
40
0.434348
50
143.5289166
51
163.2980252
0
ARC
8
DEFAULT_255_1_388
10
11.0791903
20
23.2450685
40
0.659321
50
163.0418884
51
174.3139873
0
ARC
8
DEFAULT_255_1_388
10
11.3496867
20
23.2138378
40
0.9315905
50
174.050934
51
179.4174954
0
ARC
8
DEFAULT_255_1_388
10
11.2918582
20
23.1217922
40
0.8737271
50
179.6829249
51
188.9631837
0
ARC
8
DEFAULT_255_1_388
10
10.9914313
20
23.0728648
40
0.569348
50
188.8098723
51
202.9300437
0
ARC
8
DEFAULT_255_1_388
10
10.8546044
20
23.0171968
40
0.4216493
50
203.2071737
51
215.7877161
0
ARC
8
DEFAULT_255_1_388
10
10.7591328
20
22.941685
40
0.3000949
50
214.7520738
51
264.283405
0
ARC
8
DEFAULT_255_1_388
10
10.7743919
20
23.0378645
40
0.3973553
50
263.4754673
51
270.0952411
0
ARC
8
DEFAULT_255_1_388
10
10.7791312
20
23.0084808
40
0.3679937
50
269.3649295
51
287.5149684
0
ARC
8
DEFAULT_255_1_388
10
10.7991752
20
22.9356714
40
0.2925408
50
288.0629019
51
323.8115617
0
ARC
8
DEFAULT_255_1_388
10
10.7011729
20
23.0087754
40
0.4148018
50
323.6546541
51
342.6591359
0
ARC
8
DEFAULT_255_1_388
10
10.4726386
20
23.083128
40
0.6551163
50
342.4092446
51
353.6451501
0
ARC
8
DEFAULT_255_1_388
10
10.154118
20
23.1227565
40
0.9760748
50
353.4027553
51
359.4846611
0
LINE
8
DEFAULT_255_1_388
10
11.8927616
20
23.1383737
11
11.8927616
21
23.0019355
0
LINE
8
DEFAULT_255_1_388
10
11.8927616
20
23.0019355
11
11.4518222
21
23.0019355
0
LINE
8
DEFAULT_255_1_388
10
11.4518222
20
23.0019355
11
11.4518222
21
23.1383737
0
LINE
8
DEFAULT_255_1_388
10
11.4518222
20
23.1383737
11
11.8927616
21
23.1383737
0
LINE
8
DEFAULT_255_1_388
10
12.8496364
20
22.5113
11
12.56411
21
23.0434995
0
LINE
8
DEFAULT_255_1_388
10
12.56411
20
23.0434995
11
12.255091
21
23.0434995
0
LINE
8
DEFAULT_255_1_388
10
12.255091
20
23.0434995
11
12.255091
21
22.5113
0
LINE
8
DEFAULT_255_1_388
10
12.255091
20
22.5113
11
12.080703
21
22.5113
0
LINE
8
DEFAULT_255_1_388
10
12.080703
20
22.5113
11
12.080703
21
23.8268898
0
LINE
8
DEFAULT_255_1_388
10
12.080703
20
23.8268898
11
12.5162211
21
23.8268898
0
LINE
8
DEFAULT_255_1_388
10
12.7267516
20
23.0805456
11
13.0357707
21
22.5221428
0
LINE
8
DEFAULT_255_1_388
10
13.0357707
20
22.5221428
11
13.0357707
21
22.5113
0
LINE
8
DEFAULT_255_1_388
10
13.0357707
20
22.5113
11
12.8496364
21
22.5113
0
LINE
8
DEFAULT_255_1_388
10
12.255091
20
23.6841267
11
12.255091
21
23.1853591
0
LINE
8
DEFAULT_255_1_388
10
12.255091
20
23.1853591
11
12.5216425
21
23.1853591
0
LINE
8
DEFAULT_255_1_388
10
12.5207389
20
23.6841267
11
12.255091
21
23.6841267
0
ARC
8
DEFAULT_255_1_388
10
12.5209057
20
23.0437346
40
0.7831693
50
80.6535681
51
90.3427203
0
ARC
8
DEFAULT_255_1_388
10
12.5680967
20
23.3207722
40
0.5021479
50
65.6987674
51
80.8330164
0
ARC
8
DEFAULT_255_1_388
10
12.6218261
20
23.4439479
40
0.3677787
50
50.0019152
51
65.4304412
0
ARC
8
DEFAULT_255_1_388
10
12.6464077
20
23.4771603
40
0.3265454
50
11.6284215
51
49.5603681
0
ARC
8
DEFAULT_255_1_388
10
12.4736563
20
23.4349524
40
0.5043009
50
359.5655533
51
12.3693319
0
ARC
8
DEFAULT_255_1_388
10
12.59479
20
23.4279038
40
0.3831661
50
341.998418
51
0.4822212
0
ARC
8
DEFAULT_255_1_388
10
12.6392086
20
23.4158479
40
0.3372036
50
323.8610842
51
341.6141514
0
ARC
8
DEFAULT_255_1_388
10
12.6052632
20
23.4420615
40
0.3800784
50
296.7019299
51
323.6876213
0
ARC
8
DEFAULT_255_1_388
10
12.555659
20
23.5307532
40
0.4816219
50
290.808313
51
297.2325929
0
ARC
8
DEFAULT_255_1_388
10
12.5245384
20
23.5896377
40
0.404289
50
269.5895908
51
281.8058892
0
ARC
8
DEFAULT_255_1_388
10
12.552765
20
23.460536
40
0.2721459
50
281.5499321
51
303.9358954
0
ARC
8
DEFAULT_255_1_388
10
12.5682185
20
23.4337588
40
0.2413121
50
304.4410786
51
311.211123
0
ARC
8
DEFAULT_255_1_388
10
12.583059
20
23.4181152
40
0.2197678
50
310.9874923
51
356.2715203
0
ARC
8
DEFAULT_255_1_388
10
12.4980336
20
23.4307992
40
0.3055212
50
354.9346315
51
0.0617816
0
ARC
8
DEFAULT_255_1_388
10
12.4769177
20
23.4338427
40
0.3266482
50
359.5239293
51
12.8808621
0
ARC
8
DEFAULT_255_1_388
10
12.586894
20
23.4607638
40
0.2134449
50
12.417206
51
43.1023141
0
ARC
8
DEFAULT_255_1_388
10
12.593827
20
23.4649253
40
0.2055463
50
43.575886
51
48.2047245
0
ARC
8
DEFAULT_255_1_388
10
12.5747531
20
23.4400151
40
0.2368418
50
48.7809155
51
72.6968768
0
ARC
8
DEFAULT_255_1_388
10
12.5348895
20
23.3190385
40
0.364206
50
72.3699892
51
84.8793749
0
ARC
8
DEFAULT_255_1_388
10
12.5182901
20
23.1680651
40
0.5160674
50
84.5398226
51
89.7281165
0
LINE
8
DEFAULT_255_1_388
10
14.5519518
20
23.4464892
11
14.3775639
21
23.4464892
0
LINE
8
DEFAULT_255_1_388
10
13.5986913
20
22.8926042
11
13.7730792
21
22.8926042
0
ARC
8
DEFAULT_255_1_388
10
14.4516366
20
24.4528821
40
1.4087688
50
248.9196578
51
254.1442424
0
ARC
8
DEFAULT_255_1_388
10
14.2626246
20
23.9662805
40
0.8867498
50
241.6337352
51
249.0064643
0
ARC
8
DEFAULT_255_1_388
10
14.0906559
20
23.6511764
40
0.5277799
50
230.4982261
51
241.8087583
0
ARC
8
DEFAULT_255_1_388
10
14.002433
20
23.5387686
40
0.3849419
50
227.4062979
51
229.9877433
0
ARC
8
DEFAULT_255_1_388
10
13.9475677
20
23.4852155
40
0.3084129
50
200.6782127
51
228.1765252
0
ARC
8
DEFAULT_255_1_388
10
13.9557046
20
23.4835277
40
0.315461
50
179.506278
51
199.8695278
0
ARC
8
DEFAULT_255_1_388
10
13.9546634
20
23.4918671
40
0.3144584
50
132.4834401
51
181.0242352
0
ARC
8
DEFAULT_255_1_388
10
14.0215839
20
23.4286788
40
0.4063094
50
129.2526113
51
133.4249077
0
ARC
8
DEFAULT_255_1_388
10
14.0381431
20
23.4038619
40
0.436014
50
101.9878945
51
128.8741833
0
ARC
8
DEFAULT_255_1_388
10
14.0829847
20
23.210236
40
0.6347415
50
89.5906376
51
102.3170567
0
ARC
8
DEFAULT_255_1_388
10
14.0909158
20
23.2460586
40
0.5989122
50
77.2359491
51
90.3248968
0
ARC
8
DEFAULT_255_1_388
10
14.1142089
20
23.3548554
40
0.4876594
50
63.8379856
51
77.0808925
0
ARC
8
DEFAULT_255_1_388
10
14.1454623
20
23.4130882
40
0.4216191
50
45.9863127
51
64.1608798
0
ARC
8
DEFAULT_255_1_388
10
14.1748016
20
23.446599
40
0.3771394
50
32.2747934
51
45.6544796
0
ARC
8
DEFAULT_255_1_388
10
14.1822823
20
23.4487426
40
0.3696765
50
359.6507495
51
32.6129943
0
ARC
8
DEFAULT_255_1_388
10
14.0762005
20
23.4492788
40
0.3013762
50
359.469654
51
14.983205
0
ARC
8
DEFAULT_255_1_388
10
14.1555258
20
23.4705288
40
0.2192542
50
14.9781954
51
48.2004799
0
ARC
8
DEFAULT_255_1_388
10
14.1370369
20
23.4472937
40
0.2489048
50
48.5926661
51
74.1242559
0
ARC
8
DEFAULT_255_1_388
10
14.0995171
20
23.3234607
40
0.3782845
50
73.7889321
51
86.6653996
0
ARC
8
DEFAULT_255_1_388
10
14.0879986
20
23.1876955
40
0.5145025
50
86.2642725
51
90.0533288
0
ARC
8
DEFAULT_255_1_388
10
14.0848078
20
23.2321376
40
0.4700681
50
89.669455
51
99.2313411
0
ARC
8
DEFAULT_255_1_388
10
14.0575238
20
23.3946401
40
0.3052945
50
99.0695987
51
113.7659242
0
ARC
8
DEFAULT_255_1_388
10
14.0267232
20
23.4672772
40
0.226407
50
114.0402885
51
127.9848946
0
ARC
8
DEFAULT_255_1_388
10
13.9996709
20
23.5005884
40
0.1835045
50
127.7287217
51
176.7106493
0
ARC
8
DEFAULT_255_1_388
10
14.0760374
20
23.489221
40
0.2604907
50
175.1780759
51
180.0581213
0
ARC
8
DEFAULT_255_1_388
10
13.9811717
20
23.4878411
40
0.1656287
50
179.6140658
51
228.124674
0
ARC
8
DEFAULT_255_1_388
10
14.0309075
20
23.533894
40
0.2332038
50
226.5785315
51
230.8792476
0
ARC
8
DEFAULT_255_1_388
10
14.0838561
20
23.6041908
40
0.3211664
50
231.4636401
51
241.9261664
0
ARC
8
DEFAULT_255_1_388
10
14.2185345
20
23.8520349
40
0.6032345
50
241.7177136
51
248.3259138
0
ARC
8
DEFAULT_255_1_388
10
14.374394
20
24.2381771
40
1.0196417
50
248.2007377
51
252.4527713
0
ARC
8
DEFAULT_255_1_388
10
14.5097466
20
24.6566092
40
1.4594143
50
252.3388938
51
254.347037
0
ARC
8
DEFAULT_255_1_388
10
13.6612767
20
21.6218095
40
1.6917621
50
71.0197462
51
74.4085467
0
ARC
8
DEFAULT_255_1_388
10
13.8519855
20
22.1723144
40
1.1091618
50
66.1845203
51
71.086519
0
ARC
8
DEFAULT_255_1_388
10
14.0270403
20
22.5664439
40
0.6779073
50
59.3537334
51
66.269255
0
ARC
8
DEFAULT_255_1_388
10
14.1270129
20
22.7355777
40
0.4814366
50
49.1021732
51
59.3294421
0
ARC
8
DEFAULT_255_1_388
10
14.2191118
20
22.8405575
40
0.3417875
50
32.7924183
51
49.2503526
0
ARC
8
DEFAULT_255_1_388
10
14.2540732
20
22.8655311
40
0.2988789
50
31.121225
51
32.3977355
0
ARC
8
DEFAULT_255_1_388
10
14.245291
20
22.8622728
40
0.3080861
50
8.1116803
51
30.7958224
0
ARC
8
DEFAULT_255_1_388
10
14.1541255
20
22.8467437
40
0.4005385
50
359.8390945
51
8.4707348
0
ARC
8
DEFAULT_255_1_388
10
14.2245303
20
22.8412751
40
0.3301608
50
337.4732479
51
0.7538283
0
ARC
8
DEFAULT_255_1_388
10
14.2446328
20
22.8390554
40
0.3107929
50
307.5917028
51
336.4313755
0
ARC
8
DEFAULT_255_1_388
10
14.1935386
20
22.8958509
40
0.3870096
50
307.6560665
51
308.4561779
0
ARC
8
DEFAULT_255_1_388
10
14.1669602
20
22.9366832
40
0.435591
50
284.3733666
51
307.1426212
0
ARC
8
DEFAULT_255_1_388
10
14.1112497
20
23.1416391
40
0.6479685
50
272.4384566
51
284.6464689
0
ARC
8
DEFAULT_255_1_388
10
14.0969882
20
23.3440434
40
0.8508149
50
269.9708517
51
272.8180721
0
ARC
8
DEFAULT_255_1_388
10
14.0921564
20
23.1148283
40
0.6216151
50
248.2707343
51
270.4054609
0
ARC
8
DEFAULT_255_1_388
10
14.0860436
20
23.0933673
40
0.5994203
50
246.1380358
51
248.054058
0
ARC
8
DEFAULT_255_1_388
10
14.0389578
20
22.9944705
40
0.4899388
50
233.1671897
51
246.4951656
0
ARC
8
DEFAULT_255_1_388
10
13.9766213
20
22.9103137
40
0.3852115
50
215.3403381
51
233.084328
0
ARC
8
DEFAULT_255_1_388
10
13.9459578
20
22.8880093
40
0.3472969
50
179.2419235
51
215.2648426
0
ARC
8
DEFAULT_255_1_388
10
14.0323128
20
22.8895979
40
0.259251
50
179.3355796
51
199.1045873
0
ARC
8
DEFAULT_255_1_388
10
13.994927
20
22.8798223
40
0.2207454
50
199.8830064
51
232.7061328
0
ARC
8
DEFAULT_255_1_388
10
14.0480545
20
22.9466456
40
0.306101
50
232.3736206
51
255.5136621
0
ARC
8
DEFAULT_255_1_388
10
14.086405
20
23.0866177
40
0.4512213
50
255.2447928
51
267.5318292
0
ARC
8
DEFAULT_255_1_388
10
14.0962517
20
23.2252709
40
0.5901825
50
267.1564563
51
270.0294721
0
ARC
8
DEFAULT_255_1_388
10
14.0993843
20
23.1753623
40
0.5402814
50
269.6999944
51
278.1662446
0
ARC
8
DEFAULT_255_1_388
10
14.128187
20
22.9806974
40
0.3435003
50
278.0229022
51
290.6255326
0
ARC
8
DEFAULT_255_1_388
10
14.1673037
20
22.8763547
40
0.2320666
50
290.6616368
51
307.0374127
0
ARC
8
DEFAULT_255_1_388
10
14.2010937
20
22.834904
40
0.1786372
50
306.3942078
51
355.303191
0
ARC
8
DEFAULT_255_1_388
10
14.143523
20
22.8435186
40
0.2367516
50
354.3662092
51
0.0709489
0
ARC
8
DEFAULT_255_1_388
10
14.1595099
20
22.8460561
40
0.2207761
50
359.4175379
51
16.1975911
0
ARC
8
DEFAULT_255_1_388
10
14.2107216
20
22.8600954
40
0.1676828
50
16.4721294
51
52.6261798
0
ARC
8
DEFAULT_255_1_388
10
14.1183724
20
22.7381606
40
0.3206412
50
52.7381828
51
62.4979144
0
ARC
8
DEFAULT_255_1_388
10
13.9625476
20
22.4449236
40
0.6527035
50
62.2517425
51
68.1219454
0
ARC
8
DEFAULT_255_1_388
10
13.7690965
20
21.9694951
40
1.1659797
50
68.006043
51
71.8055127
0
ARC
8
DEFAULT_255_1_388
10
13.5670872
20
21.3636723
40
1.8045908
50
71.718361
51
73.9260743
0
LINE
8
DEFAULT_255_1_388
10
14.7082685
20
22.9730214
11
14.7082685
21
23.0037426
0
LINE
8
DEFAULT_255_1_388
10
15.5377406
20
23.0218139
11
15.5377406
21
22.9522395
0
LINE
8
DEFAULT_255_1_388
10
15.5377406
20
22.9522395
11
14.8754279
21
22.9522395
0
LINE
8
DEFAULT_255_1_388
10
15.4229879
20
22.7615874
11
15.5250907
21
22.6820737
0
LINE
8
DEFAULT_255_1_388
10
14.8808493
20
23.0895813
11
15.3705812
21
23.0895813
0
LINE
8
DEFAULT_255_1_388
10
15.3705812
20
23.0895813
11
15.3705812
21
23.1022312
0
ARC
8
DEFAULT_255_1_388
10
15.1514446
20
22.985521
40
0.4923176
50
252.326534
51
270.5809615
0
ARC
8
DEFAULT_255_1_388
10
15.128391
20
22.902194
40
0.4059384
50
223.3000488
51
251.8562489
0
ARC
8
DEFAULT_255_1_388
10
15.152169
20
22.9252898
40
0.4390832
50
190.9374369
51
223.3654369
0
ARC
8
DEFAULT_255_1_388
10
15.3462368
20
22.9691598
40
0.63798
50
179.6531919
51
191.4988561
0
ARC
8
DEFAULT_255_1_388
10
15.3599395
20
23.0073571
40
0.6516811
50
167.4005523
51
180.3177836
0
ARC
8
DEFAULT_255_1_388
10
15.2416066
20
23.0323853
40
0.5307402
50
154.1835149
51
167.2508278
0
ARC
8
DEFAULT_255_1_388
10
15.1705657
20
23.0697925
40
0.4505076
50
134.3150225
51
154.5315008
0
ARC
8
DEFAULT_255_1_388
10
15.1460992
20
23.091255
40
0.4180662
50
122.8617482
51
133.9707159
0
ARC
8
DEFAULT_255_1_388
10
15.13446
20
23.1162882
40
0.3907416
50
89.8248474
51
123.4199325
0
ARC
8
DEFAULT_255_1_388
10
15.1400898
20
23.0435352
40
0.4635141
50
74.7874349
51
90.5482648
0
ARC
8
DEFAULT_255_1_388
10
15.1731361
20
23.1655987
40
0.3370565
50
39.8178888
51
74.7634383
0
ARC
8
DEFAULT_255_1_388
10
15.1154604
20
23.1206356
40
0.4101553
50
16.8990848
51
39.4830125
0
ARC
8
DEFAULT_255_1_388
10
14.9023218
20
23.0523711
40
0.6339427
50
4.9634768
51
17.2027767
0
ARC
8
DEFAULT_255_1_388
10
14.6302623
20
23.02366
40
0.9074803
50
359.8834402
51
5.2832409
0
ARC
8
DEFAULT_255_1_388
10
15.3094981
20
22.9596981
40
0.4341343
50
180.9844233
51
194.9402766
0
ARC
8
DEFAULT_255_1_388
10
15.1914146
20
22.927417
40
0.3117211
50
194.8030557
51
222.0412897
0
ARC
8
DEFAULT_255_1_388
10
15.1572018
20
22.8934715
40
0.2635903
50
221.541578
51
268.8616004
0
ARC
8
DEFAULT_255_1_388
10
15.1654139
20
22.969528
40
0.3398611
50
267.7321071
51
270.009808
0
ARC
8
DEFAULT_255_1_388
10
15.1674203
20
22.9922178
40
0.3625561
50
269.6921218
51
280.4122297
0
ARC
8
DEFAULT_255_1_388
10
15.1872614
20
22.8888767
40
0.2573323
50
280.2257165
51
298.633539
0
ARC
8
DEFAULT_255_1_388
10
15.1998028
20
22.8624578
40
0.2281403
50
299.0485543
51
300.4624141
0
ARC
8
DEFAULT_255_1_388
10
15.1239008
20
22.9889796
40
0.3756797
50
300.6578578
51
322.037749
0
ARC
8
DEFAULT_255_1_388
10
15.086853
20
23.0213266
40
0.4247956
50
321.671786
51
322.3059078
0
ARC
8
DEFAULT_255_1_388
10
15.1892092
20
22.8919267
40
0.3960488
50
276.9729088
51
328.0035579
0
ARC
8
DEFAULT_255_1_388
10
15.1580563
20
23.0584609
40
0.5652345
50
269.8358003
51
278.0581296
0
ARC
8
DEFAULT_255_1_388
10
15.1324862
20
23.142282
40
0.2274263
50
89.2017936
51
117.2852353
0
ARC
8
DEFAULT_255_1_388
10
15.1384613
20
23.1375637
40
0.2343798
50
118.0546404
51
137.4544511
0
ARC
8
DEFAULT_255_1_388
10
15.1806256
20
23.0992556
40
0.2913471
50
137.5109688
51
158.8516701
0
ARC
8
DEFAULT_255_1_388
10
15.3086357
20
23.0475902
40
0.4293804
50
158.5845496
51
170.1719753
0
ARC
8
DEFAULT_255_1_388
10
15.4402692
20
23.0214519
40
0.5635533
50
169.8378964
51
173.0563877
0
ARC
8
DEFAULT_255_1_388
10
14.9117976
20
23.0789187
40
0.4593755
50
2.9089079
51
12.88469
0
ARC
8
DEFAULT_255_1_388
10
15.0659896
20
23.1152082
40
0.3009753
50
12.6957404
51
28.6405841
0
ARC
8
DEFAULT_255_1_388
10
15.1269392
20
23.1467577
40
0.232366
50
29.016559
51
41.1492981
0
ARC
8
DEFAULT_255_1_388
10
15.1497371
20
23.166608
40
0.2021373
50
41.1646967
51
85.001362
0
ARC
8
DEFAULT_255_1_388
10
15.1361376
20
23.0839775
40
0.2857091
50
83.728216
51
90.0968824
0
LINE
8
DEFAULT_255_1_388
10
16.2036676
20
23.4943781
11
16.2036676
21
23.338965
0
LINE
8
DEFAULT_255_1_388
10
15.8982628
20
23.2052375
11
15.8982628
21
22.5113
0
LINE
8
DEFAULT_255_1_388
10
15.8982628
20
22.5113
11
15.7311034
21
22.5113
0
LINE
8
DEFAULT_255_1_388
10
15.7311034
20
22.5113
11
15.7311034
21
23.4889567
0
LINE
8
DEFAULT_255_1_388
10
15.7311034
20
23.4889567
11
15.893745
21
23.4889567
0
LINE
8
DEFAULT_255_1_388
10
15.893745
20
23.4889567
11
15.8964557
21
23.3760112
0
ARC
8
DEFAULT_255_1_388
10
16.1286836
20
22.8823068
40
0.4627735
50
80.6751522
51
86.893806
0
ARC
8
DEFAULT_255_1_388
10
16.1218666
20
22.7731103
40
0.5721798
50
86.8046851
51
90.0423898
0
ARC
8
DEFAULT_255_1_388
10
16.1177086
20
23.0498197
40
0.2954939
50
89.2758283
51
106.6212906
0
ARC
8
DEFAULT_255_1_388
10
16.094711
20
23.1334009
40
0.2088351
50
107.1347109
51
157.6456887
0
ARC
8
DEFAULT_255_1_388
10
16.1715172
20
23.0906908
40
0.296292
50
155.6557383
51
157.256838
0
ARC
8
DEFAULT_255_1_388
10
16.1494787
20
23.2217472
40
0.296341
50
127.8167201
51
148.6300223
0
ARC
8
DEFAULT_255_1_388
10
16.1209534
20
23.2510066
40
0.2557782
50
91.3329934
51
126.7875218
0
ARC
8
DEFAULT_255_1_388
10
16.1294921
20
23.1706718
40
0.3363561
50
89.9858247
51
92.4688453
0
ARC
8
DEFAULT_255_1_388
10
16.1304414
20
23.2015114
40
0.3055179
50
85.3587643
51
90.1624243
0
ARC
8
DEFAULT_255_1_388
10
16.1399479
20
23.3144458
40
0.1921848
50
78.4019195
51
85.4592653
0
ARC
8
DEFAULT_255_1_388
10
16.156254
20
23.3922142
40
0.1127267
50
67.7849217
51
78.573798
0
ARC
8
DEFAULT_255_1_388
10
16.1684175
20
23.4237374
40
0.0789473
50
63.4805074
51
67.3074739
0
LINE
8
DEFAULT_255_1_388
10
16.53889
20
23.4889567
11
16.53889
21
22.5113
0
LINE
8
DEFAULT_255_1_388
10
16.53889
20
22.5113
11
16.3717306
21
22.5113
0
LINE
8
DEFAULT_255_1_388
10
16.3717306
20
22.5113
11
16.3717306
21
23.4889567
0
LINE
8
DEFAULT_255_1_388
10
16.3717306
20
23.4889567
11
16.53889
21
23.4889567
0
ARC
8
DEFAULT_255_1_388
10
16.4682668
20
23.7493428
40
0.1100948
50
161.4148232
51
180.5532607
0
ARC
8
DEFAULT_255_1_388
10
16.4542978
20
23.7531875
40
0.0956324
50
138.1830164
51
160.9307633
0
ARC
8
DEFAULT_255_1_388
10
16.4419165
20
23.7639313
40
0.0792417
50
104.6371663
51
138.0036136
0
ARC
8
DEFAULT_255_1_388
10
16.4539704
20
23.7226963
40
0.1221906
50
92.0601206
51
105.2198859
0
ARC
8
DEFAULT_255_1_388
10
16.4566068
20
23.6838583
40
0.161103
50
89.9790681
51
92.5006086
0
ARC
8
DEFAULT_255_1_388
10
16.4577244
20
23.7094998
40
0.1354654
50
78.0234649
51
90.4478111
0
ARC
8
DEFAULT_255_1_388
10
16.4680829
20
23.7560203
40
0.0878096
50
55.0521508
51
78.336297
0
ARC
8
DEFAULT_255_1_388
10
16.4737363
20
23.7655168
40
0.0767913
50
42.0506198
51
54.4508489
0
ARC
8
DEFAULT_255_1_388
10
16.4585396
20
23.7515821
40
0.0974091
50
1.7493657
51
42.1498724
0
ARC
8
DEFAULT_255_1_388
10
16.4299302
20
23.7483166
40
0.1261276
50
359.9832635
51
2.8353994
0
ARC
8
DEFAULT_255_1_388
10
16.4485712
20
23.7472412
40
0.1074916
50
342.1062453
51
0.5535864
0
ARC
8
DEFAULT_255_1_388
10
16.4646136
20
23.7428197
40
0.0908695
50
316.7110111
51
341.6513114
0
ARC
8
DEFAULT_255_1_388
10
16.4721568
20
23.7360607
40
0.0807447
50
285.4398289
51
316.5320129
0
ARC
8
DEFAULT_255_1_388
10
16.4597738
20
23.7772023
40
0.1237022
50
272.3543902
51
285.8951677
0
ARC
8
DEFAULT_255_1_388
10
16.4567448
20
23.8187742
40
0.1653687
50
269.9725761
51
272.8112722
0
ARC
8
DEFAULT_255_1_388
10
16.45565
20
23.7936727
40
0.1402709
50
258.8433431
51
270.4148607
0
ARC
8
DEFAULT_255_1_388
10
16.445528
20
23.7446739
40
0.0902407
50
238.54281
51
259.1289544
0
ARC
8
DEFAULT_255_1_388
10
16.4378602
20
23.7307694
40
0.0743817
50
222.5056676
51
237.9918132
0
ARC
8
DEFAULT_255_1_388
10
16.4522195
20
23.7438295
40
0.0937918
50
184.1070774
51
222.4604165
0
ARC
8
DEFAULT_255_1_388
10
16.4824609
20
23.7481538
40
0.1242838
50
179.9419581
51
185.0970785
0
LINE
8
DEFAULT_255_1_388
10
16.7638776
20
22.9730214
11
16.7638776
21
23.0037426
0
LINE
8
DEFAULT_255_1_388
10
17.5933498
20
23.0218139
11
17.5933498
21
22.9522395
0
LINE
8
DEFAULT_255_1_388
10
17.5933498
20
22.9522395
11
16.931037
21
22.9522395
0
LINE
8
DEFAULT_255_1_388
10
17.4785971
20
22.7615874
11
17.5806999
21
22.6820737
0
LINE
8
DEFAULT_255_1_388
10
16.9364584
20
23.0895813
11
17.4261903
21
23.0895813
0
LINE
8
DEFAULT_255_1_388
10
17.4261903
20
23.0895813
11
17.4261903
21
23.1022312
0
ARC
8
DEFAULT_255_1_388
10
17.2070537
20
22.985521
40
0.4923176
50
252.326534
51
270.5809615
0
ARC
8
DEFAULT_255_1_388
10
17.1840001
20
22.902194
40
0.4059384
50
223.3000488
51
251.8562489
0
ARC
8
DEFAULT_255_1_388
10
17.2077781
20
22.9252898
40
0.4390832
50
190.9374369
51
223.3654369
0
ARC
8
DEFAULT_255_1_388
10
17.4018459
20
22.9691598
40
0.63798
50
179.6531919
51
191.4988561
0
ARC
8
DEFAULT_255_1_388
10
17.4155486
20
23.0073571
40
0.6516811
50
167.4005523
51
180.3177836
0
ARC
8
DEFAULT_255_1_388
10
17.2972158
20
23.0323853
40
0.5307402
50
154.1835149
51
167.2508278
0
ARC
8
DEFAULT_255_1_388
10
17.2261749
20
23.0697925
40
0.4505076
50
134.3150225
51
154.5315008
0
ARC
8
DEFAULT_255_1_388
10
17.2017084
20
23.091255
40
0.4180662
50
122.8617482
51
133.9707159
0
ARC
8
DEFAULT_255_1_388
10
17.1900691
20
23.1162882
40
0.3907416
50
89.8248474
51
123.4199325
0
ARC
8
DEFAULT_255_1_388
10
17.1956989
20
23.0435352
40
0.4635141
50
74.7874349
51
90.5482648
0
ARC
8
DEFAULT_255_1_388
10
17.2287453
20
23.1655987
40
0.3370565
50
39.8178888
51
74.7634383
0
ARC
8
DEFAULT_255_1_388
10
17.1710695
20
23.1206356
40
0.4101553
50
16.8990848
51
39.4830125
0
ARC
8
DEFAULT_255_1_388
10
16.9579309
20
23.0523711
40
0.6339427
50
4.9634768
51
17.2027767
0
ARC
8
DEFAULT_255_1_388
10
16.6858714
20
23.02366
40
0.9074803
50
359.8834402
51
5.2832409
0
ARC
8
DEFAULT_255_1_388
10
17.3651072
20
22.9596981
40
0.4341343
50
180.9844233
51
194.9402766
0
ARC
8
DEFAULT_255_1_388
10
17.2470238
20
22.927417
40
0.3117211
50
194.8030557
51
222.0412897
0
ARC
8
DEFAULT_255_1_388
10
17.212811
20
22.8934715
40
0.2635903
50
221.541578
51
268.8616004
0
ARC
8
DEFAULT_255_1_388
10
17.221023
20
22.969528
40
0.3398611
50
267.7321071
51
270.009808
0
ARC
8
DEFAULT_255_1_388
10
17.2230294
20
22.9922178
40
0.3625561
50
269.6921218
51
280.4122297
0
ARC
8
DEFAULT_255_1_388
10
17.2428705
20
22.8888767
40
0.2573323
50
280.2257165
51
298.633539
0
ARC
8
DEFAULT_255_1_388
10
17.2554119
20
22.8624578
40
0.2281403
50
299.0485543
51
300.4624141
0
ARC
8
DEFAULT_255_1_388
10
17.1795099
20
22.9889796
40
0.3756797
50
300.6578578
51
322.037749
0
ARC
8
DEFAULT_255_1_388
10
17.1424621
20
23.0213266
40
0.4247956
50
321.671786
51
322.3059078
0
ARC
8
DEFAULT_255_1_388
10
17.2448184
20
22.8919267
40
0.3960488
50
276.9729088
51
328.0035579
0
ARC
8
DEFAULT_255_1_388
10
17.2136654
20
23.0584609
40
0.5652345
50
269.8358003
51
278.0581296
0
ARC
8
DEFAULT_255_1_388
10
17.1880953
20
23.142282
40
0.2274263
50
89.2017936
51
117.2852353
0
ARC
8
DEFAULT_255_1_388
10
17.1940704
20
23.1375637
40
0.2343798
50
118.0546404
51
137.4544511
0
ARC
8
DEFAULT_255_1_388
10
17.2362348
20
23.0992556
40
0.2913471
50
137.5109688
51
158.8516701
0
ARC
8
DEFAULT_255_1_388
10
17.3642448
20
23.0475902
40
0.4293804
50
158.5845496
51
170.1719753
0
ARC
8
DEFAULT_255_1_388
10
17.4958784
20
23.0214519
40
0.5635533
50
169.8378964
51
173.0563877
0
ARC
8
DEFAULT_255_1_388
10
16.9674068
20
23.0789187
40
0.4593755
50
2.9089079
51
12.88469
0
ARC
8
DEFAULT_255_1_388
10
17.1215987
20
23.1152082
40
0.3009753
50
12.6957404
51
28.6405841
0
ARC
8
DEFAULT_255_1_388
10
17.1825484
20
23.1467577
40
0.232366
50
29.016559
51
41.1492981
0
ARC
8
DEFAULT_255_1_388
10
17.2053463
20
23.166608
40
0.2021373
50
41.1646967
51
85.001362
0
ARC
8
DEFAULT_255_1_388
10
17.1917467
20
23.0839775
40
0.2857091
50
83.728216
51
90.0968824
0
LINE
8
DEFAULT_255_1_388
10
18.5140819
20
23.2016232
11
18.3460189
21
23.2016232
0
LINE
8
DEFAULT_255_1_388
10
17.7460521
20
22.812187
11
17.9132116
21
22.812187
0
ARC
8
DEFAULT_255_1_388
10
18.212348
20
22.7722935
40
0.1436198
50
359.3335374
51
18.5869869
0
ARC
8
DEFAULT_255_1_388
10
18.235822
20
22.7785015
40
0.1194022
50
19.3538149
51
54.6486387
0
ARC
8
DEFAULT_255_1_388
10
18.1791207
20
22.7003077
40
0.2159877
50
54.3821575
51
65.0627557
0
ARC
8
DEFAULT_255_1_388
10
18.0926554
20
22.5184032
40
0.4173927
50
64.8282172
51
71.4204388
0
ARC
8
DEFAULT_255_1_388
10
17.991145
20
22.2205782
40
0.7320403
50
71.3166092
51
75.8005927
0
ARC
8
DEFAULT_255_1_388
10
17.8965335
20
21.8560881
40
1.108605
50
75.6810806
51
78.0063886
0
ARC
8
DEFAULT_255_1_388
10
18.3969924
20
24.216253
40
1.3040363
50
254.69024
51
258.0465557
0
ARC
8
DEFAULT_255_1_388
10
18.2801793
20
23.7932742
40
0.8652254
50
249.9010634
51
254.7555005
0
ARC
8
DEFAULT_255_1_388
10
18.1672845
20
23.486668
40
0.5384962
50
243.3097375
51
249.970939
0
ARC
8
DEFAULT_255_1_388
10
18.0965259
20
23.3455721
40
0.380652
50
234.4047808
51
243.2861752
0
ARC
8
DEFAULT_255_1_388
10
18.0264895
20
23.2488645
40
0.2612502
50
220.8665526
51
234.5497192
0
ARC
8
DEFAULT_255_1_388
10
17.9879894
20
23.2138203
40
0.2092097
50
214.3063391
51
220.5075055
0
ARC
8
DEFAULT_255_1_388
10
17.9851008
20
23.2103577
40
0.2048755
50
186.9131438
51
213.9617385
0
ARC
8
DEFAULT_255_1_388
10
18.0449398
20
23.2200431
40
0.2654563
50
179.8802037
51
187.4338578
0
ARC
8
DEFAULT_255_1_388
10
18.0275362
20
23.2223049
40
0.2480581
50
132.0053393
51
180.3942351
0
ARC
8
DEFAULT_255_1_388
10
18.1014275
20
23.1540997
40
0.3483116
50
129.2317021
51
133.5294826
0
ARC
8
DEFAULT_255_1_388
10
18.1074244
20
23.1435383
40
0.360291
50
100.440976
51
128.9081567
0
ARC
8
DEFAULT_255_1_388
10
18.1382362
20
22.9989357
40
0.5080996
50
89.6985063
51
100.9029043
0
ARC
8
DEFAULT_255_1_388
10
18.1446517
20
22.9808739
40
0.5261675
50
77.6967144
51
90.4074623
0
ARC
8
DEFAULT_255_1_388
10
18.1818869
20
23.1414503
40
0.3613511
50
50.7278431
51
78.0397473
0
ARC
8
DEFAULT_255_1_388
10
18.2318912
20
23.1997173
40
0.2845966
50
25.754382
51
51.0957456
0
ARC
8
DEFAULT_255_1_388
10
18.2320279
20
23.2053311
40
0.2820785
50
359.2468358
51
24.7393861
0
ARC
8
DEFAULT_255_1_388
10
18.2000166
20
23.2021204
40
0.1460032
50
359.8048924
51
45.1543866
0
ARC
8
DEFAULT_255_1_388
10
18.15419
20
23.1629291
40
0.2061641
50
43.8053172
51
49.625485
0
ARC
8
DEFAULT_255_1_388
10
18.1551342
20
23.1630849
40
0.2054344
50
49.7979696
51
82.121802
0
ARC
8
DEFAULT_255_1_388
10
18.1417425
20
23.0903473
40
0.2793404
50
81.4458692
51
90.1707936
0
ARC
8
DEFAULT_255_1_388
10
18.1390002
20
23.0311478
40
0.3385438
50
89.6768097
51
99.1267111
0
ARC
8
DEFAULT_255_1_388
10
18.1196984
20
23.1474405
40
0.2206627
50
98.9679878
51
113.4573418
0
ARC
8
DEFAULT_255_1_388
10
18.0976664
20
23.2001193
40
0.1635691
50
113.7230234
51
127.4758155
0
ARC
8
DEFAULT_255_1_388
10
18.0787247
20
23.2226433
40
0.1341757
50
126.9086647
51
150.3160891
0
ARC
8
DEFAULT_255_1_388
10
18.0733577
20
23.228368
40
0.1266992
50
151.363328
51
180.0701537
0
ARC
8
DEFAULT_255_1_388
10
18.1043798
20
23.226023
40
0.1577364
50
179.2045432
51
180.0012892
0
ARC
8
DEFAULT_255_1_388
10
18.067491
20
23.2245515
40
0.1208564
50
179.3040542
51
198.4225767
0
ARC
8
DEFAULT_255_1_388
10
18.0459051
20
23.2189337
40
0.0986126
50
199.2893055
51
238.6036855
0
ARC
8
DEFAULT_255_1_388
10
18.1137144
20
23.3253752
40
0.2248082
50
237.9844191
51
246.8751643
0
ARC
8
DEFAULT_255_1_388
10
18.2102004
20
23.5460861
40
0.4656832
50
246.6226408
51
251.8174794
0
ARC
8
DEFAULT_255_1_388
10
18.3262472
20
23.8945909
40
0.8329993
50
251.7140983
51
255.0775146
0
ARC
8
DEFAULT_255_1_388
10
18.4611996
20
24.3972708
40
1.3534786
50
255.0370864
51
257.4701577
0
ARC
8
DEFAULT_255_1_388
10
17.8864541
20
21.8078535
40
1.298957
50
73.6835762
51
77.5015749
0
ARC
8
DEFAULT_255_1_388
10
18.0089455
20
22.2240699
40
0.8650912
50
68.7042835
51
73.7249997
0
ARC
8
DEFAULT_255_1_388
10
18.1105019
20
22.4857853
40
0.584363
50
63.5907059
51
68.6622978
0
ARC
8
DEFAULT_255_1_388
10
18.197276
20
22.6588157
40
0.3907955
50
54.7106507
51
63.7018033
0
ARC
8
DEFAULT_255_1_388
10
18.2675148
20
22.7569287
40
0.2701345
50
41.0624597
51
54.8488532
0
ARC
8
DEFAULT_255_1_388
10
18.3058926
20
22.7921439
40
0.2180695
50
34.4952722
51
40.7097584
0
ARC
8
DEFAULT_255_1_388
10
18.3111891
20
22.7976204
40
0.2106083
50
9.3761233
51
34.0834046
0
ARC
8
DEFAULT_255_1_388
10
18.237702
20
22.7835174
40
0.2854177
50
359.7695264
51
9.7660556
0
ARC
8
DEFAULT_255_1_388
10
18.2599313
20
22.7786841
40
0.2632121
50
335.8653103
51
0.8022272
0
ARC
8
DEFAULT_255_1_388
10
18.2683718
20
22.7801951
40
0.2561728
50
307.7357819
51
334.7849324
0
ARC
8
DEFAULT_255_1_388
10
18.2238359
20
22.8301553
40
0.3229737
50
307.0217048
51
308.5596894
0
ARC
8
DEFAULT_255_1_388
10
18.1942944
20
22.8743063
40
0.3760237
50
282.9361285
51
306.5649033
0
ARC
8
DEFAULT_255_1_388
10
18.1536006
20
23.0393871
40
0.5460314
50
271.1026197
51
283.2199962
0
ARC
8
DEFAULT_255_1_388
10
18.1464194
20
23.1794744
40
0.6862456
50
269.9926344
51
271.4770056
0
ARC
8
DEFAULT_255_1_388
10
18.1434764
20
23.0577633
40
0.5645418
50
259.0723633
51
270.2897324
0
ARC
8
DEFAULT_255_1_388
10
18.1195989
20
22.9320887
40
0.4366198
50
245.4965026
51
259.0225745
0
ARC
8
DEFAULT_255_1_388
10
18.0883206
20
22.8666491
40
0.3641037
50
228.9686619
51
245.7042678
0
ARC
8
DEFAULT_255_1_388
10
18.058448
20
22.8298573
40
0.3167435
50
214.4015391
51
228.6759028
0
ARC
8
DEFAULT_255_1_388
10
18.0258977
20
22.8120429
40
0.2798456
50
179.9704983
51
215.1574389
0
ARC
8
DEFAULT_255_1_388
10
18.104719
20
22.8203148
40
0.1916798
50
182.430239
51
203.0329751
0
ARC
8
DEFAULT_255_1_388
10
18.0839786
20
22.8139675
40
0.1701248
50
203.7987464
51
232.5483345
0
ARC
8
DEFAULT_255_1_388
10
18.115087
20
22.8535049
40
0.2204299
50
232.3784541
51
256.3934343
0
ARC
8
DEFAULT_255_1_388
10
18.1410018
20
22.9536359
40
0.3238512
50
256.1048329
51
268.4627478
0
ARC
8
DEFAULT_255_1_388
10
18.1462437
20
23.0440297
40
0.4143627
50
268.0734924
51
270.0121004
0
ARC
8
DEFAULT_255_1_388
10
18.1483155
20
23.0126191
40
0.3829573
50
269.7031202
51
278.8338867
0
ARC
8
DEFAULT_255_1_388
10
18.1688019
20
22.8854553
40
0.2541568
50
278.6727378
51
292.82331
0
ARC
8
DEFAULT_255_1_388
10
18.1913566
20
22.8290546
40
0.1934264
50
293.1457581
51
303.6656964
0
ARC
8
DEFAULT_255_1_388
10
18.2211639
20
22.7867159
40
0.1416713
50
303.1245849
51
321.7434683
0
ARC
8
DEFAULT_255_1_388
10
18.242072
20
22.768378
40
0.1139081
50
322.4747616
51
1.1293039
0
LINE
8
DEFAULT_255_1_388
10
4.8805318
20
20.6633382
11
4.8805318
21
20.5269
0
LINE
8
DEFAULT_255_1_388
10
4.8805318
20
20.5269
11
4.0185313
21
20.5269
0
LINE
8
DEFAULT_255_1_388
10
4.0185313
20
20.5269
11
4.0185313
21
20.6470741
0
LINE
8
DEFAULT_255_1_388
10
4.0185313
20
20.6470741
11
4.4739278
21
21.1530702
0
LINE
8
DEFAULT_255_1_388
10
4.1603909
20
21.4548607
11
3.9932315
21
21.4548607
0
LINE
8
DEFAULT_255_1_388
10
4.5724163
20
21.045546
11
4.2200262
21
20.6633382
0
LINE
8
DEFAULT_255_1_388
10
4.2200262
20
20.6633382
11
4.8805318
21
20.6633382
0
ARC
8
DEFAULT_255_1_388
10
2.9563337
20
22.4950983
40
2.0258655
50
318.5132526
51
320.7829045
0
ARC
8
DEFAULT_255_1_388
10
3.5511294
20
22.0109929
40
1.2589638
50
320.7372878
51
323.9739031
0
ARC
8
DEFAULT_255_1_388
10
3.9920226
20
21.6915554
40
0.7145141
50
323.8962701
51
328.64194
0
ARC
8
DEFAULT_255_1_388
10
4.2222484
20
21.5495545
40
0.4440242
50
328.8294576
51
331.7891185
0
ARC
8
DEFAULT_255_1_388
10
4.3344804
20
21.4916374
40
0.3177517
50
331.4254512
51
352.9365785
0
ARC
8
DEFAULT_255_1_388
10
4.3497804
20
21.488205
40
0.3021496
50
353.2257659
51
0.0166158
0
ARC
8
DEFAULT_255_1_388
10
4.3734564
20
21.4907894
40
0.2784847
50
359.486299
51
15.9343185
0
ARC
8
DEFAULT_255_1_388
10
4.4304831
20
21.5061269
40
0.2194403
50
16.1712913
51
43.5286088
0
ARC
8
DEFAULT_255_1_388
10
4.4391776
20
21.5148191
40
0.2071504
50
43.4417391
51
83.1661095
0
ARC
8
DEFAULT_255_1_388
10
4.4240937
20
21.4319316
40
0.2912888
50
82.160179
51
90.1505708
0
ARC
8
DEFAULT_255_1_388
10
4.4205418
20
21.3715279
40
0.3517025
50
89.5460741
51
102.5418361
0
ARC
8
DEFAULT_255_1_388
10
4.3932138
20
21.4874933
40
0.2325748
50
102.1738499
51
129.206123
0
ARC
8
DEFAULT_255_1_388
10
4.3843592
20
21.5014664
40
0.2161591
50
129.72865
51
135.753947
0
ARC
8
DEFAULT_255_1_388
10
4.3980074
20
21.4905728
40
0.2335433
50
136.1757367
51
166.3673339
0
ARC
8
DEFAULT_255_1_388
10
4.5112762
20
21.4602148
40
0.3507873
50
165.9090694
51
178.8684636
0
ARC
8
DEFAULT_255_1_388
10
4.6088534
20
21.4549263
40
0.4484624
50
178.4391136
51
180.0083808
0
ARC
8
DEFAULT_255_1_388
10
4.4509235
20
21.4593197
40
0.4577138
50
163.2878482
51
180.5581842
0
ARC
8
DEFAULT_255_1_388
10
4.3607276
20
21.4841393
40
0.3641968
50
133.4540601
51
162.947111
0
ARC
8
DEFAULT_255_1_388
10
4.3808158
20
21.4627789
40
0.3935189
50
100.7869829
51
133.4382499
0
ARC
8
DEFAULT_255_1_388
10
4.4199403
20
21.2885399
40
0.5720313
50
89.660664
51
101.3702276
0
ARC
8
DEFAULT_255_1_388
10
4.4274012
20
21.2954263
40
0.5651495
50
78.2172678
51
90.412935
0
ARC
8
DEFAULT_255_1_388
10
4.4673478
20
21.4781511
40
0.378122
50
55.9269121
51
78.4888449
0
ARC
8
DEFAULT_255_1_388
10
4.4894193
20
21.5162187
40
0.3342379
50
47.929771
51
55.4049217
0
ARC
8
DEFAULT_255_1_388
10
4.5008723
20
21.5278618
40
0.3179217
50
4.334829
51
48.0560205
0
ARC
8
DEFAULT_255_1_388
10
4.3776525
20
21.5087487
40
0.442341
50
359.9251713
51
5.5971671
0
ARC
8
DEFAULT_255_1_388
10
4.425868
20
21.5150728
40
0.3941854
50
337.8914027
51
358.9967534
0
ARC
8
DEFAULT_255_1_388
10
4.120625
20
21.6328295
40
0.7213271
50
326.9132501
51
338.3508308
0
ARC
8
DEFAULT_255_1_388
10
3.6722362
20
21.9202105
40
1.2538973
50
319.6471833
51
327.0959558
0
ARC
8
DEFAULT_255_1_388
10
3.240902
20
22.276005
40
1.8129975
50
317.2588228
51
319.9045804
0
LINE
8
DEFAULT_255_1_388
10
5.7633143
20
21.8424898
11
5.7633143
21
20.968743
0
LINE
8
DEFAULT_255_1_388
10
5.7633143
20
20.968743
11
5.9458343
21
20.968743
0
LINE
8
DEFAULT_255_1_388
10
5.9458343
20
20.968743
11
5.9458343
21
20.8323048
0
LINE
8
DEFAULT_255_1_388
10
5.9458343
20
20.8323048
11
5.7633143
21
20.8323048
0
LINE
8
DEFAULT_255_1_388
10
5.7633143
20
20.8323048
11
5.7633143
21
20.5269
0
LINE
8
DEFAULT_255_1_388
10
5.7633143
20
20.5269
11
5.5952513
21
20.5269
0
LINE
8
DEFAULT_255_1_388
10
5.5952513
20
20.5269
11
5.5952513
21
20.8323048
0
LINE
8
DEFAULT_255_1_388
10
5.5952513
20
20.8323048
11
4.996188
21
20.8323048
0
LINE
8
DEFAULT_255_1_388
10
4.996188
20
20.8323048
11
4.996188
21
20.9307933
0
LINE
8
DEFAULT_255_1_388
10
4.996188
20
20.9307933
11
5.5853121
21
21.8424898
0
LINE
8
DEFAULT_255_1_388
10
5.5853121
20
21.8424898
11
5.7633143
21
21.8424898
0
LINE
8
DEFAULT_255_1_388
10
5.5753729
20
21.5777455
11
5.1859366
21
20.968743
0
LINE
8
DEFAULT_255_1_388
10
5.1859366
20
20.968743
11
5.5952513
21
20.968743
0
LINE
8
DEFAULT_255_1_388
10
5.5952513
20
20.968743
11
5.5952513
21
21.613888
0
LINE
8
DEFAULT_255_1_388
10
5.5952513
20
21.613888
11
5.5753729
21
21.5777455
0
LINE
8
DEFAULT_255_1_388
10
6.201543
20
21.8424898
11
6.5756187
21
20.7573089
0
LINE
8
DEFAULT_255_1_388
10
6.5756187
20
20.7573089
11
6.9515015
21
21.8424898
0
LINE
8
DEFAULT_255_1_388
10
6.9515015
20
21.8424898
11
7.14125
21
21.8424898
0
LINE
8
DEFAULT_255_1_388
10
7.14125
20
21.8424898
11
6.6533252
21
20.5269
0
LINE
8
DEFAULT_255_1_388
10
6.6533252
20
20.5269
11
6.4997193
21
20.5269
0
LINE
8
DEFAULT_255_1_388
10
6.4997193
20
20.5269
11
6.012698
21
21.8424898
0
LINE
8
DEFAULT_255_1_388
10
6.012698
20
21.8424898
11
6.201543
21
21.8424898
0
LINE
8
DEFAULT_255_1_388
10
4.4816094
20
5.1669317
11
4.1716868
21
5.1669317
0
LINE
8
DEFAULT_255_1_388
10
4.1716868
20
5.1669317
11
4.1716868
21
4.6519
0
LINE
8
DEFAULT_255_1_388
10
4.1716868
20
4.6519
11
3.9982024
21
4.6519
0
LINE
8
DEFAULT_255_1_388
10
3.9982024
20
4.6519
11
3.9982024
21
5.9674898
0
LINE
8
DEFAULT_255_1_388
10
3.9982024
20
5.9674898
11
4.4834165
21
5.9674898
0
LINE
8
DEFAULT_255_1_388
10
4.1716868
20
5.8247267
11
4.1716868
21
5.3087914
0
LINE
8
DEFAULT_255_1_388
10
4.1716868
20
5.3087914
11
4.4834165
21
5.3087914
0
LINE
8
DEFAULT_255_1_388
10
4.4933557
20
5.8247267
11
4.1716868
21
5.8247267
0
ARC
8
DEFAULT_255_1_388
10
4.4881538
20
5.2858334
40
0.6816729
50
78.8380084
51
90.398184
0
ARC
8
DEFAULT_255_1_388
10
4.5349569
20
5.5131796
40
0.449571
50
58.9633273
51
79.0810717
0
ARC
8
DEFAULT_255_1_388
10
4.5688953
20
5.5761823
40
0.3781049
50
48.0194715
51
58.4475592
0
ARC
8
DEFAULT_255_1_388
10
4.5788773
20
5.5857818
40
0.3642936
50
3.3374546
51
48.1766642
0
ARC
8
DEFAULT_255_1_388
10
4.440358
20
5.5658581
40
0.5038766
50
359.9483251
51
4.6822857
0
ARC
8
DEFAULT_255_1_388
10
4.4543503
20
5.5610779
40
0.4899031
50
346.1879032
51
0.5059221
0
ARC
8
DEFAULT_255_1_388
10
4.6072295
20
5.5213763
40
0.3319729
50
310.8832219
51
346.5426612
0
ARC
8
DEFAULT_255_1_388
10
4.5725143
20
5.5682853
40
0.3901853
50
286.6925305
51
310.228778
0
ARC
8
DEFAULT_255_1_388
10
4.5084873
20
5.7696585
40
0.6014737
50
274.6848219
51
287.0247342
0
ARC
8
DEFAULT_255_1_388
10
4.4831422
20
6.0181088
40
0.8511785
50
269.8968222
51
275.0192639
0
ARC
8
DEFAULT_255_1_388
10
4.4862415
20
5.7843144
40
0.4755314
50
269.6596206
51
279.4150542
0
ARC
8
DEFAULT_255_1_388
10
4.5151873
20
5.6165945
40
0.3053379
50
279.2050006
51
294.9901776
0
ARC
8
DEFAULT_255_1_388
10
4.5478508
20
5.5437353
40
0.2255036
50
295.2886769
51
311.2912669
0
ARC
8
DEFAULT_255_1_388
10
4.5558249
20
5.5318938
40
0.2113522
50
311.7853512
51
347.2860549
0
ARC
8
DEFAULT_255_1_388
10
4.445141
20
5.560343
40
0.3256011
50
346.6891629
51
0.1057086
0
ARC
8
DEFAULT_255_1_388
10
4.352887
20
5.5636247
40
0.417863
50
359.63239
51
359.9961329
0
ARC
8
DEFAULT_255_1_388
10
4.4693475
20
5.5663987
40
0.3014155
50
359.4673371
51
15.5931159
0
ARC
8
DEFAULT_255_1_388
10
4.5396538
20
5.5853937
40
0.2285918
50
15.7441779
51
46.620186
0
ARC
8
DEFAULT_255_1_388
10
4.5230298
20
5.5662361
40
0.2539359
50
46.8628482
51
75.6676625
0
ARC
8
DEFAULT_255_1_388
10
4.4899354
20
5.4471243
40
0.3775415
50
75.2763152
51
88.2916439
0
ARC
8
DEFAULT_255_1_388
10
4.4833354
20
5.3469097
40
0.4779221
50
87.8589087
51
88.7986197
0
LINE
8
DEFAULT_255_1_388
10
5.9842371
20
4.7883382
11
5.9842371
21
4.6519
0
LINE
8
DEFAULT_255_1_388
10
5.9842371
20
4.6519
11
5.1222366
21
4.6519
0
LINE
8
DEFAULT_255_1_388
10
5.1222366
20
4.6519
11
5.1222366
21
4.7720741
0
LINE
8
DEFAULT_255_1_388
10
5.1222366
20
4.7720741
11
5.5776331
21
5.2780702
0
LINE
8
DEFAULT_255_1_388
10
5.2640962
20
5.5798607
11
5.0969368
21
5.5798607
0
LINE
8
DEFAULT_255_1_388
10
5.6761216
20
5.170546
11
5.3237314
21
4.7883382
0
LINE
8
DEFAULT_255_1_388
10
5.3237314
20
4.7883382
11
5.9842371
21
4.7883382
0
ARC
8
DEFAULT_255_1_388
10
4.060039
20
6.6200983
40
2.0258655
50
318.5132526
51
320.7829045
0
ARC
8
DEFAULT_255_1_388
10
4.6548347
20
6.1359929
40
1.2589638
50
320.7372878
51
323.9739031
0
ARC
8
DEFAULT_255_1_388
10
5.0957279
20
5.8165554
40
0.7145141
50
323.8962701
51
328.64194
0
ARC
8
DEFAULT_255_1_388
10
5.3259536
20
5.6745545
40
0.4440242
50
328.8294576
51
331.7891185
0
ARC
8
DEFAULT_255_1_388
10
5.4381856
20
5.6166374
40
0.3177517
50
331.4254512
51
352.9365785
0
ARC
8
DEFAULT_255_1_388
10
5.4534856
20
5.613205
40
0.3021496
50
353.2257659
51
0.0166158
0
ARC
8
DEFAULT_255_1_388
10
5.4771617
20
5.6157894
40
0.2784847
50
359.486299
51
15.9343185
0
ARC
8
DEFAULT_255_1_388
10
5.5341884
20
5.6311269
40
0.2194403
50
16.1712913
51
43.5286088
0
ARC
8
DEFAULT_255_1_388
10
5.5428828
20
5.6398191
40
0.2071504
50
43.4417391
51
83.1661095
0
ARC
8
DEFAULT_255_1_388
10
5.5277989
20
5.5569316
40
0.2912888
50
82.160179
51
90.1505708
0
ARC
8
DEFAULT_255_1_388
10
5.5242471
20
5.4965279
40
0.3517025
50
89.5460741
51
102.5418361
0
ARC
8
DEFAULT_255_1_388
10
5.4969191
20
5.6124933
40
0.2325748
50
102.1738499
51
129.206123
0
ARC
8
DEFAULT_255_1_388
10
5.4880644
20
5.6264664
40
0.2161591
50
129.72865
51
135.753947
0
ARC
8
DEFAULT_255_1_388
10
5.5017127
20
5.6155728
40
0.2335433
50
136.1757367
51
166.3673339
0
ARC
8
DEFAULT_255_1_388
10
5.6149815
20
5.5852148
40
0.3507873
50
165.9090694
51
178.8684636
0
ARC
8
DEFAULT_255_1_388
10
5.7125586
20
5.5799263
40
0.4484624
50
178.4391136
51
180.0083808
0
ARC
8
DEFAULT_255_1_388
10
5.5546288
20
5.5843197
40
0.4577138
50
163.2878482
51
180.5581842
0
ARC
8
DEFAULT_255_1_388
10
5.4644329
20
5.6091393
40
0.3641968
50
133.4540601
51
162.947111
0
ARC
8
DEFAULT_255_1_388
10
5.4845211
20
5.5877789
40
0.3935189
50
100.7869829
51
133.4382499
0
ARC
8
DEFAULT_255_1_388
10
5.5236456
20
5.4135399
40
0.5720313
50
89.660664
51
101.3702276
0
ARC
8
DEFAULT_255_1_388
10
5.5311065
20
5.4204263
40
0.5651495
50
78.2172678
51
90.412935
0
ARC
8
DEFAULT_255_1_388
10
5.5710531
20
5.6031511
40
0.378122
50
55.9269121
51
78.4888449
0
ARC
8
DEFAULT_255_1_388
10
5.5931246
20
5.6412187
40
0.3342379
50
47.929771
51
55.4049217
0
ARC
8
DEFAULT_255_1_388
10
5.6045776
20
5.6528618
40
0.3179217
50
4.334829
51
48.0560205
0
ARC
8
DEFAULT_255_1_388
10
5.4813578
20
5.6337487
40
0.442341
50
359.9251713
51
5.5971671
0
ARC
8
DEFAULT_255_1_388
10
5.5295732
20
5.6400728
40
0.3941854
50
337.8914027
51
358.9967534
0
ARC
8
DEFAULT_255_1_388
10
5.2243303
20
5.7578295
40
0.7213271
50
326.9132501
51
338.3508308
0
ARC
8
DEFAULT_255_1_388
10
4.7759414
20
6.0452105
40
1.2538973
50
319.6471833
51
327.0959558
0
ARC
8
DEFAULT_255_1_388
10
4.3446073
20
6.401005
40
1.8129975
50
317.2588228
51
319.9045804
0
LINE
8
DEFAULT_255_1_388
10
4.4741094
20
13.1044317
11
4.1641868
21
13.1044317
0
LINE
8
DEFAULT_255_1_388
10
4.1641868
20
13.1044317
11
4.1641868
21
12.5894
0
LINE
8
DEFAULT_255_1_388
10
4.1641868
20
12.5894
11
3.9907024
21
12.5894
0
LINE
8
DEFAULT_255_1_388
10
3.9907024
20
12.5894
11
3.9907024
21
13.9049898
0
LINE
8
DEFAULT_255_1_388
10
3.9907024
20
13.9049898
11
4.4759165
21
13.9049898
0
LINE
8
DEFAULT_255_1_388
10
4.1641868
20
13.7622267
11
4.1641868
21
13.2462914
0
LINE
8
DEFAULT_255_1_388
10
4.1641868
20
13.2462914
11
4.4759165
21
13.2462914
0
LINE
8
DEFAULT_255_1_388
10
4.4858557
20
13.7622267
11
4.1641868
21
13.7622267
0
ARC
8
DEFAULT_255_1_388
10
4.4806538
20
13.2233334
40
0.6816729
50
78.8380084
51
90.398184
0
ARC
8
DEFAULT_255_1_388
10
4.5274569
20
13.4506796
40
0.449571
50
58.9633273
51
79.0810717
0
ARC
8
DEFAULT_255_1_388
10
4.5613953
20
13.5136823
40
0.3781049
50
48.0194715
51
58.4475592
0
ARC
8
DEFAULT_255_1_388
10
4.5713773
20
13.5232818
40
0.3642936
50
3.3374546
51
48.1766642
0
ARC
8
DEFAULT_255_1_388
10
4.432858
20
13.5033581
40
0.5038766
50
359.9483251
51
4.6822857
0
ARC
8
DEFAULT_255_1_388
10
4.4468503
20
13.4985779
40
0.4899031
50
346.1879032
51
0.5059221
0
ARC
8
DEFAULT_255_1_388
10
4.5997295
20
13.4588763
40
0.3319729
50
310.8832219
51
346.5426612
0
ARC
8
DEFAULT_255_1_388
10
4.5650143
20
13.5057853
40
0.3901853
50
286.6925305
51
310.228778
0
ARC
8
DEFAULT_255_1_388
10
4.5009873
20
13.7071585
40
0.6014737
50
274.6848219
51
287.0247342
0
ARC
8
DEFAULT_255_1_388
10
4.4756422
20
13.9556088
40
0.8511785
50
269.8968222
51
275.0192639
0
ARC
8
DEFAULT_255_1_388
10
4.4787415
20
13.7218144
40
0.4755314
50
269.6596206
51
279.4150542
0
ARC
8
DEFAULT_255_1_388
10
4.5076873
20
13.5540945
40
0.3053379
50
279.2050006
51
294.9901776
0
ARC
8
DEFAULT_255_1_388
10
4.5403508
20
13.4812353
40
0.2255036
50
295.2886769
51
311.2912669
0
ARC
8
DEFAULT_255_1_388
10
4.5483249
20
13.4693938
40
0.2113522
50
311.7853512
51
347.2860549
0
ARC
8
DEFAULT_255_1_388
10
4.437641
20
13.497843
40
0.3256011
50
346.6891629
51
0.1057086
0
ARC
8
DEFAULT_255_1_388
10
4.345387
20
13.5011247
40
0.417863
50
359.63239
51
359.9961329
0
ARC
8
DEFAULT_255_1_388
10
4.4618475
20
13.5038987
40
0.3014155
50
359.4673371
51
15.5931159
0
ARC
8
DEFAULT_255_1_388
10
4.5321538
20
13.5228937
40
0.2285918
50
15.7441779
51
46.620186
0
ARC
8
DEFAULT_255_1_388
10
4.5155298
20
13.5037361
40
0.2539359
50
46.8628482
51
75.6676625
0
ARC
8
DEFAULT_255_1_388
10
4.4824354
20
13.3846243
40
0.3775415
50
75.2763152
51
88.2916439
0
ARC
8
DEFAULT_255_1_388
10
4.4758354
20
13.2844097
40
0.4779221
50
87.8589087
51
88.7986197
0
LINE
8
DEFAULT_255_1_388
10
5.6641038
20
13.9113148
11
5.6641038
21
12.5894
0
LINE
8
DEFAULT_255_1_388
10
5.6641038
20
12.5894
11
5.4960408
21
12.5894
0
LINE
8
DEFAULT_255_1_388
10
5.4960408
20
12.5894
11
5.4960408
21
13.703495
0
LINE
8
DEFAULT_255_1_388
10
5.4960408
20
13.703495
11
5.1590112
21
13.5797066
0
LINE
8
DEFAULT_255_1_388
10
5.1590112
20
13.5797066
11
5.1590112
21
13.7315055
0
LINE
8
DEFAULT_255_1_388
10
5.1590112
20
13.7315055
11
5.6379004
21
13.9113148
0
LINE
8
DEFAULT_255_1_388
10
5.6379004
20
13.9113148
11
5.6641038
21
13.9113148
0
LINE
8
DEFAULT_255_1_388
10
23.1196856
20
21.304869
11
23.1196856
21
21.0880135
0
LINE
8
DEFAULT_255_1_388
10
22.2893099
20
21.0654244
11
22.2893099
21
21.2886048
0
LINE
8
DEFAULT_255_1_388
10
22.9525262
20
21.0428353
11
22.9525262
21
21.3166153
0
LINE
8
DEFAULT_255_1_388
10
22.4564693
20
21.3292652
11
22.4564693
21
21.0618102
0
ARC
8
DEFAULT_255_1_388
10
21.741919
20
21.0825118
40
1.3777776
50
353.8440855
51
0.2287917
0
ARC
8
DEFAULT_255_1_388
10
22.2638208
20
21.0242414
40
0.852639
50
344.4934746
51
353.9763743
0
ARC
8
DEFAULT_255_1_388
10
22.6005015
20
20.9285191
40
0.5026273
50
329.2803599
51
344.7473406
0
ARC
8
DEFAULT_255_1_388
10
22.7120511
20
20.8673038
40
0.3754848
50
324.9361395
51
328.6153007
0
ARC
8
DEFAULT_255_1_388
10
22.7546161
20
20.8375586
40
0.3235566
50
280.5801797
51
324.9173226
0
ARC
8
DEFAULT_255_1_388
10
22.7094789
20
21.0255236
40
0.5167077
50
269.5979457
51
281.6732777
0
ARC
8
DEFAULT_255_1_388
10
22.7013693
20
21.0120113
40
0.5032026
50
256.6228565
51
270.5105488
0
ARC
8
DEFAULT_255_1_388
10
22.6561435
20
20.8378345
40
0.3233092
50
215.8618351
51
257.2787793
0
ARC
8
DEFAULT_255_1_388
10
22.7710142
20
20.9149106
40
0.4615831
50
197.9695203
51
215.2622745
0
ARC
8
DEFAULT_255_1_388
10
23.0505818
20
21.0092641
40
0.7566307
50
187.8816486
51
198.2346584
0
ARC
8
DEFAULT_255_1_388
10
23.4959056
20
21.0735453
40
1.2065653
50
180.8977266
51
188.0054894
0
ARC
8
DEFAULT_255_1_388
10
23.800927
20
21.08504
40
1.5117443
50
180.7434591
51
181.152202
0
ARC
8
DEFAULT_255_1_388
10
23.6334266
20
21.2940371
40
1.3441277
50
173.7674302
51
180.2315596
0
ARC
8
DEFAULT_255_1_388
10
23.1252135
20
21.3514779
40
0.8326847
50
164.3058537
51
173.9000553
0
ARC
8
DEFAULT_255_1_388
10
22.7976135
20
21.4458652
40
0.4917711
50
148.7922028
51
164.5682288
0
ARC
8
DEFAULT_255_1_388
10
22.6906872
20
21.5055457
40
0.3694204
50
144.5883979
51
148.1161588
0
ARC
8
DEFAULT_255_1_388
10
22.6519618
20
21.5325667
40
0.322202
50
101.6440149
51
144.5142619
0
ARC
8
DEFAULT_255_1_388
10
22.699781
20
21.3425337
40
0.5180451
50
89.528284
51
102.5820197
0
ARC
8
DEFAULT_255_1_388
10
22.7086802
20
21.3381376
40
0.5224441
50
77.0437914
51
90.508231
0
ARC
8
DEFAULT_255_1_388
10
22.7539055
20
21.5229272
40
0.3322297
50
48.2777708
51
77.4996087
0
ARC
8
DEFAULT_255_1_388
10
22.7620795
20
21.5374557
40
0.315966
50
36.3141586
51
47.6307332
0
ARC
8
DEFAULT_255_1_388
10
22.6643518
20
21.4716159
40
0.4337313
50
18.2931065
51
35.6770203
0
ARC
8
DEFAULT_255_1_388
10
22.3782358
20
21.3734107
40
0.7362203
50
8.0246996
51
18.5605636
0
ARC
8
DEFAULT_255_1_388
10
21.9098714
20
21.3042432
40
1.2096583
50
1.127539
51
8.1718423
0
ARC
8
DEFAULT_255_1_388
10
21.5449847
20
21.2899374
40
1.5747719
50
0.5432713
51
1.38669
0
ARC
8
DEFAULT_255_1_388
10
21.7507226
20
21.3206163
40
1.2018103
50
359.8092569
51
4.9408001
0
ARC
8
DEFAULT_255_1_388
10
22.2243807
20
21.36289
40
0.7262727
50
4.8364937
51
12.2906017
0
ARC
8
DEFAULT_255_1_388
10
22.5343272
20
21.4319485
40
0.4087324
50
12.0806994
51
23.8171225
0
ARC
8
DEFAULT_255_1_388
10
22.6663668
20
21.4878508
40
0.2653719
50
24.2874621
51
31.3934353
0
ARC
8
DEFAULT_255_1_388
10
22.7254104
20
21.5264822
40
0.1948607
50
30.7407708
51
82.4658033
0
ARC
8
DEFAULT_255_1_388
10
22.7051765
20
21.4271017
40
0.2961198
50
81.1057101
51
90.2187368
0
ARC
8
DEFAULT_255_1_388
10
22.7011577
20
21.4561421
40
0.2670929
50
89.380395
51
105.6763916
0
ARC
8
DEFAULT_255_1_388
10
22.6805299
20
21.531132
40
0.1893189
50
105.7980655
51
149.7387869
0
ARC
8
DEFAULT_255_1_388
10
22.8002439
20
21.4591719
40
0.3289892
50
149.4208441
51
163.628295
0
ARC
8
DEFAULT_255_1_388
10
23.0354668
20
21.3874345
40
0.5749004
50
163.3764549
51
172.141138
0
ARC
8
DEFAULT_255_1_388
10
23.406739
20
21.3342582
40
0.9499585
50
172.0258462
51
178.0705453
0
ARC
8
DEFAULT_255_1_388
10
23.7488943
20
21.3180682
40
1.2924734
50
177.8639301
51
179.5036263
0
ARC
8
DEFAULT_255_1_388
10
23.6269961
20
21.0577151
40
1.170534
50
179.7995545
51
185.246089
0
ARC
8
DEFAULT_255_1_388
10
23.1721554
20
21.0146404
40
0.7136613
50
185.1411911
51
193.0082205
0
ARC
8
DEFAULT_255_1_388
10
22.8747815
20
20.9443441
40
0.4080987
50
192.7897338
51
205.2507384
0
ARC
8
DEFAULT_255_1_388
10
22.7570025
20
20.8917538
40
0.2791522
50
205.8001921
51
211.2545876
0
ARC
8
DEFAULT_255_1_388
10
22.6981564
20
20.8523132
40
0.2084074
50
210.3789935
51
238.4007996
0
ARC
8
DEFAULT_255_1_388
10
22.695965
20
20.8575786
40
0.2117943
50
239.6521916
51
265.9793852
0
ARC
8
DEFAULT_255_1_388
10
22.7055499
20
20.9332358
40
0.2879689
50
265.1324455
51
270.0603288
0
ARC
8
DEFAULT_255_1_388
10
22.7087876
20
20.8967418
40
0.2514919
50
269.3314378
51
287.2180039
0
ARC
8
DEFAULT_255_1_388
10
22.7242958
20
20.8401291
40
0.1928357
50
287.7957942
51
329.0808983
0
ARC
8
DEFAULT_255_1_388
10
22.6165715
20
20.9073651
40
0.319808
50
328.6635261
51
343.3325043
0
ARC
8
DEFAULT_255_1_388
10
22.3721174
20
20.9835195
40
0.5758408
50
343.0498092
51
351.9392499
0
ARC
8
DEFAULT_255_1_388
10
21.9820496
20
21.0410205
40
0.9701202
50
351.8071632
51
357.7957897
0
ARC
8
DEFAULT_255_1_388
10
21.6185973
20
21.0598724
40
1.3340376
50
357.5870923
51
359.2682493
0
LINE
8
DEFAULT_255_1_388
10
23.4386439
20
21.8424898
11
23.8127196
21
20.7573089
0
LINE
8
DEFAULT_255_1_388
10
23.8127196
20
20.7573089
11
24.1886024
21
21.8424898
0
LINE
8
DEFAULT_255_1_388
10
24.1886024
20
21.8424898
11
24.3783509
21
21.8424898
0
LINE
8
DEFAULT_255_1_388
10
24.3783509
20
21.8424898
11
23.8904261
21
20.5269
0
LINE
8
DEFAULT_255_1_388
10
23.8904261
20
20.5269
11
23.7368202
21
20.5269
0
LINE
8
DEFAULT_255_1_388
10
23.7368202
20
20.5269
11
23.2497989
21
21.8424898
0
LINE
8
DEFAULT_255_1_388
10
23.2497989
20
21.8424898
11
23.4386439
21
21.8424898
0
ENDSEC
0
EOF