0
SECTION
2
HEADER
9
$MEASUREMENT
70
1
0
ENDSEC
0
SECTION
2
TABLES
0
TABLE
2
LTYPE
0
LTYPE
72
65
70
64
2
CONTINUOUS
3
______
73
0
40
0
0
ENDTAB
0
TABLE
2
LAYER
0
LAYER
2
DEFAULT_255_2_778
70
0
62
255
6
CONTINUOUS
0
ENDTAB
0
ENDSEC
0
SECTION
2
ENTITIES
0
ARC
8
DEFAULT_255_2_778
10
0.6352399
20
69.7562569
40
0.4999215
50
134.987618
51
180.0029459
0
ARC
8
DEFAULT_255_2_778
10
0.6353205
20
69.7565838
40
0.4997474
50
89.9887792
51
135.0206486
0
ARC
8
DEFAULT_255_2_778
10
49.6354215
20
69.7562343
40
0.5000969
50
359.9996485
51
90.0003515
0
LINE
8
DEFAULT_255_2_778
10
0.6354184
20
70.2563312
11
49.6354184
21
70.2563312
0
ARC
8
DEFAULT_255_2_778
10
49.6351426
20
0.2564432
40
0.5000758
50
269.9972237
51
359.991324
0
ARC
8
DEFAULT_255_2_778
10
0.6353942
20
0.2564432
40
0.5000757
50
180.008676
51
270.0027763
0
ARC
8
DEFAULT_255_2_778
10
0.6354153
20
89.2563706
40
0.5000969
50
89.9996485
51
180.0003515
0
ARC
8
DEFAULT_255_2_778
10
49.6354215
20
89.2563706
40
0.5000969
50
359.9996485
51
90.0003515
0
LINE
8
DEFAULT_255_2_778
10
49.6351184
20
-0.2436325
11
0.6354184
21
-0.2436325
0
LINE
8
DEFAULT_255_2_778
10
0.1353184
20
0.2563675
11
0.1353184
21
89.2563675
0
LINE
8
DEFAULT_255_2_778
10
0.6354184
20
89.7564675
11
49.6354184
21
89.7564675
0
LINE
8
DEFAULT_255_2_778
10
50.1355184
20
89.2563675
11
50.1355184
21
0.2563675
0
ARC
8
DEFAULT_255_2_778
10
49.635175
20
18.75624
40
0.5000757
50
0.0086621
51
90.0027821
0
ARC
8
DEFAULT_255_2_778
10
0.6354476
20
19.7564125
40
0.5000969
50
179.9996485
51
270.0003515
0
ARC
8
DEFAULT_255_2_778
10
46.6342017
20
21.9029507
40
0.9964361
50
228.3557664
51
270.0833208
0
ARC
8
DEFAULT_255_2_778
10
46.6331899
20
21.9055561
40
0.997714
50
181.7306446
51
228.498614
0
ARC
8
DEFAULT_255_2_778
10
46.6545745
20
21.9067059
40
1.0191238
50
179.9994553
51
181.7589451
0
LINE
8
DEFAULT_255_2_778
10
49.6351507
20
19.2563156
11
0.6354507
21
19.2563156
0
LINE
8
DEFAULT_255_2_778
10
45.6354507
20
21.9067156
11
45.6354507
21
22.2067156
0
ARC
8
DEFAULT_255_2_778
10
36.6391297
20
21.9049928
40
0.9963226
50
318.3541388
51
0.0816049
0
ARC
8
DEFAULT_255_2_778
10
36.6364676
20
21.9039733
40
0.9976376
50
271.732932
51
318.4994886
0
ARC
8
DEFAULT_255_2_778
10
36.635361
20
21.925071
40
1.0187592
50
269.9994554
51
271.7592612
0
ARC
8
DEFAULT_255_2_778
10
49.6353759
20
59.2563873
40
0.5000755
50
269.9971846
51
359.9913517
0
LINE
8
DEFAULT_255_2_778
10
37.6354513
20
22.2065118
11
37.6354513
21
21.9064118
0
LINE
8
DEFAULT_255_2_778
10
46.6352513
20
57.7064118
11
46.9353513
21
57.4064118
0
LINE
8
DEFAULT_255_2_778
10
36.6353513
20
57.7064118
11
36.3353513
21
57.4064118
0
LINE
8
DEFAULT_255_2_778
10
33.1351513
20
19.2564118
11
33.1351513
21
70.2564118
0
LINE
8
DEFAULT_255_2_778
10
32.9351513
20
19.2564118
11
32.9351513
21
70.2564118
0
LINE
8
DEFAULT_255_2_778
10
45.1853513
20
19.2564118
11
45.2353513
21
19.3064118
0
LINE
8
DEFAULT_255_2_778
10
47.1353513
20
19.2564118
11
47.1353513
21
19.3064118
0
LINE
8
DEFAULT_255_2_778
10
46.1352513
20
19.3064118
11
46.1352513
21
19.2876118
0
LINE
8
DEFAULT_255_2_778
10
46.1352513
20
19.2876118
11
46.3852513
21
19.2564118
0
LINE
8
DEFAULT_255_2_778
10
42.7353513
20
58.7065118
11
42.7353513
21
58.7566118
0
ARC
8
DEFAULT_255_2_778
10
49.6351189
20
19.8063766
40
0.5000969
50
269.9996485
51
0.0003515
0
ARC
8
DEFAULT_255_2_778
10
33.6352915
20
19.8063551
40
0.5000755
50
179.9971903
51
269.9913379
0
LINE
8
DEFAULT_255_2_778
10
37.5452159
20
58.7564796
11
37.5352159
21
58.7064796
0
LINE
8
DEFAULT_255_2_778
10
32.9354159
20
58.7564796
11
49.6354159
21
58.7564796
0
LINE
8
DEFAULT_255_2_778
10
49.6354159
20
58.7564796
11
49.6354159
21
58.7064796
0
LINE
8
DEFAULT_255_2_778
10
38.5353159
20
19.3062796
11
38.5435159
21
19.2562796
0
LINE
8
DEFAULT_255_2_778
10
36.1353159
20
19.3062796
11
36.1353159
21
19.2562796
0
LINE
8
DEFAULT_255_2_778
10
36.8854159
20
19.2562796
11
37.1354159
21
19.2875796
0
LINE
8
DEFAULT_255_2_778
10
37.1354159
20
19.2875796
11
37.1354159
21
19.3062796
0
LINE
8
DEFAULT_255_2_778
10
50.1352159
20
20.7398796
11
50.1039159
21
20.7286796
0
LINE
8
DEFAULT_255_2_778
10
50.1039159
20
20.7286796
11
49.6351159
21
20.7064796
0
LINE
8
DEFAULT_255_2_778
10
49.6351159
20
20.7064796
11
33.2661159
21
20.7175796
0
LINE
8
DEFAULT_255_2_778
10
33.2661159
20
20.7175796
11
33.1659159
21
20.7286796
0
LINE
8
DEFAULT_255_2_778
10
33.1659159
20
20.7286796
11
33.1352159
21
20.7398796
0
LINE
8
DEFAULT_255_2_778
10
50.1352159
20
22.2063796
11
33.1352159
21
22.2063796
0
LINE
8
DEFAULT_255_2_778
10
33.1352159
20
20.9064796
11
50.1352159
21
20.9064796
0
LINE
8
DEFAULT_255_2_778
10
49.6351159
20
19.3062796
11
33.6352159
21
19.3062796
0
LINE
8
DEFAULT_255_2_778
10
41.9852159
20
24.3145796
11
42.6353159
21
24.3145796
0
LINE
8
DEFAULT_255_2_778
10
42.6353159
20
24.3145796
11
41.6352159
21
25.5062796
0
LINE
8
DEFAULT_255_2_778
10
41.6352159
20
25.5062796
11
40.6350159
21
24.3145796
0
LINE
8
DEFAULT_255_2_778
10
40.6350159
20
24.3145796
11
41.2851159
21
24.3145796
0
LINE
8
DEFAULT_255_2_778
10
41.2851159
20
24.3145796
11
41.2851159
21
23.2062796
0
LINE
8
DEFAULT_255_2_778
10
41.2851159
20
23.2062796
11
41.9852159
21
23.2062796
0
LINE
8
DEFAULT_255_2_778
10
41.9852159
20
23.2062796
11
41.9852159
21
24.3145796
0
LINE
8
DEFAULT_255_2_778
10
36.6353159
20
58.7064796
11
36.6353159
21
57.7063796
0
LINE
8
DEFAULT_255_2_778
10
36.6353159
20
57.7063796
11
46.6353159
21
57.7063796
0
LINE
8
DEFAULT_255_2_778
10
46.6353159
20
57.7063796
11
46.6353159
21
58.7064796
0
LINE
8
DEFAULT_255_2_778
10
46.9353159
20
58.7064796
11
46.9353159
21
57.4065796
0
LINE
8
DEFAULT_255_2_778
10
46.9353159
20
57.4065796
11
36.3353159
21
57.4065796
0
LINE
8
DEFAULT_255_2_778
10
36.3353159
20
57.4065796
11
36.3353159
21
58.7064796
0
LINE
8
DEFAULT_255_2_778
10
33.1352159
20
58.7064796
11
50.1352159
21
58.7064796
0
LINE
8
DEFAULT_255_2_778
10
46.9353159
20
59.2562796
11
36.3353159
21
59.2562796
0
LINE
8
DEFAULT_255_2_778
10
46.9353159
20
58.9564796
11
36.3353159
21
58.9564796
0
LINE
8
DEFAULT_255_2_778
10
36.3353159
20
58.7564796
11
36.3353159
21
60.7564796
0
LINE
8
DEFAULT_255_2_778
10
36.3353159
20
60.7564796
11
46.9353159
21
60.7564796
0
LINE
8
DEFAULT_255_2_778
10
46.9353159
20
60.7564796
11
46.9353159
21
58.7564796
0
ARC
8
DEFAULT_255_2_778
10
16.1398674
20
4.7599516
40
2.2543868
50
158.2386051
51
180.0898428
0
ARC
8
DEFAULT_255_2_778
10
16.1305453
20
4.7609336
40
2.2453665
50
100.4545112
51
158.173688
0
ARC
8
DEFAULT_255_2_778
10
16.1342947
20
4.7269047
40
2.2795122
50
89.9701221
51
100.3919857
0
ARC
8
DEFAULT_255_2_778
10
16.139032
20
4.7518879
40
2.2545315
50
68.2393107
51
90.0901832
0
ARC
8
DEFAULT_255_2_778
10
16.1400889
20
4.7614432
40
2.2452669
50
10.452684
51
68.1739611
0
ARC
8
DEFAULT_255_2_778
10
16.1057552
20
4.7576042
40
2.2797285
50
359.9701533
51
10.3910176
0
ARC
8
DEFAULT_255_2_778
10
16.1308186
20
4.7528616
40
2.2546676
50
338.2408662
51
0.0903398
0
ARC
8
DEFAULT_255_2_778
10
16.1406067
20
4.7517049
40
2.2451496
50
280.4535565
51
338.1756829
0
ARC
8
DEFAULT_255_2_778
10
16.1366766
20
4.7863685
40
2.2799523
50
269.9700133
51
280.3926283
0
ARC
8
DEFAULT_255_2_778
10
16.131942
20
4.7609367
40
2.2545229
50
248.2401607
51
270.0899995
0
ARC
8
DEFAULT_255_2_778
10
16.1308608
20
4.7513828
40
2.2452504
50
190.46182
51
248.1754031
0
ARC
8
DEFAULT_255_2_778
10
16.1652498
20
4.7552252
40
2.2797667
50
179.9700565
51
190.3998477
0
LINE
8
DEFAULT_255_2_778
10
13.8854834
20
4.7564166
11
13.8854834
21
4.7564166
0
ARC
8
DEFAULT_255_2_778
10
16.1398674
20
84.7598516
40
2.2543868
50
158.2386051
51
180.0898428
0
ARC
8
DEFAULT_255_2_778
10
16.1305453
20
84.7608336
40
2.2453665
50
100.4545112
51
158.173688
0
ARC
8
DEFAULT_255_2_778
10
16.1342947
20
84.7268047
40
2.2795122
50
89.9701221
51
100.3919857
0
ARC
8
DEFAULT_255_2_778
10
16.139032
20
84.7517879
40
2.2545315
50
68.2393107
51
90.0901832
0
ARC
8
DEFAULT_255_2_778
10
16.1400889
20
84.7613432
40
2.2452669
50
10.452684
51
68.1739611
0
ARC
8
DEFAULT_255_2_778
10
16.1057552
20
84.7575042
40
2.2797285
50
359.9701533
51
10.3910176
0
ARC
8
DEFAULT_255_2_778
10
16.1308186
20
84.7527616
40
2.2546676
50
338.2408662
51
0.0903398
0
ARC
8
DEFAULT_255_2_778
10
16.1406067
20
84.7516049
40
2.2451496
50
280.4535565
51
338.1756829
0
ARC
8
DEFAULT_255_2_778
10
16.1366766
20
84.7862685
40
2.2799523
50
269.9700133
51
280.3926283
0
ARC
8
DEFAULT_255_2_778
10
16.131942
20
84.7608367
40
2.2545229
50
248.2401607
51
270.0899995
0
ARC
8
DEFAULT_255_2_778
10
16.1308608
20
84.7512828
40
2.2452504
50
190.46182
51
248.1754031
0
ARC
8
DEFAULT_255_2_778
10
16.1652498
20
84.7551252
40
2.2797667
50
179.9700565
51
190.3998477
0
LINE
8
DEFAULT_255_2_778
10
13.8854834
20
84.7563166
11
13.8854834
21
84.7563166
0
ARC
8
DEFAULT_255_2_778
10
46.3340696
20
67.7575304
40
0.5488398
50
89.8682888
51
180.1317112
0
ARC
8
DEFAULT_255_2_778
10
46.3365145
20
67.7575518
40
0.5488182
50
359.8660481
51
90.1235281
0
ARC
8
DEFAULT_255_2_778
10
46.3365359
20
67.7550642
40
0.5487967
50
269.874236
51
0.1257567
0
ARC
8
DEFAULT_255_2_778
10
46.3340483
20
67.7550855
40
0.5488182
50
179.8764683
51
270.1339357
0
LINE
8
DEFAULT_255_2_778
10
45.7852313
20
67.7562687
11
45.7852313
21
67.7562687
0
ARC
8
DEFAULT_255_2_778
10
46.3340696
20
65.2575304
40
0.5488398
50
89.8682888
51
180.1317112
0
ARC
8
DEFAULT_255_2_778
10
46.3365145
20
65.2575518
40
0.5488182
50
359.8660481
51
90.1235281
0
ARC
8
DEFAULT_255_2_778
10
46.3365359
20
65.2550642
40
0.5487967
50
269.874236
51
0.1257567
0
ARC
8
DEFAULT_255_2_778
10
46.3340483
20
65.2550855
40
0.5488182
50
179.8764683
51
270.1339357
0
LINE
8
DEFAULT_255_2_778
10
45.7852313
20
65.2562687
11
45.7852313
21
65.2562687
0
ARC
8
DEFAULT_255_2_778
10
46.3340696
20
62.7574304
40
0.5488398
50
89.8682888
51
180.1317112
0
ARC
8
DEFAULT_255_2_778
10
46.3365145
20
62.7574518
40
0.5488182
50
359.8660481
51
90.1235281
0
ARC
8
DEFAULT_255_2_778
10
46.3365359
20
62.7549642
40
0.5487967
50
269.874236
51
0.1257567
0
ARC
8
DEFAULT_255_2_778
10
46.3340483
20
62.7549855
40
0.5488182
50
179.8764683
51
270.1339357
0
LINE
8
DEFAULT_255_2_778
10
45.7852313
20
62.7561687
11
45.7852313
21
62.7561687
0
ARC
8
DEFAULT_255_2_778
10
46.3340696
20
77.7574304
40
0.5488398
50
89.8682888
51
180.1317112
0
ARC
8
DEFAULT_255_2_778
10
46.3365145
20
77.7574518
40
0.5488182
50
359.8660481
51
90.1235281
0
ARC
8
DEFAULT_255_2_778
10
46.3365359
20
77.7549642
40
0.5487967
50
269.874236
51
0.1257567
0
ARC
8
DEFAULT_255_2_778
10
46.3340483
20
77.7549855
40
0.5488182
50
179.8764683
51
270.1339357
0
LINE
8
DEFAULT_255_2_778
10
45.7852313
20
77.7561687
11
45.7852313
21
77.7561687
0
ARC
8
DEFAULT_255_2_778
10
46.3340696
20
73.7575304
40
0.5488398
50
89.8682888
51
180.1317112
0
ARC
8
DEFAULT_255_2_778
10
46.3365145
20
73.7575518
40
0.5488182
50
359.8660481
51
90.1235281
0
ARC
8
DEFAULT_255_2_778
10
46.3365359
20
73.7550642
40
0.5487967
50
269.874236
51
0.1257567
0
ARC
8
DEFAULT_255_2_778
10
46.3340483
20
73.7550855
40
0.5488182
50
179.8764683
51
270.1339357
0
LINE
8
DEFAULT_255_2_778
10
45.7852313
20
73.7562687
11
45.7852313
21
73.7562687
0
ARC
8
DEFAULT_255_2_778
10
46.3340696
20
85.7576304
40
0.5488398
50
89.8682888
51
180.1317112
0
ARC
8
DEFAULT_255_2_778
10
46.3365145
20
85.7576518
40
0.5488182
50
359.8660481
51
90.1235281
0
ARC
8
DEFAULT_255_2_778
10
46.3365359
20
85.7551642
40
0.5487967
50
269.874236
51
0.1257567
0
ARC
8
DEFAULT_255_2_778
10
46.3340483
20
85.7551855
40
0.5488182
50
179.8764683
51
270.1339357
0
LINE
8
DEFAULT_255_2_778
10
45.7852313
20
85.7563687
11
45.7852313
21
85.7563687
0
ARC
8
DEFAULT_255_2_778
10
46.3340696
20
81.7574304
40
0.5488398
50
89.8682888
51
180.1317112
0
ARC
8
DEFAULT_255_2_778
10
46.3365145
20
81.7574518
40
0.5488182
50
359.8660481
51
90.1235281
0
ARC
8
DEFAULT_255_2_778
10
46.3365359
20
81.7549642
40
0.5487967
50
269.874236
51
0.1257567
0
ARC
8
DEFAULT_255_2_778
10
46.3340483
20
81.7549855
40
0.5488182
50
179.8764683
51
270.1339357
0
LINE
8
DEFAULT_255_2_778
10
45.7852313
20
81.7561687
11
45.7852313
21
81.7561687
0
ARC
8
DEFAULT_255_2_778
10
4.0878174
20
87.8469521
40
0.3760844
50
88.565088
51
121.3533784
0
ARC
8
DEFAULT_255_2_778
10
4.1141899
20
87.8862475
40
0.3370978
50
37.9424352
51
92.8830093
0
ARC
8
DEFAULT_255_2_778
10
4.0317009
20
87.8350432
40
0.4337583
50
2.0237826
51
36.5766392
0
ARC
8
DEFAULT_255_2_778
10
3.8135268
20
87.8083626
40
0.6530137
50
359.9600423
51
3.687507
0
ARC
8
DEFAULT_255_2_778
10
3.7078264
20
87.8087021
40
0.7587143
50
355.7305918
51
359.9399753
0
ARC
8
DEFAULT_255_2_778
10
3.9136155
20
87.7918826
40
0.5522458
50
327.99776
51
355.8812962
0
ARC
8
DEFAULT_255_2_778
10
3.9715262
20
87.7547218
40
0.4834432
50
297.6577266
51
328.0953543
0
ARC
8
DEFAULT_255_2_778
10
3.9596951
20
87.7798801
40
0.51122
50
269.4229113
51
297.523349
0
ARC
8
DEFAULT_255_2_778
10
3.9545805
20
87.8717185
40
0.6030323
50
268.7984247
51
269.9967322
0
ARC
8
DEFAULT_255_2_778
10
3.94043
20
87.7214034
40
0.4525872
50
241.3790735
51
270.1905349
0
ARC
8
DEFAULT_255_2_778
10
3.9092616
20
87.6669055
40
0.3898206
50
209.7248585
51
241.5634844
0
ARC
8
DEFAULT_255_2_778
10
3.9393435
20
87.6835878
40
0.4242161
50
179.6581715
51
209.666978
0
ARC
8
DEFAULT_255_2_778
10
3.9993256
20
87.6846844
40
0.2137954
50
179.6156394
51
219.110439
0
ARC
8
DEFAULT_255_2_778
10
3.9498731
20
87.6562471
40
0.1577493
50
222.4284175
51
270.9305653
0
ARC
8
DEFAULT_255_2_778
10
3.9597866
20
87.7454695
40
0.2470603
50
268.2948321
51
269.992503
0
ARC
8
DEFAULT_255_2_778
10
3.9635167
20
87.6908863
40
0.1925138
50
268.8801627
51
320.9560175
0
ARC
8
DEFAULT_255_2_778
10
3.8382978
20
87.7872471
40
0.3504892
50
321.616081
51
355.4163374
0
ARC
8
DEFAULT_255_2_778
10
3.632044
20
87.8254802
40
0.5595569
50
353.2011809
51
354.198478
0
ARC
8
DEFAULT_255_2_778
10
3.7725345
20
87.8137072
40
0.4186035
50
353.8578652
51
359.8525524
0
ARC
8
DEFAULT_255_2_778
10
3.9674168
20
87.8224193
40
0.2239339
50
357.4944977
51
33.0415624
0
ARC
8
DEFAULT_255_2_778
10
4.0241691
20
87.8491884
40
0.1619874
50
36.0509136
51
92.5241892
0
ARC
8
DEFAULT_255_2_778
10
4.0123625
20
87.7421725
40
0.2688867
50
89.004316
51
89.9966564
0
ARC
8
DEFAULT_255_2_778
10
4.0162025
20
87.7351181
40
0.2759676
50
90.7940024
51
133.6443817
0
ARC
8
DEFAULT_255_2_778
10
6.9245121
20
87.6507046
40
0.3811435
50
232.7735522
51
270.995651
0
ARC
8
DEFAULT_255_2_778
10
6.9032588
20
87.6076367
40
0.334118
50
219.6318866
51
231.2074167
0
ARC
8
DEFAULT_255_2_778
10
7.0034116
20
87.6764661
40
0.4552844
50
187.3680673
51
218.2634036
0
ARC
8
DEFAULT_255_2_778
10
7.3346925
20
87.7396554
40
0.7921906
50
180.5234114
51
188.8279855
0
ARC
8
DEFAULT_255_2_778
10
7.5765134
20
87.7481589
40
1.0340982
50
180.0007476
51
180.8721448
0
ARC
8
DEFAULT_255_2_778
10
7.5817036
20
87.7479563
40
1.0392884
50
172.877514
51
179.9895774
0
ARC
8
DEFAULT_255_2_778
10
7.7004245
20
87.9735159
40
1.1230314
50
158.0960907
51
171.2931811
0
ARC
8
DEFAULT_255_2_778
10
7.2490034
20
88.1570025
40
0.6357507
50
137.7063398
51
158.2617123
0
ARC
8
DEFAULT_255_2_778
10
7.1121431
20
88.276658
40
0.4540088
50
88.3014667
51
137.2535775
0
ARC
8
DEFAULT_255_2_778
10
7.1255522
20
88.1096321
40
0.6208351
50
88.7463671
51
89.9955695
0
ARC
8
DEFAULT_255_2_778
10
7.1458525
20
88.34776
40
0.3826176
50
52.9015237
51
91.0059672
0
ARC
8
DEFAULT_255_2_778
10
7.1669369
20
88.3906957
40
0.3357771
50
39.8197112
51
51.3517405
0
ARC
8
DEFAULT_255_2_778
10
7.0704366
20
88.3234336
40
0.4530818
50
7.0036407
51
38.537985
0
ARC
8
DEFAULT_255_2_778
10
6.7414957
20
88.2617361
40
0.7873749
50
0.5444978
51
8.541311
0
ARC
8
DEFAULT_255_2_778
10
6.4639657
20
88.2532451
40
1.0649891
50
0.0010913
51
0.859401
0
ARC
8
DEFAULT_255_2_778
10
6.4826441
20
88.2530173
40
1.0463107
50
352.9014839
51
0.0135833
0
ARC
8
DEFAULT_255_2_778
10
6.3373083
20
88.0374588
40
1.1564606
50
338.2349087
51
351.1289013
0
ARC
8
DEFAULT_255_2_778
10
6.8092685
20
87.846736
40
0.6474287
50
318.1899014
51
338.4227624
0
ARC
8
DEFAULT_255_2_778
10
6.9591225
20
87.720034
40
0.4512992
50
268.147637
51
317.496209
0
ARC
8
DEFAULT_255_2_778
10
6.9445746
20
87.8975476
40
0.628577
50
268.7566295
51
269.9963547
0
ARC
8
DEFAULT_255_2_778
10
6.9616365
20
88.3147918
40
0.3007369
50
357.7182905
51
22.4619446
0
ARC
8
DEFAULT_255_2_778
10
7.1261045
20
88.3801031
40
0.1238181
50
23.6104993
51
90.3560668
0
ARC
8
DEFAULT_255_2_778
10
7.1145965
20
88.261576
40
0.2425804
50
87.4628055
51
89.9878105
0
ARC
8
DEFAULT_255_2_778
10
7.1160983
20
88.3002782
40
0.2038834
50
90.4075378
51
158.6483594
0
ARC
8
DEFAULT_255_2_778
10
7.472797
20
88.1162631
40
0.6045249
50
154.7106145
51
170.5118751
0
ARC
8
DEFAULT_255_2_778
10
7.8378836
20
88.0359906
40
0.9780339
50
169.3991852
51
170.160916
0
ARC
8
DEFAULT_255_2_778
10
8.1255635
20
87.664985
40
1.3167342
50
170.91844
51
177.4670352
0
ARC
8
DEFAULT_255_2_778
10
7.4862351
20
87.7004774
40
0.6765002
50
178.0771131
51
179.9626276
0
ARC
8
DEFAULT_255_2_778
10
7.3411361
20
87.6879342
40
0.5315597
50
178.6002989
51
179.989432
0
ARC
8
DEFAULT_255_2_778
10
7.0841017
20
87.6763245
40
0.2747748
50
177.5579536
51
203.8833671
0
ARC
8
DEFAULT_255_2_778
10
6.9436825
20
87.6191
40
0.1232939
50
205.9880353
51
270.8144573
0
ARC
8
DEFAULT_255_2_778
10
6.9603692
20
87.727213
40
0.2318758
50
266.3072509
51
269.971784
0
ARC
8
DEFAULT_255_2_778
10
6.9579165
20
87.6927779
40
0.1974546
50
270.6785779
51
337.9794611
0
ARC
8
DEFAULT_255_2_778
10
6.6078057
20
87.8785069
40
0.5930743
50
334.0241024
51
349.8568134
0
ARC
8
DEFAULT_255_2_778
10
6.2042484
20
87.9705025
40
1.0067142
50
348.7476211
51
350.5618495
0
ARC
8
DEFAULT_255_2_778
10
6.2350942
20
88.3144592
40
1.0269102
50
350.9550103
51
359.3337714
0
LINE
8
DEFAULT_255_2_778
10
2.130535
20
88.1065186
11
2.088535
21
87.8702186
0
LINE
8
DEFAULT_255_2_778
10
2.088535
20
87.8702186
11
1.543435
21
87.8702186
0
LINE
8
DEFAULT_255_2_778
10
1.543435
20
87.8702186
11
1.441835
21
87.2892186
0
LINE
8
DEFAULT_255_2_778
10
1.441835
20
87.2892186
11
1.155835
21
87.2892186
0
LINE
8
DEFAULT_255_2_778
10
1.155835
20
87.2892186
11
1.402935
21
88.7110186
0
LINE
8
DEFAULT_255_2_778
10
1.402935
20
88.7110186
11
2.303335
21
88.7110186
0
LINE
8
DEFAULT_255_2_778
10
2.303335
20
88.7110186
11
2.261235
21
88.4737186
0
LINE
8
DEFAULT_255_2_778
10
2.261235
20
88.4737186
11
1.647935
21
88.4737186
0
LINE
8
DEFAULT_255_2_778
10
1.647935
20
88.4737186
11
1.583435
21
88.1065186
0
LINE
8
DEFAULT_255_2_778
10
1.583435
20
88.1065186
11
2.130335
21
88.1065186
0
LINE
8
DEFAULT_255_2_778
10
2.130335
20
88.1065186
11
2.130535
21
88.1065186
0
LINE
8
DEFAULT_255_2_778
10
2.689135
20
88.7110186
11
2.870835
21
88.2229186
0
LINE
8
DEFAULT_255_2_778
10
2.870835
20
88.2229186
11
3.205835
21
88.7110186
0
LINE
8
DEFAULT_255_2_778
10
3.205835
20
88.7110186
11
3.549535
21
88.7110186
0
LINE
8
DEFAULT_255_2_778
10
3.549535
20
88.7110186
11
3.026935
21
87.9922186
0
LINE
8
DEFAULT_255_2_778
10
3.026935
20
87.9922186
11
3.321935
21
87.2892186
0
LINE
8
DEFAULT_255_2_778
10
3.321935
20
87.2892186
11
3.005535
21
87.2892186
0
LINE
8
DEFAULT_255_2_778
10
3.005535
20
87.2892186
11
2.819035
21
87.7853186
0
LINE
8
DEFAULT_255_2_778
10
2.819035
20
87.7853186
11
2.476135
21
87.2892186
0
LINE
8
DEFAULT_255_2_778
10
2.476135
20
87.2892186
11
2.128435
21
87.2892186
0
LINE
8
DEFAULT_255_2_778
10
2.128435
20
87.2892186
11
2.662635
21
88.0197186
0
LINE
8
DEFAULT_255_2_778
10
2.662635
20
88.0197186
11
2.376335
21
88.7110186
0
LINE
8
DEFAULT_255_2_778
10
2.376335
20
88.7110186
11
2.688835
21
88.7110186
0
LINE
8
DEFAULT_255_2_778
10
2.688835
20
88.7110186
11
2.689135
21
88.7110186
0
LINE
8
DEFAULT_255_2_778
10
3.825735
20
87.9348186
11
3.600035
21
87.9924186
0
LINE
8
DEFAULT_255_2_778
10
3.600035
20
87.9924186
11
3.791335
21
88.7113186
0
LINE
8
DEFAULT_255_2_778
10
3.791335
20
88.7113186
11
4.568735
21
88.7113186
0
LINE
8
DEFAULT_255_2_778
10
4.568735
20
88.7113186
11
4.531635
21
88.4758186
0
LINE
8
DEFAULT_255_2_778
10
4.531635
20
88.4758186
11
3.985835
21
88.4758186
0
LINE
8
DEFAULT_255_2_778
10
3.985835
20
88.4758186
11
3.892135
21
88.1681186
0
LINE
8
DEFAULT_255_2_778
10
3.515135
20
87.6861186
11
3.785535
21
87.6861186
0
LINE
8
DEFAULT_255_2_778
10
3.825735
20
87.9348186
11
3.825735
21
87.9348186
0
LINE
8
DEFAULT_255_2_778
10
5.235935
20
88.0118186
11
5.196035
21
87.7842186
0
LINE
8
DEFAULT_255_2_778
10
5.196035
20
87.7842186
11
4.660735
21
87.7842186
0
LINE
8
DEFAULT_255_2_778
10
4.660735
20
87.7842186
11
4.699935
21
88.0118186
0
LINE
8
DEFAULT_255_2_778
10
4.699935
20
88.0118186
11
5.235935
21
88.0118186
0
LINE
8
DEFAULT_255_2_778
10
5.235935
20
88.0118186
11
5.235935
21
88.0118186
0
LINE
8
DEFAULT_255_2_778
10
6.384235
20
88.7110186
11
6.231035
21
87.8244186
0
LINE
8
DEFAULT_255_2_778
10
6.231035
20
87.8244186
11
6.387435
21
87.8244186
0
LINE
8
DEFAULT_255_2_778
10
6.387435
20
87.8244186
11
6.347535
21
87.5969186
0
LINE
8
DEFAULT_255_2_778
10
6.347535
20
87.5969186
11
6.191135
21
87.5969186
0
LINE
8
DEFAULT_255_2_778
10
6.191135
20
87.5969186
11
6.137435
21
87.2892186
0
LINE
8
DEFAULT_255_2_778
10
6.137435
20
87.2892186
11
5.861935
21
87.2892186
0
LINE
8
DEFAULT_255_2_778
10
5.861935
20
87.2892186
11
5.915735
21
87.5969186
0
LINE
8
DEFAULT_255_2_778
10
5.915735
20
87.5969186
11
5.351335
21
87.5969186
0
LINE
8
DEFAULT_255_2_778
10
5.351335
20
87.5969186
11
5.370935
21
87.7892186
0
LINE
8
DEFAULT_255_2_778
10
5.370935
20
87.7892186
11
6.096435
21
88.7110186
0
LINE
8
DEFAULT_255_2_778
10
6.096435
20
88.7110186
11
6.384535
21
88.7110186
0
LINE
8
DEFAULT_255_2_778
10
6.384535
20
88.7110186
11
6.384235
21
88.7110186
0
LINE
8
DEFAULT_255_2_778
10
6.026835
20
88.2951186
11
5.656635
21
87.8263186
0
LINE
8
DEFAULT_255_2_778
10
5.656635
20
87.8263186
11
5.955335
21
87.8244186
0
LINE
8
DEFAULT_255_2_778
10
5.955335
20
87.8244186
11
6.051935
21
88.3303186
0
LINE
8
DEFAULT_255_2_778
10
6.051935
20
88.3303186
11
6.026535
21
88.2951186
0
LINE
8
DEFAULT_255_2_778
10
6.026535
20
88.2951186
11
6.026835
21
88.2951186
0
LINE
8
DEFAULT_255_2_778
10
6.550435
20
87.8768186
11
6.590335
21
88.1435186
0
LINE
8
DEFAULT_255_2_778
10
7.520935
20
88.1237186
11
7.479935
21
87.8591186
0
LINE
8
DEFAULT_255_2_778
10
6.930935
20
87.2691186
11
6.931135
21
87.2696186
0
LINE
8
DEFAULT_255_2_778
10
6.874235
20
88.2031186
11
6.825335
21
87.8728186
0
LINE
8
DEFAULT_255_2_778
10
7.197335
20
87.8054186
11
7.249235
21
88.1530186
0
LINE
8
DEFAULT_255_2_778
10
7.261935
20
88.3025186
11
7.262135
21
88.3028186
0
ARC
8
DEFAULT_255_2_778
10
8.2153873
20
87.699588
40
0.1708014
50
349.7422184
51
359.8032017
0
ARC
8
DEFAULT_255_2_778
10
8.234884
20
87.6945528
40
0.1513691
50
1.6840964
51
65.2816041
0
ARC
8
DEFAULT_255_2_778
10
8.130595
20
87.541754
40
0.3351986
50
60.0027635
51
65.582782
0
ARC
8
DEFAULT_255_2_778
10
8.3722582
20
88.6038455
40
0.7414761
50
230.778449
51
246.8503526
0
ARC
8
DEFAULT_255_2_778
10
8.1137373
20
88.3031367
40
0.3451956
50
180.3937377
51
232.4606478
0
ARC
8
DEFAULT_255_2_778
10
8.1475654
20
88.3006242
40
0.3790155
50
176.256184
51
179.9787926
0
ARC
8
DEFAULT_255_2_778
10
8.1399453
20
88.3079401
40
0.3709963
50
142.0344956
51
177.3068378
0
ARC
8
DEFAULT_255_2_778
10
8.2104081
20
88.2427387
40
0.4667285
50
110.4079654
51
141.0455075
0
ARC
8
DEFAULT_255_2_778
10
8.3097573
20
88.0223333
40
0.7081297
50
89.5301762
51
111.7235043
0
ARC
8
DEFAULT_255_2_778
10
8.3155351
20
87.9039466
40
0.8264924
50
89.2704399
51
89.9980062
0
ARC
8
DEFAULT_255_2_778
10
8.3304758
20
88.2141147
40
0.5162764
50
59.7303932
51
90.4902085
0
ARC
8
DEFAULT_255_2_778
10
8.3677813
20
88.2963145
40
0.4265784
50
46.9169713
51
58.4925717
0
ARC
8
DEFAULT_255_2_778
10
8.3791286
20
88.314771
40
0.4053704
50
357.4352579
51
46.3064761
0
ARC
8
DEFAULT_255_2_778
10
8.1684439
20
88.2966614
40
0.6156491
50
359.3960662
51
359.9972089
0
ARC
8
DEFAULT_255_2_778
10
8.1476238
20
88.307801
40
0.3515772
50
357.125865
51
359.9684919
0
ARC
8
DEFAULT_255_2_778
10
8.3055453
20
88.3183893
40
0.1939556
50
356.8133844
51
39.0086093
0
ARC
8
DEFAULT_255_2_778
10
8.3240706
20
88.3101282
40
0.1856428
50
44.5975377
51
91.6971929
0
ARC
8
DEFAULT_255_2_778
10
8.302907
20
88.135542
40
0.360488
50
87.50936
51
88.974502
0
ARC
8
DEFAULT_255_2_778
10
8.3016733
20
88.1022402
40
0.3938071
50
88.881755
51
89.9955877
0
ARC
8
DEFAULT_255_2_778
10
8.2950924
20
88.2023427
40
0.2937788
50
88.7104948
51
121.9665416
0
ARC
8
DEFAULT_255_2_778
10
8.233517
20
88.2954649
40
0.1822022
50
121.0430041
51
170.9985378
0
ARC
8
DEFAULT_255_2_778
10
8.1763874
20
88.3021437
40
0.1247532
50
169.9228741
51
179.8612995
0
ARC
8
DEFAULT_255_2_778
10
8.1844554
20
88.3094945
40
0.1330077
50
183.0378304
51
242.329649
0
ARC
8
DEFAULT_255_2_778
10
8.334276
20
88.5231255
40
0.3932089
50
237.4453344
51
249.4357988
0
ARC
8
DEFAULT_255_2_778
10
8.1452249
20
87.5314341
40
0.597208
50
44.7234632
51
64.8153615
0
ARC
8
DEFAULT_255_2_778
10
8.3198294
20
87.7060648
40
0.3502663
50
359.3762985
51
44.5254837
0
ARC
8
DEFAULT_255_2_778
10
8.2417239
20
87.7024762
40
0.4283512
50
355.8627221
51
359.970009
0
ARC
8
DEFAULT_255_2_778
10
8.2850173
20
87.6906326
40
0.3844143
50
322.077265
51
357.1579432
0
ARC
8
DEFAULT_255_2_778
10
8.2346769
20
87.7404838
40
0.4548406
50
290.3646787
51
321.0208921
0
ARC
8
DEFAULT_255_2_778
10
8.1465947
20
87.9517299
40
0.6835954
50
269.3723398
51
291.124427
0
ARC
8
DEFAULT_255_2_778
10
8.1391638
20
88.1111574
40
0.8429818
50
268.7625444
51
269.9960908
0
ARC
8
DEFAULT_255_2_778
10
8.1221635
20
87.8775531
40
0.6091821
50
243.6062067
51
269.8866948
0
ARC
8
DEFAULT_255_2_778
10
8.036338
20
87.7060896
40
0.4174398
50
209.1473974
51
243.6963741
0
ARC
8
DEFAULT_255_2_778
10
8.0535758
20
87.7129377
40
0.4358369
50
179.0444766
51
208.8299229
0
ARC
8
DEFAULT_255_2_778
10
8.1773382
20
87.7201427
40
0.5595388
50
178.2559417
51
179.9935417
0
ARC
8
DEFAULT_255_2_778
10
8.3132663
20
87.7113428
40
0.4099541
50
176.5416823
51
179.9512468
0
ARC
8
DEFAULT_255_2_778
10
8.1153305
20
87.6989727
40
0.2123995
50
176.5669667
51
218.2694803
0
ARC
8
DEFAULT_255_2_778
10
8.0990539
20
87.7118271
40
0.2085601
50
223.8201332
51
266.5630211
0
ARC
8
DEFAULT_255_2_778
10
8.1373935
20
87.9315818
40
0.4309492
50
263.2245303
51
269.2242354
0
ARC
8
DEFAULT_255_2_778
10
8.1438551
20
87.8009188
40
0.3004983
50
267.6548058
51
302.1043371
0
ARC
8
DEFAULT_255_2_778
10
8.2079178
20
87.6964611
40
0.1779715
50
302.5064527
51
350.9191549
0
LINE
8
DEFAULT_255_2_778
10
8.2691588
20
87.8469722
11
8.0807588
21
87.9220722
0
LINE
8
DEFAULT_255_2_778
10
8.7840588
20
88.2901722
11
8.4987588
21
88.2901722
0
LINE
8
DEFAULT_255_2_778
10
8.1961588
20
88.1549722
11
8.3249588
21
88.1059722
0
LINE
8
DEFAULT_255_2_778
10
8.3249588
20
88.1059722
11
8.3993588
21
88.0718722
0
LINE
8
DEFAULT_255_2_778
10
7.6180588
20
87.7371722
11
7.9040588
21
87.7360722
0
LINE
8
DEFAULT_255_2_778
10
8.3836588
20
87.6683722
11
8.3834588
21
87.6691722
0
ARC
8
DEFAULT_255_2_778
10
9.4176873
20
87.699588
40
0.1708014
50
349.7422184
51
359.8032017
0
ARC
8
DEFAULT_255_2_778
10
9.437184
20
87.6945528
40
0.1513691
50
1.6840964
51
65.2816041
0
ARC
8
DEFAULT_255_2_778
10
9.332895
20
87.541754
40
0.3351986
50
60.0027635
51
65.582782
0
ARC
8
DEFAULT_255_2_778
10
9.5745582
20
88.6038455
40
0.7414761
50
230.778449
51
246.8503526
0
ARC
8
DEFAULT_255_2_778
10
9.3160373
20
88.3031367
40
0.3451956
50
180.3937377
51
232.4606478
0
ARC
8
DEFAULT_255_2_778
10
9.3498653
20
88.3006242
40
0.3790155
50
176.256184
51
179.9787926
0
ARC
8
DEFAULT_255_2_778
10
9.3426158
20
88.3079418
40
0.3713664
50
142.0793601
51
177.3097799
0
ARC
8
DEFAULT_255_2_778
10
9.4130155
20
88.2420588
40
0.4674729
50
110.414236
51
141.0121129
0
ARC
8
DEFAULT_255_2_778
10
9.5120573
20
88.0223333
40
0.7081297
50
89.5301762
51
111.7235043
0
ARC
8
DEFAULT_255_2_778
10
9.5178351
20
87.9039466
40
0.8264924
50
89.2704399
51
89.9980062
0
ARC
8
DEFAULT_255_2_778
10
9.5327758
20
88.2141147
40
0.5162764
50
59.7303932
51
90.4902085
0
ARC
8
DEFAULT_255_2_778
10
9.5700812
20
88.2963145
40
0.4265784
50
46.9169713
51
58.4925717
0
ARC
8
DEFAULT_255_2_778
10
9.5814285
20
88.314771
40
0.4053704
50
357.4352579
51
46.3064761
0
ARC
8
DEFAULT_255_2_778
10
9.3707438
20
88.2966614
40
0.6156491
50
359.3960662
51
359.9972089
0
ARC
8
DEFAULT_255_2_778
10
9.3499237
20
88.307801
40
0.3515772
50
357.125865
51
359.9684919
0
ARC
8
DEFAULT_255_2_778
10
9.5078452
20
88.3183893
40
0.1939556
50
356.8133844
51
39.0086093
0
ARC
8
DEFAULT_255_2_778
10
9.5263706
20
88.3101282
40
0.1856428
50
44.5975377
51
91.6971929
0
ARC
8
DEFAULT_255_2_778
10
9.5052069
20
88.135542
40
0.360488
50
87.50936
51
88.974502
0
ARC
8
DEFAULT_255_2_778
10
9.5039731
20
88.1022322
40
0.3938151
50
88.8817578
51
89.9955905
0
ARC
8
DEFAULT_255_2_778
10
9.4974293
20
88.2018578
40
0.2942627
50
88.7198462
51
121.9391856
0
ARC
8
DEFAULT_255_2_778
10
9.4358928
20
88.2954876
40
0.1822735
50
121.0940173
51
171.0093007
0
ARC
8
DEFAULT_255_2_778
10
9.3786873
20
88.3021437
40
0.1247532
50
169.9228741
51
179.8612995
0
ARC
8
DEFAULT_255_2_778
10
9.3867554
20
88.3094945
40
0.1330077
50
183.0378304
51
242.329649
0
ARC
8
DEFAULT_255_2_778
10
9.536576
20
88.5231255
40
0.3932089
50
237.4453344
51
249.4357988
0
ARC
8
DEFAULT_255_2_778
10
9.3475248
20
87.5314341
40
0.597208
50
44.7234632
51
64.8153615
0
ARC
8
DEFAULT_255_2_778
10
9.5221294
20
87.7060648
40
0.3502663
50
359.3762985
51
44.5254837
0
ARC
8
DEFAULT_255_2_778
10
9.4440239
20
87.7024762
40
0.4283512
50
355.8627221
51
359.970009
0
ARC
8
DEFAULT_255_2_778
10
9.4873172
20
87.6906326
40
0.3844143
50
322.077265
51
357.1579432
0
ARC
8
DEFAULT_255_2_778
10
9.4369768
20
87.7404838
40
0.4548406
50
290.3646787
51
321.0208921
0
ARC
8
DEFAULT_255_2_778
10
9.3488035
20
87.9522323
40
0.6840968
50
269.3794692
51
291.1163847
0
ARC
8
DEFAULT_255_2_778
10
9.3414518
20
88.1100491
40
0.8418735
50
268.7617274
51
269.9961131
0
ARC
8
DEFAULT_255_2_778
10
9.3244634
20
87.8775531
40
0.6091821
50
243.6062067
51
269.8866948
0
ARC
8
DEFAULT_255_2_778
10
9.2389437
20
87.7066245
40
0.4180548
50
209.184334
51
243.6912907
0
ARC
8
DEFAULT_255_2_778
10
9.256421
20
87.7128973
40
0.4363828
50
179.0439699
51
208.784436
0
ARC
8
DEFAULT_255_2_778
10
9.3805901
20
87.7201085
40
0.5604911
50
178.2554081
51
179.9928526
0
ARC
8
DEFAULT_255_2_778
10
9.5155663
20
87.7113428
40
0.4099541
50
176.5416823
51
179.9512468
0
ARC
8
DEFAULT_255_2_778
10
9.3176305
20
87.6989727
40
0.2123995
50
176.5669667
51
218.2694803
0
ARC
8
DEFAULT_255_2_778
10
9.3013538
20
87.7118271
40
0.2085601
50
223.8201332
51
266.5630211
0
ARC
8
DEFAULT_255_2_778
10
9.3396934
20
87.9315818
40
0.4309492
50
263.2245303
51
269.2242354
0
ARC
8
DEFAULT_255_2_778
10
9.3461551
20
87.8009188
40
0.3004983
50
267.6548058
51
302.1043371
0
ARC
8
DEFAULT_255_2_778
10
9.4098176
20
87.6967238
40
0.1784083
50
302.5694929
51
350.8561147
0
LINE
8
DEFAULT_255_2_778
10
9.4714587
20
87.8469722
11
9.2830587
21
87.9220722
0
LINE
8
DEFAULT_255_2_778
10
9.9863587
20
88.2901722
11
9.7010587
21
88.2901722
0
LINE
8
DEFAULT_255_2_778
10
9.3984587
20
88.1549722
11
9.5272587
21
88.1059722
0
LINE
8
DEFAULT_255_2_778
10
9.5272587
20
88.1059722
11
9.6016587
21
88.0718722
0
LINE
8
DEFAULT_255_2_778
10
8.8203587
20
87.7371722
11
9.1063587
21
87.7360722
0
LINE
8
DEFAULT_255_2_778
10
9.5859587
20
87.6683722
11
9.5857587
21
87.6691722
0
ARC
8
DEFAULT_255_2_778
10
10.634159
20
87.8179195
40
0.5330655
50
323.7151398
51
354.1569308
0
ARC
8
DEFAULT_255_2_778
10
10.6252683
20
87.8268139
40
0.5454992
50
293.7601719
51
323.5147222
0
ARC
8
DEFAULT_255_2_778
10
10.5733201
20
87.931093
40
0.661893
50
269.555387
51
294.2388789
0
ARC
8
DEFAULT_255_2_778
10
10.5681958
20
88.0301873
40
0.7609674
50
268.9352199
51
269.9991001
0
ARC
8
DEFAULT_255_2_778
10
10.5532007
20
87.7616775
40
0.492327
50
240.2707707
51
270.0994109
0
ARC
8
DEFAULT_255_2_778
10
10.5312877
20
87.7029445
40
0.4305762
50
206.0505033
51
238.9270615
0
ARC
8
DEFAULT_255_2_778
10
10.7426863
20
87.8080009
40
0.666637
50
181.9986556
51
206.1832883
0
ARC
8
DEFAULT_255_2_778
10
10.8552266
20
87.8285507
40
0.7800025
50
179.9348783
51
183.2190229
0
ARC
8
DEFAULT_255_2_778
10
11.3617856
20
87.8177771
40
1.2866138
50
171.6767174
51
179.4807394
0
ARC
8
DEFAULT_255_2_778
10
12.153925
20
87.7163071
40
2.0851471
50
169.8587244
51
172.0687631
0
ARC
8
DEFAULT_255_2_778
10
11.0383193
20
87.9283202
40
0.94972
50
150.1551464
51
170.598949
0
ARC
8
DEFAULT_255_2_778
10
10.8281446
20
88.0543833
40
0.7046997
50
126.5423167
51
150.5413542
0
ARC
8
DEFAULT_255_2_778
10
10.7483823
20
88.1479213
40
0.5821183
50
89.2355524
51
125.7166483
0
ARC
8
DEFAULT_255_2_778
10
10.7561118
20
88.0284856
40
0.7015021
50
88.8692775
51
89.9969801
0
ARC
8
DEFAULT_255_2_778
10
10.774335
20
88.2011191
40
0.5287503
50
61.3628471
51
90.4746415
0
ARC
8
DEFAULT_255_2_778
10
10.8164593
20
88.2976485
40
0.4239423
50
44.2839294
51
60.1070075
0
ARC
8
DEFAULT_255_2_778
10
10.7538303
20
88.2490437
40
0.5027938
50
8.1832362
51
43.2659359
0
ARC
8
DEFAULT_255_2_778
10
10.4609141
20
88.1846222
40
0.8022008
50
2.9460085
51
9.7598878
0
ARC
8
DEFAULT_255_2_778
10
10.5809623
20
88.2389264
40
0.3960767
50
358.2529628
51
19.5194811
0
ARC
8
DEFAULT_255_2_778
10
10.7808796
20
88.3050545
40
0.1856076
50
20.8995372
51
39.9559245
0
ARC
8
DEFAULT_255_2_778
10
10.7710925
20
88.2803196
40
0.2093784
50
43.4265203
51
89.3427456
0
ARC
8
DEFAULT_255_2_778
10
10.7425701
20
88.0912013
40
0.3996811
50
85.5624655
51
88.0521862
0
ARC
8
DEFAULT_255_2_778
10
10.7438798
20
88.1174266
40
0.3734265
50
88.1162646
51
89.9936185
0
ARC
8
DEFAULT_255_2_778
10
10.7379192
20
88.2023345
40
0.2885811
50
88.8082255
51
140.4339223
0
ARC
8
DEFAULT_255_2_778
10
10.9102962
20
88.0625754
40
0.510491
50
140.6650869
51
164.4564244
0
ARC
8
DEFAULT_255_2_778
10
11.3257048
20
87.9277278
40
0.9470247
50
163.3311403
51
171.5523414
0
ARC
8
DEFAULT_255_2_778
10
13.4179815
20
87.5938853
40
3.0657298
50
171.1252391
51
174.1615169
0
ARC
8
DEFAULT_255_2_778
10
11.6201989
20
87.7732699
40
1.2590329
50
173.960168
51
179.4619365
0
ARC
8
DEFAULT_255_2_778
10
10.9842028
20
87.7844928
40
0.6229816
50
179.9447817
51
182.1380302
0
ARC
8
DEFAULT_255_2_778
10
10.7464641
20
87.7633692
40
0.3848151
50
180.3153482
51
202.403829
0
ARC
8
DEFAULT_255_2_778
10
10.5628029
20
87.6934655
40
0.1884507
50
204.0372562
51
220.4301862
0
ARC
8
DEFAULT_255_2_778
10
10.5627399
20
87.6997445
40
0.1925351
50
221.8648349
51
271.1949002
0
ARC
8
DEFAULT_255_2_778
10
10.5842344
20
87.9811976
40
0.4742685
50
267.8878481
51
269.9846251
0
ARC
8
DEFAULT_255_2_778
10
10.5975551
20
87.7931965
40
0.2865832
50
267.310399
51
308.5760702
0
ARC
8
DEFAULT_255_2_778
10
10.556223
20
87.8125555
40
0.3281153
50
312.1128587
51
350.9512542
0
ARC
8
DEFAULT_255_2_778
10
12.6608094
20
87.6996758
40
0.1705986
50
349.6927705
51
359.8009979
0
ARC
8
DEFAULT_255_2_778
10
12.6802106
20
87.6946
40
0.1512627
50
1.6984493
51
65.3150991
0
ARC
8
DEFAULT_255_2_778
10
12.5757787
20
87.5414802
40
0.335434
50
60.0223947
51
65.5986964
0
ARC
8
DEFAULT_255_2_778
10
12.8174544
20
88.6038246
40
0.7414761
50
230.778449
51
246.8503526
0
ARC
8
DEFAULT_255_2_778
10
12.5589334
20
88.3031158
40
0.3451956
50
180.3937377
51
232.4606478
0
ARC
8
DEFAULT_255_2_778
10
12.5927615
20
88.3006033
40
0.3790155
50
176.256184
51
179.9787926
0
ARC
8
DEFAULT_255_2_778
10
12.5851415
20
88.3079192
40
0.3709963
50
142.0344956
51
177.3068378
0
ARC
8
DEFAULT_255_2_778
10
12.6555222
20
88.2427188
40
0.466664
50
110.3870688
51
141.03928
0
ARC
8
DEFAULT_255_2_778
10
12.7549119
20
88.0230552
40
0.7073872
50
89.5263067
51
111.7351234
0
ARC
8
DEFAULT_255_2_778
10
12.7607314
20
87.9039354
40
0.8264827
50
89.2704388
51
89.9980051
0
ARC
8
DEFAULT_255_2_778
10
12.775672
20
88.2140937
40
0.5162764
50
59.7303932
51
90.4902085
0
ARC
8
DEFAULT_255_2_778
10
12.8129774
20
88.2962936
40
0.4265784
50
46.9169713
51
58.4925717
0
ARC
8
DEFAULT_255_2_778
10
12.8243247
20
88.3147501
40
0.4053704
50
357.4352579
51
46.3064761
0
ARC
8
DEFAULT_255_2_778
10
12.61364
20
88.2966405
40
0.6156491
50
359.3960662
51
359.9972089
0
ARC
8
DEFAULT_255_2_778
10
12.593318
20
88.3077467
40
0.3508783
50
357.1255879
51
359.9685343
0
ARC
8
DEFAULT_255_2_778
10
12.7507565
20
88.3183233
40
0.1937393
50
356.8135065
51
39.07763
0
ARC
8
DEFAULT_255_2_778
10
12.7690167
20
88.3102226
40
0.1855263
50
44.5830144
51
91.6856163
0
ARC
8
DEFAULT_255_2_778
10
12.7479098
20
88.1362485
40
0.3597605
50
87.5068468
51
88.9734942
0
ARC
8
DEFAULT_255_2_778
10
12.7466615
20
88.1014015
40
0.3946248
50
88.8829238
51
89.9955704
0
ARC
8
DEFAULT_255_2_778
10
12.7400383
20
88.2021542
40
0.2939473
50
88.7029475
51
121.9574807
0
ARC
8
DEFAULT_255_2_778
10
12.6787829
20
88.2951948
40
0.1826065
50
121.1020835
51
170.9394583
0
ARC
8
DEFAULT_255_2_778
10
12.6214517
20
88.3022145
40
0.1249028
50
169.9778227
51
179.862322
0
ARC
8
DEFAULT_255_2_778
10
12.6294608
20
88.3095417
40
0.1330971
50
183.0264342
51
242.3013116
0
ARC
8
DEFAULT_255_2_778
10
12.7791689
20
88.5228671
40
0.3929853
50
237.4267174
51
249.4240805
0
ARC
8
DEFAULT_255_2_778
10
12.590164
20
87.5313046
40
0.5972879
50
44.7361058
51
64.8235288
0
ARC
8
DEFAULT_255_2_778
10
12.764956
20
87.7061709
40
0.3500471
50
359.3786288
51
44.5411068
0
ARC
8
DEFAULT_255_2_778
10
12.6868553
20
87.7026071
40
0.4281273
50
355.8401893
51
359.9689126
0
ARC
8
DEFAULT_255_2_778
10
12.7299134
20
87.6906117
40
0.3844143
50
322.077265
51
357.1579432
0
ARC
8
DEFAULT_255_2_778
10
12.6794867
20
87.74047
40
0.4549122
50
290.3863595
51
321.0270233
0
ARC
8
DEFAULT_255_2_778
10
12.5914997
20
87.9522114
40
0.6840968
50
269.3794692
51
291.1163847
0
ARC
8
DEFAULT_255_2_778
10
12.584148
20
88.1100282
40
0.8418735
50
268.7617274
51
269.9961131
0
ARC
8
DEFAULT_255_2_778
10
12.5670558
20
87.8770918
40
0.6087415
50
243.5965252
51
269.8963764
0
ARC
8
DEFAULT_255_2_778
10
12.4811108
20
87.7060472
40
0.4173216
50
209.1530697
51
243.722555
0
ARC
8
DEFAULT_255_2_778
10
12.498472
20
87.7129167
40
0.4358369
50
179.0444766
51
208.8299229
0
ARC
8
DEFAULT_255_2_778
10
12.6222344
20
87.7201218
40
0.5595388
50
178.2559417
51
179.9935417
0
ARC
8
DEFAULT_255_2_778
10
12.758347
20
87.7114894
40
0.4101283
50
176.5666021
51
179.9519555
0
ARC
8
DEFAULT_255_2_778
10
12.5604555
20
87.6991012
40
0.2126182
50
176.566943
51
218.2568857
0
ARC
8
DEFAULT_255_2_778
10
12.5440461
20
87.7118558
40
0.2086083
50
223.8070091
51
266.5600377
0
ARC
8
DEFAULT_255_2_778
10
12.5823907
20
87.9315908
40
0.4309791
50
263.2224979
51
269.2241481
0
ARC
8
DEFAULT_255_2_778
10
12.588888
20
87.8004104
40
0.3000128
50
267.6439928
51
302.1316934
0
ARC
8
DEFAULT_255_2_778
10
12.6526022
20
87.6967234
40
0.1783242
50
302.5149134
51
350.8450843
0
ARC
8
DEFAULT_255_2_778
10
43.9510874
20
82.7818991
40
1.3117809
50
312.6032383
51
319.2756793
0
ARC
8
DEFAULT_255_2_778
10
44.6065185
20
82.2196579
40
0.4482425
50
319.0816709
51
329.7065254
0
ARC
8
DEFAULT_255_2_778
10
44.8058384
20
82.1048904
40
0.2182519
50
329.3268006
51
358.9110626
0
ARC
8
DEFAULT_255_2_778
10
44.8419665
20
82.1007431
40
0.1820844
50
359.9998713
51
8.2755744
0
ARC
8
DEFAULT_255_2_778
10
44.9226594
20
82.1204872
40
0.0997053
50
3.7172058
51
93.0496585
0
ARC
8
DEFAULT_255_2_778
10
44.9130505
20
82.0310048
40
0.1890955
50
88.6956466
51
89.9992684
0
ARC
8
DEFAULT_255_2_778
10
44.9100886
20
82.0715918
40
0.1485381
50
88.8565139
51
137.9127003
0
ARC
8
DEFAULT_255_2_778
10
44.9708407
20
82.0184111
40
0.2292722
50
138.2258603
51
174.9604154
0
ARC
8
DEFAULT_255_2_778
10
44.8990591
20
82.018938
40
0.363791
50
146.6842319
51
177.0356608
0
ARC
8
DEFAULT_255_2_778
10
44.9013388
20
82.0173693
40
0.3665577
50
116.5570687
51
146.675037
0
ARC
8
DEFAULT_255_2_778
10
44.9231043
20
81.9767709
40
0.4126057
50
89.5785537
51
116.7400744
0
ARC
8
DEFAULT_255_2_778
10
44.9261111
20
81.9218609
40
0.4675044
50
89.5534222
51
89.9965539
0
ARC
8
DEFAULT_255_2_778
10
44.9361892
20
82.0323106
40
0.3570986
50
58.6685033
51
91.0324268
0
ARC
8
DEFAULT_255_2_778
10
44.9785028
20
82.1182351
40
0.2618408
50
45.737161
51
56.8001979
0
ARC
8
DEFAULT_255_2_778
10
44.9854374
20
82.1276381
40
0.2502721
50
357.8460197
51
45.3716389
0
ARC
8
DEFAULT_255_2_778
10
44.8546331
20
82.1185279
40
0.3808997
50
355.8934698
51
359.9554159
0
ARC
8
DEFAULT_255_2_778
10
44.8361854
20
82.1340902
40
0.4006662
50
323.80967
51
353.8622424
0
ARC
8
DEFAULT_255_2_778
10
44.4850187
20
82.3670208
40
0.8218454
50
314.051816
51
325.1597945
0
ARC
8
DEFAULT_255_2_778
10
44.8499295
20
78.126287
40
0.1928411
50
268.105682
51
308.4920272
0
ARC
8
DEFAULT_255_2_778
10
44.8657641
20
78.1017521
40
0.1638075
50
309.4983641
51
355.0266561
0
ARC
8
DEFAULT_255_2_778
10
44.849373
20
78.1105044
40
0.1810428
50
352.7162825
51
359.8380494
0
ARC
8
DEFAULT_255_2_778
10
44.9226463
20
78.1141277
40
0.1078481
50
357.8026304
51
39.1728452
0
ARC
8
DEFAULT_255_2_778
10
44.9216102
20
78.1043182
40
0.1150578
50
42.6360248
51
92.6677585
0
ARC
8
DEFAULT_255_2_778
10
44.910886
20
78.0185667
40
0.2007564
50
88.4675499
51
89.9928508
0
ARC
8
DEFAULT_255_2_778
10
44.9074332
20
78.0673579
40
0.1520049
50
88.6889363
51
128.2370151
0
ARC
8
DEFAULT_255_2_778
10
44.8993279
20
78.0760596
40
0.1401571
50
127.8360877
51
170.8483643
0
ARC
8
DEFAULT_255_2_778
10
44.8314051
20
78.0862789
40
0.2772481
50
126.8444241
51
177.8352719
0
ARC
8
DEFAULT_255_2_778
10
44.903272
20
77.9995029
40
0.389825
50
88.3765093
51
127.6495925
0
ARC
8
DEFAULT_255_2_778
10
44.9143337
20
77.8605703
40
0.5286011
50
89.4990962
51
90.0018845
0
ARC
8
DEFAULT_255_2_778
10
44.9255802
20
78.0182531
40
0.3709574
50
57.6697435
51
91.0233566
0
ARC
8
DEFAULT_255_2_778
10
44.9649151
20
78.0967842
40
0.2836992
50
47.2322464
51
55.9000614
0
ARC
8
DEFAULT_255_2_778
10
44.9869401
20
78.1204946
40
0.2513375
50
357.9849594
51
47.2479282
0
ARC
8
DEFAULT_255_2_778
10
44.8687156
20
78.1118476
40
0.3694067
50
356.5552327
51
359.9704643
0
ARC
8
DEFAULT_255_2_778
10
44.9777176
20
78.1123477
40
0.2607271
50
298.9041435
51
355.006057
0
ARC
8
DEFAULT_255_2_778
10
44.8235699
20
78.323554
40
0.5211668
50
294.9309175
51
302.5190539
0
ARC
8
DEFAULT_255_2_778
10
44.9516292
20
77.6472223
40
0.2233848
50
28.2781246
51
65.7845036
0
ARC
8
DEFAULT_255_2_778
10
44.9186091
20
77.6332658
40
0.2590979
50
359.3592119
51
27.5367478
0
ARC
8
DEFAULT_255_2_778
10
44.8604417
20
77.6304819
40
0.3172489
50
356.6695163
51
359.9794574
0
ARC
8
DEFAULT_255_2_778
10
44.872199
20
77.6232976
40
0.3051632
50
323.6101031
51
357.8879809
0
ARC
8
DEFAULT_255_2_778
10
44.8401705
20
77.6504611
40
0.3470734
50
292.475902
51
323.1371579
0
ARC
8
DEFAULT_255_2_778
10
44.7910566
20
77.7563477
40
0.4637188
50
269.5335263
51
293.0817634
0
ARC
8
DEFAULT_255_2_778
10
44.7873112
20
77.8333327
40
0.5406885
50
268.8600986
51
269.996825
0
ARC
8
DEFAULT_255_2_778
10
44.7668582
20
77.6254556
40
0.3328456
50
227.9105134
51
271.6694245
0
ARC
8
DEFAULT_255_2_778
10
44.7390565
20
77.5848473
40
0.2841514
50
177.7023029
51
226.582044
0
ARC
8
DEFAULT_255_2_778
10
44.8748463
20
77.596213
40
0.4197128
50
179.4214102
51
179.9963929
0
ARC
8
DEFAULT_255_2_778
10
44.8516983
20
77.5952649
40
0.1916137
50
178.4490085
51
179.9914057
0
ARC
8
DEFAULT_255_2_778
10
44.7902396
20
77.5905059
40
0.1302429
50
177.8933038
51
222.0030298
0
ARC
8
DEFAULT_255_2_778
10
44.7861007
20
77.5929784
40
0.1289041
50
224.0511992
51
271.9802005
0
ARC
8
DEFAULT_255_2_778
10
44.7957653
20
77.6973579
40
0.2332649
50
268.7200772
51
269.9944139
0
ARC
8
DEFAULT_255_2_778
10
44.7996158
20
77.6434857
40
0.1794344
50
268.763139
51
309.4606108
0
ARC
8
DEFAULT_255_2_778
10
44.8103815
20
77.6327462
40
0.1643075
50
308.942308
51
353.8877378
0
ARC
8
DEFAULT_255_2_778
10
44.746539
20
77.6455193
40
0.2292231
50
352.4121444
51
359.7869607
0
ARC
8
DEFAULT_255_2_778
10
44.8578243
20
77.6508989
40
0.1181007
50
356.9752391
51
40.4057109
0
ARC
8
DEFAULT_255_2_778
10
44.8466192
20
77.6237723
40
0.144837
50
45.7114205
51
92.6768536
0
ARC
8
DEFAULT_255_2_778
10
38.6632287
20
68.1270471
40
0.5832575
50
66.8218982
51
91.3138753
0
ARC
8
DEFAULT_255_2_778
10
38.7213265
20
68.2823905
40
0.4176574
50
45.8665118
51
65.7609772
0
ARC
8
DEFAULT_255_2_778
10
38.7431512
20
68.304897
40
0.3863067
50
358.217003
51
45.8653188
0
ARC
8
DEFAULT_255_2_778
10
38.5674518
20
68.2933899
40
0.5618194
50
355.3916768
51
359.9477326
0
ARC
8
DEFAULT_255_2_778
10
38.6797338
20
68.2696058
40
0.4482301
50
307.5734953
51
357.2692875
0
ARC
8
DEFAULT_255_2_778
10
38.5900408
20
68.3906672
40
0.5988791
50
273.8516851
51
307.3120667
0
ARC
8
DEFAULT_255_2_778
10
38.549456
20
68.6761403
40
0.8866898
50
269.9223885
51
275.2292582
0
ARC
8
DEFAULT_255_2_778
10
38.5687177
20
68.3258738
40
0.3006411
50
267.8149066
51
306.7395942
0
ARC
8
DEFAULT_255_2_778
10
38.601721
20
68.2738491
40
0.2392543
50
307.858606
51
353.3279974
0
ARC
8
DEFAULT_255_2_778
10
38.5208618
20
68.2927455
40
0.3218978
50
351.6592992
51
359.7730759
0
ARC
8
DEFAULT_255_2_778
10
38.6588219
20
68.2984521
40
0.1840676
50
357.8262863
51
36.6207203
0
ARC
8
DEFAULT_255_2_778
10
38.6695466
20
68.2953415
40
0.1775384
50
39.4922259
51
91.0300783
0
LINE
8
DEFAULT_255_2_778
10
10.8802549
20
87.7617513
11
11.1644549
21
87.7636513
0
LINE
8
DEFAULT_255_2_778
10
11.2620549
20
88.2258513
11
10.9768549
21
88.2268513
0
LINE
8
DEFAULT_255_2_778
10
10.8802549
20
87.7609513
11
10.8802549
21
87.7617513
0
LINE
8
DEFAULT_255_2_778
10
11.9272549
20
88.0117513
11
11.8872549
21
87.7842513
0
LINE
8
DEFAULT_255_2_778
10
11.8872549
20
87.7842513
11
11.3520549
21
87.7842513
0
LINE
8
DEFAULT_255_2_778
10
11.3520549
20
87.7842513
11
11.3911549
21
88.0117513
0
LINE
8
DEFAULT_255_2_778
10
11.3911549
20
88.0117513
11
11.9272549
21
88.0117513
0
LINE
8
DEFAULT_255_2_778
10
11.9272549
20
88.0117513
11
11.9272549
21
88.0117513
0
LINE
8
DEFAULT_255_2_778
10
12.7143549
20
87.8469513
11
12.5259549
21
87.9220513
0
LINE
8
DEFAULT_255_2_778
10
13.2292549
20
88.2901513
11
12.9437549
21
88.2901513
0
LINE
8
DEFAULT_255_2_778
10
12.6410549
20
88.1549513
11
12.7699549
21
88.1059513
0
LINE
8
DEFAULT_255_2_778
10
12.7699549
20
88.1059513
11
12.8442549
21
88.0718513
0
LINE
8
DEFAULT_255_2_778
10
12.0629549
20
87.7371513
11
12.3489549
21
87.7360513
0
LINE
8
DEFAULT_255_2_778
10
12.8286549
20
87.6683513
11
12.8286549
21
87.6691513
0
LINE
8
DEFAULT_255_2_778
10
42.7739549
20
85.3072513
11
42.7403549
21
85.5268513
0
LINE
8
DEFAULT_255_2_778
10
42.7403549
20
85.5268513
11
42.3683549
21
85.5268513
0
LINE
8
DEFAULT_255_2_778
10
42.3683549
20
85.5268513
11
42.2585549
21
85.3072513
0
LINE
8
DEFAULT_255_2_778
10
42.2585549
20
85.3072513
11
42.0219549
21
85.3072513
0
LINE
8
DEFAULT_255_2_778
10
42.0219549
20
85.3072513
11
42.5919549
21
86.3737513
0
LINE
8
DEFAULT_255_2_778
10
42.5919549
20
86.3737513
11
42.7903549
21
86.3737513
0
LINE
8
DEFAULT_255_2_778
10
42.7903549
20
86.3737513
11
42.9933549
21
85.3072513
0
LINE
8
DEFAULT_255_2_778
10
42.9933549
20
85.3072513
11
42.7742549
21
85.3072513
0
LINE
8
DEFAULT_255_2_778
10
42.7742549
20
85.3072513
11
42.7739549
21
85.3072513
0
LINE
8
DEFAULT_255_2_778
10
42.6530549
20
86.1020513
11
42.4559549
21
85.7051513
0
LINE
8
DEFAULT_255_2_778
10
42.4559549
20
85.7051513
11
42.7130549
21
85.7051513
0
LINE
8
DEFAULT_255_2_778
10
42.7130549
20
85.7051513
11
42.6530549
21
86.1020513
0
LINE
8
DEFAULT_255_2_778
10
42.6530549
20
86.1020513
11
42.6530549
21
86.1020513
0
LINE
8
DEFAULT_255_2_778
10
43.4454549
20
86.3737513
11
43.5817549
21
86.0075513
0
LINE
8
DEFAULT_255_2_778
10
43.5817549
20
86.0075513
11
43.8328549
21
86.3737513
0
LINE
8
DEFAULT_255_2_778
10
43.8328549
20
86.3737513
11
44.0905549
21
86.3737513
0
LINE
8
DEFAULT_255_2_778
10
44.0905549
20
86.3737513
11
43.6986549
21
85.8347513
0
LINE
8
DEFAULT_255_2_778
10
43.6986549
20
85.8347513
11
43.9198549
21
85.3074513
0
LINE
8
DEFAULT_255_2_778
10
43.9198549
20
85.3074513
11
43.6825549
21
85.3074513
0
LINE
8
DEFAULT_255_2_778
10
43.6825549
20
85.3074513
11
43.5425549
21
85.6794513
0
LINE
8
DEFAULT_255_2_778
10
43.5425549
20
85.6794513
11
43.2854549
21
85.3074513
0
LINE
8
DEFAULT_255_2_778
10
43.2854549
20
85.3074513
11
43.0247549
21
85.3074513
0
LINE
8
DEFAULT_255_2_778
10
43.0247549
20
85.3074513
11
43.4253549
21
85.8554513
0
LINE
8
DEFAULT_255_2_778
10
43.4253549
20
85.8554513
11
43.2107549
21
86.3740513
0
LINE
8
DEFAULT_255_2_778
10
43.2107549
20
86.3740513
11
43.4451549
21
86.3740513
0
LINE
8
DEFAULT_255_2_778
10
43.4451549
20
86.3740513
11
43.4454549
21
86.3737513
0
LINE
8
DEFAULT_255_2_778
10
44.6892549
20
86.3758513
11
44.5098549
21
85.3072513
0
LINE
8
DEFAULT_255_2_778
10
44.5098549
20
85.3072513
11
44.3032549
21
85.3072513
0
LINE
8
DEFAULT_255_2_778
10
44.3032549
20
85.3072513
11
44.4437549
21
86.1186513
0
LINE
8
DEFAULT_255_2_778
10
44.4437549
20
86.1186513
11
44.1844549
21
86.0403513
0
LINE
8
DEFAULT_255_2_778
10
44.1844549
20
86.0403513
11
44.2167549
21
86.2213513
0
LINE
8
DEFAULT_255_2_778
10
44.2167549
20
86.2213513
11
44.6620549
21
86.3750513
0
LINE
8
DEFAULT_255_2_778
10
44.6620549
20
86.3750513
11
44.6889549
21
86.3758513
0
LINE
8
DEFAULT_255_2_778
10
44.6889549
20
86.3758513
11
44.6892549
21
86.3758513
0
LINE
8
DEFAULT_255_2_778
10
45.1737549
20
81.4779513
11
45.1467549
21
81.3072513
0
LINE
8
DEFAULT_255_2_778
10
45.1467549
20
81.3072513
11
44.4363549
21
81.3072513
0
LINE
8
DEFAULT_255_2_778
10
44.4363549
20
81.3072513
11
44.4603549
21
81.4609513
0
LINE
8
DEFAULT_255_2_778
10
44.4603549
20
81.4609513
11
44.8390549
21
81.8163513
0
LINE
8
DEFAULT_255_2_778
10
44.7424549
20
82.0385513
11
44.5357549
21
82.0377513
0
LINE
8
DEFAULT_255_2_778
10
45.0564549
20
81.7763513
11
44.9509549
21
81.6760513
0
LINE
8
DEFAULT_255_2_778
10
44.9509549
20
81.6760513
11
44.7326549
21
81.4797513
0
LINE
8
DEFAULT_255_2_778
10
44.7326549
20
81.4797513
11
45.1734549
21
81.4781513
0
LINE
8
DEFAULT_255_2_778
10
45.1734549
20
81.4781513
11
45.1737549
21
81.4779513
0
LINE
8
DEFAULT_255_2_778
10
44.7180549
20
77.7687513
11
44.7445549
21
77.9343513
0
LINE
8
DEFAULT_255_2_778
10
44.7445549
20
77.9343513
11
44.8435549
21
77.9335513
0
LINE
8
DEFAULT_255_2_778
10
44.7609549
20
78.0983513
11
44.5543549
21
78.0967513
0
LINE
8
DEFAULT_255_2_778
10
44.4551549
20
77.6004513
11
44.6601549
21
77.6004513
0
LINE
8
DEFAULT_255_2_778
10
44.8398549
20
77.7684513
11
44.7180549
21
77.7692513
0
LINE
8
DEFAULT_255_2_778
10
44.7180549
20
77.7692513
11
44.7180549
21
77.7687513
0
LINE
8
DEFAULT_255_2_778
10
45.2226549
20
74.3735513
11
45.1075549
21
73.7084513
0
LINE
8
DEFAULT_255_2_778
10
45.1075549
20
73.7084513
11
45.2247549
21
73.7084513
0
LINE
8
DEFAULT_255_2_778
10
45.2247549
20
73.7084513
11
45.1948549
21
73.5377513
0
LINE
8
DEFAULT_255_2_778
10
45.1948549
20
73.5377513
11
45.0776549
21
73.5377513
0
LINE
8
DEFAULT_255_2_778
10
45.0776549
20
73.5377513
11
45.0374549
21
73.3070513
0
LINE
8
DEFAULT_255_2_778
10
45.0374549
20
73.3070513
11
44.8308549
21
73.3070513
0
LINE
8
DEFAULT_255_2_778
10
44.8308549
20
73.3070513
11
44.8710549
21
73.5377513
0
LINE
8
DEFAULT_255_2_778
10
44.8710549
20
73.5377513
11
44.4476549
21
73.5377513
0
LINE
8
DEFAULT_255_2_778
10
44.4476549
20
73.5377513
11
44.4622549
21
73.6819513
0
LINE
8
DEFAULT_255_2_778
10
44.4622549
20
73.6819513
11
45.0064549
21
74.3733513
0
LINE
8
DEFAULT_255_2_778
10
45.0064549
20
74.3733513
11
45.2226549
21
74.3733513
0
LINE
8
DEFAULT_255_2_778
10
45.2226549
20
74.3733513
11
45.2226549
21
74.3735513
0
LINE
8
DEFAULT_255_2_778
10
44.9546549
20
74.0616513
11
44.6770549
21
73.7100513
0
LINE
8
DEFAULT_255_2_778
10
44.6770549
20
73.7100513
11
44.9011549
21
73.7084513
0
LINE
8
DEFAULT_255_2_778
10
44.9011549
20
73.7084513
11
44.9737549
21
74.0878513
0
LINE
8
DEFAULT_255_2_778
10
44.9737549
20
74.0878513
11
44.9546549
21
74.0613513
0
LINE
8
DEFAULT_255_2_778
10
44.9546549
20
74.0613513
11
44.9546549
21
74.0616513
0
LINE
8
DEFAULT_255_2_778
10
38.5482549
20
67.7891513
11
38.2786549
21
67.7902513
0
LINE
8
DEFAULT_255_2_778
10
38.2786549
20
67.7902513
11
38.1908549
21
67.2893513
0
LINE
8
DEFAULT_255_2_778
10
38.1908549
20
67.2893513
11
37.9048549
21
67.2893513
0
LINE
8
DEFAULT_255_2_778
10
37.9048549
20
67.2893513
11
38.1519549
21
68.7112513
0
LINE
8
DEFAULT_255_2_778
10
38.1519549
20
68.7112513
11
38.6498549
21
68.7101513
0
LINE
8
DEFAULT_255_2_778
10
38.5482549
20
67.7894513
11
38.5482549
21
67.7891513
0
LINE
8
DEFAULT_255_2_778
10
38.3969549
20
68.4736513
11
38.3188549
21
68.0272513
0
LINE
8
DEFAULT_255_2_778
10
38.3188549
20
68.0272513
11
38.5572549
21
68.0254513
0
LINE
8
DEFAULT_255_2_778
10
38.6663549
20
68.4728513
11
38.3966549
21
68.4738513
0
LINE
8
DEFAULT_255_2_778
10
38.3966549
20
68.4738513
11
38.3969549
21
68.4736513
0
ARC
8
DEFAULT_255_2_778
10
39.7369404
20
67.768625
40
0.4990888
50
239.9920122
51
269.987987
0
ARC
8
DEFAULT_255_2_778
10
39.7196716
20
67.7228285
40
0.4508646
50
206.5734984
51
238.981703
0
ARC
8
DEFAULT_255_2_778
10
39.9263421
20
67.82953
40
0.6834417
50
182.6579732
51
206.8230369
0
ARC
8
DEFAULT_255_2_778
10
40.1759637
20
67.8603622
40
0.9344223
50
179.9769867
51
183.8367592
0
ARC
8
DEFAULT_255_2_778
10
40.4057722
20
67.8515503
40
1.1642668
50
165.6688569
51
179.5478734
0
ARC
8
DEFAULT_255_2_778
10
40.166585
20
67.9298323
40
0.9132977
50
144.5886204
51
166.7128863
0
ARC
8
DEFAULT_255_2_778
10
39.961387
20
68.082936
40
0.6573701
50
117.6683039
51
145.1012041
0
ARC
8
DEFAULT_255_2_778
10
39.9298798
20
68.1261516
40
0.6045166
50
89.6136857
51
116.9254905
0
ARC
8
DEFAULT_255_2_778
10
39.9339265
20
68.0473277
40
0.6833266
50
88.9342887
51
89.9975465
0
ARC
8
DEFAULT_255_2_778
10
39.9474058
20
68.2357681
40
0.4947687
50
59.6053415
51
90.0891798
0
ARC
8
DEFAULT_255_2_778
10
39.9634212
20
68.280171
40
0.448449
50
25.897434
51
58.499911
0
ARC
8
DEFAULT_255_2_778
10
39.746149
20
68.1707376
40
0.6917075
50
2.4276027
51
26.1912976
0
ARC
8
DEFAULT_255_2_778
10
39.3851743
20
68.1408164
40
1.0537268
50
359.993555
51
3.2217438
0
ARC
8
DEFAULT_255_2_778
10
39.2634078
20
68.1459723
40
1.175505
50
345.2424298
51
359.7429126
0
ARC
8
DEFAULT_255_2_778
10
39.5322727
20
68.0574707
40
0.8931292
50
323.9788776
51
346.3391242
0
ARC
8
DEFAULT_255_2_778
10
39.7247725
20
67.9131479
40
0.6525709
50
297.2567253
51
324.2881463
0
ARC
8
DEFAULT_255_2_778
10
39.7547413
20
67.8692391
40
0.5998481
50
269.5860142
51
296.6328031
0
ARC
8
DEFAULT_255_2_778
10
39.7504281
20
67.9511402
40
0.6817334
50
268.882783
51
269.9982415
0
ARC
8
DEFAULT_255_2_778
10
39.2625134
20
68.1821853
40
0.8890549
50
356.7470271
51
359.9384048
0
ARC
8
DEFAULT_255_2_778
10
39.6373622
20
68.1915777
40
0.5143098
50
358.8471011
51
15.9067958
0
ARC
8
DEFAULT_255_2_778
10
39.8732063
20
68.2547253
40
0.2702178
50
16.7356529
51
31.4061644
0
ARC
8
DEFAULT_255_2_778
10
39.9370454
20
68.2940085
40
0.1952611
50
31.3294936
51
91.0592455
0
ARC
8
DEFAULT_255_2_778
10
39.9212697
20
68.1159482
40
0.3734862
50
88.1333014
51
89.9922325
0
ARC
8
DEFAULT_255_2_778
10
39.9198817
20
68.1798768
40
0.3095609
50
89.7337188
51
150.7709151
0
ARC
8
DEFAULT_255_2_778
10
40.2437336
20
67.9665508
40
0.6969096
50
148.4661385
51
167.9195695
0
ARC
8
DEFAULT_255_2_778
10
40.861518
20
67.822558
40
1.3311984
50
167.4241082
51
177.8742375
0
ARC
8
DEFAULT_255_2_778
10
40.4136551
20
67.8209964
40
0.8838884
50
176.6961247
51
179.9392089
0
ARC
8
DEFAULT_255_2_778
10
40.0467175
20
67.8113772
40
0.517058
50
178.8300827
51
196.4631312
0
ARC
8
DEFAULT_255_2_778
10
39.8226531
20
67.7501119
40
0.2848569
50
197.4177718
51
210.4299838
0
ARC
8
DEFAULT_255_2_778
10
39.7458893
20
67.7038243
40
0.195226
50
210.1271933
51
271.128951
0
ARC
8
DEFAULT_255_2_778
10
39.7653131
20
67.8579001
40
0.3496111
50
267.4462733
51
269.9882687
0
ARC
8
DEFAULT_255_2_778
10
39.7669933
20
67.8020791
40
0.2937953
50
269.6583611
51
323.7212475
0
ARC
8
DEFAULT_255_2_778
10
39.53399
20
67.9850969
40
0.5900039
50
322.7823408
51
345.1018947
0
ARC
8
DEFAULT_255_2_778
10
39.0854398
20
68.1221786
40
1.0588585
50
344.1737967
51
352.6236797
0
LINE
8
DEFAULT_255_2_778
10
39.7371357
20
67.2695362
11
39.7368357
21
67.2695362
0
LINE
8
DEFAULT_255_2_778
10
40.1353357
20
67.9862362
11
40.1421357
21
68.0389362
0
LINE
8
DEFAULT_255_2_778
10
40.1421357
20
68.0389362
11
40.1501357
21
68.1317362
0
LINE
8
DEFAULT_255_2_778
10
40.1355357
20
67.9862362
11
40.1353357
21
67.9862362
0
LINE
8
DEFAULT_255_2_778
10
41.5944729
20
68.7109354
11
41.6619729
21
67.7020354
0
LINE
8
DEFAULT_255_2_778
10
41.6619729
20
67.7020354
11
42.0048729
21
68.7109354
0
LINE
8
DEFAULT_255_2_778
10
42.0048729
20
68.7109354
11
42.2969729
21
68.7109354
0
LINE
8
DEFAULT_255_2_778
10
42.2969729
20
68.7109354
11
41.7685729
21
67.2890354
0
LINE
8
DEFAULT_255_2_778
10
41.7685729
20
67.2890354
11
41.4803729
21
67.2890354
0
LINE
8
DEFAULT_255_2_778
10
41.4803729
20
67.2890354
11
41.4052729
21
68.2362354
0
LINE
8
DEFAULT_255_2_778
10
41.4052729
20
68.2362354
11
41.0332729
21
67.2890354
0
LINE
8
DEFAULT_255_2_778
10
41.0332729
20
67.2890354
11
40.7451729
21
67.2890354
0
LINE
8
DEFAULT_255_2_778
10
40.7451729
20
67.2890354
11
40.6612729
21
68.7109354
0
LINE
8
DEFAULT_255_2_778
10
40.6612729
20
68.7109354
11
40.9406729
21
68.7109354
0
LINE
8
DEFAULT_255_2_778
10
40.9406729
20
68.7109354
11
40.9689729
21
67.7071354
0
LINE
8
DEFAULT_255_2_778
10
40.9689729
20
67.7071354
11
41.3518729
21
68.7109354
0
LINE
8
DEFAULT_255_2_778
10
41.3518729
20
68.7109354
11
41.5949729
21
68.7109354
0
LINE
8
DEFAULT_255_2_778
10
41.5949729
20
68.7109354
11
41.5944729
21
68.7109354
0
LINE
8
DEFAULT_255_2_778
10
43.2007802
20
68.1346354
11
43.1596802
21
67.9052354
0
LINE
8
DEFAULT_255_2_778
10
43.1596802
20
67.9052354
11
42.6146802
21
67.9052354
0
LINE
8
DEFAULT_255_2_778
10
42.6146802
20
67.9052354
11
42.5482802
21
67.5245354
0
LINE
8
DEFAULT_255_2_778
10
42.5482802
20
67.5245354
11
43.1887802
21
67.5245354
0
LINE
8
DEFAULT_255_2_778
10
43.1887802
20
67.5245354
11
43.1478802
21
67.2890354
0
LINE
8
DEFAULT_255_2_778
10
43.1478802
20
67.2890354
11
42.2209802
21
67.2890354
0
LINE
8
DEFAULT_255_2_778
10
42.2209802
20
67.2890354
11
42.4680802
21
68.7109354
0
LINE
8
DEFAULT_255_2_778
10
42.4680802
20
68.7109354
11
43.3927802
21
68.7109354
0
LINE
8
DEFAULT_255_2_778
10
43.3927802
20
68.7109354
11
43.3507802
21
68.4736354
0
LINE
8
DEFAULT_255_2_778
10
43.3507802
20
68.4736354
11
42.7130802
21
68.4736354
0
LINE
8
DEFAULT_255_2_778
10
42.7130802
20
68.4736354
11
42.6535802
21
68.1346354
0
LINE
8
DEFAULT_255_2_778
10
42.6535802
20
68.1346354
11
43.2004802
21
68.1346354
0
LINE
8
DEFAULT_255_2_778
10
43.2004802
20
68.1346354
11
43.2007802
21
68.1346354
0
ARC
8
DEFAULT_255_2_778
10
44.0527612
20
68.0121673
40
0.6977854
50
72.4552359
51
91.050827
0
ARC
8
DEFAULT_255_2_778
10
44.136132
20
68.2865352
40
0.411061
50
49.3771684
51
72.0069836
0
ARC
8
DEFAULT_255_2_778
10
44.1788833
20
68.3442578
40
0.3394533
50
357.4616875
51
48.5107202
0
ARC
8
DEFAULT_255_2_778
10
43.9768498
20
68.3297247
40
0.541154
50
355.6772511
51
359.9470199
0
ARC
8
DEFAULT_255_2_778
10
44.0784918
20
68.3048366
40
0.4382611
50
292.7543498
51
357.9207072
0
ARC
8
DEFAULT_255_2_778
10
43.952438
20
68.5256022
40
0.6912888
50
291.3457993
51
295.3125643
0
ARC
8
DEFAULT_255_2_778
10
43.9588189
20
68.3427197
40
0.2978479
50
268.8159811
51
307.4096335
0
ARC
8
DEFAULT_255_2_778
10
43.9889455
20
68.2936318
40
0.2406267
50
308.8125848
51
353.5822633
0
ARC
8
DEFAULT_255_2_778
10
43.9329715
20
68.3110142
40
0.2983963
50
351.4664064
51
359.7454617
0
ARC
8
DEFAULT_255_2_778
10
44.0702919
20
68.3166815
40
0.1612247
50
357.5140951
51
37.6374289
0
ARC
8
DEFAULT_255_2_778
10
44.0672921
20
68.295185
40
0.177379
50
42.5503437
51
91.0004399
0
ARC
8
DEFAULT_255_2_778
10
44.0438029
20
68.1265553
40
0.346582
50
86.6268918
51
87.608599
0
LINE
8
DEFAULT_255_2_778
10
44.0992643
20
67.2890354
11
43.9312643
21
67.8095354
0
LINE
8
DEFAULT_255_2_778
10
43.9312643
20
67.8095354
11
43.6989643
21
67.8095354
0
LINE
8
DEFAULT_255_2_778
10
43.6989643
20
67.8095354
11
43.6081643
21
67.2890354
0
LINE
8
DEFAULT_255_2_778
10
43.6081643
20
67.2890354
11
43.3221643
21
67.2890354
0
LINE
8
DEFAULT_255_2_778
10
43.3221643
20
67.2890354
11
43.5692643
21
68.7109354
0
LINE
8
DEFAULT_255_2_778
10
43.5692643
20
68.7109354
11
44.0399643
21
68.7098354
0
LINE
8
DEFAULT_255_2_778
10
44.2040643
20
67.8817354
11
44.4042643
21
67.3046354
0
LINE
8
DEFAULT_255_2_778
10
44.4042643
20
67.3046354
11
44.4042643
21
67.2890354
0
LINE
8
DEFAULT_255_2_778
10
44.4042643
20
67.2890354
11
44.0994643
21
67.2890354
0
LINE
8
DEFAULT_255_2_778
10
44.0994643
20
67.2890354
11
44.0992643
21
67.2890354
0
LINE
8
DEFAULT_255_2_778
10
43.8140643
20
68.4736354
11
43.7396643
21
68.0468354
0
LINE
8
DEFAULT_255_2_778
10
43.7396643
20
68.0468354
11
43.9526643
21
68.0449354
0
LINE
8
DEFAULT_255_2_778
10
44.0582643
20
68.4728354
11
43.8140643
21
68.4738354
0
LINE
8
DEFAULT_255_2_778
10
43.8140643
20
68.4738354
11
43.8140643
21
68.4736354
0
ARC
8
DEFAULT_255_2_778
10
41.3434612
20
65.5120673
40
0.6977854
50
72.4552359
51
91.050827
0
ARC
8
DEFAULT_255_2_778
10
41.426832
20
65.7864352
40
0.411061
50
49.3771684
51
72.0069836
0
ARC
8
DEFAULT_255_2_778
10
41.4695833
20
65.8441578
40
0.3394533
50
357.4616875
51
48.5107202
0
ARC
8
DEFAULT_255_2_778
10
41.2675498
20
65.8296247
40
0.541154
50
355.6772511
51
359.9470199
0
ARC
8
DEFAULT_255_2_778
10
41.3691918
20
65.8047366
40
0.4382611
50
292.7543498
51
357.9207072
0
ARC
8
DEFAULT_255_2_778
10
41.243138
20
66.0255022
40
0.6912888
50
291.3457993
51
295.3125643
0
ARC
8
DEFAULT_255_2_778
10
41.2495189
20
65.8426197
40
0.2978479
50
268.8159811
51
307.4096335
0
ARC
8
DEFAULT_255_2_778
10
41.2796455
20
65.7935318
40
0.2406267
50
308.8125848
51
353.5822633
0
ARC
8
DEFAULT_255_2_778
10
41.2236715
20
65.8109142
40
0.2983963
50
351.4664064
51
359.7454617
0
ARC
8
DEFAULT_255_2_778
10
41.3609919
20
65.8165815
40
0.1612247
50
357.5140951
51
37.6374289
0
ARC
8
DEFAULT_255_2_778
10
41.3579921
20
65.795085
40
0.177379
50
42.5503437
51
91.0004399
0
ARC
8
DEFAULT_255_2_778
10
41.3345029
20
65.6264553
40
0.346582
50
86.6268918
51
87.608599
0
LINE
8
DEFAULT_255_2_778
10
41.3899643
20
64.7889354
11
41.2219643
21
65.3094354
0
LINE
8
DEFAULT_255_2_778
10
41.2219643
20
65.3094354
11
40.9896643
21
65.3094354
0
LINE
8
DEFAULT_255_2_778
10
40.9896643
20
65.3094354
11
40.8988643
21
64.7889354
0
LINE
8
DEFAULT_255_2_778
10
40.8988643
20
64.7889354
11
40.6128643
21
64.7889354
0
LINE
8
DEFAULT_255_2_778
10
40.6128643
20
64.7889354
11
40.8599643
21
66.2108354
0
LINE
8
DEFAULT_255_2_778
10
40.8599643
20
66.2108354
11
41.3306643
21
66.2097354
0
LINE
8
DEFAULT_255_2_778
10
41.4947643
20
65.3816354
11
41.6949643
21
64.8045354
0
LINE
8
DEFAULT_255_2_778
10
41.6949643
20
64.8045354
11
41.6949643
21
64.7889354
0
LINE
8
DEFAULT_255_2_778
10
41.6949643
20
64.7889354
11
41.3901643
21
64.7889354
0
LINE
8
DEFAULT_255_2_778
10
41.3901643
20
64.7889354
11
41.3899643
21
64.7889354
0
LINE
8
DEFAULT_255_2_778
10
41.1047643
20
65.9735354
11
41.0303643
21
65.5467354
0
LINE
8
DEFAULT_255_2_778
10
41.0303643
20
65.5467354
11
41.2433643
21
65.5448354
0
LINE
8
DEFAULT_255_2_778
10
41.3489643
20
65.9727354
11
41.1047643
21
65.9737354
0
LINE
8
DEFAULT_255_2_778
10
41.1047643
20
65.9737354
11
41.1047643
21
65.9735354
0
ARC
8
DEFAULT_255_2_778
10
42.4185999
20
65.338278
40
0.5823329
50
317.1045186
51
353.6043725
0
ARC
8
DEFAULT_255_2_778
10
42.448767
20
65.3215969
40
0.5489414
50
310.0530095
51
316.2367946
0
ARC
8
DEFAULT_255_2_778
10
42.4318008
20
65.349717
40
0.581406
50
268.5217269
51
309.5495852
0
ARC
8
DEFAULT_255_2_778
10
42.4131958
20
65.5811993
40
0.8127028
50
269.9998341
51
270.254226
0
ARC
8
DEFAULT_255_2_778
10
42.4132255
20
65.5846528
40
0.8161563
50
269.0440282
51
269.9977509
0
ARC
8
DEFAULT_255_2_778
10
42.3973845
20
65.3103882
40
0.5417827
50
241.4446907
51
270.2352133
0
ARC
8
DEFAULT_255_2_778
10
42.3246131
20
65.169617
40
0.383365
50
204.2256855
51
240.9409623
0
ARC
8
DEFAULT_255_2_778
10
42.391777
20
65.1997861
40
0.4569935
50
179.311898
51
204.219768
0
ARC
8
DEFAULT_255_2_778
10
42.5359437
20
65.2043078
40
0.6011281
50
173.4757605
51
179.9078822
0
ARC
8
DEFAULT_255_2_778
10
42.6814674
20
65.212959
40
0.460509
50
172.6828472
51
179.8579833
0
ARC
8
DEFAULT_255_2_778
10
42.5967435
20
65.2134539
40
0.3757842
50
179.9014272
51
186.8075944
0
ARC
8
DEFAULT_255_2_778
10
42.3944289
20
65.1762486
40
0.1709779
50
182.459936
51
272.4052297
0
ARC
8
DEFAULT_255_2_778
10
42.423898
20
65.3530285
40
0.3483213
50
266.330375
51
268.0439192
0
ARC
8
DEFAULT_255_2_778
10
42.4249849
20
65.3963826
40
0.3916876
50
268.1014926
51
269.9894994
0
ARC
8
DEFAULT_255_2_778
10
42.4346885
20
65.2685196
40
0.2640055
50
267.8780214
51
311.6696906
0
ARC
8
DEFAULT_255_2_778
10
42.3780896
20
65.310504
40
0.3333061
50
314.1400016
51
351.6829696
0
ARC
8
DEFAULT_255_2_778
10
42.1831296
20
65.3618162
40
0.5341151
50
349.2609498
51
350.3638364
0
LINE
8
DEFAULT_255_2_778
10
42.8703086
20
66.2108101
11
43.1574086
21
66.2108101
0
LINE
8
DEFAULT_255_2_778
10
43.1574086
20
66.2108101
11
42.9973086
21
65.2734101
0
LINE
8
DEFAULT_255_2_778
10
41.9387086
20
65.2726101
11
42.0980086
21
66.2111101
0
LINE
8
DEFAULT_255_2_778
10
42.0980086
20
66.2111101
11
42.3840086
21
66.2111101
0
LINE
8
DEFAULT_255_2_778
10
42.3840086
20
66.2111101
11
42.2247086
21
65.2716101
0
LINE
8
DEFAULT_255_2_778
10
42.7097086
20
65.2724101
11
42.8698086
21
66.2108101
0
LINE
8
DEFAULT_255_2_778
10
42.8698086
20
66.2108101
11
42.8703086
21
66.2108101
0
LINE
8
DEFAULT_255_2_778
10
44.5178086
20
66.2108101
11
44.2718086
21
64.7890101
0
LINE
8
DEFAULT_255_2_778
10
44.2718086
20
64.7890101
11
43.9945086
21
64.7890101
0
LINE
8
DEFAULT_255_2_778
10
43.9945086
20
64.7890101
11
43.5989086
21
65.7372101
0
LINE
8
DEFAULT_255_2_778
10
43.5989086
20
65.7372101
11
43.4338086
21
64.7890101
0
LINE
8
DEFAULT_255_2_778
10
43.4338086
20
64.7890101
11
43.1478086
21
64.7890101
0
LINE
8
DEFAULT_255_2_778
10
43.1478086
20
64.7890101
11
43.3950086
21
66.2108101
0
LINE
8
DEFAULT_255_2_778
10
43.3950086
20
66.2108101
11
43.6714086
21
66.2108101
0
LINE
8
DEFAULT_255_2_778
10
43.6714086
20
66.2108101
11
44.0681086
21
65.2607101
0
LINE
8
DEFAULT_255_2_778
10
44.0681086
20
65.2607101
11
44.2332086
21
66.2108101
0
LINE
8
DEFAULT_255_2_778
10
44.2332086
20
66.2108101
11
44.5184086
21
66.2108101
0
LINE
8
DEFAULT_255_2_778
10
44.5184086
20
66.2108101
11
44.5178086
21
66.2108101
0
LINE
8
DEFAULT_255_2_778
10
39.3550802
20
63.1348354
11
39.3139802
21
62.9054354
0
LINE
8
DEFAULT_255_2_778
10
39.3139802
20
62.9054354
11
38.7689802
21
62.9054354
0
LINE
8
DEFAULT_255_2_778
10
38.7689802
20
62.9054354
11
38.7025802
21
62.5247354
0
LINE
8
DEFAULT_255_2_778
10
38.7025802
20
62.5247354
11
39.3430802
21
62.5247354
0
LINE
8
DEFAULT_255_2_778
10
39.3430802
20
62.5247354
11
39.3020802
21
62.2892354
0
LINE
8
DEFAULT_255_2_778
10
39.3020802
20
62.2892354
11
38.3752802
21
62.2892354
0
LINE
8
DEFAULT_255_2_778
10
38.3752802
20
62.2892354
11
38.6223802
21
63.7111354
0
LINE
8
DEFAULT_255_2_778
10
38.6223802
20
63.7111354
11
39.5470802
21
63.7111354
0
LINE
8
DEFAULT_255_2_778
10
39.5470802
20
63.7111354
11
39.5050802
21
63.4738354
0
LINE
8
DEFAULT_255_2_778
10
39.5050802
20
63.4738354
11
38.8673802
21
63.4738354
0
LINE
8
DEFAULT_255_2_778
10
38.8673802
20
63.4738354
11
38.8078802
21
63.1348354
0
LINE
8
DEFAULT_255_2_778
10
38.8078802
20
63.1348354
11
39.3547802
21
63.1348354
0
LINE
8
DEFAULT_255_2_778
10
39.3547802
20
63.1348354
11
39.3550802
21
63.1348354
0
ARC
8
DEFAULT_255_2_778
10
40.2070612
20
63.0123673
40
0.6977854
50
72.4552359
51
91.050827
0
ARC
8
DEFAULT_255_2_778
10
40.290432
20
63.2867352
40
0.411061
50
49.3771684
51
72.0069836
0
ARC
8
DEFAULT_255_2_778
10
40.3331833
20
63.3444578
40
0.3394533
50
357.4616875
51
48.5107202
0
ARC
8
DEFAULT_255_2_778
10
40.1311498
20
63.3299247
40
0.541154
50
355.6772511
51
359.9470199
0
ARC
8
DEFAULT_255_2_778
10
40.2327918
20
63.3050366
40
0.4382611
50
292.7543498
51
357.9207072
0
ARC
8
DEFAULT_255_2_778
10
40.106738
20
63.5258022
40
0.6912888
50
291.3457993
51
295.3125643
0
ARC
8
DEFAULT_255_2_778
10
40.1131189
20
63.3429197
40
0.2978479
50
268.8159811
51
307.4096335
0
ARC
8
DEFAULT_255_2_778
10
40.1432455
20
63.2938318
40
0.2406267
50
308.8125848
51
353.5822633
0
ARC
8
DEFAULT_255_2_778
10
40.0872715
20
63.3112142
40
0.2983963
50
351.4664064
51
359.7454617
0
ARC
8
DEFAULT_255_2_778
10
40.2245919
20
63.3168815
40
0.1612247
50
357.5140951
51
37.6374289
0
ARC
8
DEFAULT_255_2_778
10
40.2215921
20
63.295385
40
0.177379
50
42.5503437
51
91.0004399
0
ARC
8
DEFAULT_255_2_778
10
40.1981029
20
63.1267553
40
0.346582
50
86.6268918
51
87.608599
0
LINE
8
DEFAULT_255_2_778
10
40.2535643
20
62.2892354
11
40.0855643
21
62.8097354
0
LINE
8
DEFAULT_255_2_778
10
40.0855643
20
62.8097354
11
39.8532643
21
62.8097354
0
LINE
8
DEFAULT_255_2_778
10
39.8532643
20
62.8097354
11
39.7624643
21
62.2892354
0
LINE
8
DEFAULT_255_2_778
10
39.7624643
20
62.2892354
11
39.4764643
21
62.2892354
0
LINE
8
DEFAULT_255_2_778
10
39.4764643
20
62.2892354
11
39.7235643
21
63.7111354
0
LINE
8
DEFAULT_255_2_778
10
39.7235643
20
63.7111354
11
40.1942643
21
63.7100354
0
LINE
8
DEFAULT_255_2_778
10
40.3583643
20
62.8819354
11
40.5585643
21
62.3048354
0
LINE
8
DEFAULT_255_2_778
10
40.5585643
20
62.3048354
11
40.5585643
21
62.2892354
0
LINE
8
DEFAULT_255_2_778
10
40.5585643
20
62.2892354
11
40.2537643
21
62.2892354
0
LINE
8
DEFAULT_255_2_778
10
40.2537643
20
62.2892354
11
40.2535643
21
62.2892354
0
LINE
8
DEFAULT_255_2_778
10
39.9683643
20
63.4738354
11
39.8939643
21
63.0470354
0
LINE
8
DEFAULT_255_2_778
10
39.8939643
20
63.0470354
11
40.1069643
21
63.0451354
0
LINE
8
DEFAULT_255_2_778
10
40.2125643
20
63.4730354
11
39.9683643
21
63.4740354
0
LINE
8
DEFAULT_255_2_778
10
39.9683643
20
63.4740354
11
39.9683643
21
63.4738354
0
ARC
8
DEFAULT_255_2_778
10
41.4551612
20
63.0123673
40
0.6977854
50
72.4552359
51
91.050827
0
ARC
8
DEFAULT_255_2_778
10
41.538532
20
63.2867352
40
0.411061
50
49.3771684
51
72.0069836
0
ARC
8
DEFAULT_255_2_778
10
41.5812833
20
63.3444578
40
0.3394533
50
357.4616875
51
48.5107202
0
ARC
8
DEFAULT_255_2_778
10
41.3792498
20
63.3299247
40
0.541154
50
355.6772511
51
359.9470199
0
ARC
8
DEFAULT_255_2_778
10
41.4808918
20
63.3050366
40
0.4382611
50
292.7543498
51
357.9207072
0
ARC
8
DEFAULT_255_2_778
10
41.354838
20
63.5258022
40
0.6912888
50
291.3457993
51
295.3125643
0
ARC
8
DEFAULT_255_2_778
10
41.3612189
20
63.3429197
40
0.2978479
50
268.8159811
51
307.4096335
0
ARC
8
DEFAULT_255_2_778
10
41.3913455
20
63.2938318
40
0.2406267
50
308.8125848
51
353.5822633
0
ARC
8
DEFAULT_255_2_778
10
41.3353715
20
63.3112142
40
0.2983963
50
351.4664064
51
359.7454617
0
ARC
8
DEFAULT_255_2_778
10
41.4726919
20
63.3168815
40
0.1612247
50
357.5140951
51
37.6374289
0
ARC
8
DEFAULT_255_2_778
10
41.4696921
20
63.295385
40
0.177379
50
42.5503437
51
91.0004399
0
ARC
8
DEFAULT_255_2_778
10
41.4462029
20
63.1267553
40
0.346582
50
86.6268918
51
87.608599
0
LINE
8
DEFAULT_255_2_778
10
41.5016643
20
62.2892354
11
41.3336643
21
62.8097354
0
LINE
8
DEFAULT_255_2_778
10
41.3336643
20
62.8097354
11
41.1013643
21
62.8097354
0
LINE
8
DEFAULT_255_2_778
10
41.1013643
20
62.8097354
11
41.0105643
21
62.2892354
0
LINE
8
DEFAULT_255_2_778
10
41.0105643
20
62.2892354
11
40.7245643
21
62.2892354
0
LINE
8
DEFAULT_255_2_778
10
40.7245643
20
62.2892354
11
40.9716643
21
63.7111354
0
LINE
8
DEFAULT_255_2_778
10
40.9716643
20
63.7111354
11
41.4423643
21
63.7100354
0
LINE
8
DEFAULT_255_2_778
10
41.6064643
20
62.8819354
11
41.8066643
21
62.3048354
0
LINE
8
DEFAULT_255_2_778
10
41.8066643
20
62.3048354
11
41.8066643
21
62.2892354
0
LINE
8
DEFAULT_255_2_778
10
41.8066643
20
62.2892354
11
41.5018643
21
62.2892354
0
LINE
8
DEFAULT_255_2_778
10
41.5018643
20
62.2892354
11
41.5016643
21
62.2892354
0
LINE
8
DEFAULT_255_2_778
10
41.2164643
20
63.4738354
11
41.1420643
21
63.0470354
0
LINE
8
DEFAULT_255_2_778
10
41.1420643
20
63.0470354
11
41.3550643
21
63.0451354
0
LINE
8
DEFAULT_255_2_778
10
41.4606643
20
63.4730354
11
41.2164643
21
63.4740354
0
LINE
8
DEFAULT_255_2_778
10
41.2164643
20
63.4740354
11
41.2164643
21
63.4738354
0
ARC
8
DEFAULT_255_2_778
10
42.5436404
20
62.768825
40
0.4990888
50
239.9920122
51
269.987987
0
ARC
8
DEFAULT_255_2_778
10
42.5263716
20
62.7230285
40
0.4508646
50
206.5734984
51
238.981703
0
ARC
8
DEFAULT_255_2_778
10
42.7330421
20
62.82973
40
0.6834417
50
182.6579732
51
206.8230369
0
ARC
8
DEFAULT_255_2_778
10
42.9826637
20
62.8605622
40
0.9344223
50
179.9769867
51
183.8367592
0
ARC
8
DEFAULT_255_2_778
10
43.2124722
20
62.8517503
40
1.1642668
50
165.6688569
51
179.5478734
0
ARC
8
DEFAULT_255_2_778
10
42.973285
20
62.9300323
40
0.9132977
50
144.5886204
51
166.7128863
0
ARC
8
DEFAULT_255_2_778
10
42.768087
20
63.083136
40
0.6573701
50
117.6683039
51
145.1012041
0
ARC
8
DEFAULT_255_2_778
10
42.7365798
20
63.1263516
40
0.6045166
50
89.6136857
51
116.9254905
0
ARC
8
DEFAULT_255_2_778
10
42.7406265
20
63.0475277
40
0.6833266
50
88.9342887
51
89.9975465
0
ARC
8
DEFAULT_255_2_778
10
42.7541058
20
63.2359681
40
0.4947687
50
59.6053415
51
90.0891798
0
ARC
8
DEFAULT_255_2_778
10
42.7701212
20
63.280371
40
0.448449
50
25.897434
51
58.499911
0
ARC
8
DEFAULT_255_2_778
10
42.552849
20
63.1709376
40
0.6917075
50
2.4276027
51
26.1912976
0
ARC
8
DEFAULT_255_2_778
10
42.1918743
20
63.1410164
40
1.0537268
50
359.993555
51
3.2217438
0
ARC
8
DEFAULT_255_2_778
10
42.0701078
20
63.1461723
40
1.175505
50
345.2424298
51
359.7429126
0
ARC
8
DEFAULT_255_2_778
10
42.3389727
20
63.0576707
40
0.8931292
50
323.9788776
51
346.3391242
0
ARC
8
DEFAULT_255_2_778
10
42.5314725
20
62.9133479
40
0.6525709
50
297.2567253
51
324.2881463
0
ARC
8
DEFAULT_255_2_778
10
42.5614413
20
62.8694391
40
0.5998481
50
269.5860142
51
296.6328031
0
ARC
8
DEFAULT_255_2_778
10
42.5571281
20
62.9513402
40
0.6817334
50
268.882783
51
269.9982415
0
ARC
8
DEFAULT_255_2_778
10
42.0711485
20
63.1827761
40
0.8871452
50
356.7147387
51
359.9369625
0
ARC
8
DEFAULT_255_2_778
10
42.4460279
20
63.1921431
40
0.5123697
50
358.8433039
51
15.9414139
0
ARC
8
DEFAULT_255_2_778
10
42.6810273
20
63.255204
40
0.2691161
50
16.7734309
51
31.4798955
0
ARC
8
DEFAULT_255_2_778
10
42.7437454
20
63.2942085
40
0.1952611
50
31.3294936
51
91.0592455
0
ARC
8
DEFAULT_255_2_778
10
42.7279697
20
63.1161482
40
0.3734862
50
88.1333014
51
89.9922325
0
ARC
8
DEFAULT_255_2_778
10
42.7265817
20
63.1800768
40
0.3095609
50
89.7337188
51
150.7709151
0
ARC
8
DEFAULT_255_2_778
10
43.0504336
20
62.9667508
40
0.6969096
50
148.4661385
51
167.9195695
0
ARC
8
DEFAULT_255_2_778
10
43.668218
20
62.822758
40
1.3311984
50
167.4241082
51
177.8742375
0
ARC
8
DEFAULT_255_2_778
10
43.2203551
20
62.8211964
40
0.8838884
50
176.6961247
51
179.9392089
0
ARC
8
DEFAULT_255_2_778
10
42.8534175
20
62.8115772
40
0.517058
50
178.8300827
51
196.4631312
0
ARC
8
DEFAULT_255_2_778
10
42.6293531
20
62.7503119
40
0.2848569
50
197.4177718
51
210.4299838
0
ARC
8
DEFAULT_255_2_778
10
42.5525893
20
62.7040243
40
0.195226
50
210.1271933
51
271.128951
0
ARC
8
DEFAULT_255_2_778
10
42.572023
20
62.8585464
40
0.3500573
50
267.4479084
51
269.9882484
0
ARC
8
DEFAULT_255_2_778
10
42.5737837
20
62.8020996
40
0.2936162
50
269.6424017
51
323.7390562
0
ARC
8
DEFAULT_255_2_778
10
42.34069
20
62.9852969
40
0.5900039
50
322.7823408
51
345.1018947
0
ARC
8
DEFAULT_255_2_778
10
41.8921398
20
63.1223786
40
1.0588585
50
344.1737967
51
352.6236797
0
LINE
8
DEFAULT_255_2_778
10
42.5438357
20
62.2697362
11
42.5435357
21
62.2697362
0
LINE
8
DEFAULT_255_2_778
10
42.9420357
20
62.9864362
11
42.9488357
21
63.0391362
0
LINE
8
DEFAULT_255_2_778
10
42.9488357
20
63.0391362
11
42.9568357
21
63.1319362
0
LINE
8
DEFAULT_255_2_778
10
42.9422357
20
62.9864362
11
42.9420357
21
62.9864362
0
ARC
8
DEFAULT_255_2_778
10
44.0527612
20
63.0123673
40
0.6977854
50
72.4552359
51
91.050827
0
ARC
8
DEFAULT_255_2_778
10
44.136132
20
63.2867352
40
0.411061
50
49.3771684
51
72.0069836
0
ARC
8
DEFAULT_255_2_778
10
44.1788833
20
63.3444578
40
0.3394533
50
357.4616875
51
48.5107202
0
ARC
8
DEFAULT_255_2_778
10
43.9768498
20
63.3299247
40
0.541154
50
355.6772511
51
359.9470199
0
ARC
8
DEFAULT_255_2_778
10
44.0784918
20
63.3050366
40
0.4382611
50
292.7543498
51
357.9207072
0
ARC
8
DEFAULT_255_2_778
10
43.952438
20
63.5258022
40
0.6912888
50
291.3457993
51
295.3125643
0
ARC
8
DEFAULT_255_2_778
10
43.9588189
20
63.3429197
40
0.2978479
50
268.8159811
51
307.4096335
0
ARC
8
DEFAULT_255_2_778
10
43.9889455
20
63.2938318
40
0.2406267
50
308.8125848
51
353.5822633
0
ARC
8
DEFAULT_255_2_778
10
43.9329715
20
63.3112142
40
0.2983963
50
351.4664064
51
359.7454617
0
ARC
8
DEFAULT_255_2_778
10
44.0702919
20
63.3168815
40
0.1612247
50
357.5140951
51
37.6374289
0
ARC
8
DEFAULT_255_2_778
10
44.0672921
20
63.295385
40
0.177379
50
42.5503437
51
91.0004399
0
ARC
8
DEFAULT_255_2_778
10
44.0438029
20
63.1267553
40
0.346582
50
86.6268918
51
87.608599
0
LINE
8
DEFAULT_255_2_778
10
44.0992643
20
62.2892354
11
43.9312643
21
62.8097354
0
LINE
8
DEFAULT_255_2_778
10
43.9312643
20
62.8097354
11
43.6989643
21
62.8097354
0
LINE
8
DEFAULT_255_2_778
10
43.6989643
20
62.8097354
11
43.6081643
21
62.2892354
0
LINE
8
DEFAULT_255_2_778
10
43.6081643
20
62.2892354
11
43.3221643
21
62.2892354
0
LINE
8
DEFAULT_255_2_778
10
43.3221643
20
62.2892354
11
43.5692643
21
63.7111354
0
LINE
8
DEFAULT_255_2_778
10
43.5692643
20
63.7111354
11
44.0399643
21
63.7100354
0
LINE
8
DEFAULT_255_2_778
10
44.2040643
20
62.8819354
11
44.4042643
21
62.3048354
0
LINE
8
DEFAULT_255_2_778
10
44.4042643
20
62.3048354
11
44.4042643
21
62.2892354
0
LINE
8
DEFAULT_255_2_778
10
44.4042643
20
62.2892354
11
44.0994643
21
62.2892354
0
LINE
8
DEFAULT_255_2_778
10
44.0994643
20
62.2892354
11
44.0992643
21
62.2892354
0
LINE
8
DEFAULT_255_2_778
10
43.8140643
20
63.4738354
11
43.7396643
21
63.0470354
0
LINE
8
DEFAULT_255_2_778
10
43.7396643
20
63.0470354
11
43.9526643
21
63.0451354
0
LINE
8
DEFAULT_255_2_778
10
44.0582643
20
63.4730354
11
43.8140643
21
63.4740354
0
LINE
8
DEFAULT_255_2_778
10
43.8140643
20
63.4740354
11
43.8140643
21
63.4738354
0
ARC
8
DEFAULT_255_2_778
10
11.7356318
20
36.9396761
40
1.0002358
50
180.0091644
51
248.6447253
0
ARC
8
DEFAULT_255_2_778
10
11.7356323
20
52.5732559
40
1.0002363
50
111.3552967
51
179.990823
0
ARC
8
DEFAULT_255_2_778
10
16.1350817
20
54.2931655
40
0.9988727
50
91.9482059
51
111.3458075
0
ARC
8
DEFAULT_255_2_778
10
16.1351407
20
54.2918084
40
1.0002311
50
90.0000916
51
91.9489379
0
ARC
8
DEFAULT_255_2_778
10
16.1352355
20
54.2921583
40
0.9998812
50
55.6652037
51
90.0055231
0
ARC
8
DEFAULT_255_2_778
10
16.1354061
20
54.29191
40
0.9999901
50
0.0175404
51
55.6813013
0
ARC
8
DEFAULT_255_2_778
10
16.1353617
20
35.2207457
40
1.0000344
50
304.3200376
51
359.9868435
0
ARC
8
DEFAULT_255_2_778
10
16.135327
20
35.2204275
40
0.9997912
50
269.9908422
51
304.3319614
0
ARC
8
DEFAULT_255_2_778
10
16.1351687
20
35.2211306
40
1.0004942
50
268.0499704
51
269.9999163
0
ARC
8
DEFAULT_255_2_778
10
16.1351299
20
35.2203533
40
0.9997162
50
248.6701175
51
268.0506749
0
ARC
8
DEFAULT_255_2_778
10
21.8354203
20
24.7567918
40
0.5000758
50
269.9972237
51
359.991324
0
ARC
8
DEFAULT_255_2_778
10
5.8355718
20
24.7567918
40
0.5000757
50
180.008676
51
270.0027763
0
ARC
8
DEFAULT_255_2_778
10
5.8352435
20
64.756514
40
0.4997474
50
134.9793514
51
180.0112208
0
ARC
8
DEFAULT_255_2_778
10
5.8355703
20
64.7565945
40
0.4999216
50
89.9970509
51
135.012375
0
ARC
8
DEFAULT_255_2_778
10
21.8354939
20
64.7567687
40
0.4997474
50
44.9793514
51
90.0112208
0
ARC
8
DEFAULT_255_2_778
10
21.8357486
20
64.756514
40
0.4997474
50
359.9887792
51
45.0206486
0
LINE
8
DEFAULT_255_2_778
10
8.9353961
20
25.5066161
11
8.9353961
21
64.0066161
0
LINE
8
DEFAULT_255_2_778
10
10.7353961
20
36.9395161
11
10.7353961
21
52.5734161
0
LINE
8
DEFAULT_255_2_778
10
11.3713961
20
53.5048161
11
15.7714961
21
55.2235161
0
LINE
8
DEFAULT_255_2_778
10
17.1353961
20
54.2922161
11
17.1353961
21
35.2205161
0
LINE
8
DEFAULT_255_2_778
10
15.7714961
20
34.2891161
11
11.3713961
21
36.0081161
0
LINE
8
DEFAULT_255_2_778
10
12.6853961
20
36.2566161
11
12.6853961
21
53.2566161
0
LINE
8
DEFAULT_255_2_778
10
12.6853961
20
53.2566161
11
15.1853961
21
53.2566161
0
LINE
8
DEFAULT_255_2_778
10
15.1853961
20
53.2566161
11
15.1853961
21
36.2566161
0
LINE
8
DEFAULT_255_2_778
10
15.1853961
20
36.2566161
11
12.6853961
21
36.2566161
0
LINE
8
DEFAULT_255_2_778
10
8.9353961
20
63.3364161
11
18.9352961
21
63.3364161
0
LINE
8
DEFAULT_255_2_778
10
18.9352961
20
63.3364161
11
18.9352961
21
26.1765161
0
LINE
8
DEFAULT_255_2_778
10
18.9352961
20
26.1765161
11
8.9353961
21
26.1765161
0
LINE
8
DEFAULT_255_2_778
10
8.6353961
20
64.0066161
11
19.6353961
21
64.0066161
0
LINE
8
DEFAULT_255_2_778
10
19.6353961
20
64.0066161
11
19.6353961
21
25.5066161
0
LINE
8
DEFAULT_255_2_778
10
19.6353961
20
25.5066161
11
8.6353961
21
25.5066161
0
LINE
8
DEFAULT_255_2_778
10
8.6353961
20
25.5066161
11
8.6353961
21
64.0066161
0
LINE
8
DEFAULT_255_2_778
10
21.8353961
20
24.2567161
11
5.8355961
21
24.2567161
0
LINE
8
DEFAULT_255_2_778
10
5.3354961
20
24.7567161
11
5.3354961
21
64.7564161
0
LINE
8
DEFAULT_255_2_778
10
5.8355961
20
65.2565161
11
21.8353961
21
65.2565161
0
LINE
8
DEFAULT_255_2_778
10
22.3354961
20
64.7564161
11
22.3354961
21
24.7567161
0
ENDSEC
0
EOF