0
SECTION
2
HEADER
9
$MEASUREMENT
70
1
0
ENDSEC
0
SECTION
2
TABLES
0
TABLE
2
LTYPE
0
LTYPE
72
65
70
64
2
CONTINUOUS
3
______
73
0
40
0
0
ENDTAB
0
TABLE
2
LAYER
0
LAYER
2
DEFAULT_255_2_778
70
0
62
255
6
CONTINUOUS
0
LAYER
2
DEFAULT_255_1_234
70
0
62
255
6
CONTINUOUS
0
ENDTAB
0
ENDSEC
0
SECTION
2
ENTITIES
0
ARC
8
DEFAULT_255_2_778
10
3.5700693
20
83.7426529
40
0.7914215
50
129.1312896
51
180.1450914
0
ARC
8
DEFAULT_255_2_778
10
3.5703345
20
83.74314
40
0.7912112
50
89.854026
51
129.1684493
0
ARC
8
DEFAULT_255_2_778
10
25.7993937
20
83.7428266
40
0.7915249
50
39.4792447
51
90.147911
0
ARC
8
DEFAULT_255_2_778
10
25.7999935
20
83.7426732
40
0.7911595
50
359.8533901
51
39.5154338
0
ARC
8
DEFAULT_255_2_778
10
25.7996693
20
-1.9863993
40
0.7914836
50
309.4761667
51
0.1482649
0
ARC
8
DEFAULT_255_2_778
10
25.799398
20
-1.9868304
40
0.7913235
50
269.8517415
51
309.511178
0
ARC
8
DEFAULT_255_2_778
10
3.570342
20
-1.9867723
40
0.7913815
50
219.1282118
51
270.1454017
0
ARC
8
DEFAULT_255_2_778
10
3.5700247
20
-1.9863898
40
0.7913769
50
179.8524075
51
219.1641908
0
LINE
8
DEFAULT_255_2_778
10
3.5723503
20
84.5343488
11
25.7973503
21
84.5343488
0
LINE
8
DEFAULT_255_2_778
10
26.5911503
20
83.7406488
11
26.5911503
21
-1.9843512
0
LINE
8
DEFAULT_255_2_778
10
25.7973503
20
-2.7781512
11
3.5723503
21
-2.7781512
0
LINE
8
DEFAULT_255_2_778
10
2.7786503
20
-1.9843512
11
2.7786503
21
83.7406488
0
LINE
8
DEFAULT_255_1_234
10
10.058185
20
-0.0087609
11
10.058185
21
-0.1348592
0
LINE
8
DEFAULT_255_1_234
10
10.058185
20
-0.1348592
11
9.5674458
21
-0.1348592
0
LINE
8
DEFAULT_255_1_234
10
9.5674458
20
-0.1348592
11
9.5674458
21
-0.6513
0
LINE
8
DEFAULT_255_1_234
10
9.5674458
20
-0.6513
11
9.4132364
21
-0.6513
0
LINE
8
DEFAULT_255_1_234
10
9.4132364
20
-0.6513
11
9.4132364
21
0.5181211
0
LINE
8
DEFAULT_255_1_234
10
9.4132364
20
0.5181211
11
10.1376992
21
0.5181211
0
LINE
8
DEFAULT_255_1_234
10
10.1376992
20
0.5181211
11
10.1376992
21
0.3912196
0
LINE
8
DEFAULT_255_1_234
10
10.1376992
20
0.3912196
11
9.5674458
21
0.3912196
0
LINE
8
DEFAULT_255_1_234
10
9.5674458
20
0.3912196
11
9.5674458
21
-0.0087609
0
LINE
8
DEFAULT_255_1_234
10
9.5674458
20
-0.0087609
11
10.058185
21
-0.0087609
0
LINE
8
DEFAULT_255_1_234
10
10.4220227
20
0.5181211
11
10.7039367
21
0.0699501
0
LINE
8
DEFAULT_255_1_234
10
10.7039367
20
0.0699501
11
10.9842444
21
0.5181211
0
LINE
8
DEFAULT_255_1_234
10
10.9842444
20
0.5181211
11
11.1657617
21
0.5181211
0
LINE
8
DEFAULT_255_1_234
10
11.1657617
20
0.5181211
11
10.7963017
21
-0.0617704
0
LINE
8
DEFAULT_255_1_234
10
10.7963017
20
-0.0617704
11
11.1745966
21
-0.6513
0
LINE
8
DEFAULT_255_1_234
10
11.1745966
20
-0.6513
11
10.9914729
21
-0.6513
0
LINE
8
DEFAULT_255_1_234
10
10.9914729
20
-0.6513
11
10.7039367
21
-0.1950973
0
LINE
8
DEFAULT_255_1_234
10
10.7039367
20
-0.1950973
11
10.4147941
21
-0.6513
0
LINE
8
DEFAULT_255_1_234
10
10.4147941
20
-0.6513
11
10.2324737
21
-0.6513
0
LINE
8
DEFAULT_255_1_234
10
10.2324737
20
-0.6513
11
10.6115717
21
-0.0617704
0
LINE
8
DEFAULT_255_1_234
10
10.6115717
20
-0.0617704
11
10.2413086
21
0.5181211
0
LINE
8
DEFAULT_255_1_234
10
10.2413086
20
0.5181211
11
10.4220227
21
0.5181211
0
LINE
8
DEFAULT_255_1_234
10
11.5022915
20
-0.0955037
11
11.3834218
21
-0.0649831
0
LINE
8
DEFAULT_255_1_234
10
11.3834218
20
-0.0649831
11
11.4428566
21
0.5181211
0
LINE
8
DEFAULT_255_1_234
10
11.4428566
20
0.5181211
11
12.0420243
21
0.5181211
0
LINE
8
DEFAULT_255_1_234
10
12.0420243
20
0.5181211
11
12.0420243
21
0.3807784
0
LINE
8
DEFAULT_255_1_234
10
12.0420243
20
0.3807784
11
11.5689549
21
0.3807784
0
LINE
8
DEFAULT_255_1_234
10
11.5689549
20
0.3807784
11
11.5336153
21
0.0619184
0
LINE
8
DEFAULT_255_1_234
10
11.3416567
20
-0.3436844
11
11.4822122
21
-0.3436844
0
LINE
8
DEFAULT_255_1_234
10
11.541647
20
-0.0633768
11
11.5022915
21
-0.0955037
0
ARC
8
DEFAULT_255_1_234
10
11.7190937
20
-0.256077
40
0.3681349
50
93.7182161
51
120.2538958
0
ARC
8
DEFAULT_255_1_234
10
11.72852
20
-0.3368606
40
0.449379
50
89.9660152
51
94.2496022
0
ARC
8
DEFAULT_255_1_234
10
11.7325934
20
-0.2779451
40
0.390482
50
73.8043271
51
90.5585896
0
ARC
8
DEFAULT_255_1_234
10
11.7560831
20
-0.1921398
40
0.3015334
50
41.3071453
51
73.5430202
0
ARC
8
DEFAULT_255_1_234
10
11.7144658
20
-0.2279676
40
0.3564457
50
13.5075983
51
41.2174222
0
ARC
8
DEFAULT_255_1_234
10
11.5502862
20
-0.2709514
40
0.5261351
50
1.1331335
51
13.8829381
0
ARC
8
DEFAULT_255_1_234
10
11.4091231
20
-0.2785335
40
0.6674378
50
359.9919444
51
1.544251
0
ARC
8
DEFAULT_255_1_234
10
11.5368057
20
-0.282672
40
0.5397702
50
347.8572367
51
0.4293338
0
ARC
8
DEFAULT_255_1_234
10
11.7118375
20
-0.3223264
40
0.3603188
50
323.673004
51
348.1672506
0
ARC
8
DEFAULT_255_1_234
10
11.7412883
20
-0.3402832
40
0.3259678
50
316.8171152
51
323.1492751
0
ARC
8
DEFAULT_255_1_234
10
11.7474072
20
-0.343954
40
0.3189975
50
281.8396411
51
316.5457803
0
ARC
8
DEFAULT_255_1_234
10
11.7098335
20
-0.1884238
40
0.4789527
50
269.5770101
51
282.4214771
0
ARC
8
DEFAULT_255_1_234
10
11.7027147
20
-0.2097875
40
0.45759
50
256.2427136
51
270.4486331
0
ARC
8
DEFAULT_255_1_234
10
11.6728049
20
-0.3297771
40
0.3339303
50
228.9023911
51
256.3314342
0
ARC
8
DEFAULT_255_1_234
10
11.6654282
20
-0.3414254
40
0.32031
50
193.753695
51
228.5271154
0
ARC
8
DEFAULT_255_1_234
10
11.7892236
20
-0.30512
40
0.4492253
50
184.924711
51
194.497588
0
ARC
8
DEFAULT_255_1_234
10
11.8084803
20
-0.3015409
40
0.3289787
50
187.3600538
51
198.6732863
0
ARC
8
DEFAULT_255_1_234
10
11.7035097
20
-0.3379326
40
0.217884
50
198.4451669
51
217.794479
0
ARC
8
DEFAULT_255_1_234
10
11.6739272
20
-0.3588915
40
0.1816698
50
218.2887171
51
228.5612368
0
ARC
8
DEFAULT_255_1_234
10
11.6837059
20
-0.3457037
40
0.1980329
50
228.9654866
51
258.1234728
0
ARC
8
DEFAULT_255_1_234
10
11.7042769
20
-0.2576167
40
0.2884748
50
257.7258293
51
270.401361
0
ARC
8
DEFAULT_255_1_234
10
11.7087655
20
-0.3021179
40
0.2439788
50
269.4204404
51
286.4209037
0
ARC
8
DEFAULT_255_1_234
10
11.7236143
20
-0.3560343
40
0.1880666
50
286.7251356
51
320.600362
0
ARC
8
DEFAULT_255_1_234
10
11.6852968
20
-0.3249405
40
0.2374121
50
320.6712579
51
344.5441685
0
ARC
8
DEFAULT_255_1_234
10
11.5696294
20
-0.2909955
40
0.3579479
50
344.2412205
51
356.7357071
0
ARC
8
DEFAULT_255_1_234
10
11.4447442
20
-0.2806556
40
0.4832297
50
356.3548756
51
0.0500261
0
ARC
8
DEFAULT_255_1_234
10
11.5783952
20
-0.277535
40
0.3495889
50
359.5576869
51
12.953486
0
ARC
8
DEFAULT_255_1_234
10
11.6838849
20
-0.2519566
40
0.2410532
50
12.6490276
51
41.6081334
0
ARC
8
DEFAULT_255_1_234
10
11.706922
20
-0.2323679
40
0.2108218
50
41.7850273
51
85.9892764
0
ARC
8
DEFAULT_255_1_234
10
11.6945957
20
-0.3136538
40
0.2928454
50
84.6957577
51
90.0676183
0
ARC
8
DEFAULT_255_1_234
10
11.6922441
20
-0.3805284
40
0.3597255
50
89.6804936
51
99.1614436
0
ARC
8
DEFAULT_255_1_234
10
11.6717072
20
-0.2577869
40
0.235281
50
98.9830931
51
113.8908934
0
ARC
8
DEFAULT_255_1_234
10
11.6487482
20
-0.2036413
40
0.176479
50
114.1950727
51
127.3641004
0
LINE
8
DEFAULT_255_1_234
10
12.5632841
20
-0.0938974
11
12.5632841
21
-0.2151766
0
LINE
8
DEFAULT_255_1_234
10
12.5632841
20
-0.2151766
11
12.1713353
21
-0.2151766
0
LINE
8
DEFAULT_255_1_234
10
12.1713353
20
-0.2151766
11
12.1713353
21
-0.0938974
0
LINE
8
DEFAULT_255_1_234
10
12.1713353
20
-0.0938974
11
12.5632841
21
-0.0938974
0
ARC
8
DEFAULT_255_1_234
10
13.1195735
20
0.2103703
40
0.2822356
50
338.8763615
51
0.5166041
0
ARC
8
DEFAULT_255_1_234
10
13.1364389
20
0.2058208
40
0.2648703
50
325.8412414
51
338.4795939
0
ARC
8
DEFAULT_255_1_234
10
13.0973757
20
0.2329042
40
0.3124019
50
296.7586019
51
325.753654
0
ARC
8
DEFAULT_255_1_234
10
13.0685865
20
0.2813789
40
0.368668
50
296.0902311
51
297.3618122
0
ARC
8
DEFAULT_255_1_234
10
13.0943323
20
-0.3740959
40
0.3518806
50
47.9009248
51
67.1946869
0
ARC
8
DEFAULT_255_1_234
10
13.1139565
20
-0.3494605
40
0.320451
50
35.236241
51
47.551371
0
ARC
8
DEFAULT_255_1_234
10
13.1401183
20
-0.3320007
40
0.2890103
50
359.2759738
51
35.4014081
0
ARC
8
DEFAULT_255_1_234
10
13.0656214
20
-0.3393174
40
0.3635026
50
343.1294516
51
0.5776525
0
ARC
8
DEFAULT_255_1_234
10
13.1380759
20
-0.359267
40
0.2883832
50
310.8497458
51
342.744803
0
ARC
8
DEFAULT_255_1_234
10
13.0962872
20
-0.3115706
40
0.3517954
50
281.5473923
51
310.9169905
0
ARC
8
DEFAULT_255_1_234
10
13.0606321
20
-0.1562916
40
0.5110832
50
269.6192722
51
281.9789957
0
ARC
8
DEFAULT_255_1_234
10
13.053411
20
-0.1562172
40
0.5111606
50
257.4584469
51
270.4287458
0
ARC
8
DEFAULT_255_1_234
10
13.0153253
20
-0.3165656
40
0.3463762
50
228.7553743
51
257.8484423
0
ARC
8
DEFAULT_255_1_234
10
12.9843452
20
-0.3538558
40
0.297916
50
184.0104442
51
228.5071787
0
ARC
8
DEFAULT_255_1_234
10
13.1006396
20
-0.3361488
40
0.4152734
50
179.9315461
51
185.3254504
0
ARC
8
DEFAULT_255_1_234
10
12.9830041
20
-0.3324008
40
0.2976554
50
145.6795913
51
180.6259649
0
ARC
8
DEFAULT_255_1_234
10
12.9993391
20
-0.3438071
40
0.3175776
50
115.5537925
51
145.6416199
0
ARC
8
DEFAULT_255_1_234
10
13.0334321
20
-0.4048972
40
0.3874232
50
113.2437915
51
116.2054627
0
ARC
8
DEFAULT_255_1_234
10
13.0181533
20
0.234958
40
0.3154751
50
222.9548379
51
244.1372485
0
ARC
8
DEFAULT_255_1_234
10
13.0059609
20
0.2212834
40
0.2972382
50
213.3439227
51
222.6271327
0
ARC
8
DEFAULT_255_1_234
10
12.9867543
20
0.2082308
40
0.274019
50
180.4316517
51
213.2713999
0
ARC
8
DEFAULT_255_1_234
10
13.0442545
20
0.212911
40
0.33158
50
179.9992944
51
181.1655061
0
ARC
8
DEFAULT_255_1_234
10
13.0851962
20
0.2163561
40
0.3725376
50
164.6186108
51
180.5292368
0
ARC
8
DEFAULT_255_1_234
10
12.9953825
20
0.2405101
40
0.2795349
50
132.2454369
51
164.5092287
0
ARC
8
DEFAULT_255_1_234
10
13.0240929
20
0.2080028
40
0.3229019
50
100.7052766
51
132.1387266
0
ARC
8
DEFAULT_255_1_234
10
13.0545901
20
0.0702086
40
0.4639835
50
89.6732617
51
101.2449487
0
ARC
8
DEFAULT_255_1_234
10
13.0608099
20
0.087699
40
0.4464999
50
76.2876631
51
90.4586123
0
ARC
8
DEFAULT_255_1_234
10
13.0914331
20
0.209922
40
0.3205023
50
47.8240157
51
76.4266918
0
ARC
8
DEFAULT_255_1_234
10
13.113688
20
0.235959
40
0.2862661
50
6.9168658
51
47.6261438
0
ARC
8
DEFAULT_255_1_234
10
12.9950284
20
0.214037
40
0.4067708
50
359.8419705
51
7.9694496
0
ARC
8
DEFAULT_255_1_234
10
13.0292181
20
-0.3300075
40
0.2513121
50
359.4454068
51
16.9256425
0
ARC
8
DEFAULT_255_1_234
10
13.0760992
20
-0.3170967
40
0.2027071
50
17.292259
51
45.462717
0
ARC
8
DEFAULT_255_1_234
10
13.0706928
20
-0.3217566
40
0.2098212
50
45.3028762
51
83.1921472
0
ARC
8
DEFAULT_255_1_234
10
13.0563612
20
-0.4019105
40
0.2911472
50
82.2614531
51
90.143954
0
ARC
8
DEFAULT_255_1_234
10
13.0532732
20
-0.378605
40
0.2678513
50
89.4959189
51
104.8579811
0
ARC
8
DEFAULT_255_1_234
10
13.0355991
20
-0.311611
40
0.1985654
50
104.8855873
51
135.2448349
0
ARC
8
DEFAULT_255_1_234
10
13.0405764
20
-0.3160664
40
0.2052373
50
135.3398955
51
172.104394
0
ARC
8
DEFAULT_255_1_234
10
13.1212822
20
-0.3315075
40
0.2873299
50
171.2651929
51
180.1859362
0
ARC
8
DEFAULT_255_1_234
10
13.1043523
20
-0.3347267
40
0.2704083
50
179.515471
51
193.6466734
0
ARC
8
DEFAULT_255_1_234
10
13.0227292
20
-0.3555223
40
0.1861855
50
193.3540587
51
225.8256931
0
ARC
8
DEFAULT_255_1_234
10
13.0268049
20
-0.3484476
40
0.1941102
50
226.418029
51
255.8553723
0
ARC
8
DEFAULT_255_1_234
10
13.0524482
20
-0.2548002
40
0.2911917
50
255.4655572
51
268.7985967
0
ARC
8
DEFAULT_255_1_234
10
13.0571674
20
-0.1709509
40
0.3751331
50
268.3464808
51
270.0104874
0
ARC
8
DEFAULT_255_1_234
10
13.0595062
20
-0.2393862
40
0.3067064
50
269.575914
51
282.0823146
0
ARC
8
DEFAULT_255_1_234
10
13.0819971
20
-0.3388197
40
0.2047712
50
281.7522535
51
306.6056425
0
ARC
8
DEFAULT_255_1_234
10
13.0918397
20
-0.3549513
40
0.1859604
50
307.1350025
51
314.0277951
0
ARC
8
DEFAULT_255_1_234
10
13.0882481
20
-0.3523234
40
0.1903475
50
314.2553419
51
350.169324
0
ARC
8
DEFAULT_255_1_234
10
13.0030949
20
-0.3338591
40
0.2774269
50
349.4145679
51
0.2930737
0
ARC
8
DEFAULT_255_1_234
10
13.0551383
20
0.1820353
40
0.2300764
50
89.477591
51
105.729794
0
ARC
8
DEFAULT_255_1_234
10
13.0415296
20
0.2325637
40
0.1777519
50
105.922966
51
135.1662921
0
ARC
8
DEFAULT_255_1_234
10
13.0435799
20
0.2311419
40
0.1802087
50
135.3053131
51
168.9882338
0
ARC
8
DEFAULT_255_1_234
10
13.1263371
20
0.2121721
40
0.2650806
50
168.3802067
51
180.3602358
0
ARC
8
DEFAULT_255_1_234
10
13.103495
20
0.2084041
40
0.2422425
50
179.5029707
51
194.9126783
0
ARC
8
DEFAULT_255_1_234
10
13.0449611
20
0.193011
40
0.1817188
50
194.9722181
51
224.1943972
0
ARC
8
DEFAULT_255_1_234
10
13.0421479
20
0.1907169
40
0.1781027
50
224.2961434
51
262.0157375
0
ARC
8
DEFAULT_255_1_234
10
13.0563722
20
0.2638661
40
0.2525492
50
261.1250369
51
270.1959853
0
ARC
8
DEFAULT_255_1_234
10
13.0593477
20
0.2451339
40
0.233825
50
269.4825617
51
285.0988277
0
ARC
8
DEFAULT_255_1_234
10
13.0747636
20
0.187299
40
0.1739712
50
285.1585659
51
315.9484648
0
ARC
8
DEFAULT_255_1_234
10
13.0658648
20
0.1954886
40
0.1860616
50
316.0412958
51
351.9162715
0
ARC
8
DEFAULT_255_1_234
10
12.9925603
20
0.2096245
40
0.2606517
50
351.1056823
51
0.1936567
0
ARC
8
DEFAULT_255_1_234
10
13.0188431
20
0.2126369
40
0.234377
50
359.4789506
51
16.0679113
0
ARC
8
DEFAULT_255_1_234
10
13.066439
20
0.225481
40
0.1850875
50
16.3251951
51
44.791304
0
ARC
8
DEFAULT_255_1_234
10
13.0646672
20
0.2255339
40
0.186312
50
44.3958661
51
88.2498933
0
ARC
8
DEFAULT_255_1_234
10
13.0573226
20
0.1644154
40
0.2476868
50
86.9833827
51
90.0200148
0
LINE
8
DEFAULT_255_1_234
10
14.3495427
20
0.0402327
11
14.3495427
21
-0.1525291
0
LINE
8
DEFAULT_255_1_234
10
13.611426
20
-0.1726084
11
13.611426
21
0.0257755
0
LINE
8
DEFAULT_255_1_234
10
14.2009556
20
-0.1926877
11
14.2009556
21
0.0506739
0
LINE
8
DEFAULT_255_1_234
10
13.7600131
20
0.0619184
11
13.7600131
21
-0.1758211
0
ARC
8
DEFAULT_255_1_234
10
13.1248317
20
-0.1574195
40
1.2247208
50
353.8441951
51
0.2287902
0
ARC
8
DEFAULT_255_1_234
10
13.588782
20
-0.2092194
40
0.7578929
50
344.4934747
51
353.9765454
0
ARC
8
DEFAULT_255_1_234
10
13.8880411
20
-0.2943019
40
0.4467846
50
329.2803592
51
344.7472793
0
ARC
8
DEFAULT_255_1_234
10
13.9873236
20
-0.3487982
40
0.3336173
50
324.9352394
51
328.6160465
0
ARC
8
DEFAULT_255_1_234
10
14.0250344
20
-0.3751573
40
0.2876076
50
280.580143
51
324.9173126
0
ARC
8
DEFAULT_255_1_234
10
13.9849137
20
-0.2080901
40
0.4592847
50
269.5977311
51
281.6734359
0
ARC
8
DEFAULT_255_1_234
10
13.9777042
20
-0.2200827
40
0.4472986
50
256.6228859
51
270.51044
0
ARC
8
DEFAULT_255_1_234
10
13.937502
20
-0.3749123
40
0.2873874
50
215.8618325
51
257.2788573
0
ARC
8
DEFAULT_255_1_234
10
14.0396052
20
-0.3064023
40
0.4102928
50
197.9693508
51
215.2623606
0
ARC
8
DEFAULT_255_1_234
10
14.2881167
20
-0.2225291
40
0.6725652
50
187.8816417
51
198.2346507
0
ARC
8
DEFAULT_255_1_234
10
14.6839376
20
-0.1653921
40
1.0724845
50
180.8976217
51
188.0055519
0
ARC
8
DEFAULT_255_1_234
10
14.9639564
20
-0.1550223
40
1.3526448
50
180.7449369
51
181.1510016
0
ARC
8
DEFAULT_255_1_234
10
14.8062293
20
0.0306042
40
1.1948131
50
173.7675579
51
180.231553
0
ARC
8
DEFAULT_255_1_234
10
14.354444
20
0.0816666
40
0.7401564
50
164.3058563
51
173.9002247
0
ARC
8
DEFAULT_255_1_234
10
14.0632508
20
0.1655656
40
0.4371288
50
148.7922025
51
164.568378
0
ARC
8
DEFAULT_255_1_234
10
13.9680961
20
0.2186929
40
0.3282386
50
144.5883898
51
148.1176286
0
ARC
8
DEFAULT_255_1_234
10
13.9337858
20
0.2426315
40
0.2864044
50
101.6440918
51
144.514236
0
ARC
8
DEFAULT_255_1_234
10
13.9762925
20
0.0737069
40
0.4604934
50
89.5284041
51
102.5819763
0
ARC
8
DEFAULT_255_1_234
10
13.9842013
20
0.0698018
40
0.464401
50
77.0437873
51
90.5081339
0
ARC
8
DEFAULT_255_1_234
10
14.0244015
20
0.2340615
40
0.2953195
50
48.2778575
51
77.4994676
0
ARC
8
DEFAULT_255_1_234
10
14.0316646
20
0.2469746
40
0.2808655
50
36.3142134
51
47.6305865
0
ARC
8
DEFAULT_255_1_234
10
13.9447953
20
0.1884515
40
0.3855453
50
18.2931786
51
35.6769206
0
ARC
8
DEFAULT_255_1_234
10
13.6904712
20
0.1011593
40
0.654423
50
8.024666
51
18.5605216
0
ARC
8
DEFAULT_255_1_234
10
13.2741632
20
0.0396792
40
1.0752407
50
1.1274072
51
8.1718305
0
ARC
8
DEFAULT_255_1_234
10
12.9505822
20
0.0269885
40
1.3990231
50
0.5424119
51
1.3863029
0
ARC
8
DEFAULT_255_1_234
10
13.13272
20
0.0542342
40
1.0682415
50
359.8090433
51
4.9407866
0
ARC
8
DEFAULT_255_1_234
10
13.5537214
20
0.0918113
40
0.6455691
50
4.8362157
51
12.2904523
0
ARC
8
DEFAULT_255_1_234
10
13.8292329
20
0.1531965
40
0.3633074
50
12.0805627
51
23.8173984
0
ARC
8
DEFAULT_255_1_234
10
13.9466034
20
0.2028919
40
0.2358723
50
24.2871213
51
31.3935614
0
ARC
8
DEFAULT_255_1_234
10
13.9990732
20
0.2372233
40
0.1732111
50
30.7407893
51
82.4657128
0
ARC
8
DEFAULT_255_1_234
10
13.9810866
20
0.1488691
40
0.263235
50
81.1060089
51
90.2184952
0
ARC
8
DEFAULT_255_1_234
10
13.9775165
20
0.1746924
40
0.2374236
50
89.3806855
51
105.6762551
0
ARC
8
DEFAULT_255_1_234
10
13.9591795
20
0.2413567
40
0.1682847
50
105.7981136
51
149.7388061
0
ARC
8
DEFAULT_255_1_234
10
14.0655874
20
0.177395
40
0.2924306
50
149.4208916
51
163.6286378
0
ARC
8
DEFAULT_255_1_234
10
14.2746762
20
0.113625
40
0.5110213
50
163.3763315
51
172.1410975
0
ARC
8
DEFAULT_255_1_234
10
14.6047481
20
0.0663518
40
0.8444586
50
172.0259487
51
178.0703232
0
ARC
8
DEFAULT_255_1_234
10
14.907757
20
0.0519906
40
1.1477868
50
177.8631668
51
179.5044149
0
ARC
8
DEFAULT_255_1_234
10
14.8004975
20
-0.1794611
40
1.0404907
50
179.7995573
51
185.2460446
0
ARC
8
DEFAULT_255_1_234
10
14.3962014
20
-0.2177487
40
0.6343885
50
185.1411642
51
193.0079639
0
ARC
8
DEFAULT_255_1_234
10
14.1318487
20
-0.2802359
40
0.3627568
50
192.7897626
51
205.2507664
0
ARC
8
DEFAULT_255_1_234
10
14.0272034
20
-0.3269585
40
0.2481908
50
205.8005384
51
211.2537509
0
ARC
8
DEFAULT_255_1_234
10
13.9748474
20
-0.362042
40
0.1852521
50
210.3789793
51
238.4008143
0
ARC
8
DEFAULT_255_1_234
10
13.9728996
20
-0.3573624
40
0.1882621
50
239.6520629
51
265.9793761
0
ARC
8
DEFAULT_255_1_234
10
13.9814196
20
-0.2901573
40
0.2559272
50
265.1315437
51
270.060332
0
ARC
8
DEFAULT_255_1_234
10
13.9842975
20
-0.3225466
40
0.2235528
50
269.3314664
51
287.2178029
0
ARC
8
DEFAULT_255_1_234
10
13.9980827
20
-0.3728721
40
0.1714108
50
287.7958004
51
329.080874
0
ARC
8
DEFAULT_255_1_234
10
13.9023284
20
-0.313107
40
0.2842745
50
328.6634704
51
343.3325132
0
ARC
8
DEFAULT_255_1_234
10
13.6850304
20
-0.2454137
40
0.5118644
50
343.0499468
51
351.9393422
0
ARC
8
DEFAULT_255_1_234
10
13.3383604
20
-0.1943051
40
0.8622784
50
351.8069023
51
357.7959224
0
ARC
8
DEFAULT_255_1_234
10
13.014816
20
-0.1775279
40
1.1862365
50
357.5871873
51
359.2677531
0
LINE
8
DEFAULT_255_1_234
10
15.3543132
20
0.1799849
11
15.1993006
21
0.1799849
0
LINE
8
DEFAULT_255_1_234
10
14.5069648
20
-0.3123606
11
14.6619773
21
-0.3123606
0
ARC
8
DEFAULT_255_1_234
10
15.2651819
20
1.0746768
40
1.252368
50
248.9199003
51
254.1439814
0
ARC
8
DEFAULT_255_1_234
10
15.0971314
20
0.6420234
40
0.788226
50
241.633709
51
249.0064503
0
ARC
8
DEFAULT_255_1_234
10
14.9442708
20
0.3619317
40
0.4691427
50
230.498225
51
241.8087113
0
ARC
8
DEFAULT_255_1_234
10
14.8658283
20
0.2619906
40
0.3421437
50
227.4064532
51
229.9881192
0
ARC
8
DEFAULT_255_1_234
10
14.8170803
20
0.2144088
40
0.2741476
50
200.6781896
51
228.1763934
0
ARC
8
DEFAULT_255_1_234
10
14.8243114
20
0.2129077
40
0.2804109
50
179.5061581
51
199.8694617
0
ARC
8
DEFAULT_255_1_234
10
14.8233866
20
0.220321
40
0.2795204
50
132.4834203
51
181.0242172
0
ARC
8
DEFAULT_255_1_234
10
14.8829448
20
0.1640704
40
0.3612768
50
129.2532479
51
133.4242687
0
ARC
8
DEFAULT_255_1_234
10
14.8975898
20
0.1420965
40
0.3875675
50
101.98776
51
128.8742646
0
ARC
8
DEFAULT_255_1_234
10
14.9374508
20
-0.0300259
40
0.5642249
50
89.5906553
51
102.3169264
0
ARC
8
DEFAULT_255_1_234
10
14.9445
20
0.0018148
40
0.5323783
50
77.2360837
51
90.3248275
0
ARC
8
DEFAULT_255_1_234
10
14.9652079
20
0.09854
40
0.4334697
50
63.837784
51
77.0809408
0
ARC
8
DEFAULT_255_1_234
10
14.9929841
20
0.1502911
40
0.3747796
50
45.9864267
51
64.1607727
0
ARC
8
DEFAULT_255_1_234
10
15.0190722
20
0.1800866
40
0.3352302
50
32.2747395
51
45.6547121
0
ARC
8
DEFAULT_255_1_234
10
15.0257163
20
0.181988
40
0.328603
50
359.6507365
51
32.6130309
0
ARC
8
DEFAULT_255_1_234
10
14.9314258
20
0.182466
40
0.2678863
50
359.469343
51
14.9832209
0
ARC
8
DEFAULT_255_1_234
10
15.0019321
20
0.2013539
40
0.1948938
50
14.9781179
51
48.2004265
0
ARC
8
DEFAULT_255_1_234
10
14.9854965
20
0.1806983
40
0.2212521
50
48.5927837
51
74.1241538
0
ARC
8
DEFAULT_255_1_234
10
14.9521455
20
0.0706248
40
0.3362561
50
73.7888341
51
86.6652678
0
ARC
8
DEFAULT_255_1_234
10
14.941902
20
-0.0501119
40
0.4573953
50
86.2640471
51
90.0526343
0
ARC
8
DEFAULT_255_1_234
10
14.9390733
20
-0.0105808
40
0.4178709
50
89.6697524
51
99.2309573
0
ARC
8
DEFAULT_255_1_234
10
14.9148184
20
0.1338964
40
0.2713749
50
99.069534
51
113.7658566
0
ARC
8
DEFAULT_255_1_234
10
14.8874375
20
0.1984677
40
0.2012469
50
114.0401004
51
127.9850673
0
ARC
8
DEFAULT_255_1_234
10
14.8633939
20
0.228073
40
0.1631167
50
127.7287463
51
176.7105154
0
ARC
8
DEFAULT_255_1_234
10
14.9312656
20
0.2179693
40
0.2315392
50
175.1779447
51
180.0581938
0
ARC
8
DEFAULT_255_1_234
10
14.8469503
20
0.2167428
40
0.1472271
50
179.6142195
51
228.1246017
0
ARC
8
DEFAULT_255_1_234
10
14.8911172
20
0.2576308
40
0.2072299
50
226.5779593
51
230.8800004
0
ARC
8
DEFAULT_255_1_234
10
14.938225
20
0.3201636
40
0.2854818
50
231.4635071
51
241.9260842
0
ARC
8
DEFAULT_255_1_234
10
15.0579428
20
0.54048
40
0.53622
50
241.7178533
51
248.3259551
0
ARC
8
DEFAULT_255_1_234
10
15.19648
20
0.8837064
40
0.9063478
50
248.2007737
51
252.4528373
0
ARC
8
DEFAULT_255_1_234
10
15.3168525
20
1.2558441
40
1.2974635
50
252.3391078
51
254.3469452
0
ARC
8
DEFAULT_255_1_234
10
14.5626228
20
-1.4418852
40
1.5037162
50
71.0197183
51
74.4087047
0
ARC
8
DEFAULT_255_1_234
10
14.7320913
20
-0.9526889
40
0.9859993
50
66.1847285
51
71.086374
0
ARC
8
DEFAULT_255_1_234
10
14.8877225
20
-0.60228
40
0.6025855
50
59.3536294
51
66.2691831
0
ARC
8
DEFAULT_255_1_234
10
14.9765878
20
-0.4519391
40
0.4279449
50
49.1020879
51
59.3293958
0
ARC
8
DEFAULT_255_1_234
10
15.0584618
20
-0.3586166
40
0.3038015
50
32.7919921
51
49.2505539
0
ARC
8
DEFAULT_255_1_234
10
15.0905707
20
-0.3357809
40
0.264448
50
31.1181161
51
32.4005348
0
ARC
8
DEFAULT_255_1_234
10
15.0817245
20
-0.3393221
40
0.2738556
50
8.1116974
51
30.7958831
0
ARC
8
DEFAULT_255_1_234
10
15.0006913
20
-0.3531247
40
0.3560327
50
359.8389159
51
8.4706516
0
ARC
8
DEFAULT_255_1_234
10
15.0632705
20
-0.3579863
40
0.2934776
50
337.4731098
51
0.7537279
0
ARC
8
DEFAULT_255_1_234
10
15.08114
20
-0.3599613
40
0.2762607
50
307.5917067
51
336.4315538
0
ARC
8
DEFAULT_255_1_234
10
15.0351228
20
-0.3086898
40
0.3449979
50
307.6551545
51
308.4529766
0
ARC
8
DEFAULT_255_1_234
10
15.0120946
20
-0.273175
40
0.3871988
50
284.3734338
51
307.1424381
0
ARC
8
DEFAULT_255_1_234
10
14.9625777
20
-0.0910068
40
0.5759636
50
272.4382747
51
284.646547
0
ARC
8
DEFAULT_255_1_234
10
14.9498985
20
0.0889893
40
0.7563528
50
269.9708387
51
272.8178037
0
ARC
8
DEFAULT_255_1_234
10
14.9456025
20
-0.1148284
40
0.5525489
50
248.2707594
51
270.4055579
0
ARC
8
DEFAULT_255_1_234
10
14.9401766
20
-0.1338808
40
0.5328452
50
246.1383403
51
248.0542782
0
ARC
8
DEFAULT_255_1_234
10
14.8983145
20
-0.2218157
40
0.4355005
50
233.1670131
51
246.4950969
0
ARC
8
DEFAULT_255_1_234
10
14.842905
20
-0.2966188
40
0.3424126
50
215.3403242
51
233.0843104
0
ARC
8
DEFAULT_255_1_234
10
14.8156481
20
-0.3164451
40
0.3087104
50
179.2419209
51
215.2648451
0
ARC
8
DEFAULT_255_1_234
10
14.8924075
20
-0.3150334
40
0.2304457
50
179.335461
51
199.1045811
0
ARC
8
DEFAULT_255_1_234
10
14.8591752
20
-0.3237234
40
0.1962176
50
199.8828939
51
232.7063202
0
ARC
8
DEFAULT_255_1_234
10
14.906402
20
-0.2643212
40
0.2720938
50
232.3738199
51
255.5136649
0
ARC
8
DEFAULT_255_1_234
10
14.9404887
20
-0.1399165
40
0.4010747
50
255.2446292
51
267.5320849
0
ARC
8
DEFAULT_255_1_234
10
14.949251
20
-0.0166298
40
0.5246356
50
267.1557994
51
270.0286766
0
ARC
8
DEFAULT_255_1_234
10
14.9520282
20
-0.061005
40
0.4802668
50
269.7000017
51
278.1660162
0
ARC
8
DEFAULT_255_1_234
10
14.9776287
20
-0.2340485
40
0.3053425
50
278.0231263
51
290.625471
0
ARC
8
DEFAULT_255_1_234
10
15.0123974
20
-0.3267975
40
0.206291
50
290.6619762
51
307.0370976
0
ARC
8
DEFAULT_255_1_234
10
15.0424363
20
-0.3636496
40
0.1587906
50
306.3943566
51
355.3030547
0
ARC
8
DEFAULT_255_1_234
10
14.9912295
20
-0.3559887
40
0.2104809
50
354.3660432
51
0.0698737
0
ARC
8
DEFAULT_255_1_234
10
15.005464
20
-0.3537383
40
0.1962563
50
359.417946
51
16.1971788
0
ARC
8
DEFAULT_255_1_234
10
15.050995
20
-0.3412582
40
0.149053
50
16.4723299
51
52.6262157
0
ARC
8
DEFAULT_255_1_234
10
14.9689004
20
-0.4496567
40
0.2850296
50
52.7386432
51
62.4979148
0
ARC
8
DEFAULT_255_1_234
10
14.8304081
20
-0.7102717
40
0.5801521
50
62.2515216
51
68.1220564
0
ARC
8
DEFAULT_255_1_234
10
14.6583992
20
-1.1330128
40
1.0365451
50
68.0062803
51
71.8053402
0
ARC
8
DEFAULT_255_1_234
10
14.4788364
20
-1.6715242
40
1.6042013
50
71.7183119
51
73.9258742
0
LINE
8
DEFAULT_255_1_234
10
16.3301694
20
0.1799849
11
16.1751568
21
0.1799849
0
LINE
8
DEFAULT_255_1_234
10
15.482821
20
-0.3123606
11
15.6378335
21
-0.3123606
0
ARC
8
DEFAULT_255_1_234
10
16.2410381
20
1.0746768
40
1.252368
50
248.9199003
51
254.1439814
0
ARC
8
DEFAULT_255_1_234
10
16.0729876
20
0.6420234
40
0.788226
50
241.633709
51
249.0064503
0
ARC
8
DEFAULT_255_1_234
10
15.920127
20
0.3619317
40
0.4691427
50
230.498225
51
241.8087113
0
ARC
8
DEFAULT_255_1_234
10
15.8416845
20
0.2619906
40
0.3421437
50
227.4064532
51
229.9881192
0
ARC
8
DEFAULT_255_1_234
10
15.7929365
20
0.2144088
40
0.2741476
50
200.6781896
51
228.1763934
0
ARC
8
DEFAULT_255_1_234
10
15.8001676
20
0.2129077
40
0.2804109
50
179.5061581
51
199.8694617
0
ARC
8
DEFAULT_255_1_234
10
15.7992428
20
0.220321
40
0.2795204
50
132.4834203
51
181.0242172
0
ARC
8
DEFAULT_255_1_234
10
15.858801
20
0.1640704
40
0.3612768
50
129.2532479
51
133.4242687
0
ARC
8
DEFAULT_255_1_234
10
15.873446
20
0.1420965
40
0.3875675
50
101.98776
51
128.8742646
0
ARC
8
DEFAULT_255_1_234
10
15.913307
20
-0.0300259
40
0.5642249
50
89.5906553
51
102.3169264
0
ARC
8
DEFAULT_255_1_234
10
15.9203562
20
0.0018148
40
0.5323783
50
77.2360837
51
90.3248275
0
ARC
8
DEFAULT_255_1_234
10
15.9410641
20
0.09854
40
0.4334697
50
63.837784
51
77.0809408
0
ARC
8
DEFAULT_255_1_234
10
15.9688403
20
0.1502911
40
0.3747796
50
45.9864267
51
64.1607727
0
ARC
8
DEFAULT_255_1_234
10
15.9949284
20
0.1800866
40
0.3352302
50
32.2747395
51
45.6547121
0
ARC
8
DEFAULT_255_1_234
10
16.0015725
20
0.181988
40
0.328603
50
359.6507365
51
32.6130309
0
ARC
8
DEFAULT_255_1_234
10
15.907282
20
0.182466
40
0.2678863
50
359.469343
51
14.9832209
0
ARC
8
DEFAULT_255_1_234
10
15.9777883
20
0.2013539
40
0.1948938
50
14.9781179
51
48.2004265
0
ARC
8
DEFAULT_255_1_234
10
15.9613527
20
0.1806983
40
0.2212521
50
48.5927837
51
74.1241538
0
ARC
8
DEFAULT_255_1_234
10
15.9280017
20
0.0706248
40
0.3362561
50
73.7888341
51
86.6652678
0
ARC
8
DEFAULT_255_1_234
10
15.9177582
20
-0.0501119
40
0.4573953
50
86.2640471
51
90.0526343
0
ARC
8
DEFAULT_255_1_234
10
15.9149295
20
-0.0105808
40
0.4178709
50
89.6697524
51
99.2309573
0
ARC
8
DEFAULT_255_1_234
10
15.8906746
20
0.1338964
40
0.2713749
50
99.069534
51
113.7658566
0
ARC
8
DEFAULT_255_1_234
10
15.8632937
20
0.1984677
40
0.2012469
50
114.0401004
51
127.9850673
0
ARC
8
DEFAULT_255_1_234
10
15.8392501
20
0.228073
40
0.1631167
50
127.7287463
51
176.7105154
0
ARC
8
DEFAULT_255_1_234
10
15.9071218
20
0.2179693
40
0.2315392
50
175.1779447
51
180.0581938
0
ARC
8
DEFAULT_255_1_234
10
15.8228065
20
0.2167428
40
0.1472271
50
179.6142195
51
228.1246017
0
ARC
8
DEFAULT_255_1_234
10
15.8669734
20
0.2576308
40
0.2072299
50
226.5779593
51
230.8800004
0
ARC
8
DEFAULT_255_1_234
10
15.9140812
20
0.3201636
40
0.2854818
50
231.4635071
51
241.9260842
0
ARC
8
DEFAULT_255_1_234
10
16.033799
20
0.54048
40
0.53622
50
241.7178533
51
248.3259551
0
ARC
8
DEFAULT_255_1_234
10
16.1723362
20
0.8837064
40
0.9063478
50
248.2007737
51
252.4528373
0
ARC
8
DEFAULT_255_1_234
10
16.2927087
20
1.2558441
40
1.2974635
50
252.3391078
51
254.3469452
0
ARC
8
DEFAULT_255_1_234
10
15.538479
20
-1.4418852
40
1.5037162
50
71.0197183
51
74.4087047
0
ARC
8
DEFAULT_255_1_234
10
15.7079475
20
-0.9526889
40
0.9859993
50
66.1847285
51
71.086374
0
ARC
8
DEFAULT_255_1_234
10
15.8635787
20
-0.60228
40
0.6025855
50
59.3536294
51
66.2691831
0
ARC
8
DEFAULT_255_1_234
10
15.952444
20
-0.4519391
40
0.4279449
50
49.1020879
51
59.3293958
0
ARC
8
DEFAULT_255_1_234
10
16.034318
20
-0.3586166
40
0.3038015
50
32.7919921
51
49.2505539
0
ARC
8
DEFAULT_255_1_234
10
16.0664269
20
-0.3357809
40
0.264448
50
31.1181161
51
32.4005348
0
ARC
8
DEFAULT_255_1_234
10
16.0575807
20
-0.3393221
40
0.2738556
50
8.1116974
51
30.7958831
0
ARC
8
DEFAULT_255_1_234
10
15.9765475
20
-0.3531247
40
0.3560327
50
359.8389159
51
8.4706516
0
ARC
8
DEFAULT_255_1_234
10
16.0391267
20
-0.3579863
40
0.2934776
50
337.4731098
51
0.7537279
0
ARC
8
DEFAULT_255_1_234
10
16.0569962
20
-0.3599613
40
0.2762607
50
307.5917067
51
336.4315538
0
ARC
8
DEFAULT_255_1_234
10
16.010979
20
-0.3086898
40
0.3449979
50
307.6551545
51
308.4529766
0
ARC
8
DEFAULT_255_1_234
10
15.9879508
20
-0.273175
40
0.3871988
50
284.3734338
51
307.1424381
0
ARC
8
DEFAULT_255_1_234
10
15.9384339
20
-0.0910068
40
0.5759636
50
272.4382747
51
284.646547
0
ARC
8
DEFAULT_255_1_234
10
15.9257547
20
0.0889893
40
0.7563528
50
269.9708387
51
272.8178037
0
ARC
8
DEFAULT_255_1_234
10
15.9214587
20
-0.1148284
40
0.5525489
50
248.2707594
51
270.4055579
0
ARC
8
DEFAULT_255_1_234
10
15.9160328
20
-0.1338808
40
0.5328452
50
246.1383403
51
248.0542782
0
ARC
8
DEFAULT_255_1_234
10
15.8741707
20
-0.2218157
40
0.4355005
50
233.1670131
51
246.4950969
0
ARC
8
DEFAULT_255_1_234
10
15.8187612
20
-0.2966188
40
0.3424126
50
215.3403242
51
233.0843104
0
ARC
8
DEFAULT_255_1_234
10
15.7915043
20
-0.3164451
40
0.3087104
50
179.2419209
51
215.2648451
0
ARC
8
DEFAULT_255_1_234
10
15.8682637
20
-0.3150334
40
0.2304457
50
179.335461
51
199.1045811
0
ARC
8
DEFAULT_255_1_234
10
15.8350314
20
-0.3237234
40
0.1962176
50
199.8828939
51
232.7063202
0
ARC
8
DEFAULT_255_1_234
10
15.8822582
20
-0.2643212
40
0.2720938
50
232.3738199
51
255.5136649
0
ARC
8
DEFAULT_255_1_234
10
15.9163449
20
-0.1399165
40
0.4010747
50
255.2446292
51
267.5320849
0
ARC
8
DEFAULT_255_1_234
10
15.9251072
20
-0.0166298
40
0.5246356
50
267.1557994
51
270.0286766
0
ARC
8
DEFAULT_255_1_234
10
15.9278844
20
-0.061005
40
0.4802668
50
269.7000017
51
278.1660162
0
ARC
8
DEFAULT_255_1_234
10
15.9534849
20
-0.2340485
40
0.3053425
50
278.0231263
51
290.625471
0
ARC
8
DEFAULT_255_1_234
10
15.9882536
20
-0.3267975
40
0.206291
50
290.6619762
51
307.0370976
0
ARC
8
DEFAULT_255_1_234
10
16.0182925
20
-0.3636496
40
0.1587906
50
306.3943566
51
355.3030547
0
ARC
8
DEFAULT_255_1_234
10
15.9670857
20
-0.3559887
40
0.2104809
50
354.3660432
51
0.0698737
0
ARC
8
DEFAULT_255_1_234
10
15.9813202
20
-0.3537383
40
0.1962563
50
359.417946
51
16.1971788
0
ARC
8
DEFAULT_255_1_234
10
16.0268512
20
-0.3412582
40
0.149053
50
16.4723299
51
52.6262157
0
ARC
8
DEFAULT_255_1_234
10
15.9447566
20
-0.4496567
40
0.2850296
50
52.7386432
51
62.4979148
0
ARC
8
DEFAULT_255_1_234
10
15.8062643
20
-0.7102717
40
0.5801521
50
62.2515216
51
68.1220564
0
ARC
8
DEFAULT_255_1_234
10
15.6342554
20
-1.1330128
40
1.0365451
50
68.0062803
51
71.8053402
0
ARC
8
DEFAULT_255_1_234
10
15.4546926
20
-1.6715242
40
1.6042013
50
71.7183119
51
73.9258742
0
LINE
8
DEFAULT_255_1_234
10
17.2353463
20
-0.2802337
11
17.3903588
21
-0.2802337
0
LINE
8
DEFAULT_255_1_234
10
16.490001
20
-0.1212053
11
16.490001
21
-0.0087609
0
LINE
8
DEFAULT_255_1_234
10
17.3903588
20
0.1422357
11
17.2353463
21
0.1422357
0
LINE
8
DEFAULT_255_1_234
10
16.6450135
20
-0.0127768
11
16.6450135
21
-0.1260243
0
ARC
8
DEFAULT_255_1_234
10
16.8422975
20
-0.2205154
40
0.5513052
50
340.1774281
51
353.7814284
0
ARC
8
DEFAULT_255_1_234
10
16.9994327
20
-0.2790418
40
0.3836379
50
311.4558989
51
340.4421614
0
ARC
8
DEFAULT_255_1_234
10
16.9960996
20
-0.2679472
40
0.3941894
50
282.4333181
51
310.7513653
0
ARC
8
DEFAULT_255_1_234
10
16.9521735
20
-0.0864321
40
0.5809175
50
269.9358511
51
282.809604
0
ARC
8
DEFAULT_255_1_234
10
16.9469801
20
0.0593212
40
0.7266847
50
270.0021091
51
270.3581957
0
ARC
8
DEFAULT_255_1_234
10
16.9417218
20
-0.2007415
40
0.4666519
50
250.7884749
51
270.6489167
0
ARC
8
DEFAULT_255_1_234
10
16.9249053
20
-0.2644681
40
0.4009729
50
219.3627325
51
250.0611886
0
ARC
8
DEFAULT_255_1_234
10
17.0078264
20
-0.1939958
40
0.5097822
50
193.5479632
51
219.5756669
0
ARC
8
DEFAULT_255_1_234
10
17.2449884
20
-0.1324081
40
0.7547848
50
181.1218675
51
193.87563
0
ARC
8
DEFAULT_255_1_234
10
17.4520066
20
-0.121342
40
0.9620055
50
179.9918545
51
181.5394234
0
ARC
8
DEFAULT_255_1_234
10
17.2669168
20
-0.0050212
40
0.7769248
50
169.5837241
51
180.2757934
0
ARC
8
DEFAULT_255_1_234
10
17.0832106
20
0.0289229
40
0.590109
50
155.0365899
51
169.6003176
0
ARC
8
DEFAULT_255_1_234
10
16.969657
20
0.0836677
40
0.4640625
50
136.783148
51
155.2472683
0
ARC
8
DEFAULT_255_1_234
10
16.9307047
20
0.1167562
40
0.4130255
50
121.7633186
51
136.428115
0
ARC
8
DEFAULT_255_1_234
10
16.9442009
20
0.0918227
40
0.4413323
50
95.6459699
51
121.5490577
0
ARC
8
DEFAULT_255_1_234
10
16.9599291
20
-0.0190051
40
0.55319
50
89.924208
51
96.1377933
0
ARC
8
DEFAULT_255_1_234
10
16.9649724
20
-0.0071458
40
0.5413475
50
76.6779277
51
90.4563316
0
ARC
8
DEFAULT_255_1_234
10
17.0043347
20
0.1519114
40
0.3775041
50
47.485847
51
76.9287264
0
ARC
8
DEFAULT_255_1_234
10
16.989632
20
0.1419159
40
0.3948286
50
16.5424086
51
46.8933463
0
ARC
8
DEFAULT_255_1_234
10
16.8288477
20
0.0890861
40
0.564021
50
5.4072051
51
17.0365086
0
ARC
8
DEFAULT_255_1_234
10
16.6849494
20
0.0659679
40
0.5556559
50
7.8891745
51
15.9239216
0
ARC
8
DEFAULT_255_1_234
10
16.8836507
20
0.1236631
40
0.3487515
50
15.7653144
51
27.9410532
0
ARC
8
DEFAULT_255_1_234
10
16.9940725
20
0.182779
40
0.2235026
50
27.8166557
51
46.4008329
0
ARC
8
DEFAULT_255_1_234
10
16.9990368
20
0.1822082
40
0.2205286
50
47.4371857
51
75.0698205
0
ARC
8
DEFAULT_255_1_234
10
16.9681762
20
0.0747765
40
0.3322915
50
74.7008593
51
87.8124495
0
ARC
8
DEFAULT_255_1_234
10
16.960845
20
-0.0308156
40
0.4380987
50
87.3814673
51
90.0240855
0
ARC
8
DEFAULT_255_1_234
10
16.9569993
20
0.0869291
40
0.3203749
50
89.3451631
51
108.5745436
0
ARC
8
DEFAULT_255_1_234
10
16.9433098
20
0.1382908
40
0.2673494
50
109.2998449
51
143.3037509
0
ARC
8
DEFAULT_255_1_234
10
17.0195171
20
0.0796881
40
0.3634757
50
143.0753173
51
163.1916937
0
ARC
8
DEFAULT_255_1_234
10
17.2146898
20
0.0180967
40
0.5681262
50
162.9373603
51
174.6208611
0
ARC
8
DEFAULT_255_1_234
10
17.4772941
20
-0.010699
40
0.8322832
50
174.3419979
51
180.1430411
0
ARC
8
DEFAULT_255_1_234
10
17.3842097
20
-0.1301302
40
0.7392076
50
179.6817502
51
189.150529
0
ARC
8
DEFAULT_255_1_234
10
17.1341345
20
-0.171781
40
0.4856932
50
188.9910863
51
203.5773039
0
ARC
8
DEFAULT_255_1_234
10
17.0261678
20
-0.2165789
40
0.3688271
50
203.9077269
51
215.1312379
0
ARC
8
DEFAULT_255_1_234
10
16.9338772
20
-0.2881059
40
0.2522457
50
213.9071664
51
263.8849284
0
ARC
8
DEFAULT_255_1_234
10
16.9464101
20
-0.2096482
40
0.3316174
50
263.1758525
51
270.1031083
0
ARC
8
DEFAULT_255_1_234
10
16.9496192
20
-0.0849635
40
0.4563091
50
269.6719807
51
279.0609165
0
ARC
8
DEFAULT_255_1_234
10
16.9762961
20
-0.2462093
40
0.2928759
50
278.8750225
51
293.6346586
0
ARC
8
DEFAULT_255_1_234
10
17.0083169
20
-0.32141
40
0.2111472
50
293.8553404
51
310.0518804
0
ARC
8
DEFAULT_255_1_234
10
17.0088023
20
-0.3276484
40
0.2060917
50
311.0646779
51
332.0108348
0
ARC
8
DEFAULT_255_1_234
10
16.889575
20
-0.2619022
40
0.3422352
50
331.6588543
51
343.2878891
0
ARC
8
DEFAULT_255_1_234
10
16.6833264
20
-0.1985202
40
0.5580003
50
343.1446044
51
351.010618
0
ARC
8
DEFAULT_255_1_234
10
16.5291911
20
-0.1704129
40
0.7146438
50
350.7157277
51
351.1602153
0
LINE
8
DEFAULT_255_1_234
10
17.8867203
20
-0.0938974
11
17.8867203
21
-0.2151766
0
LINE
8
DEFAULT_255_1_234
10
17.8867203
20
-0.2151766
11
17.4947714
21
-0.2151766
0
LINE
8
DEFAULT_255_1_234
10
17.4947714
20
-0.2151766
11
17.4947714
21
-0.0938974
0
LINE
8
DEFAULT_255_1_234
10
17.4947714
20
-0.0938974
11
17.8867203
21
-0.0938974
0
LINE
8
DEFAULT_255_1_234
10
18.9179955
20
-0.068999
11
18.9179955
21
-0.4978938
0
LINE
8
DEFAULT_255_1_234
10
18.0168344
20
-0.1228116
11
18.0168344
21
-0.0208085
0
LINE
8
DEFAULT_255_1_234
10
18.9179955
20
0.1751659
11
18.7637861
21
0.1751659
0
LINE
8
DEFAULT_255_1_234
10
18.171847
20
-0.0167927
11
18.171847
21
-0.1123704
0
LINE
8
DEFAULT_255_1_234
10
18.7645893
20
-0.4569319
11
18.7645893
21
-0.1942941
0
LINE
8
DEFAULT_255_1_234
10
18.7645893
20
-0.1942941
11
18.4939197
21
-0.1942941
0
LINE
8
DEFAULT_255_1_234
10
18.4939197
20
-0.1942941
11
18.4939197
21
-0.068999
0
LINE
8
DEFAULT_255_1_234
10
18.4939197
20
-0.068999
11
18.9179955
21
-0.068999
0
ARC
8
DEFAULT_255_1_234
10
18.6348461
20
-0.2985604
40
0.3462765
50
295.8437914
51
324.8549609
0
ARC
8
DEFAULT_255_1_234
10
18.5932428
20
-0.2232433
40
0.4322211
50
291.5695085
51
296.4549398
0
ARC
8
DEFAULT_255_1_234
10
18.542168
20
-0.0867725
40
0.5779178
50
278.6622409
51
291.3045483
0
ARC
8
DEFAULT_255_1_234
10
18.5082171
20
0.1280408
40
0.7953952
50
270.020006
51
278.7494541
0
ARC
8
DEFAULT_255_1_234
10
18.5044095
20
0.2597036
40
0.927067
50
269.9969998
51
270.2524872
0
ARC
8
DEFAULT_255_1_234
10
18.5005808
20
-0.1486411
40
0.5187361
50
253.5786322
51
270.4175299
0
ARC
8
DEFAULT_255_1_234
10
18.4832464
20
-0.2157764
40
0.4494451
50
238.8203306
51
253.2788235
0
ARC
8
DEFAULT_255_1_234
10
18.4812837
20
-0.2208769
40
0.4440665
50
206.7883783
51
238.6962764
0
ARC
8
DEFAULT_255_1_234
10
18.5586747
20
-0.1744595
40
0.5341121
50
206.1129412
51
207.4916643
0
ARC
8
DEFAULT_255_1_234
10
18.6183663
20
-0.1490512
40
0.5989041
50
188.6921119
51
205.7821245
0
ARC
8
DEFAULT_255_1_234
10
18.8040024
20
-0.117477
40
0.7871862
50
180.3882829
51
188.9219216
0
ARC
8
DEFAULT_255_1_234
10
18.9267838
20
-0.0151536
40
0.909967
50
170.2024264
51
180.3560651
0
ARC
8
DEFAULT_255_1_234
10
18.6104356
20
0.0414237
40
0.5886083
50
154.2857445
51
170.3893044
0
ARC
8
DEFAULT_255_1_234
10
18.4822559
20
0.100095
40
0.4476743
50
139.8401567
51
153.9332699
0
ARC
8
DEFAULT_255_1_234
10
18.4463295
20
0.1288577
40
0.4016697
50
98.4190291
51
139.6707122
0
ARC
8
DEFAULT_255_1_234
10
18.4842813
20
-0.0556672
40
0.5898566
50
89.7659205
51
99.4415478
0
ARC
8
DEFAULT_255_1_234
10
18.4908063
20
-0.0491156
40
0.5833147
50
78.0551672
51
90.4042112
0
ARC
8
DEFAULT_255_1_234
10
18.5312573
20
0.1327644
40
0.3970055
50
54.6380464
51
78.3339173
0
ARC
8
DEFAULT_255_1_234
10
18.5502628
20
0.1647795
40
0.3599102
50
50.031736
51
54.1558201
0
ARC
8
DEFAULT_255_1_234
10
18.5395416
20
0.1551766
40
0.3741624
50
18.1092409
51
49.7180913
0
ARC
8
DEFAULT_255_1_234
10
18.3938616
20
0.1018089
40
0.5292424
50
7.9672797
51
18.6984571
0
ARC
8
DEFAULT_255_1_234
10
18.4089094
20
0.1141504
40
0.3600838
50
9.7557294
51
27.3215714
0
ARC
8
DEFAULT_255_1_234
10
18.5216566
20
0.1704912
40
0.2340608
50
27.7361077
51
84.5257964
0
ARC
8
DEFAULT_255_1_234
10
18.4888953
20
0.006164
40
0.4011215
50
82.106034
51
90.2001166
0
ARC
8
DEFAULT_255_1_234
10
18.483917
20
0.0569215
40
0.3503799
50
89.4150119
51
105.5823402
0
ARC
8
DEFAULT_255_1_234
10
18.4582168
20
0.1504867
40
0.2533503
50
105.6678618
51
144.2648758
0
ARC
8
DEFAULT_255_1_234
10
18.5475424
20
0.0869289
40
0.3629787
50
144.3561283
51
162.8564086
0
ARC
8
DEFAULT_255_1_234
10
18.7559333
20
0.0200017
40
0.5818441
50
162.6076014
51
173.6780284
0
ARC
8
DEFAULT_255_1_234
10
19.0620476
20
-0.017211
40
0.8902007
50
173.4670142
51
179.9730753
0
ARC
8
DEFAULT_255_1_234
10
18.8712147
20
-0.116574
40
0.6993804
50
179.6556203
51
190.0080463
0
ARC
8
DEFAULT_255_1_234
10
18.6395976
20
-0.1590625
40
0.4639066
50
189.8116607
51
206.6796816
0
ARC
8
DEFAULT_255_1_234
10
18.5551129
20
-0.1984497
40
0.3707421
50
207.1031645
51
217.7074368
0
ARC
8
DEFAULT_255_1_234
10
18.4916817
20
-0.2536441
40
0.2868417
50
216.7345547
51
265.6812148
0
ARC
8
DEFAULT_255_1_234
10
18.5047608
20
-0.1632145
40
0.3780509
50
264.7366618
51
270.0611241
0
ARC
8
DEFAULT_255_1_234
10
18.5070871
20
0.1208111
40
0.662079
50
269.8335834
51
276.0539546
0
ARC
8
DEFAULT_255_1_234
10
18.5277876
20
-0.069344
40
0.4708016
50
275.9894168
51
284.4615085
0
ARC
8
DEFAULT_255_1_234
10
18.5475883
20
-0.1526337
40
0.3852094
50
284.7034461
51
286.4953897
0
ARC
8
DEFAULT_255_1_234
10
18.5882896
20
-0.2837035
40
0.2479842
50
286.0770838
51
304.2625829
0
ARC
8
DEFAULT_255_1_234
10
18.601631
20
-0.3055406
40
0.2224291
50
304.5891602
51
317.1073298
0
LINE
8
DEFAULT_255_1_234
10
10.5200823
20
78.9312341
11
10.5200823
21
78.0622
0
LINE
8
DEFAULT_255_1_234
10
10.5200823
20
78.0622
11
10.3714951
21
78.0622
0
LINE
8
DEFAULT_255_1_234
10
10.3714951
20
78.0622
11
10.3714951
21
78.9312341
0
LINE
8
DEFAULT_255_1_234
10
10.3714951
20
78.9312341
11
10.5200823
21
78.9312341
0
ARC
8
DEFAULT_255_1_234
10
10.45731
20
79.1626889
40
0.097867
50
161.415052
51
180.5526306
0
ARC
8
DEFAULT_255_1_234
10
10.4448878
20
79.1661077
40
0.0850062
50
138.1827368
51
160.9307106
0
ARC
8
DEFAULT_255_1_234
10
10.4338824
20
79.1756588
40
0.0704362
50
104.6368899
51
138.0039868
0
ARC
8
DEFAULT_255_1_234
10
10.4445978
20
79.1389963
40
0.1086221
50
92.0600725
51
105.2189128
0
ARC
8
DEFAULT_255_1_234
10
10.4469327
20
79.1047117
40
0.1429728
50
89.9756393
51
92.5012496
0
ARC
8
DEFAULT_255_1_234
10
10.4479346
20
79.1272731
40
0.1204151
50
78.0235316
51
90.4478182
0
ARC
8
DEFAULT_255_1_234
10
10.4571438
20
79.1686295
40
0.0780493
50
55.051506
51
78.3369085
0
ARC
8
DEFAULT_255_1_234
10
10.4621712
20
79.1770711
40
0.0682538
50
42.0501187
51
54.4513741
0
ARC
8
DEFAULT_255_1_234
10
10.448658
20
79.1646798
40
0.0865878
50
1.7497075
51
42.1496013
0
ARC
8
DEFAULT_255_1_234
10
10.4231912
20
79.1617738
40
0.1121515
50
359.9852656
51
2.8364544
0
ARC
8
DEFAULT_255_1_234
10
10.4397905
20
79.1608229
40
0.0955566
50
342.1070653
51
0.552888
0
ARC
8
DEFAULT_255_1_234
10
10.4540602
20
79.1568904
40
0.0807713
50
316.7107116
51
341.6516965
0
ARC
8
DEFAULT_255_1_234
10
10.4607639
20
79.1508823
40
0.0717724
50
285.4397031
51
316.5324284
0
ARC
8
DEFAULT_255_1_234
10
10.4497556
20
79.1874554
40
0.1099597
50
272.3547054
51
285.8953117
0
ARC
8
DEFAULT_255_1_234
10
10.4470714
20
79.2240048
40
0.1465932
50
269.9695369
51
272.8160237
0
ARC
8
DEFAULT_255_1_234
10
10.4460896
20
79.2020863
40
0.1246779
50
258.8431134
51
270.4153935
0
ARC
8
DEFAULT_255_1_234
10
10.4370938
20
79.1585414
40
0.0802162
50
238.5431189
51
259.1288175
0
ARC
8
DEFAULT_255_1_234
10
10.4302823
20
79.1461856
40
0.0661247
50
222.5062634
51
237.9906969
0
ARC
8
DEFAULT_255_1_234
10
10.443041
20
79.1577889
40
0.0833707
50
184.1069131
51
222.460413
0
ARC
8
DEFAULT_255_1_234
10
10.4699651
20
79.1616349
40
0.1105176
50
179.9429482
51
185.0960898
0
LINE
8
DEFAULT_255_1_234
10
11.6742431
20
78.6838565
11
11.6742431
21
78.6091614
0
LINE
8
DEFAULT_255_1_234
10
11.4694337
20
78.1256507
11
11.6782589
21
77.9618033
0
LINE
8
DEFAULT_255_1_234
10
11.6782589
20
77.9618033
11
11.5730432
21
77.8646192
0
LINE
8
DEFAULT_255_1_234
10
11.5730432
20
77.8646192
11
11.3264688
21
78.0605937
0
LINE
8
DEFAULT_255_1_234
10
10.7329233
20
78.5987201
11
10.7329233
21
78.6830534
0
LINE
8
DEFAULT_255_1_234
10
11.5200337
20
78.5979169
11
11.5200337
21
78.6846597
0
LINE
8
DEFAULT_255_1_234
10
10.8871327
20
78.695101
11
10.8871327
21
78.6091614
0
ARC
8
DEFAULT_255_1_234
10
10.7788682
20
78.6052707
40
0.8953833
50
351.453011
51
0.2489685
0
ARC
8
DEFAULT_255_1_234
10
11.0373483
20
78.5652933
40
0.6338333
50
338.6861641
51
351.5540711
0
ARC
8
DEFAULT_255_1_234
10
11.1307367
20
78.5322828
40
0.5348431
50
336.2887631
51
338.3442418
0
ARC
8
DEFAULT_255_1_234
10
11.1646989
20
78.5136698
40
0.4962747
50
321.1170344
51
336.6795229
0
ARC
8
DEFAULT_255_1_234
10
11.2278818
20
78.4650206
40
0.4165565
50
305.4419708
51
320.8705636
0
ARC
8
DEFAULT_255_1_234
10
11.2082288
20
78.5397707
40
0.4935497
50
271.6373023
51
283.8611969
0
ARC
8
DEFAULT_255_1_234
10
11.2044541
20
78.6053572
40
0.5592206
50
269.9930596
51
271.8318864
0
ARC
8
DEFAULT_255_1_234
10
11.2006984
20
78.5245681
40
0.4784458
50
252.5219675
51
270.4416499
0
ARC
8
DEFAULT_255_1_234
10
11.1863243
20
78.4706592
40
0.422716
50
237.5352116
51
252.1857531
0
ARC
8
DEFAULT_255_1_234
10
11.1952439
20
78.4820363
40
0.4371052
50
209.063312
51
237.3492538
0
ARC
8
DEFAULT_255_1_234
10
11.2822287
20
78.5366685
40
0.5397041
50
205.1183774
51
209.6470015
0
ARC
8
DEFAULT_255_1_234
10
11.3619324
20
78.570483
40
0.6262326
50
188.7215458
51
204.8240747
0
ARC
8
DEFAULT_255_1_234
10
11.5616852
20
78.6041067
40
0.8287794
50
180.3723947
51
188.9252049
0
ARC
8
DEFAULT_255_1_234
10
11.5589604
20
78.6870402
40
0.8260467
50
169.5253763
51
180.2765336
0
ARC
8
DEFAULT_255_1_234
10
11.3687053
20
78.7220309
40
0.6326007
50
155.8315255
51
169.5089989
0
ARC
8
DEFAULT_255_1_234
10
11.2406554
20
78.7814348
40
0.4914567
50
139.6258461
51
156.0379525
0
ARC
8
DEFAULT_255_1_234
10
11.1816887
20
78.8288799
40
0.4158054
50
122.6416387
51
139.3430715
0
ARC
8
DEFAULT_255_1_234
10
11.1917507
20
78.8105451
40
0.4366739
50
93.0223692
51
122.455762
0
ARC
8
DEFAULT_255_1_234
10
11.2025504
20
78.7140709
40
0.5336137
50
89.975342
51
93.6341897
0
ARC
8
DEFAULT_255_1_234
10
11.206439
20
78.7520375
40
0.4956606
50
73.9665422
51
90.4229648
0
ARC
8
DEFAULT_255_1_234
10
11.2248037
20
78.8235451
40
0.4218674
50
57.5178019
51
73.6813337
0
ARC
8
DEFAULT_255_1_234
10
11.220382
20
78.8199462
40
0.4272816
50
28.7261108
51
57.2767933
0
ARC
8
DEFAULT_255_1_234
10
11.1293152
20
78.7636688
40
0.534218
50
24.2448911
51
29.3248482
0
ARC
8
DEFAULT_255_1_234
10
11.0367253
20
78.7253819
40
0.6343711
50
9.064382
51
23.9639114
0
ARC
8
DEFAULT_255_1_234
10
10.8111581
20
78.6874925
40
0.8630926
50
359.7586264
51
9.1891435
0
ARC
8
DEFAULT_255_1_234
10
10.6857061
20
78.6888343
40
0.834338
50
359.7133237
51
7.96545
0
ARC
8
DEFAULT_255_1_234
10
10.9819278
20
78.7315681
40
0.5350538
50
7.8291991
51
20.0421623
0
ARC
8
DEFAULT_255_1_234
10
11.1443841
20
78.7906606
40
0.3621841
50
20.0677553
51
35.9161685
0
ARC
8
DEFAULT_255_1_234
10
11.2218879
20
78.848267
40
0.2656263
50
35.6594382
51
85.1578074
0
ARC
8
DEFAULT_255_1_234
10
11.2034135
20
78.7367378
40
0.3784238
50
83.7959068
51
90.095906
0
ARC
8
DEFAULT_255_1_234
10
11.1991069
20
78.8100601
40
0.3051229
50
89.3102392
51
109.9889877
0
ARC
8
DEFAULT_255_1_234
10
11.1908552
20
78.8456433
40
0.2688988
50
110.9285147
51
143.9411762
0
ARC
8
DEFAULT_255_1_234
10
11.2839498
20
78.7744236
40
0.3860887
50
143.5289163
51
163.2980757
0
ARC
8
DEFAULT_255_1_234
10
11.4747319
20
78.7144433
40
0.5860659
50
163.0418846
51
174.3140048
0
ARC
8
DEFAULT_255_1_234
10
11.7151431
20
78.6866854
40
0.8280531
50
174.0509143
51
179.4176892
0
ARC
8
DEFAULT_255_1_234
10
11.6637766
20
78.6048634
40
0.7766558
50
179.6829237
51
188.9631324
0
ARC
8
DEFAULT_255_1_234
10
11.3967327
20
78.5613752
40
0.5060992
50
188.8100743
51
202.9300012
0
ARC
8
DEFAULT_255_1_234
10
11.2750956
20
78.5118855
40
0.3747967
50
203.2069261
51
215.7876482
0
ARC
8
DEFAULT_255_1_234
10
11.1902353
20
78.4447671
40
0.2667526
50
214.7521006
51
264.2834488
0
ARC
8
DEFAULT_255_1_234
10
11.2038008
20
78.530278
40
0.3532247
50
263.4755397
51
270.0949833
0
ARC
8
DEFAULT_255_1_234
10
11.2080119
20
78.5041374
40
0.3271036
50
269.3649385
51
287.5152008
0
ARC
8
DEFAULT_255_1_234
10
11.2258277
20
78.4394238
40
0.2600406
50
288.0630309
51
323.8113348
0
ARC
8
DEFAULT_255_1_234
10
11.1387119
20
78.5044049
40
0.3687189
50
323.6547608
51
342.6590488
0
ARC
8
DEFAULT_255_1_234
10
10.9355734
20
78.5704952
40
0.5823286
50
342.4091907
51
353.6451149
0
ARC
8
DEFAULT_255_1_234
10
10.6524244
20
78.605719
40
0.8676442
50
353.4029884
51
359.4847795
0
LINE
8
DEFAULT_255_1_234
10
12.1979124
20
78.6196026
11
12.1979124
21
78.4983234
0
LINE
8
DEFAULT_255_1_234
10
12.1979124
20
78.4983234
11
11.8059636
21
78.4983234
0
LINE
8
DEFAULT_255_1_234
10
11.8059636
20
78.4983234
11
11.8059636
21
78.6196026
0
LINE
8
DEFAULT_255_1_234
10
11.8059636
20
78.6196026
11
12.1979124
21
78.6196026
0
LINE
8
DEFAULT_255_1_234
10
13.0107243
20
78.7047391
11
13.0107243
21
78.5786408
0
LINE
8
DEFAULT_255_1_234
10
13.0107243
20
78.5786408
11
12.5199851
21
78.5786408
0
LINE
8
DEFAULT_255_1_234
10
12.5199851
20
78.5786408
11
12.5199851
21
78.0622
0
LINE
8
DEFAULT_255_1_234
10
12.5199851
20
78.0622
11
12.3657757
21
78.0622
0
LINE
8
DEFAULT_255_1_234
10
12.3657757
20
78.0622
11
12.3657757
21
79.2316211
0
LINE
8
DEFAULT_255_1_234
10
12.3657757
20
79.2316211
11
13.0902385
21
79.2316211
0
LINE
8
DEFAULT_255_1_234
10
13.0902385
20
79.2316211
11
13.0902385
21
79.1047196
0
LINE
8
DEFAULT_255_1_234
10
13.0902385
20
79.1047196
11
12.5199851
21
79.1047196
0
LINE
8
DEFAULT_255_1_234
10
12.5199851
20
79.1047196
11
12.5199851
21
78.7047391
0
LINE
8
DEFAULT_255_1_234
10
12.5199851
20
78.7047391
11
13.0107243
21
78.7047391
0
LINE
8
DEFAULT_255_1_234
10
14.4580436
20
78.8934849
11
14.303031
21
78.8934849
0
LINE
8
DEFAULT_255_1_234
10
13.6106952
20
78.4011394
11
13.7657077
21
78.4011394
0
ARC
8
DEFAULT_255_1_234
10
14.3689123
20
79.7881768
40
1.252368
50
248.9199003
51
254.1439814
0
ARC
8
DEFAULT_255_1_234
10
14.2008618
20
79.3555234
40
0.788226
50
241.633709
51
249.0064503
0
ARC
8
DEFAULT_255_1_234
10
14.0480012
20
79.0754317
40
0.4691427
50
230.498225
51
241.8087113
0
ARC
8
DEFAULT_255_1_234
10
13.9695586
20
78.9754906
40
0.3421437
50
227.4064532
51
229.9881192
0
ARC
8
DEFAULT_255_1_234
10
13.9208107
20
78.9279088
40
0.2741476
50
200.6781896
51
228.1763934
0
ARC
8
DEFAULT_255_1_234
10
13.9280418
20
78.9264077
40
0.2804109
50
179.5061581
51
199.8694617
0
ARC
8
DEFAULT_255_1_234
10
13.9271169
20
78.933821
40
0.2795204
50
132.4834203
51
181.0242172
0
ARC
8
DEFAULT_255_1_234
10
13.9866752
20
78.8775704
40
0.3612768
50
129.2532479
51
133.4242687
0
ARC
8
DEFAULT_255_1_234
10
14.0013201
20
78.8555965
40
0.3875675
50
101.98776
51
128.8742646
0
ARC
8
DEFAULT_255_1_234
10
14.0411812
20
78.6834741
40
0.5642249
50
89.5906553
51
102.3169264
0
ARC
8
DEFAULT_255_1_234
10
14.0482304
20
78.7153148
40
0.5323783
50
77.2360837
51
90.3248275
0
ARC
8
DEFAULT_255_1_234
10
14.0689383
20
78.81204
40
0.4334697
50
63.837784
51
77.0809408
0
ARC
8
DEFAULT_255_1_234
10
14.0967145
20
78.8637911
40
0.3747796
50
45.9864267
51
64.1607727
0
ARC
8
DEFAULT_255_1_234
10
14.1228026
20
78.8935866
40
0.3352302
50
32.2747395
51
45.6547121
0
ARC
8
DEFAULT_255_1_234
10
14.1294467
20
78.895488
40
0.328603
50
359.6507365
51
32.6130309
0
ARC
8
DEFAULT_255_1_234
10
14.0351562
20
78.895966
40
0.2678863
50
359.469343
51
14.9832209
0
ARC
8
DEFAULT_255_1_234
10
14.1056625
20
78.9148539
40
0.1948938
50
14.9781179
51
48.2004265
0
ARC
8
DEFAULT_255_1_234
10
14.0892269
20
78.8941983
40
0.2212521
50
48.5927837
51
74.1241538
0
ARC
8
DEFAULT_255_1_234
10
14.0558758
20
78.7841248
40
0.3362561
50
73.7888341
51
86.6652678
0
ARC
8
DEFAULT_255_1_234
10
14.0456324
20
78.6633881
40
0.4573953
50
86.2640471
51
90.0526343
0
ARC
8
DEFAULT_255_1_234
10
14.0428037
20
78.7029192
40
0.4178709
50
89.6697524
51
99.2309573
0
ARC
8
DEFAULT_255_1_234
10
14.0185487
20
78.8473964
40
0.2713749
50
99.069534
51
113.7658566
0
ARC
8
DEFAULT_255_1_234
10
13.9911679
20
78.9119677
40
0.2012469
50
114.0401004
51
127.9850673
0
ARC
8
DEFAULT_255_1_234
10
13.9671242
20
78.941573
40
0.1631167
50
127.7287463
51
176.7105154
0
ARC
8
DEFAULT_255_1_234
10
14.034996
20
78.9314693
40
0.2315392
50
175.1779447
51
180.0581938
0
ARC
8
DEFAULT_255_1_234
10
13.9506807
20
78.9302428
40
0.1472271
50
179.6142195
51
228.1246017
0
ARC
8
DEFAULT_255_1_234
10
13.9948475
20
78.9711308
40
0.2072299
50
226.5779593
51
230.8800004
0
ARC
8
DEFAULT_255_1_234
10
14.0419554
20
79.0336636
40
0.2854818
50
231.4635071
51
241.9260842
0
ARC
8
DEFAULT_255_1_234
10
14.1616732
20
79.25398
40
0.53622
50
241.7178533
51
248.3259551
0
ARC
8
DEFAULT_255_1_234
10
14.3002104
20
79.5972064
40
0.9063478
50
248.2007737
51
252.4528373
0
ARC
8
DEFAULT_255_1_234
10
14.4205829
20
79.9693441
40
1.2974635
50
252.3391078
51
254.3469452
0
ARC
8
DEFAULT_255_1_234
10
13.6663531
20
77.2716148
40
1.5037162
50
71.0197183
51
74.4087047
0
ARC
8
DEFAULT_255_1_234
10
13.8358217
20
77.7608111
40
0.9859993
50
66.1847285
51
71.086374
0
ARC
8
DEFAULT_255_1_234
10
13.9914529
20
78.11122
40
0.6025855
50
59.3536294
51
66.2691831
0
ARC
8
DEFAULT_255_1_234
10
14.0803181
20
78.2615609
40
0.4279449
50
49.1020879
51
59.3293958
0
ARC
8
DEFAULT_255_1_234
10
14.1621921
20
78.3548834
40
0.3038015
50
32.7919921
51
49.2505539
0
ARC
8
DEFAULT_255_1_234
10
14.1943011
20
78.3777191
40
0.264448
50
31.1181161
51
32.4005348
0
ARC
8
DEFAULT_255_1_234
10
14.1854549
20
78.3741779
40
0.2738556
50
8.1116974
51
30.7958831
0
ARC
8
DEFAULT_255_1_234
10
14.1044217
20
78.3603753
40
0.3560327
50
359.8389159
51
8.4706516
0
ARC
8
DEFAULT_255_1_234
10
14.1670008
20
78.3555137
40
0.2934776
50
337.4731098
51
0.7537279
0
ARC
8
DEFAULT_255_1_234
10
14.1848703
20
78.3535387
40
0.2762607
50
307.5917067
51
336.4315538
0
ARC
8
DEFAULT_255_1_234
10
14.1388531
20
78.4048102
40
0.3449979
50
307.6551545
51
308.4529766
0
ARC
8
DEFAULT_255_1_234
10
14.115825
20
78.440325
40
0.3871988
50
284.3734338
51
307.1424381
0
ARC
8
DEFAULT_255_1_234
10
14.066308
20
78.6224932
40
0.5759636
50
272.4382747
51
284.646547
0
ARC
8
DEFAULT_255_1_234
10
14.0536289
20
78.8024893
40
0.7563528
50
269.9708387
51
272.8178037
0
ARC
8
DEFAULT_255_1_234
10
14.0493329
20
78.5986716
40
0.5525489
50
248.2707594
51
270.4055579
0
ARC
8
DEFAULT_255_1_234
10
14.043907
20
78.5796192
40
0.5328452
50
246.1383403
51
248.0542782
0
ARC
8
DEFAULT_255_1_234
10
14.0020449
20
78.4916843
40
0.4355005
50
233.1670131
51
246.4950969
0
ARC
8
DEFAULT_255_1_234
10
13.9466354
20
78.4168812
40
0.3424126
50
215.3403242
51
233.0843104
0
ARC
8
DEFAULT_255_1_234
10
13.9193785
20
78.3970549
40
0.3087104
50
179.2419209
51
215.2648451
0
ARC
8
DEFAULT_255_1_234
10
13.9961379
20
78.3984666
40
0.2304457
50
179.335461
51
199.1045811
0
ARC
8
DEFAULT_255_1_234
10
13.9629055
20
78.3897766
40
0.1962176
50
199.8828939
51
232.7063202
0
ARC
8
DEFAULT_255_1_234
10
14.0101324
20
78.4491788
40
0.2720938
50
232.3738199
51
255.5136649
0
ARC
8
DEFAULT_255_1_234
10
14.044219
20
78.5735835
40
0.4010747
50
255.2446292
51
267.5320849
0
ARC
8
DEFAULT_255_1_234
10
14.0529814
20
78.6968702
40
0.5246356
50
267.1557994
51
270.0286766
0
ARC
8
DEFAULT_255_1_234
10
14.0557586
20
78.652495
40
0.4802668
50
269.7000017
51
278.1660162
0
ARC
8
DEFAULT_255_1_234
10
14.0813591
20
78.4794515
40
0.3053425
50
278.0231263
51
290.625471
0
ARC
8
DEFAULT_255_1_234
10
14.1161278
20
78.3867025
40
0.206291
50
290.6619762
51
307.0370976
0
ARC
8
DEFAULT_255_1_234
10
14.1461667
20
78.3498504
40
0.1587906
50
306.3943566
51
355.3030547
0
ARC
8
DEFAULT_255_1_234
10
14.0949599
20
78.3575113
40
0.2104809
50
354.3660432
51
0.0698737
0
ARC
8
DEFAULT_255_1_234
10
14.1091944
20
78.3597617
40
0.1962563
50
359.417946
51
16.1971788
0
ARC
8
DEFAULT_255_1_234
10
14.1547254
20
78.3722418
40
0.149053
50
16.4723299
51
52.6262157
0
ARC
8
DEFAULT_255_1_234
10
14.0726308
20
78.2638433
40
0.2850296
50
52.7386432
51
62.4979148
0
ARC
8
DEFAULT_255_1_234
10
13.9341385
20
78.0032283
40
0.5801521
50
62.2515216
51
68.1220564
0
ARC
8
DEFAULT_255_1_234
10
13.7621296
20
77.5804872
40
1.0365451
50
68.0062803
51
71.8053402
0
ARC
8
DEFAULT_255_1_234
10
13.5825667
20
77.0419758
40
1.6042013
50
71.7183119
51
73.9258742
0
LINE
8
DEFAULT_255_1_234
10
14.5969926
20
78.4726218
11
14.5969926
21
78.4999297
0
LINE
8
DEFAULT_255_1_234
10
15.3343062
20
78.5159932
11
15.3343062
21
78.4541488
0
LINE
8
DEFAULT_255_1_234
10
15.3343062
20
78.4541488
11
14.7455798
21
78.4541488
0
LINE
8
DEFAULT_255_1_234
10
15.2323031
20
78.2846792
11
15.3230618
21
78.2139999
0
LINE
8
DEFAULT_255_1_234
10
14.7503988
20
78.5762313
11
15.185719
21
78.5762313
0
LINE
8
DEFAULT_255_1_234
10
15.185719
20
78.5762313
11
15.185719
21
78.5874757
0
ARC
8
DEFAULT_255_1_234
10
14.9909291
20
78.4837332
40
0.4376191
50
252.3266134
51
270.5810217
0
ARC
8
DEFAULT_255_1_234
10
14.9704381
20
78.4096644
40
0.3608374
50
223.3000567
51
251.8561855
0
ARC
8
DEFAULT_255_1_234
10
14.9915741
20
78.4301937
40
0.3902993
50
190.9374509
51
223.3654032
0
ARC
8
DEFAULT_255_1_234
10
15.1640713
20
78.4691885
40
0.5670891
50
179.6531105
51
191.4989439
0
ARC
8
DEFAULT_255_1_234
10
15.1762726
20
78.5031417
40
0.5792888
50
167.4007466
51
180.3176909
0
ARC
8
DEFAULT_255_1_234
10
15.0710787
20
78.5253885
40
0.471777
50
154.1835823
51
167.250763
0
ARC
8
DEFAULT_255_1_234
10
15.0079255
20
78.5586417
40
0.4004528
50
134.3149965
51
154.5315275
0
ARC
8
DEFAULT_255_1_234
10
14.986175
20
78.5777228
40
0.371612
50
122.8616532
51
133.9707695
0
ARC
8
DEFAULT_255_1_234
10
14.9758324
20
78.5999703
40
0.3473289
50
89.8249009
51
123.4199222
0
ARC
8
DEFAULT_255_1_234
10
14.9808365
20
78.5352967
40
0.4120197
50
74.7876118
51
90.5482747
0
ARC
8
DEFAULT_255_1_234
10
15.0102108
20
78.643803
40
0.2996077
50
39.8178249
51
74.7633718
0
ARC
8
DEFAULT_255_1_234
10
14.9589428
20
78.6038351
40
0.3645855
50
16.8990863
51
39.4829761
0
ARC
8
DEFAULT_255_1_234
10
14.7694725
20
78.5431526
40
0.5635218
50
4.9636328
51
17.2026414
0
ARC
8
DEFAULT_255_1_234
10
14.5276795
20
78.517634
40
0.8066286
50
359.8834553
51
5.2834307
0
ARC
8
DEFAULT_255_1_234
10
15.1314319
20
78.4607803
40
0.3859091
50
180.9846213
51
194.9401313
0
ARC
8
DEFAULT_255_1_234
10
15.0264597
20
78.4320849
40
0.2770883
50
194.80314
51
222.0412631
0
ARC
8
DEFAULT_255_1_234
10
14.9960479
20
78.4019116
40
0.2343055
50
221.5417084
51
268.8614402
0
ARC
8
DEFAULT_255_1_234
10
15.0033474
20
78.4695686
40
0.3021528
50
267.732405
51
270.0097136
0
ARC
8
DEFAULT_255_1_234
10
15.0051284
20
78.4897105
40
0.3222994
50
269.6924892
51
280.4117579
0
ARC
8
DEFAULT_255_1_234
10
15.0227691
20
78.3978193
40
0.2287344
50
280.2255091
51
298.6338936
0
ARC
8
DEFAULT_255_1_234
10
15.0344483
20
78.3734223
40
0.2017294
50
299.0430333
51
300.4643464
0
ARC
8
DEFAULT_255_1_234
10
14.9664488
20
78.4868038
40
0.3339357
50
300.6577328
51
322.0378878
0
ARC
8
DEFAULT_255_1_234
10
14.9314027
20
78.5172021
40
0.3802736
50
321.6750233
51
322.3046845
0
ARC
8
DEFAULT_255_1_234
10
15.0244988
20
78.400537
40
0.3520454
50
276.9728461
51
328.0035423
0
ARC
8
DEFAULT_255_1_234
10
14.9968041
20
78.5485841
40
0.5024498
50
269.8361028
51
278.0581756
0
ARC
8
DEFAULT_255_1_234
10
14.9740779
20
78.6230757
40
0.202159
50
89.2018686
51
117.2851756
0
ARC
8
DEFAULT_255_1_234
10
14.9793948
20
78.6188752
40
0.2083484
50
118.0551165
51
137.4540413
0
ARC
8
DEFAULT_255_1_234
10
15.0168688
20
78.5848304
40
0.2589774
50
137.5109581
51
158.8516286
0
ARC
8
DEFAULT_255_1_234
10
15.1306523
20
78.5389074
40
0.38167
50
158.5845963
51
170.1721436
0
ARC
8
DEFAULT_255_1_234
10
15.2475912
20
78.5156823
40
0.5008657
50
169.8376422
51
173.0566086
0
ARC
8
DEFAULT_255_1_234
10
14.7778986
20
78.5667509
40
0.4083467
50
2.9091802
51
12.8847116
0
ARC
8
DEFAULT_255_1_234
10
14.9149663
20
78.5990101
40
0.2675383
50
12.6957781
51
28.6404489
0
ARC
8
DEFAULT_255_1_234
10
14.9691334
20
78.6270458
40
0.2065654
50
29.0169854
51
41.1487595
0
ARC
8
DEFAULT_255_1_234
10
14.9894119
20
78.6447003
40
0.1796786
50
41.1646065
51
85.0013516
0
ARC
8
DEFAULT_255_1_234
10
14.9773216
20
78.5712431
40
0.2539726
50
83.7280015
51
90.0964893
0
LINE
8
DEFAULT_255_1_234
10
15.9262453
20
78.9360531
11
15.9262453
21
78.7979072
0
LINE
8
DEFAULT_255_1_234
10
15.6547726
20
78.6790375
11
15.6547726
21
78.0622
0
LINE
8
DEFAULT_255_1_234
10
15.6547726
20
78.0622
11
15.5061854
21
78.0622
0
LINE
8
DEFAULT_255_1_234
10
15.5061854
20
78.0622
11
15.5061854
21
78.9312341
0
LINE
8
DEFAULT_255_1_234
10
15.5061854
20
78.9312341
11
15.6507567
21
78.9312341
0
LINE
8
DEFAULT_255_1_234
10
15.6507567
20
78.9312341
11
15.6531662
21
78.8308374
0
ARC
8
DEFAULT_255_1_234
10
15.8595859
20
78.3919342
40
0.4114092
50
80.6754243
51
86.8932892
0
ARC
8
DEFAULT_255_1_234
10
15.8535393
20
78.29517
40
0.5083596
50
86.8038578
51
90.0431435
0
ARC
8
DEFAULT_255_1_234
10
15.8498374
20
78.5408866
40
0.2626638
50
89.2759698
51
106.6213787
0
ARC
8
DEFAULT_255_1_234
10
15.8293938
20
78.615183
40
0.1856317
50
107.1346045
51
157.6458115
0
ARC
8
DEFAULT_255_1_234
10
15.8985539
20
78.5768311
40
0.2643398
50
155.6586782
51
157.2539184
0
ARC
8
DEFAULT_255_1_234
10
15.8780741
20
78.6937157
40
0.2634121
50
127.8165941
51
148.6302098
0
ARC
8
DEFAULT_255_1_234
10
15.852721
20
78.7197218
40
0.2273596
50
91.3329982
51
126.7875809
0
ARC
8
DEFAULT_255_1_234
10
15.8603151
20
78.6482195
40
0.299078
50
89.986594
51
92.4688449
0
ARC
8
DEFAULT_255_1_234
10
15.8611546
20
78.6757078
40
0.2715908
50
85.3589899
51
90.1623399
0
ARC
8
DEFAULT_255_1_234
10
15.8696062
20
78.7761164
40
0.1708278
50
78.401942
51
85.4594656
0
ARC
8
DEFAULT_255_1_234
10
15.8840945
20
78.8452236
40
0.1002194
50
67.7858312
51
78.5728455
0
ARC
8
DEFAULT_255_1_234
10
15.8948798
20
78.8731887
40
0.0702548
50
63.4835954
51
67.3062642
0
LINE
8
DEFAULT_255_1_234
10
16.2242228
20
78.9312341
11
16.2242228
21
78.0622
0
LINE
8
DEFAULT_255_1_234
10
16.2242228
20
78.0622
11
16.0756356
21
78.0622
0
LINE
8
DEFAULT_255_1_234
10
16.0756356
20
78.0622
11
16.0756356
21
78.9312341
0
LINE
8
DEFAULT_255_1_234
10
16.0756356
20
78.9312341
11
16.2242228
21
78.9312341
0
ARC
8
DEFAULT_255_1_234
10
16.1614505
20
79.1626889
40
0.097867
50
161.415052
51
180.5526306
0
ARC
8
DEFAULT_255_1_234
10
16.1490283
20
79.1661077
40
0.0850062
50
138.1827368
51
160.9307106
0
ARC
8
DEFAULT_255_1_234
10
16.1380229
20
79.1756588
40
0.0704362
50
104.6368899
51
138.0039868
0
ARC
8
DEFAULT_255_1_234
10
16.1487384
20
79.1389963
40
0.1086221
50
92.0600725
51
105.2189128
0
ARC
8
DEFAULT_255_1_234
10
16.1510732
20
79.1047117
40
0.1429728
50
89.9756393
51
92.5012496
0
ARC
8
DEFAULT_255_1_234
10
16.1520751
20
79.1272731
40
0.1204151
50
78.0235316
51
90.4478182
0
ARC
8
DEFAULT_255_1_234
10
16.1612843
20
79.1686295
40
0.0780493
50
55.051506
51
78.3369085
0
ARC
8
DEFAULT_255_1_234
10
16.1663118
20
79.1770711
40
0.0682538
50
42.0501187
51
54.4513741
0
ARC
8
DEFAULT_255_1_234
10
16.1527985
20
79.1646798
40
0.0865878
50
1.7497075
51
42.1496013
0
ARC
8
DEFAULT_255_1_234
10
16.1273318
20
79.1617738
40
0.1121515
50
359.9852656
51
2.8364544
0
ARC
8
DEFAULT_255_1_234
10
16.143931
20
79.1608229
40
0.0955566
50
342.1070653
51
0.552888
0
ARC
8
DEFAULT_255_1_234
10
16.1582007
20
79.1568904
40
0.0807713
50
316.7107116
51
341.6516965
0
ARC
8
DEFAULT_255_1_234
10
16.1649044
20
79.1508823
40
0.0717724
50
285.4397031
51
316.5324284
0
ARC
8
DEFAULT_255_1_234
10
16.1538961
20
79.1874554
40
0.1099597
50
272.3547054
51
285.8953117
0
ARC
8
DEFAULT_255_1_234
10
16.1512119
20
79.2240048
40
0.1465932
50
269.9695369
51
272.8160237
0
ARC
8
DEFAULT_255_1_234
10
16.1502301
20
79.2020863
40
0.1246779
50
258.8431134
51
270.4153935
0
ARC
8
DEFAULT_255_1_234
10
16.1412343
20
79.1585414
40
0.0802162
50
238.5431189
51
259.1288175
0
ARC
8
DEFAULT_255_1_234
10
16.1344228
20
79.1461856
40
0.0661247
50
222.5062634
51
237.9906969
0
ARC
8
DEFAULT_255_1_234
10
16.1471815
20
79.1577889
40
0.0833707
50
184.1069131
51
222.460413
0
ARC
8
DEFAULT_255_1_234
10
16.1741056
20
79.1616349
40
0.1105176
50
179.9429482
51
185.0960898
0
LINE
8
DEFAULT_255_1_234
10
16.4242131
20
78.4726218
11
16.4242131
21
78.4999297
0
LINE
8
DEFAULT_255_1_234
10
17.1615267
20
78.5159932
11
17.1615267
21
78.4541488
0
LINE
8
DEFAULT_255_1_234
10
17.1615267
20
78.4541488
11
16.5728002
21
78.4541488
0
LINE
8
DEFAULT_255_1_234
10
17.0595236
20
78.2846792
11
17.1502822
21
78.2139999
0
LINE
8
DEFAULT_255_1_234
10
16.5776193
20
78.5762313
11
17.0129395
21
78.5762313
0
LINE
8
DEFAULT_255_1_234
10
17.0129395
20
78.5762313
11
17.0129395
21
78.5874757
0
ARC
8
DEFAULT_255_1_234
10
16.8181496
20
78.4837332
40
0.4376191
50
252.3266134
51
270.5810217
0
ARC
8
DEFAULT_255_1_234
10
16.7976585
20
78.4096644
40
0.3608374
50
223.3000567
51
251.8561855
0
ARC
8
DEFAULT_255_1_234
10
16.8187946
20
78.4301937
40
0.3902993
50
190.9374509
51
223.3654032
0
ARC
8
DEFAULT_255_1_234
10
16.9912918
20
78.4691885
40
0.5670891
50
179.6531105
51
191.4989439
0
ARC
8
DEFAULT_255_1_234
10
17.003493
20
78.5031417
40
0.5792888
50
167.4007466
51
180.3176909
0
ARC
8
DEFAULT_255_1_234
10
16.8982992
20
78.5253885
40
0.471777
50
154.1835823
51
167.250763
0
ARC
8
DEFAULT_255_1_234
10
16.8351459
20
78.5586417
40
0.4004528
50
134.3149965
51
154.5315275
0
ARC
8
DEFAULT_255_1_234
10
16.8133954
20
78.5777228
40
0.371612
50
122.8616532
51
133.9707695
0
ARC
8
DEFAULT_255_1_234
10
16.8030529
20
78.5999703
40
0.3473289
50
89.8249009
51
123.4199222
0
ARC
8
DEFAULT_255_1_234
10
16.8080569
20
78.5352967
40
0.4120197
50
74.7876118
51
90.5482747
0
ARC
8
DEFAULT_255_1_234
10
16.8374313
20
78.643803
40
0.2996077
50
39.8178249
51
74.7633718
0
ARC
8
DEFAULT_255_1_234
10
16.7861633
20
78.6038351
40
0.3645855
50
16.8990863
51
39.4829761
0
ARC
8
DEFAULT_255_1_234
10
16.5966929
20
78.5431526
40
0.5635218
50
4.9636328
51
17.2026414
0
ARC
8
DEFAULT_255_1_234
10
16.3548999
20
78.517634
40
0.8066286
50
359.8834553
51
5.2834307
0
ARC
8
DEFAULT_255_1_234
10
16.9586524
20
78.4607803
40
0.3859091
50
180.9846213
51
194.9401313
0
ARC
8
DEFAULT_255_1_234
10
16.8536802
20
78.4320849
40
0.2770883
50
194.80314
51
222.0412631
0
ARC
8
DEFAULT_255_1_234
10
16.8232684
20
78.4019116
40
0.2343055
50
221.5417084
51
268.8614402
0
ARC
8
DEFAULT_255_1_234
10
16.8305678
20
78.4695686
40
0.3021528
50
267.732405
51
270.0097136
0
ARC
8
DEFAULT_255_1_234
10
16.8323488
20
78.4897105
40
0.3222994
50
269.6924892
51
280.4117579
0
ARC
8
DEFAULT_255_1_234
10
16.8499895
20
78.3978193
40
0.2287344
50
280.2255091
51
298.6338936
0
ARC
8
DEFAULT_255_1_234
10
16.8616687
20
78.3734223
40
0.2017294
50
299.0430333
51
300.4643464
0
ARC
8
DEFAULT_255_1_234
10
16.7936693
20
78.4868038
40
0.3339357
50
300.6577328
51
322.0378878
0
ARC
8
DEFAULT_255_1_234
10
16.7586232
20
78.5172021
40
0.3802736
50
321.6750233
51
322.3046845
0
ARC
8
DEFAULT_255_1_234
10
16.8517193
20
78.400537
40
0.3520454
50
276.9728461
51
328.0035423
0
ARC
8
DEFAULT_255_1_234
10
16.8240246
20
78.5485841
40
0.5024498
50
269.8361028
51
278.0581756
0
ARC
8
DEFAULT_255_1_234
10
16.8012983
20
78.6230757
40
0.202159
50
89.2018686
51
117.2851756
0
ARC
8
DEFAULT_255_1_234
10
16.8066152
20
78.6188752
40
0.2083484
50
118.0551165
51
137.4540413
0
ARC
8
DEFAULT_255_1_234
10
16.8440892
20
78.5848304
40
0.2589774
50
137.5109581
51
158.8516286
0
ARC
8
DEFAULT_255_1_234
10
16.9578728
20
78.5389074
40
0.38167
50
158.5845963
51
170.1721436
0
ARC
8
DEFAULT_255_1_234
10
17.0748117
20
78.5156823
40
0.5008657
50
169.8376422
51
173.0566086
0
ARC
8
DEFAULT_255_1_234
10
16.6051191
20
78.5667509
40
0.4083467
50
2.9091802
51
12.8847116
0
ARC
8
DEFAULT_255_1_234
10
16.7421867
20
78.5990101
40
0.2675383
50
12.6957781
51
28.6404489
0
ARC
8
DEFAULT_255_1_234
10
16.7963538
20
78.6270458
40
0.2065654
50
29.0169854
51
41.1487595
0
ARC
8
DEFAULT_255_1_234
10
16.8166323
20
78.6447003
40
0.1796786
50
41.1646065
51
85.0013516
0
ARC
8
DEFAULT_255_1_234
10
16.804542
20
78.5712431
40
0.2539726
50
83.7280015
51
90.0964893
0
LINE
8
DEFAULT_255_1_234
10
17.9799608
20
78.6758248
11
17.8305705
21
78.6758248
0
LINE
8
DEFAULT_255_1_234
10
17.297263
20
78.3296569
11
17.4458502
21
78.3296569
0
ARC
8
DEFAULT_255_1_234
10
17.7117523
20
78.2941959
40
0.1276617
50
359.3334982
51
18.5871358
0
ARC
8
DEFAULT_255_1_234
10
17.7326161
20
78.2997133
40
0.1061371
50
19.3540742
51
54.6485071
0
ARC
8
DEFAULT_255_1_234
10
17.6822062
20
78.2301919
40
0.1920087
50
54.3827097
51
65.0622807
0
ARC
8
DEFAULT_255_1_234
10
17.6053459
20
78.06849
40
0.3710447
50
64.8282493
51
71.4200025
0
ARC
8
DEFAULT_255_1_234
10
17.5151334
20
77.8038107
40
0.6506741
50
71.3164301
51
75.8006402
0
ARC
8
DEFAULT_255_1_234
10
17.4310154
20
77.4797561
40
0.9854641
50
75.6809531
51
78.0061883
0
ARC
8
DEFAULT_255_1_234
10
17.8758687
20
79.577677
40
1.1591028
50
254.6901892
51
258.0466452
0
ARC
8
DEFAULT_255_1_234
10
17.7720596
20
79.2017781
40
0.7691345
50
249.9010773
51
254.755261
0
ARC
8
DEFAULT_255_1_234
10
17.6716938
20
78.9291982
40
0.478665
50
243.3097214
51
249.9709442
0
ARC
8
DEFAULT_255_1_234
10
17.6087959
20
78.8037778
40
0.3383568
50
234.4047477
51
243.2862168
0
ARC
8
DEFAULT_255_1_234
10
17.5465483
20
78.7178232
40
0.2322322
50
220.8667099
51
234.5493881
0
ARC
8
DEFAULT_255_1_234
10
17.5123423
20
78.6866817
40
0.1859923
50
214.3062465
51
220.5065136
0
ARC
8
DEFAULT_255_1_234
10
17.5097503
20
78.683588
40
0.1821108
50
186.912965
51
213.9618616
0
ARC
8
DEFAULT_255_1_234
10
17.5629597
20
78.6922009
40
0.2359799
50
179.8808832
51
187.4339886
0
ARC
8
DEFAULT_255_1_234
10
17.5474731
20
78.6942088
40
0.2204978
50
132.005434
51
180.3942919
0
ARC
8
DEFAULT_255_1_234
10
17.6131344
20
78.6336083
40
0.3095791
50
129.2319861
51
133.5302299
0
ARC
8
DEFAULT_255_1_234
10
17.6184852
20
78.6241928
40
0.3202615
50
100.4410011
51
128.9081242
0
ARC
8
DEFAULT_255_1_234
10
17.6458736
20
78.4956455
40
0.4516583
50
89.6985377
51
100.9026564
0
ARC
8
DEFAULT_255_1_234
10
17.6515778
20
78.4796166
40
0.4676928
50
77.6965325
51
90.4076836
0
ARC
8
DEFAULT_255_1_234
10
17.6846762
20
78.6223413
40
0.3211988
50
50.7276602
51
78.0399361
0
ARC
8
DEFAULT_255_1_234
10
17.7291221
20
78.6741296
40
0.2529778
50
25.7545084
51
51.0957453
0
ARC
8
DEFAULT_255_1_234
10
17.7292445
20
78.6791206
40
0.250738
50
359.2468627
51
24.7394243
0
ARC
8
DEFAULT_255_1_234
10
17.7007897
20
78.6762664
40
0.1297815
50
359.8050318
51
45.1544908
0
ARC
8
DEFAULT_255_1_234
10
17.6601039
20
78.6414794
40
0.1831883
50
43.8047702
51
49.6271585
0
ARC
8
DEFAULT_255_1_234
10
17.6608941
20
78.6415678
40
0.18261
50
49.7980766
51
82.1218353
0
ARC
8
DEFAULT_255_1_234
10
17.6489912
20
78.5768998
40
0.2483163
50
81.4465357
51
90.1710293
0
ARC
8
DEFAULT_255_1_234
10
17.6465515
20
78.524288
40
0.300932
50
89.6766211
51
99.1264602
0
ARC
8
DEFAULT_255_1_234
10
17.6293977
20
78.6276537
40
0.1961547
50
98.968313
51
113.4570237
0
ARC
8
DEFAULT_255_1_234
10
17.6098062
20
78.6744965
40
0.1453859
50
113.722589
51
127.4763106
0
ARC
8
DEFAULT_255_1_234
10
17.5929709
20
78.6945124
40
0.1192639
50
126.9083309
51
150.3165862
0
ARC
8
DEFAULT_255_1_234
10
17.5882041
20
78.6995981
40
0.112623
50
151.3635175
51
180.0701457
0
ARC
8
DEFAULT_255_1_234
10
17.6190826
20
78.697499
40
0.1435149
50
179.2169974
51
179.9954013
0
ARC
8
DEFAULT_255_1_234
10
17.5829883
20
78.6962056
40
0.1074286
50
179.3040112
51
198.4225446
0
ARC
8
DEFAULT_255_1_234
10
17.5638017
20
78.6912127
40
0.0876573
50
199.2895851
51
238.6034594
0
ARC
8
DEFAULT_255_1_234
10
17.6240863
20
78.785845
40
0.1998512
50
237.9846301
51
246.8744712
0
ARC
8
DEFAULT_255_1_234
10
17.7098808
20
78.9821205
40
0.4140547
50
246.6234531
51
251.8168941
0
ARC
8
DEFAULT_255_1_234
10
17.8129352
20
79.2915905
40
0.7402308
50
251.713434
51
255.0778414
0
ARC
8
DEFAULT_255_1_234
10
17.9328614
20
79.7382563
40
1.2027155
50
255.0367487
51
257.4705983
0
ARC
8
DEFAULT_255_1_234
10
17.4220624
20
77.4368863
40
1.1546601
50
73.6837552
51
77.5016755
0
ARC
8
DEFAULT_255_1_234
10
17.5309399
20
77.8068581
40
0.7690009
50
68.7044154
51
73.7249639
0
ARC
8
DEFAULT_255_1_234
10
17.621242
20
78.0395654
40
0.5193873
50
63.590599
51
68.6626804
0
ARC
8
DEFAULT_255_1_234
10
17.6983439
20
78.1933123
40
0.3473927
50
54.7106439
51
63.7013633
0
ARC
8
DEFAULT_255_1_234
10
17.7607893
20
78.28054
40
0.2401192
50
41.0622434
51
54.8487496
0
ARC
8
DEFAULT_255_1_234
10
17.794928
20
78.3118592
40
0.1938094
50
34.4950568
51
40.7105546
0
ARC
8
DEFAULT_255_1_234
10
17.7996087
20
78.3167078
40
0.1872106
50
9.3763373
51
34.0833615
0
ARC
8
DEFAULT_255_1_234
10
17.7342957
20
78.3041728
40
0.2536988
50
359.7694872
51
9.7663171
0
ARC
8
DEFAULT_255_1_234
10
17.7540458
20
78.2998764
40
0.2339696
50
335.8654732
51
0.8022045
0
ARC
8
DEFAULT_255_1_234
10
17.7615503
20
78.3012197
40
0.2277108
50
307.7357725
51
334.7849066
0
ARC
8
DEFAULT_255_1_234
10
17.7214678
20
78.3462645
40
0.2878951
50
307.0241536
51
308.5578354
0
ARC
8
DEFAULT_255_1_234
10
17.695701
20
78.3848801
40
0.3342515
50
282.9362969
51
306.5646424
0
ARC
8
DEFAULT_255_1_234
10
17.6595307
20
78.5316108
40
0.4853615
50
271.1026298
51
283.2200835
0
ARC
8
DEFAULT_255_1_234
10
17.6531551
20
78.6557418
40
0.6096052
50
269.9919117
51
271.4772449
0
ARC
8
DEFAULT_255_1_234
10
17.6505306
20
78.5479436
40
0.5018135
50
259.0723564
51
270.289833
0
ARC
8
DEFAULT_255_1_234
10
17.6293038
20
78.4362271
40
0.388099
50
245.4963068
51
259.0227342
0
ARC
8
DEFAULT_255_1_234
10
17.6014995
20
78.3780615
40
0.3236422
50
228.9684658
51
245.7044727
0
ARC
8
DEFAULT_255_1_234
10
17.5749438
20
78.3453575
40
0.2815426
50
214.4011705
51
228.6759915
0
ARC
8
DEFAULT_255_1_234
10
17.5460179
20
78.329529
40
0.2487548
50
179.9705531
51
215.1572795
0
ARC
8
DEFAULT_255_1_234
10
17.6160779
20
78.3368806
40
0.1703809
50
182.4299387
51
203.0329699
0
ARC
8
DEFAULT_255_1_234
10
17.5976437
20
78.3312396
40
0.1512226
50
203.798802
51
232.548466
0
ARC
8
DEFAULT_255_1_234
10
17.6252958
20
78.3663826
40
0.1959374
50
232.3782728
51
256.3934612
0
ARC
8
DEFAULT_255_1_234
10
17.6483319
20
78.4553842
40
0.2878639
50
256.104506
51
268.4626716
0
ARC
8
DEFAULT_255_1_234
10
17.6529804
20
78.5350487
40
0.3676329
50
268.0715632
51
270.0138206
0
ARC
8
DEFAULT_255_1_234
10
17.6548328
20
78.5078083
40
0.3403971
50
269.7031147
51
278.8341955
0
ARC
8
DEFAULT_255_1_234
10
17.6730422
20
78.3947876
40
0.2259217
50
278.6728789
51
292.8232582
0
ARC
8
DEFAULT_255_1_234
10
17.693096
20
78.3446449
40
0.171929
50
293.1452328
51
303.6655899
0
ARC
8
DEFAULT_255_1_234
10
17.7195839
20
78.3070204
40
0.1259367
50
303.1248165
51
321.742847
0
ARC
8
DEFAULT_255_1_234
10
17.7381719
20
78.2907156
40
0.1012531
50
322.4748573
51
1.1291126
0
LINE
8
DEFAULT_255_2_778
10
10.5738396
20
80.5868073
11
9.3932396
21
80.5868073
0
LINE
8
DEFAULT_255_2_778
10
9.3932396
20
80.5868073
11
9.9837396
21
81.6094073
0
LINE
8
DEFAULT_255_2_778
10
9.9837396
20
81.6094073
11
11.1643396
21
81.6094073
0
LINE
8
DEFAULT_255_2_778
10
11.1643396
20
81.6094073
11
10.5738396
21
80.5868073
0
LINE
8
DEFAULT_255_2_778
10
10.5738396
20
80.5868073
11
10.5738396
21
80.5868073
0
LINE
8
DEFAULT_255_2_778
10
11.7546396
20
80.5868073
11
12.9354396
21
80.5868073
0
LINE
8
DEFAULT_255_2_778
10
12.9354396
20
80.5868073
11
12.3451396
21
81.6094073
0
LINE
8
DEFAULT_255_2_778
10
12.3451396
20
81.6094073
11
11.1643396
21
81.6094073
0
LINE
8
DEFAULT_255_2_778
10
11.1643396
20
81.6094073
11
11.7546396
21
80.5868073
0
LINE
8
DEFAULT_255_2_778
10
11.7546396
20
80.5868073
11
11.7546396
21
80.5868073
0
LINE
8
DEFAULT_255_2_778
10
11.7545823
20
82.6320146
11
11.1642823
21
83.6546146
0
LINE
8
DEFAULT_255_2_778
10
11.1642823
20
83.6546146
11
10.5737823
21
82.6320146
0
LINE
8
DEFAULT_255_2_778
10
10.5737823
20
82.6320146
11
11.1642823
21
81.6094146
0
LINE
8
DEFAULT_255_2_778
10
11.1642823
20
81.6094146
11
11.7545823
21
82.6320146
0
LINE
8
DEFAULT_255_2_778
10
11.7545823
20
82.6320146
11
11.7545823
21
82.6320146
0
ARC
8
DEFAULT_255_2_778
10
16.5183731
20
82.2782426
40
0.5650491
50
268.7543645
51
289.1417717
0
ARC
8
DEFAULT_255_2_778
10
16.606208
20
82.0230531
40
0.2951681
50
289.2776255
51
3.7648372
0
ARC
8
DEFAULT_255_2_778
10
16.3901618
20
82.0496085
40
0.5106278
50
359.1949826
51
0.0020862
0
ARC
8
DEFAULT_255_2_778
10
16.547449
20
82.0355832
40
0.1541914
50
280.2616216
51
358.5297855
0
ARC
8
DEFAULT_255_2_778
10
16.5080075
20
82.148155
40
0.2726346
50
269.5969454
51
284.2065679
0
ARC
8
DEFAULT_255_2_778
10
16.4981967
20
82.1325316
40
0.2571258
50
246.5290903
51
271.7590909
0
ARC
8
DEFAULT_255_2_778
10
16.4527148
20
82.0245009
40
0.1399248
50
188.1071678
51
245.9934684
0
ARC
8
DEFAULT_255_2_778
10
16.4829007
20
82.0314617
40
0.1708111
50
179.9445314
51
188.990814
0
ARC
8
DEFAULT_255_2_778
10
16.4924507
20
82.0382849
40
0.3763411
50
178.2272621
51
205.8283807
0
ARC
8
DEFAULT_255_2_778
10
16.4132476
20
82.0205833
40
0.2979176
50
209.4028057
51
263.0375728
0
ARC
8
DEFAULT_255_2_778
10
16.5005111
20
82.3952629
40
0.6816586
50
259.5722942
51
270.4689037
0
ARC
8
DEFAULT_255_2_778
10
17.411252
20
82.4514767
40
0.1217154
50
2.0482843
51
87.015299
0
ARC
8
DEFAULT_255_2_778
10
17.4060617
20
82.4558852
40
0.126828
50
353.0600847
51
359.9737428
0
ARC
8
DEFAULT_255_2_778
10
17.4110442
20
82.4527555
40
0.1215295
50
270.5739762
51
354.2410513
0
ARC
8
DEFAULT_255_2_778
10
17.4065059
20
82.4889297
40
0.1578027
50
269.9941256
51
272.0902921
0
ARC
8
DEFAULT_255_2_778
10
17.414084
20
82.0380295
40
0.1400686
50
358.2807293
51
95.6106825
0
ARC
8
DEFAULT_255_2_778
10
17.4103233
20
82.0341963
40
0.1437669
50
266.9962473
51
359.8528392
0
ARC
8
DEFAULT_255_2_778
10
17.4725249
20
82.0744988
40
0.3335288
50
268.2414507
51
302.0223478
0
ARC
8
DEFAULT_255_2_778
10
17.5091261
20
81.999183
40
0.2504234
50
304.0600275
51
2.0468005
0
ARC
8
DEFAULT_255_2_778
10
17.4832788
20
82.0058521
40
0.2761203
50
0.4720601
51
65.8403529
0
ARC
8
DEFAULT_255_2_778
10
17.5191655
20
82.0706061
40
0.2024466
50
67.606893
51
75.8693222
0
ARC
8
DEFAULT_255_2_778
10
17.5042026
20
82.478222
40
0.2208874
50
286.9473417
51
358.0074963
0
ARC
8
DEFAULT_255_2_778
10
17.4710866
20
82.4870045
40
0.2544031
50
356.2897886
51
0.0050857
0
ARC
8
DEFAULT_255_2_778
10
17.497262
20
82.4920946
40
0.2282839
50
358.7280137
51
81.8073164
0
ARC
8
DEFAULT_255_2_778
10
17.4216369
20
82.2406283
40
0.4895182
50
77.2355086
51
90.5088275
0
ARC
8
DEFAULT_255_2_778
10
17.5842742
20
81.2761263
40
0.130243
50
89.9974494
51
92.6776592
0
ARC
8
DEFAULT_255_2_778
10
17.5843316
20
81.2766872
40
0.129682
50
45.0880141
51
90.022782
0
ARC
8
DEFAULT_255_2_778
10
17.5844118
20
81.276719
40
0.1296029
50
0.001866
51
45.1031959
0
ARC
8
DEFAULT_255_2_778
10
17.5845123
20
81.2767202
40
0.1295026
50
357.4803735
51
0.0013544
0
ARC
8
DEFAULT_255_2_778
10
17.5901979
20
81.2728512
40
0.1237052
50
339.8672523
51
359.1550732
0
ARC
8
DEFAULT_255_2_778
10
17.5794513
20
81.2700079
40
0.1329691
50
272.0853006
51
342.6124646
0
ARC
8
DEFAULT_255_2_778
10
17.6596145
20
81.3082661
40
0.2575135
50
286.787355
51
290.6121696
0
ARC
8
DEFAULT_255_2_778
10
17.6689461
20
81.2939533
40
0.24086
50
289.7330405
51
342.3216972
0
ARC
8
DEFAULT_255_2_778
10
17.641261
20
81.2987954
40
0.268735
50
343.130572
51
0.3905272
0
ARC
8
DEFAULT_255_2_778
10
17.6578783
20
81.3161767
40
0.2525904
50
356.4706028
51
80.1788963
0
ARC
8
DEFAULT_255_2_778
10
17.5921649
20
81.0892163
40
0.4881286
50
77.1212301
51
90.4900821
0
ARC
8
DEFAULT_255_2_778
10
17.5166337
20
80.791536
40
0.1865405
50
50.1507009
51
92.9634648
0
ARC
8
DEFAULT_255_2_778
10
17.5301354
20
80.8198678
40
0.1563319
50
12.621233
51
47.2950617
0
ARC
8
DEFAULT_255_2_778
10
16.8485884
20
80.6869726
40
0.8506657
50
2.8173892
51
11.3253986
0
ARC
8
DEFAULT_255_2_778
10
-29.2295733
20
77.1906175
40
47.060992
50
4.3048394
51
4.3117143
0
ARC
8
DEFAULT_255_2_778
10
18.5500859
20
80.763084
40
0.8523717
50
182.6850102
51
191.2954256
0
ARC
8
DEFAULT_255_2_778
10
17.9656837
20
80.6567399
40
0.2586603
50
193.5512904
51
195.3825538
0
ARC
8
DEFAULT_255_2_778
10
19.3415679
20
80.9143916
40
1.4608773
50
182.5958701
51
192.9049706
0
ARC
8
DEFAULT_255_2_778
10
17.6207606
20
80.8427215
40
0.261487
50
1.2064311
51
30.4123358
0
ARC
8
DEFAULT_255_2_778
10
17.6663626
20
80.857776
40
0.2147766
50
33.1081154
51
71.7312197
0
LINE
8
DEFAULT_255_2_778
10
13.4657897
20
81.0223271
11
13.9385897
21
81.0223271
0
LINE
8
DEFAULT_255_2_778
10
13.9385897
20
81.0223271
11
13.9385897
21
81.1937271
0
LINE
8
DEFAULT_255_2_778
10
13.9385897
20
81.1937271
11
13.4657897
21
81.1937271
0
LINE
8
DEFAULT_255_2_778
10
13.4657897
20
81.1937271
11
13.4657897
21
81.4046271
0
LINE
8
DEFAULT_255_2_778
10
13.4657897
20
81.4046271
11
13.9977897
21
81.4046271
0
LINE
8
DEFAULT_255_2_778
10
13.9977897
20
81.4046271
11
13.9977897
21
81.5760271
0
LINE
8
DEFAULT_255_2_778
10
13.9977897
20
81.5760271
11
13.4657897
21
81.5760271
0
LINE
8
DEFAULT_255_2_778
10
13.4657897
20
81.5760271
11
13.2651897
21
81.5760271
0
LINE
8
DEFAULT_255_2_778
10
13.2651897
20
81.5760271
11
13.2651897
21
81.4046271
0
LINE
8
DEFAULT_255_2_778
10
13.2651897
20
81.4046271
11
13.2651897
21
80.7582271
0
LINE
8
DEFAULT_255_2_778
10
13.2651897
20
80.7582271
11
13.2651897
21
80.5867271
0
LINE
8
DEFAULT_255_2_778
10
13.2651897
20
80.5867271
11
13.4657897
21
80.5867271
0
LINE
8
DEFAULT_255_2_778
10
13.4657897
20
80.5867271
11
14.0118897
21
80.5867271
0
LINE
8
DEFAULT_255_2_778
10
14.0118897
20
80.5867271
11
14.0118897
21
80.7582271
0
LINE
8
DEFAULT_255_2_778
10
14.0118897
20
80.7582271
11
13.4657897
21
80.7582271
0
LINE
8
DEFAULT_255_2_778
10
13.4657897
20
80.7582271
11
13.4657897
21
81.0220271
0
LINE
8
DEFAULT_255_2_778
10
13.4657897
20
81.0220271
11
13.4657897
21
81.0223271
0
LINE
8
DEFAULT_255_2_778
10
13.4519897
20
82.4764271
11
13.6620897
21
81.7411271
0
LINE
8
DEFAULT_255_2_778
10
13.6620897
20
81.7411271
11
13.6704897
21
81.7411271
0
LINE
8
DEFAULT_255_2_778
10
13.6704897
20
81.7411271
11
13.8464897
21
81.7411271
0
LINE
8
DEFAULT_255_2_778
10
13.8464897
20
81.7411271
11
13.8546897
21
81.7411271
0
LINE
8
DEFAULT_255_2_778
10
13.8546897
20
81.7411271
11
14.0647897
21
82.4764271
0
LINE
8
DEFAULT_255_2_778
10
14.0647897
20
82.4764271
11
14.0647897
21
81.7411271
0
LINE
8
DEFAULT_255_2_778
10
14.0647897
20
81.7411271
11
14.2515897
21
81.7411271
0
LINE
8
DEFAULT_255_2_778
10
14.2515897
20
81.7411271
11
14.2515897
21
82.7304271
0
LINE
8
DEFAULT_255_2_778
10
14.2515897
20
82.7304271
11
14.1496897
21
82.7304271
0
LINE
8
DEFAULT_255_2_778
10
14.1496897
20
82.7304271
11
14.0615897
21
82.7304271
0
LINE
8
DEFAULT_255_2_778
10
14.0615897
20
82.7304271
11
13.9655897
21
82.7304271
0
LINE
8
DEFAULT_255_2_778
10
13.9655897
20
82.7304271
11
13.7583897
21
82.0361271
0
LINE
8
DEFAULT_255_2_778
10
13.7583897
20
82.0361271
11
13.5511897
21
82.7304271
0
LINE
8
DEFAULT_255_2_778
10
13.5511897
20
82.7304271
11
13.4551897
21
82.7304271
0
LINE
8
DEFAULT_255_2_778
10
13.4551897
20
82.7304271
11
13.3669897
21
82.7304271
0
LINE
8
DEFAULT_255_2_778
10
13.3669897
20
82.7304271
11
13.2651897
21
82.7304271
0
LINE
8
DEFAULT_255_2_778
10
13.2651897
20
82.7304271
11
13.2651897
21
81.7411271
0
LINE
8
DEFAULT_255_2_778
10
13.2651897
20
81.7411271
11
13.4519897
21
81.7411271
0
LINE
8
DEFAULT_255_2_778
10
13.4519897
20
81.7411271
11
13.4519897
21
82.4764271
0
LINE
8
DEFAULT_255_2_778
10
13.4519897
20
82.4764271
11
13.4519897
21
82.4764271
0
LINE
8
DEFAULT_255_2_778
10
18.0056897
20
82.7304271
11
17.8064897
21
82.7304271
0
LINE
8
DEFAULT_255_2_778
10
17.8064897
20
82.7304271
11
17.8064897
21
81.7411271
0
LINE
8
DEFAULT_255_2_778
10
17.8064897
20
81.7411271
11
18.0056897
21
81.7411271
0
LINE
8
DEFAULT_255_2_778
10
18.0056897
20
81.7411271
11
18.0056897
21
82.7304271
0
LINE
8
DEFAULT_255_2_778
10
18.0056897
20
82.7304271
11
18.0056897
21
82.7304271
0
LINE
8
DEFAULT_255_2_778
10
18.1681897
20
81.5763271
11
17.9689897
21
81.5763271
0
LINE
8
DEFAULT_255_2_778
10
17.9689897
20
81.5763271
11
17.9689897
21
80.5870271
0
LINE
8
DEFAULT_255_2_778
10
17.9689897
20
80.5870271
11
18.1681897
21
80.5870271
0
LINE
8
DEFAULT_255_2_778
10
18.1681897
20
80.5870271
11
18.1681897
21
81.5763271
0
LINE
8
DEFAULT_255_2_778
10
18.1681897
20
81.5763271
11
18.1681897
21
81.5763271
0
LINE
8
DEFAULT_255_2_778
10
19.9765897
20
82.7304271
11
19.7773897
21
82.7304271
0
LINE
8
DEFAULT_255_2_778
10
19.7773897
20
82.7304271
11
19.7773897
21
81.7411271
0
LINE
8
DEFAULT_255_2_778
10
19.7773897
20
81.7411271
11
19.9765897
21
81.7411271
0
LINE
8
DEFAULT_255_2_778
10
19.9765897
20
81.7411271
11
19.9765897
21
82.7304271
0
LINE
8
DEFAULT_255_2_778
10
19.9765897
20
82.7304271
11
19.9765897
21
82.7304271
0
LINE
8
DEFAULT_255_2_778
10
14.5298897
20
82.7304271
11
14.3306897
21
82.7304271
0
LINE
8
DEFAULT_255_2_778
10
14.3306897
20
82.7304271
11
14.3306897
21
81.7411271
0
LINE
8
DEFAULT_255_2_778
10
14.3306897
20
81.7411271
11
14.5298897
21
81.7411271
0
LINE
8
DEFAULT_255_2_778
10
14.5298897
20
81.7411271
11
14.5298897
21
82.7304271
0
LINE
8
DEFAULT_255_2_778
10
14.5298897
20
82.7304271
11
14.5298897
21
82.7304271
0
LINE
8
DEFAULT_255_2_778
10
19.4989897
20
82.3444271
11
19.1029897
21
82.3444271
0
LINE
8
DEFAULT_255_2_778
10
19.1029897
20
82.3444271
11
19.1029897
21
82.7301271
0
LINE
8
DEFAULT_255_2_778
10
19.1029897
20
82.7301271
11
18.9068897
21
82.7301271
0
LINE
8
DEFAULT_255_2_778
10
18.9068897
20
82.7301271
11
18.9068897
21
81.7411271
0
LINE
8
DEFAULT_255_2_778
10
18.9068897
20
81.7411271
11
19.1029897
21
81.7411271
0
LINE
8
DEFAULT_255_2_778
10
19.1029897
20
81.7411271
11
19.1029897
21
82.1729271
0
LINE
8
DEFAULT_255_2_778
10
19.1029897
20
82.1729271
11
19.4989897
21
82.1729271
0
LINE
8
DEFAULT_255_2_778
10
19.4989897
20
82.1729271
11
19.4989897
21
81.7411271
0
LINE
8
DEFAULT_255_2_778
10
19.4989897
20
81.7411271
11
19.6950897
21
81.7411271
0
LINE
8
DEFAULT_255_2_778
10
19.6950897
20
81.7411271
11
19.6950897
21
82.7301271
0
LINE
8
DEFAULT_255_2_778
10
19.6950897
20
82.7301271
11
19.4989897
21
82.7301271
0
LINE
8
DEFAULT_255_2_778
10
19.4989897
20
82.7301271
11
19.4989897
21
82.3444271
0
LINE
8
DEFAULT_255_2_778
10
19.4989897
20
82.3444271
11
19.4989897
21
82.3444271
0
LINE
8
DEFAULT_255_2_778
10
14.8246897
20
81.7411271
11
15.0280897
21
81.7411271
0
LINE
8
DEFAULT_255_2_778
10
15.0280897
20
81.7411271
11
15.0280897
21
82.5590271
0
LINE
8
DEFAULT_255_2_778
10
15.0280897
20
82.5590271
11
15.2696897
21
82.5590271
0
LINE
8
DEFAULT_255_2_778
10
15.2696897
20
82.5590271
11
15.2696897
21
82.7304271
0
LINE
8
DEFAULT_255_2_778
10
15.2696897
20
82.7304271
11
15.0280897
21
82.7304271
0
LINE
8
DEFAULT_255_2_778
10
15.0280897
20
82.7304271
11
14.8246897
21
82.7304271
0
LINE
8
DEFAULT_255_2_778
10
14.8246897
20
82.7304271
11
14.5830897
21
82.7304271
0
LINE
8
DEFAULT_255_2_778
10
14.5830897
20
82.7304271
11
14.5830897
21
82.5590271
0
LINE
8
DEFAULT_255_2_778
10
14.5830897
20
82.5590271
11
14.8246897
21
82.5590271
0
LINE
8
DEFAULT_255_2_778
10
14.8246897
20
82.5590271
11
14.8246897
21
81.7411271
0
LINE
8
DEFAULT_255_2_778
10
14.8246897
20
81.7411271
11
14.8246897
21
81.7411271
0
LINE
8
DEFAULT_255_2_778
10
16.6422897
20
80.5870271
11
16.8454897
21
80.5870271
0
LINE
8
DEFAULT_255_2_778
10
16.8454897
20
80.5870271
11
16.8454897
21
81.4048271
0
LINE
8
DEFAULT_255_2_778
10
16.8454897
20
81.4048271
11
17.0873897
21
81.4048271
0
LINE
8
DEFAULT_255_2_778
10
17.0873897
20
81.4048271
11
17.0873897
21
81.5766271
0
LINE
8
DEFAULT_255_2_778
10
17.0873897
20
81.5766271
11
16.8454897
21
81.5766271
0
LINE
8
DEFAULT_255_2_778
10
16.8454897
20
81.5766271
11
16.6422897
21
81.5766271
0
LINE
8
DEFAULT_255_2_778
10
16.6422897
20
81.5766271
11
16.4004897
21
81.5766271
0
LINE
8
DEFAULT_255_2_778
10
16.4004897
20
81.5766271
11
16.4004897
21
81.4048271
0
LINE
8
DEFAULT_255_2_778
10
16.4004897
20
81.4048271
11
16.6422897
21
81.4048271
0
LINE
8
DEFAULT_255_2_778
10
16.6422897
20
81.4048271
11
16.6422897
21
80.5870271
0
LINE
8
DEFAULT_255_2_778
10
16.6422897
20
80.5870271
11
16.6422897
21
80.5870271
0
LINE
8
DEFAULT_255_2_778
10
16.9007897
20
82.0496271
11
16.9007897
21
82.7301271
0
LINE
8
DEFAULT_255_2_778
10
16.9007897
20
82.7301271
11
16.7015897
21
82.7301271
0
LINE
8
DEFAULT_255_2_778
10
16.7015897
20
82.7301271
11
16.7015897
21
82.0316271
0
LINE
8
DEFAULT_255_2_778
10
16.3120897
20
82.0316271
11
16.3120897
21
82.7301271
0
LINE
8
DEFAULT_255_2_778
10
16.3120897
20
82.7301271
11
16.1162897
21
82.7301271
0
LINE
8
DEFAULT_255_2_778
10
16.1162897
20
82.7301271
11
16.1162897
21
82.0499271
0
LINE
8
DEFAULT_255_2_778
10
15.0000897
20
81.0223271
11
15.4730897
21
81.0223271
0
LINE
8
DEFAULT_255_2_778
10
15.4730897
20
81.0223271
11
15.4730897
21
81.1937271
0
LINE
8
DEFAULT_255_2_778
10
15.4730897
20
81.1937271
11
15.0000897
21
81.1937271
0
LINE
8
DEFAULT_255_2_778
10
15.0000897
20
81.1937271
11
15.0000897
21
81.4046271
0
LINE
8
DEFAULT_255_2_778
10
15.0000897
20
81.4046271
11
15.5320897
21
81.4046271
0
LINE
8
DEFAULT_255_2_778
10
15.5320897
20
81.4046271
11
15.5320897
21
81.5760271
0
LINE
8
DEFAULT_255_2_778
10
15.5320897
20
81.5760271
11
15.0000897
21
81.5760271
0
LINE
8
DEFAULT_255_2_778
10
15.0000897
20
81.5760271
11
14.7997897
21
81.5760271
0
LINE
8
DEFAULT_255_2_778
10
14.7997897
20
81.5760271
11
14.7997897
21
81.4046271
0
LINE
8
DEFAULT_255_2_778
10
14.7997897
20
81.4046271
11
14.7997897
21
80.7582271
0
LINE
8
DEFAULT_255_2_778
10
14.7997897
20
80.7582271
11
14.7997897
21
80.5867271
0
LINE
8
DEFAULT_255_2_778
10
14.7997897
20
80.5867271
11
15.0000897
21
80.5867271
0
LINE
8
DEFAULT_255_2_778
10
15.0000897
20
80.5867271
11
15.5461897
21
80.5867271
0
LINE
8
DEFAULT_255_2_778
10
15.5461897
20
80.5867271
11
15.5461897
21
80.7582271
0
LINE
8
DEFAULT_255_2_778
10
15.5461897
20
80.7582271
11
15.0000897
21
80.7582271
0
LINE
8
DEFAULT_255_2_778
10
15.0000897
20
80.7582271
11
15.0000897
21
81.0220271
0
LINE
8
DEFAULT_255_2_778
10
15.0000897
20
81.0220271
11
15.0000897
21
81.0223271
0
LINE
8
DEFAULT_255_2_778
10
17.4064897
20
82.3311271
11
17.1690897
21
82.3311271
0
LINE
8
DEFAULT_255_2_778
10
17.1690897
20
82.3311271
11
17.1690897
21
82.5727271
0
LINE
8
DEFAULT_255_2_778
10
17.1690897
20
82.5727271
11
17.4175897
21
82.5727271
0
LINE
8
DEFAULT_255_2_778
10
17.4175897
20
82.5727271
11
17.4175897
21
82.5730271
0
LINE
8
DEFAULT_255_2_778
10
17.4027897
20
81.8903271
11
17.1690897
21
81.8903271
0
LINE
8
DEFAULT_255_2_778
10
17.1690897
20
81.8903271
11
17.1690897
21
82.1774271
0
LINE
8
DEFAULT_255_2_778
10
17.1690897
20
82.1774271
11
17.4003897
21
82.1774271
0
LINE
8
DEFAULT_255_2_778
10
17.1767897
20
81.7411271
11
17.4622897
21
81.7411271
0
LINE
8
DEFAULT_255_2_778
10
17.4172897
20
82.7301271
11
17.1770897
21
82.7301271
0
LINE
8
DEFAULT_255_2_778
10
17.1770897
20
82.7301271
11
16.9722897
21
82.7301271
0
LINE
8
DEFAULT_255_2_778
10
16.9722897
20
82.7301271
11
16.9711897
21
82.7301271
0
LINE
8
DEFAULT_255_2_778
10
16.9711897
20
82.7301271
11
16.9711897
21
81.7411271
0
LINE
8
DEFAULT_255_2_778
10
16.9711897
20
81.7411271
11
16.9722897
21
81.7411271
0
LINE
8
DEFAULT_255_2_778
10
16.9722897
20
81.7411271
11
17.1770897
21
81.7411271
0
LINE
8
DEFAULT_255_2_778
10
17.1770897
20
81.7411271
11
17.1767897
21
81.7411271
0
LINE
8
DEFAULT_255_2_778
10
17.3368897
20
81.1368271
11
17.3368897
21
81.4062271
0
LINE
8
DEFAULT_255_2_778
10
17.3368897
20
81.4062271
11
17.5781897
21
81.4062271
0
LINE
8
DEFAULT_255_2_778
10
17.5842897
20
81.1371271
11
17.3370897
21
81.1371271
0
LINE
8
DEFAULT_255_2_778
10
17.3370897
20
81.1371271
11
17.3368897
21
81.1368271
0
LINE
8
DEFAULT_255_2_778
10
17.5879897
20
81.5773271
11
17.3368897
21
81.5773271
0
LINE
8
DEFAULT_255_2_778
10
17.3368897
20
81.5773271
11
17.1383897
21
81.5773271
0
LINE
8
DEFAULT_255_2_778
10
17.1383897
20
81.5773271
11
17.1362897
21
81.5773271
0
LINE
8
DEFAULT_255_2_778
10
17.1362897
20
81.5773271
11
17.1362897
21
80.5881271
0
LINE
8
DEFAULT_255_2_778
10
17.1362897
20
80.5881271
11
17.3368897
21
80.5881271
0
LINE
8
DEFAULT_255_2_778
10
17.3368897
20
80.5881271
11
17.3368897
21
80.9778271
0
LINE
8
DEFAULT_255_2_778
10
17.3368897
20
80.9778271
11
17.5069897
21
80.9778271
0
LINE
8
DEFAULT_255_2_778
10
17.7162897
20
80.5881271
11
17.9175897
21
80.5881271
0
LINE
8
DEFAULT_255_2_778
10
14.2763897
20
81.5763271
11
14.0760897
21
81.5763271
0
LINE
8
DEFAULT_255_2_778
10
14.0760897
20
81.5763271
11
14.0760897
21
80.7585271
0
LINE
8
DEFAULT_255_2_778
10
14.0760897
20
80.7585271
11
14.0760897
21
80.5870271
0
LINE
8
DEFAULT_255_2_778
10
14.0760897
20
80.5870271
11
14.2763897
21
80.5870271
0
LINE
8
DEFAULT_255_2_778
10
14.2763897
20
80.5870271
11
14.7428897
21
80.5870271
0
LINE
8
DEFAULT_255_2_778
10
14.7428897
20
80.5870271
11
14.7428897
21
80.7585271
0
LINE
8
DEFAULT_255_2_778
10
14.7428897
20
80.7585271
11
14.2763897
21
80.7585271
0
LINE
8
DEFAULT_255_2_778
10
14.2763897
20
80.7585271
11
14.2763897
21
81.5763271
0
LINE
8
DEFAULT_255_2_778
10
14.2763897
20
81.5763271
11
14.2763897
21
81.5763271
0
ARC
8
DEFAULT_255_2_778
10
15.4584271
20
81.2021969
40
0.9681224
50
72.4822103
51
81.3184214
0
ARC
8
DEFAULT_255_2_778
10
15.7160297
20
81.9788918
40
0.1503783
50
28.8883513
51
77.0092434
0
ARC
8
DEFAULT_255_2_778
10
15.7432379
20
82.0078196
40
0.113238
50
358.9917455
51
22.7117017
0
ARC
8
DEFAULT_255_2_778
10
15.7394861
20
82.0119918
40
0.1171346
50
289.2958104
51
356.9831562
0
ARC
8
DEFAULT_255_2_778
10
15.6668261
20
82.1694882
40
0.2902651
50
268.4665462
51
292.5613311
0
ARC
8
DEFAULT_255_2_778
10
15.6496856
20
82.1104179
40
0.2312808
50
236.4956947
51
272.3225735
0
ARC
8
DEFAULT_255_2_778
10
15.6106646
20
82.0421839
40
0.1529307
50
178.9722202
51
234.5742435
0
ARC
8
DEFAULT_255_2_778
10
15.5656113
20
82.0326079
40
0.3002058
50
177.6481608
51
245.5596397
0
ARC
8
DEFAULT_255_2_778
10
15.6409971
20
82.2048561
40
0.488217
50
245.8690375
51
267.169035
0
ARC
8
DEFAULT_255_2_778
10
15.6671503
20
82.4558916
40
0.7403648
50
266.1069867
51
270.0547972
0
ARC
8
DEFAULT_255_2_778
10
15.6772894
20
82.2871135
40
0.5716642
50
269.0547216
51
287.7147747
0
ARC
8
DEFAULT_255_2_778
10
15.7598889
20
82.0414091
40
0.3125017
50
286.995984
51
325.1221533
0
ARC
8
DEFAULT_255_2_778
10
15.7678294
20
82.024861
40
0.2966627
50
326.8673922
51
0.8625726
0
ARC
8
DEFAULT_255_2_778
10
15.7898286
20
82.0334409
40
0.2746606
50
359.1417932
51
76.9739731
0
ARC
8
DEFAULT_255_2_778
10
15.6705461
20
81.7525719
40
0.577616
50
71.7185727
51
79.1315439
0
ARC
8
DEFAULT_255_2_778
10
14.2492968
20
74.398967
40
8.0673056
50
79.0662148
51
79.6216572
0
ARC
8
DEFAULT_255_2_778
10
16.4356585
20
86.2766581
40
4.0099443
50
259.1227669
51
259.4665204
0
ARC
8
DEFAULT_255_2_778
10
15.7836732
20
82.9816142
40
0.6513291
50
249.9945768
51
260.7485895
0
ARC
8
DEFAULT_255_2_778
10
15.5880401
20
82.4705999
40
0.1046098
50
178.6705173
51
254.9333545
0
ARC
8
DEFAULT_255_2_778
10
15.6049957
20
82.4671688
40
0.1216785
50
93.288632
51
177.2403935
0
ARC
8
DEFAULT_255_2_778
10
15.6585677
20
82.2801752
40
0.3143588
50
89.6189463
51
101.1057977
0
ARC
8
DEFAULT_255_2_778
10
15.6722733
20
82.392016
40
0.2028439
50
53.5634072
51
93.2825843
0
ARC
8
DEFAULT_255_2_778
10
15.7018505
20
82.4502144
40
0.1388739
50
357.1985816
51
49.1152298
0
ARC
8
DEFAULT_255_2_778
10
15.7254907
20
82.4434274
40
0.3087677
50
359.9999335
51
2.3703878
0
ARC
8
DEFAULT_255_2_778
10
15.7353555
20
82.4449337
40
0.298851
50
2.1600756
51
60.1092229
0
ARC
8
DEFAULT_255_2_778
10
15.6766212
20
82.3383133
40
0.4205645
50
60.4106856
51
86.1444419
0
ARC
8
DEFAULT_255_2_778
10
15.6536151
20
82.1616228
40
0.5985046
50
85.0843314
51
90.0628677
0
ARC
8
DEFAULT_255_2_778
10
15.6529718
20
82.2850466
40
0.4750804
50
90.001616
51
92.2300394
0
ARC
8
DEFAULT_255_2_778
10
15.6281193
20
82.390187
40
0.3696351
50
89.0131319
51
149.6364996
0
ARC
8
DEFAULT_255_2_778
10
15.5505461
20
82.4624055
40
0.2671974
50
154.5962367
51
180.4885883
0
ARC
8
DEFAULT_255_2_778
10
15.5651524
20
82.460884
40
0.281795
50
180.1539064
51
255.1120325
0
ARC
8
DEFAULT_255_2_778
10
15.7094242
20
82.783732
40
0.6333958
50
249.9962237
51
260.4976723
0
ARC
8
DEFAULT_255_2_778
10
18.2470963
20
81.2033351
40
0.967002
50
72.4685023
51
81.3064395
0
ARC
8
DEFAULT_255_2_778
10
18.5045397
20
81.978927
40
0.1503535
50
28.8782248
51
76.9904304
0
ARC
8
DEFAULT_255_2_778
10
18.5317197
20
82.0078189
40
0.1132561
50
358.9922779
51
22.7082666
0
ARC
8
DEFAULT_255_2_778
10
18.5280402
20
82.0119088
40
0.1170763
50
289.2761556
51
357.0223042
0
ARC
8
DEFAULT_255_2_778
10
18.4553612
20
82.1697836
40
0.2905613
50
268.4611814
51
292.5289055
0
ARC
8
DEFAULT_255_2_778
10
18.4381801
20
82.1113175
40
0.2321799
50
236.6698634
51
272.3149402
0
ARC
8
DEFAULT_255_2_778
10
18.39878
20
82.0421762
40
0.1528464
50
178.9687581
51
234.7686008
0
ARC
8
DEFAULT_255_2_778
10
18.3540113
20
82.0326079
40
0.3002058
50
177.6481608
51
245.5596397
0
ARC
8
DEFAULT_255_2_778
10
18.4293971
20
82.2048561
40
0.488217
50
245.8690375
51
267.169035
0
ARC
8
DEFAULT_255_2_778
10
18.4555503
20
82.4558916
40
0.7403648
50
266.1069867
51
270.0547972
0
ARC
8
DEFAULT_255_2_778
10
18.4656836
20
82.2877451
40
0.5722957
50
269.0563423
51
287.7048702
0
ARC
8
DEFAULT_255_2_778
10
18.548344
20
82.0417682
40
0.312856
50
286.9832601
51
325.0871916
0
ARC
8
DEFAULT_255_2_778
10
18.5567708
20
82.0248856
40
0.2964208
50
326.8311942
51
0.8585267
0
ARC
8
DEFAULT_255_2_778
10
18.5785756
20
82.0335282
40
0.2746149
50
359.1234265
51
76.9343785
0
ARC
8
DEFAULT_255_2_778
10
18.4596421
20
81.7536965
40
0.5764934
50
71.6999697
51
79.1198353
0
ARC
8
DEFAULT_255_2_778
10
17.0173657
20
74.2769392
40
8.1910887
50
79.0843627
51
79.6321368
0
ARC
8
DEFAULT_255_2_778
10
19.2200266
20
86.2564177
40
3.9892176
50
259.1314419
51
259.4772924
0
ARC
8
DEFAULT_255_2_778
10
18.5723251
20
82.9810131
40
0.6507003
50
249.9919323
51
260.7592458
0
ARC
8
DEFAULT_255_2_778
10
18.376901
20
82.4705546
40
0.1045718
50
178.6452075
51
254.9151907
0
ARC
8
DEFAULT_255_2_778
10
18.3939581
20
82.4671016
40
0.121744
50
93.2745253
51
177.21023
0
ARC
8
DEFAULT_255_2_778
10
18.4475726
20
82.2800052
40
0.3145287
50
89.6200387
51
101.1027534
0
ARC
8
DEFAULT_255_2_778
10
18.4613489
20
82.3933453
40
0.2015212
50
53.1490002
51
93.3256649
0
ARC
8
DEFAULT_255_2_778
10
18.4902753
20
82.4501519
40
0.1391457
50
357.2298288
51
48.6469881
0
ARC
8
DEFAULT_255_2_778
10
18.5137232
20
82.4434226
40
0.3092351
50
0.0008291
51
2.3676985
0
ARC
8
DEFAULT_255_2_778
10
18.5240744
20
82.4449868
40
0.2988304
50
2.1500394
51
60.0956838
0
ARC
8
DEFAULT_255_2_778
10
18.4654399
20
82.3384909
40
0.4203859
50
60.40452
51
86.1455285
0
ARC
8
DEFAULT_255_2_778
10
18.4424157
20
82.1616686
40
0.5984588
50
85.0841409
51
90.0629301
0
ARC
8
DEFAULT_255_2_778
10
18.4417778
20
82.2846392
40
0.4754878
50
90.0023409
51
92.3231329
0
ARC
8
DEFAULT_255_2_778
10
18.4167555
20
82.3899604
40
0.3698206
50
89.1093915
51
149.6400816
0
ARC
8
DEFAULT_255_2_778
10
18.338761
20
82.4623917
40
0.2669122
50
154.6001925
51
180.486137
0
ARC
8
DEFAULT_255_2_778
10
18.3537607
20
82.4610152
40
0.2819037
50
180.1805176
51
255.132702
0
ARC
8
DEFAULT_255_2_778
10
18.4982264
20
82.7842784
40
0.6339516
50
250.0026216
51
260.4967164
0
ARC
8
DEFAULT_255_2_778
10
16.008917
20
80.9914283
40
0.2519711
50
190.2626864
51
267.3480013
0
ARC
8
DEFAULT_255_2_778
10
16.2443543
20
81.0827548
40
0.5022041
50
179.6723028
51
195.7380858
0
ARC
8
DEFAULT_255_2_778
10
16.1790511
20
81.0982671
40
0.4370755
50
148.7005643
51
181.6572045
0
ARC
8
DEFAULT_255_2_778
10
15.9957576
20
81.2083723
40
0.2232598
50
89.6148479
51
148.4074796
0
ARC
8
DEFAULT_255_2_778
10
16.0060936
20
81.230449
40
0.201372
50
41.9769772
51
92.5146611
0
ARC
8
DEFAULT_255_2_778
10
15.9522078
20
81.1927523
40
0.2667646
50
15.1848537
51
40.2549591
0
ARC
8
DEFAULT_255_2_778
10
16.028123
20
81.2030326
40
0.3935735
50
8.7091682
51
82.0550801
0
ARC
8
DEFAULT_255_2_778
10
15.9931241
20
81.0565871
40
0.543642
50
80.5350289
51
90.1544743
0
ARC
8
DEFAULT_255_2_778
10
15.9818804
20
81.1452192
40
0.4551129
50
88.7689246
51
119.6437418
0
ARC
8
DEFAULT_255_2_778
10
16.0077717
20
81.1489647
40
0.4653013
50
122.644121
51
173.3997839
0
ARC
8
DEFAULT_255_2_778
10
16.2711934
20
81.0846568
40
0.7351371
50
170.7798304
51
180.1348114
0
ARC
8
DEFAULT_255_2_778
10
16.1377257
20
81.0692615
40
0.6018225
50
178.6988735
51
210.5289552
0
ARC
8
DEFAULT_255_2_778
10
15.970325
20
80.9784953
40
0.4115783
50
211.4828222
51
265.8686737
0
ARC
8
DEFAULT_255_2_778
10
15.9909864
20
81.1032011
40
0.5375742
50
264.6297133
51
270.0503073
0
ARC
8
DEFAULT_255_2_778
10
16.0020995
20
81.0350749
40
0.4695684
50
268.7014824
51
300.1403067
0
ARC
8
DEFAULT_255_2_778
10
16.0350333
20
80.9566852
40
0.385394
50
301.7580058
51
353.77968
0
ARC
8
DEFAULT_255_2_778
10
16.0012256
20
80.9510219
40
0.2113379
50
268.8430278
51
350.1661143
0
ARC
8
DEFAULT_255_2_778
10
18.6896799
20
80.9913824
40
0.2519281
50
190.2538303
51
267.3332171
0
ARC
8
DEFAULT_255_2_778
10
18.9252249
20
81.0827581
40
0.5022746
50
179.672724
51
195.7362088
0
ARC
8
DEFAULT_255_2_778
10
18.8600432
20
81.0982917
40
0.4372682
50
148.7196987
51
181.6596982
0
ARC
8
DEFAULT_255_2_778
10
18.676443
20
81.2084906
40
0.2231415
50
89.6108896
51
148.4244661
0
ARC
8
DEFAULT_255_2_778
10
18.686876
20
81.230467
40
0.2013576
50
42.5913083
51
92.5383066
0
ARC
8
DEFAULT_255_2_778
10
18.6345542
20
81.1940973
40
0.2646316
50
15.0085433
51
40.7215892
0
ARC
8
DEFAULT_255_2_778
10
18.708623
20
81.2030326
40
0.3935735
50
8.7091682
51
82.0550801
0
ARC
8
DEFAULT_255_2_778
10
18.6736241
20
81.0565871
40
0.543642
50
80.5350289
51
90.1544743
0
ARC
8
DEFAULT_255_2_778
10
18.6623804
20
81.1452192
40
0.4551129
50
88.7689246
51
119.6437418
0
ARC
8
DEFAULT_255_2_778
10
18.6882717
20
81.1489647
40
0.4653013
50
122.644121
51
173.3997839
0
ARC
8
DEFAULT_255_2_778
10
18.9516934
20
81.0846568
40
0.7351371
50
170.7798304
51
180.1348114
0
ARC
8
DEFAULT_255_2_778
10
18.8177822
20
81.06932
40
0.6013778
50
178.7034849
51
210.5604279
0
ARC
8
DEFAULT_255_2_778
10
18.6511312
20
80.9788377
40
0.4119265
50
211.5090145
51
265.8592607
0
ARC
8
DEFAULT_255_2_778
10
18.6716883
20
81.1029521
40
0.5373252
50
264.628472
51
270.0501277
0
ARC
8
DEFAULT_255_2_778
10
18.682837
20
81.0348685
40
0.4693629
50
268.6963312
51
300.2191972
0
ARC
8
DEFAULT_255_2_778
10
18.7155684
20
80.9569124
40
0.3856821
50
301.8465101
51
353.7503927
0
ARC
8
DEFAULT_255_2_778
10
18.6820648
20
80.9508604
40
0.2111733
50
268.8857714
51
350.2028431
0
LINE
8
DEFAULT_255_2_778
10
15.4577584
20
82.0449271
11
15.2656584
21
82.0449271
0
LINE
8
DEFAULT_255_2_778
10
15.8405584
20
82.4434271
11
16.0342584
21
82.4434271
0
LINE
8
DEFAULT_255_2_778
10
18.2459584
20
82.0449271
11
18.0540584
21
82.0449271
0
LINE
8
DEFAULT_255_2_778
10
18.6292584
20
82.4434271
11
18.8229584
21
82.4434271
0
LINE
8
DEFAULT_255_2_778
10
16.2096584
20
81.2626271
11
16.4171584
21
81.2626271
0
LINE
8
DEFAULT_255_2_778
10
16.4181584
20
80.9149271
11
16.2094584
21
80.9149271
0
LINE
8
DEFAULT_255_2_778
10
18.8901584
20
81.2626271
11
19.0976584
21
81.2626271
0
LINE
8
DEFAULT_255_2_778
10
19.0989584
20
80.9149271
11
18.8901584
21
80.9149271
0
LINE
8
DEFAULT_255_1_234
10
4.9274119
20
76.1991792
11
4.9274119
21
76.0779
0
LINE
8
DEFAULT_255_1_234
10
4.9274119
20
76.0779
11
4.161184
21
76.0779
0
LINE
8
DEFAULT_255_1_234
10
4.161184
20
76.0779
11
4.161184
21
76.1847221
0
LINE
8
DEFAULT_255_1_234
10
4.161184
20
76.1847221
11
4.5659836
21
76.6344995
0
LINE
8
DEFAULT_255_1_234
10
4.2872823
20
76.9027595
11
4.1386952
21
76.9027595
0
LINE
8
DEFAULT_255_1_234
10
4.6535296
20
76.5389218
11
4.3402918
21
76.1991792
0
LINE
8
DEFAULT_255_1_234
10
4.3402918
20
76.1991792
11
4.9274119
21
76.1991792
0
ARC
8
DEFAULT_255_1_234
10
3.216967
20
77.8274527
40
1.8008286
50
318.5132453
51
320.7828378
0
ARC
8
DEFAULT_255_1_234
10
3.7456644
20
77.3971426
40
1.1191493
50
320.7372736
51
323.9737074
0
ARC
8
DEFAULT_255_1_234
10
4.1376501
20
77.1131361
40
0.6350923
50
323.8961724
51
328.6421089
0
ARC
8
DEFAULT_255_1_234
10
4.3423096
20
76.9869031
40
0.3946393
50
328.8299013
51
331.789948
0
ARC
8
DEFAULT_255_1_234
10
4.4420274
20
76.9354509
40
0.2824501
50
331.4255242
51
352.9364833
0
ARC
8
DEFAULT_255_1_234
10
4.4556775
20
76.9323976
40
0.2685315
50
353.2248685
51
0.0169286
0
ARC
8
DEFAULT_255_1_234
10
4.4766652
20
76.934695
40
0.2475536
50
359.4866256
51
15.9339782
0
ARC
8
DEFAULT_255_1_234
10
4.5273637
20
76.9483286
40
0.1950618
50
16.1714718
51
43.5284424
0
ARC
8
DEFAULT_255_1_234
10
4.5350946
20
76.9560573
40
0.184134
50
43.4415429
51
83.1661404
0
ARC
8
DEFAULT_255_1_234
10
4.5216864
20
76.8823771
40
0.258926
50
82.160215
51
90.1505798
0
ARC
8
DEFAULT_255_1_234
10
4.5185291
20
76.8286865
40
0.3126255
50
89.5460705
51
102.5418777
0
ARC
8
DEFAULT_255_1_234
10
4.4942377
20
76.9317665
40
0.2067346
50
102.1739365
51
129.2061916
0
ARC
8
DEFAULT_255_1_234
10
4.4863449
20
76.9442094
40
0.1921118
50
129.7279328
51
135.7542026
0
ARC
8
DEFAULT_255_1_234
10
4.4984977
20
76.9345045
40
0.2075944
50
136.175737
51
166.3674722
0
ARC
8
DEFAULT_255_1_234
10
4.5991896
20
76.9075182
40
0.3118201
50
165.9092917
51
178.8683903
0
ARC
8
DEFAULT_255_1_234
10
4.6856757
20
76.9028179
40
0.3983935
50
178.438168
51
180.0083905
0
ARC
8
DEFAULT_255_1_234
10
4.5455359
20
76.9067231
40
0.4068601
50
163.2878735
51
180.5581814
0
ARC
8
DEFAULT_255_1_234
10
4.4653621
20
76.928784
40
0.3237344
50
133.454115
51
162.9470031
0
ARC
8
DEFAULT_255_1_234
10
4.4832162
20
76.9098
40
0.349795
50
100.7869394
51
133.4384016
0
ARC
8
DEFAULT_255_1_234
10
4.5179934
20
76.7549319
40
0.5084616
50
89.6605301
51
101.3704185
0
ARC
8
DEFAULT_255_1_234
10
4.5246273
20
76.7610496
40
0.502348
50
78.2171172
51
90.4130393
0
ARC
8
DEFAULT_255_1_234
10
4.5601351
20
76.9234637
40
0.3361092
50
55.9268222
51
78.4888551
0
ARC
8
DEFAULT_255_1_234
10
4.5797791
20
76.9573324
40
0.2970617
50
47.9292255
51
55.4054003
0
ARC
8
DEFAULT_255_1_234
10
4.5899352
20
76.9676502
40
0.2825983
50
4.3347696
51
48.0560701
0
ARC
8
DEFAULT_255_1_234
10
4.4803745
20
76.9506601
40
0.393225
50
359.925209
51
5.5967654
0
ARC
8
DEFAULT_255_1_234
10
4.5232637
20
76.9562816
40
0.3503892
50
337.8914096
51
358.9967724
0
ARC
8
DEFAULT_255_1_234
10
4.2519049
20
77.0609706
40
0.6412172
50
326.9135351
51
338.3505194
0
ARC
8
DEFAULT_255_1_234
10
3.8533353
20
77.3164284
40
1.1146189
50
319.6472867
51
327.095818
0
ARC
8
DEFAULT_255_1_234
10
3.4700356
20
77.6326
40
1.6114559
50
317.2586784
51
319.9046139
0
LINE
8
DEFAULT_255_1_234
10
5.7121127
20
77.2473211
11
5.7121127
21
76.470652
0
LINE
8
DEFAULT_255_1_234
10
5.7121127
20
76.470652
11
5.8743538
21
76.470652
0
LINE
8
DEFAULT_255_1_234
10
5.8743538
20
76.470652
11
5.8743538
21
76.3493728
0
LINE
8
DEFAULT_255_1_234
10
5.8743538
20
76.3493728
11
5.7121127
21
76.3493728
0
LINE
8
DEFAULT_255_1_234
10
5.7121127
20
76.3493728
11
5.7121127
21
76.0779
0
LINE
8
DEFAULT_255_1_234
10
5.7121127
20
76.0779
11
5.5627224
21
76.0779
0
LINE
8
DEFAULT_255_1_234
10
5.5627224
20
76.0779
11
5.5627224
21
76.3493728
0
LINE
8
DEFAULT_255_1_234
10
5.5627224
20
76.3493728
11
5.0302181
21
76.3493728
0
LINE
8
DEFAULT_255_1_234
10
5.0302181
20
76.3493728
11
5.0302181
21
76.4369187
0
LINE
8
DEFAULT_255_1_234
10
5.0302181
20
76.4369187
11
5.5538875
21
77.2473211
0
LINE
8
DEFAULT_255_1_234
10
5.5538875
20
77.2473211
11
5.7121127
21
77.2473211
0
LINE
8
DEFAULT_255_1_234
10
5.5450525
20
77.0119912
11
5.1988846
21
76.470652
0
LINE
8
DEFAULT_255_1_234
10
5.1988846
20
76.470652
11
5.5627224
21
76.470652
0
LINE
8
DEFAULT_255_1_234
10
5.5627224
20
76.470652
11
5.5627224
21
77.0441181
0
LINE
8
DEFAULT_255_1_234
10
5.5627224
20
77.0441181
11
5.5450525
21
77.0119912
0
LINE
8
DEFAULT_255_1_234
10
6.101652
20
77.2473211
11
6.434166
21
76.2827093
0
LINE
8
DEFAULT_255_1_234
10
6.434166
20
76.2827093
11
6.7682863
21
77.2473211
0
LINE
8
DEFAULT_255_1_234
10
6.7682863
20
77.2473211
11
6.9369528
21
77.2473211
0
LINE
8
DEFAULT_255_1_234
10
6.9369528
20
77.2473211
11
6.5032389
21
76.0779
0
LINE
8
DEFAULT_255_1_234
10
6.5032389
20
76.0779
11
6.3666994
21
76.0779
0
LINE
8
DEFAULT_255_1_234
10
6.3666994
20
76.0779
11
5.9337887
21
77.2473211
0
LINE
8
DEFAULT_255_1_234
10
5.9337887
20
77.2473211
11
6.101652
21
77.2473211
0
ARC
8
DEFAULT_255_1_234
10
4.4276624
20
5.5020703
40
0.2822356
50
338.8763615
51
0.5166041
0
ARC
8
DEFAULT_255_1_234
10
4.4445278
20
5.4975208
40
0.2648703
50
325.8412414
51
338.4795939
0
ARC
8
DEFAULT_255_1_234
10
4.4054646
20
5.5246042
40
0.3124019
50
296.7586019
51
325.753654
0
ARC
8
DEFAULT_255_1_234
10
4.3766754
20
5.5730789
40
0.368668
50
296.0902311
51
297.3618122
0
ARC
8
DEFAULT_255_1_234
10
4.4024212
20
4.9176041
40
0.3518806
50
47.9009248
51
67.1946869
0
ARC
8
DEFAULT_255_1_234
10
4.4220454
20
4.9422395
40
0.320451
50
35.236241
51
47.551371
0
ARC
8
DEFAULT_255_1_234
10
4.4482072
20
4.9596993
40
0.2890103
50
359.2759738
51
35.4014081
0
ARC
8
DEFAULT_255_1_234
10
4.3737103
20
4.9523826
40
0.3635026
50
343.1294516
51
0.5776525
0
ARC
8
DEFAULT_255_1_234
10
4.4461648
20
4.932433
40
0.2883832
50
310.8497458
51
342.744803
0
ARC
8
DEFAULT_255_1_234
10
4.4043761
20
4.9801294
40
0.3517954
50
281.5473923
51
310.9169905
0
ARC
8
DEFAULT_255_1_234
10
4.368721
20
5.1354084
40
0.5110832
50
269.6192722
51
281.9789957
0
ARC
8
DEFAULT_255_1_234
10
4.3615
20
5.1354828
40
0.5111606
50
257.4584469
51
270.4287458
0
ARC
8
DEFAULT_255_1_234
10
4.3234143
20
4.9751344
40
0.3463762
50
228.7553743
51
257.8484423
0
ARC
8
DEFAULT_255_1_234
10
4.2924341
20
4.9378442
40
0.297916
50
184.0104442
51
228.5071787
0
ARC
8
DEFAULT_255_1_234
10
4.4087285
20
4.9555512
40
0.4152734
50
179.9315461
51
185.3254504
0
ARC
8
DEFAULT_255_1_234
10
4.2910931
20
4.9592992
40
0.2976554
50
145.6795913
51
180.6259649
0
ARC
8
DEFAULT_255_1_234
10
4.307428
20
4.9478929
40
0.3175776
50
115.5537925
51
145.6416199
0
ARC
8
DEFAULT_255_1_234
10
4.341521
20
4.8868028
40
0.3874232
50
113.2437915
51
116.2054627
0
ARC
8
DEFAULT_255_1_234
10
4.3262423
20
5.526658
40
0.3154751
50
222.9548379
51
244.1372485
0
ARC
8
DEFAULT_255_1_234
10
4.3140498
20
5.5129834
40
0.2972382
50
213.3439227
51
222.6271327
0
ARC
8
DEFAULT_255_1_234
10
4.2948433
20
5.4999308
40
0.274019
50
180.4316517
51
213.2713999
0
ARC
8
DEFAULT_255_1_234
10
4.3523434
20
5.504611
40
0.33158
50
179.9992944
51
181.1655061
0
ARC
8
DEFAULT_255_1_234
10
4.3932851
20
5.5080561
40
0.3725376
50
164.6186108
51
180.5292368
0
ARC
8
DEFAULT_255_1_234
10
4.3034714
20
5.5322101
40
0.2795349
50
132.2454369
51
164.5092287
0
ARC
8
DEFAULT_255_1_234
10
4.3321818
20
5.4997028
40
0.3229019
50
100.7052766
51
132.1387266
0
ARC
8
DEFAULT_255_1_234
10
4.362679
20
5.3619086
40
0.4639835
50
89.6732617
51
101.2449487
0
ARC
8
DEFAULT_255_1_234
10
4.3688988
20
5.379399
40
0.4464999
50
76.2876631
51
90.4586123
0
ARC
8
DEFAULT_255_1_234
10
4.399522
20
5.501622
40
0.3205023
50
47.8240157
51
76.4266918
0
ARC
8
DEFAULT_255_1_234
10
4.421777
20
5.527659
40
0.2862661
50
6.9168658
51
47.6261438
0
ARC
8
DEFAULT_255_1_234
10
4.3031173
20
5.505737
40
0.4067708
50
359.8419705
51
7.9694496
0
ARC
8
DEFAULT_255_1_234
10
4.337307
20
4.9616925
40
0.2513121
50
359.4454068
51
16.9256425
0
ARC
8
DEFAULT_255_1_234
10
4.3841881
20
4.9746033
40
0.2027071
50
17.292259
51
45.462717
0
ARC
8
DEFAULT_255_1_234
10
4.3787817
20
4.9699434
40
0.2098212
50
45.3028762
51
83.1921472
0
ARC
8
DEFAULT_255_1_234
10
4.3644501
20
4.8897895
40
0.2911472
50
82.2614531
51
90.143954
0
ARC
8
DEFAULT_255_1_234
10
4.3613621
20
4.913095
40
0.2678513
50
89.4959189
51
104.8579811
0
ARC
8
DEFAULT_255_1_234
10
4.343688
20
4.980089
40
0.1985654
50
104.8855873
51
135.2448349
0
ARC
8
DEFAULT_255_1_234
10
4.3486653
20
4.9756336
40
0.2052373
50
135.3398955
51
172.104394
0
ARC
8
DEFAULT_255_1_234
10
4.4293711
20
4.9601925
40
0.2873299
50
171.2651929
51
180.1859362
0
ARC
8
DEFAULT_255_1_234
10
4.4124412
20
4.9569733
40
0.2704083
50
179.515471
51
193.6466734
0
ARC
8
DEFAULT_255_1_234
10
4.3308181
20
4.9361777
40
0.1861855
50
193.3540587
51
225.8256931
0
ARC
8
DEFAULT_255_1_234
10
4.3348938
20
4.9432524
40
0.1941102
50
226.418029
51
255.8553723
0
ARC
8
DEFAULT_255_1_234
10
4.3605371
20
5.0368998
40
0.2911917
50
255.4655572
51
268.7985967
0
ARC
8
DEFAULT_255_1_234
10
4.3652563
20
5.1207491
40
0.3751331
50
268.3464808
51
270.0104874
0
ARC
8
DEFAULT_255_1_234
10
4.3675951
20
5.0523138
40
0.3067064
50
269.575914
51
282.0823146
0
ARC
8
DEFAULT_255_1_234
10
4.390086
20
4.9528803
40
0.2047712
50
281.7522535
51
306.6056425
0
ARC
8
DEFAULT_255_1_234
10
4.3999286
20
4.9367487
40
0.1859604
50
307.1350025
51
314.0277951
0
ARC
8
DEFAULT_255_1_234
10
4.396337
20
4.9393766
40
0.1903475
50
314.2553419
51
350.169324
0
ARC
8
DEFAULT_255_1_234
10
4.3111839
20
4.9578409
40
0.2774269
50
349.4145679
51
0.2930737
0
ARC
8
DEFAULT_255_1_234
10
4.3632272
20
5.4737353
40
0.2300764
50
89.477591
51
105.729794
0
ARC
8
DEFAULT_255_1_234
10
4.3496185
20
5.5242637
40
0.1777519
50
105.922966
51
135.1662921
0
ARC
8
DEFAULT_255_1_234
10
4.3516688
20
5.5228419
40
0.1802087
50
135.3053131
51
168.9882338
0
ARC
8
DEFAULT_255_1_234
10
4.434426
20
5.5038721
40
0.2650806
50
168.3802067
51
180.3602358
0
ARC
8
DEFAULT_255_1_234
10
4.411584
20
5.5001041
40
0.2422425
50
179.5029707
51
194.9126783
0
ARC
8
DEFAULT_255_1_234
10
4.3530501
20
5.484711
40
0.1817188
50
194.9722181
51
224.1943972
0
ARC
8
DEFAULT_255_1_234
10
4.3502368
20
5.4824169
40
0.1781027
50
224.2961434
51
262.0157375
0
ARC
8
DEFAULT_255_1_234
10
4.3644611
20
5.5555661
40
0.2525492
50
261.1250369
51
270.1959853
0
ARC
8
DEFAULT_255_1_234
10
4.3674366
20
5.5368339
40
0.233825
50
269.4825617
51
285.0988277
0
ARC
8
DEFAULT_255_1_234
10
4.3828525
20
5.478999
40
0.1739712
50
285.1585659
51
315.9484648
0
ARC
8
DEFAULT_255_1_234
10
4.3739537
20
5.4871886
40
0.1860616
50
316.0412958
51
351.9162715
0
ARC
8
DEFAULT_255_1_234
10
4.3006492
20
5.5013245
40
0.2606517
50
351.1056823
51
0.1936567
0
ARC
8
DEFAULT_255_1_234
10
4.3269321
20
5.5043369
40
0.234377
50
359.4789506
51
16.0679113
0
ARC
8
DEFAULT_255_1_234
10
4.374528
20
5.517181
40
0.1850875
50
16.3251951
51
44.791304
0
ARC
8
DEFAULT_255_1_234
10
4.3727561
20
5.5172339
40
0.186312
50
44.3958661
51
88.2498933
0
ARC
8
DEFAULT_255_1_234
10
4.3654115
20
5.4561154
40
0.2476868
50
86.9833827
51
90.0200148
0
LINE
8
DEFAULT_255_1_234
10
4.7556674
20
13.7473211
11
4.7556674
21
13.663791
0
LINE
8
DEFAULT_255_1_234
10
4.7556674
20
13.663791
11
4.2713536
21
12.5779
0
LINE
8
DEFAULT_255_1_234
10
4.2713536
20
12.5779
11
4.1155379
21
12.5779
0
LINE
8
DEFAULT_255_1_234
10
4.1155379
20
12.5779
11
4.5982454
21
13.6252387
0
LINE
8
DEFAULT_255_1_234
10
4.5982454
20
13.6252387
11
3.9653444
21
13.6252387
0
LINE
8
DEFAULT_255_1_234
10
3.9653444
20
13.6252387
11
3.9653444
21
13.7473211
0
LINE
8
DEFAULT_255_1_234
10
3.9653444
20
13.7473211
11
4.7556674
21
13.7473211
0
LINE
8
DEFAULT_255_1_234
10
4.5572835
20
21.6856243
11
4.5837882
21
21.6856243
0
LINE
8
DEFAULT_255_1_234
10
4.5837882
20
21.6856243
11
4.5837882
21
21.559526
0
LINE
8
DEFAULT_255_1_234
10
4.5837882
20
21.559526
11
4.5564803
21
21.559526
0
LINE
8
DEFAULT_255_1_234
10
4.0095189
20
20.9603583
11
4.0095189
21
21.0173836
0
LINE
8
DEFAULT_255_1_234
10
4.1589093
20
20.9981075
11
4.1589093
21
20.9434917
0
ARC
8
DEFAULT_255_1_234
10
4.5617151
20
21.0597455
40
0.4998079
50
90.6001036
51
104.514704
0
ARC
8
DEFAULT_255_1_234
10
4.5228667
20
21.2042131
40
0.3502176
50
104.2855254
51
133.862935
0
ARC
8
DEFAULT_255_1_234
10
4.5392424
20
21.193383
40
0.3693984
50
134.5302688
51
161.6210873
0
ARC
8
DEFAULT_255_1_234
10
4.7045613
20
21.1350895
40
0.5446739
50
161.2849839
51
174.2076652
0
ARC
8
DEFAULT_255_1_234
10
4.845255
20
21.1156787
40
0.6866274
50
173.7810589
51
174.9254635
0
ARC
8
DEFAULT_255_1_234
10
4.3902382
20
20.9773839
40
0.3033419
50
95.8330959
51
138.9954921
0
ARC
8
DEFAULT_255_1_234
10
4.4125738
20
20.8495375
40
0.4328947
50
89.8753725
51
97.0544009
0
ARC
8
DEFAULT_255_1_234
10
4.4173204
20
20.9330748
40
0.3493769
50
71.6407809
51
90.6240094
0
ARC
8
DEFAULT_255_1_234
10
4.4323777
20
20.9885082
40
0.2920396
50
39.6367836
51
71.019018
0
ARC
8
DEFAULT_255_1_234
10
4.368725
20
20.9334998
40
0.3761538
50
10.658731
51
39.9043955
0
ARC
8
DEFAULT_255_1_234
10
4.2139333
20
20.8998686
40
0.5345136
50
359.682601
51
11.132623
0
ARC
8
DEFAULT_255_1_234
10
4.2099464
20
20.892801
40
0.5385081
50
347.2486944
51
0.4369317
0
ARC
8
DEFAULT_255_1_234
10
4.3766941
20
20.8526807
40
0.3670249
50
318.1409698
51
347.6118597
0
ARC
8
DEFAULT_255_1_234
10
4.4091934
20
20.8259702
40
0.3250007
50
275.6342139
51
317.8248465
0
ARC
8
DEFAULT_255_1_234
10
4.3871045
20
20.9559219
40
0.4565864
50
269.8874292
51
276.7917694
0
ARC
8
DEFAULT_255_1_234
10
4.3816116
20
20.8533743
40
0.3540676
50
246.9140195
51
270.7437342
0
ARC
8
DEFAULT_255_1_234
10
4.3822506
20
20.8391384
40
0.3412781
50
218.1665114
51
245.878116
0
ARC
8
DEFAULT_255_1_234
10
4.4701967
20
20.9127279
40
0.455911
50
191.4115814
51
218.6077802
0
ARC
8
DEFAULT_255_1_234
10
4.6640056
20
20.9561833
40
0.6545001
50
179.6345085
51
191.7836486
0
ARC
8
DEFAULT_255_1_234
10
5.2222393
20
21.0240697
40
1.2127388
50
171.4525249
51
180.3158839
0
ARC
8
DEFAULT_255_1_234
10
4.7827269
20
21.0924608
40
0.7679464
50
157.9802646
51
171.6246686
0
ARC
8
DEFAULT_255_1_234
10
4.561329
20
21.1807421
40
0.5296008
50
141.4298019
51
157.854097
0
ARC
8
DEFAULT_255_1_234
10
4.497161
20
21.2261381
40
0.4511509
50
102.8715806
51
140.8564722
0
ARC
8
DEFAULT_255_1_234
10
4.5619226
20
20.9821552
40
0.7034845
50
90.3778349
51
103.5869322
0
ARC
8
DEFAULT_255_1_234
10
4.3881002
20
20.921673
40
0.2370698
50
89.8751008
51
126.2071704
0
ARC
8
DEFAULT_255_1_234
10
4.3926792
20
20.9062303
40
0.2522934
50
124.9745049
51
144.895901
0
ARC
8
DEFAULT_255_1_234
10
4.3750982
20
20.920556
40
0.2296779
50
145.2974905
51
160.2660252
0
ARC
8
DEFAULT_255_1_234
10
4.6823521
20
20.9403071
40
0.5234525
50
179.6514266
51
190.2855912
0
ARC
8
DEFAULT_255_1_234
10
4.5129658
20
20.9083786
40
0.3510893
50
190.0945431
51
207.5098196
0
ARC
8
DEFAULT_255_1_234
10
4.4563928
20
20.8814623
40
0.288489
50
207.9583163
51
216.3251085
0
ARC
8
DEFAULT_255_1_234
10
4.4224036
20
20.8535105
40
0.2445587
50
215.7661442
51
232.5456785
0
ARC
8
DEFAULT_255_1_234
10
4.3841019
20
20.8048482
40
0.1826382
50
232.8005391
51
270.6605633
0
ARC
8
DEFAULT_255_1_234
10
4.388672
20
20.8412612
40
0.2190529
50
269.35537
51
288.4744281
0
ARC
8
DEFAULT_255_1_234
10
4.3979617
20
20.8063118
40
0.1829749
50
289.1833337
51
322.9683818
0
ARC
8
DEFAULT_255_1_234
10
4.3368139
20
20.8545391
40
0.2608399
50
322.6007884
51
346.5182367
0
ARC
8
DEFAULT_255_1_234
10
4.2210735
20
20.8840616
40
0.3802777
50
346.2582162
51
358.7741648
0
ARC
8
DEFAULT_255_1_234
10
4.1192404
20
20.8895965
40
0.4822176
50
358.3755224
51
0.0098023
0
ARC
8
DEFAULT_255_1_234
10
4.1948591
20
20.8923657
40
0.4066078
50
359.6214041
51
11.2839074
0
ARC
8
DEFAULT_255_1_234
10
4.3225738
20
20.9190066
40
0.2761514
50
11.0482309
51
31.8146458
0
ARC
8
DEFAULT_255_1_234
10
4.3534781
20
20.9357584
40
0.2410679
50
32.3035391
51
38.082671
0
ARC
8
DEFAULT_255_1_234
10
4.3955441
20
20.9738662
40
0.1844966
50
36.825067
51
85.7415724
0
ARC
8
DEFAULT_255_1_234
10
4.3888274
20
20.9238301
40
0.2349122
50
85.0140713
51
90.0513278
0
LINE
8
DEFAULT_255_1_234
10
4.1878235
20
29.0086963
11
4.0689538
21
29.0392169
0
LINE
8
DEFAULT_255_1_234
10
4.0689538
20
29.0392169
11
4.1283887
21
29.6223211
0
LINE
8
DEFAULT_255_1_234
10
4.1283887
20
29.6223211
11
4.7275563
21
29.6223211
0
LINE
8
DEFAULT_255_1_234
10
4.7275563
20
29.6223211
11
4.7275563
21
29.4849784
0
LINE
8
DEFAULT_255_1_234
10
4.7275563
20
29.4849784
11
4.254487
21
29.4849784
0
LINE
8
DEFAULT_255_1_234
10
4.254487
20
29.4849784
11
4.2191473
21
29.1661184
0
LINE
8
DEFAULT_255_1_234
10
4.0271888
20
28.7605156
11
4.1677442
21
28.7605156
0
LINE
8
DEFAULT_255_1_234
10
4.2271791
20
29.0408232
11
4.1878235
21
29.0086963
0
ARC
8
DEFAULT_255_1_234
10
4.4046257
20
28.848123
40
0.3681349
50
93.7182161
51
120.2538958
0
ARC
8
DEFAULT_255_1_234
10
4.414052
20
28.7673394
40
0.449379
50
89.9660152
51
94.2496022
0
ARC
8
DEFAULT_255_1_234
10
4.4181254
20
28.8262549
40
0.390482
50
73.8043271
51
90.5585896
0
ARC
8
DEFAULT_255_1_234
10
4.4416151
20
28.9120602
40
0.3015334
50
41.3071453
51
73.5430202
0
ARC
8
DEFAULT_255_1_234
10
4.3999978
20
28.8762324
40
0.3564457
50
13.5075983
51
41.2174222
0
ARC
8
DEFAULT_255_1_234
10
4.2358182
20
28.8332486
40
0.5261351
50
1.1331335
51
13.8829381
0
ARC
8
DEFAULT_255_1_234
10
4.0946551
20
28.8256665
40
0.6674378
50
359.9919444
51
1.544251
0
ARC
8
DEFAULT_255_1_234
10
4.2223377
20
28.821528
40
0.5397702
50
347.8572367
51
0.4293338
0
ARC
8
DEFAULT_255_1_234
10
4.3973695
20
28.7818736
40
0.3603188
50
323.673004
51
348.1672506
0
ARC
8
DEFAULT_255_1_234
10
4.4268203
20
28.7639168
40
0.3259678
50
316.8171152
51
323.1492751
0
ARC
8
DEFAULT_255_1_234
10
4.4329392
20
28.760246
40
0.3189975
50
281.8396411
51
316.5457803
0
ARC
8
DEFAULT_255_1_234
10
4.3953656
20
28.9157762
40
0.4789527
50
269.5770101
51
282.4214771
0
ARC
8
DEFAULT_255_1_234
10
4.3882467
20
28.8944125
40
0.45759
50
256.2427136
51
270.4486331
0
ARC
8
DEFAULT_255_1_234
10
4.358337
20
28.7744229
40
0.3339303
50
228.9023911
51
256.3314342
0
ARC
8
DEFAULT_255_1_234
10
4.3509602
20
28.7627746
40
0.32031
50
193.753695
51
228.5271154
0
ARC
8
DEFAULT_255_1_234
10
4.4747556
20
28.79908
40
0.4492253
50
184.924711
51
194.497588
0
ARC
8
DEFAULT_255_1_234
10
4.4940123
20
28.8026591
40
0.3289787
50
187.3600538
51
198.6732863
0
ARC
8
DEFAULT_255_1_234
10
4.3890417
20
28.7662674
40
0.217884
50
198.4451669
51
217.794479
0
ARC
8
DEFAULT_255_1_234
10
4.3594592
20
28.7453085
40
0.1816698
50
218.2887171
51
228.5612368
0
ARC
8
DEFAULT_255_1_234
10
4.3692379
20
28.7584963
40
0.1980329
50
228.9654866
51
258.1234728
0
ARC
8
DEFAULT_255_1_234
10
4.3898089
20
28.8465833
40
0.2884748
50
257.7258293
51
270.401361
0
ARC
8
DEFAULT_255_1_234
10
4.3942975
20
28.8020821
40
0.2439788
50
269.4204404
51
286.4209037
0
ARC
8
DEFAULT_255_1_234
10
4.4091463
20
28.7481657
40
0.1880666
50
286.7251356
51
320.600362
0
ARC
8
DEFAULT_255_1_234
10
4.3708288
20
28.7792595
40
0.2374121
50
320.6712579
51
344.5441685
0
ARC
8
DEFAULT_255_1_234
10
4.2551614
20
28.8132045
40
0.3579479
50
344.2412205
51
356.7357071
0
ARC
8
DEFAULT_255_1_234
10
4.1302763
20
28.8235444
40
0.4832297
50
356.3548756
51
0.0500261
0
ARC
8
DEFAULT_255_1_234
10
4.2639272
20
28.826665
40
0.3495889
50
359.5576869
51
12.953486
0
ARC
8
DEFAULT_255_1_234
10
4.3694169
20
28.8522434
40
0.2410532
50
12.6490276
51
41.6081334
0
ARC
8
DEFAULT_255_1_234
10
4.392454
20
28.8718321
40
0.2108218
50
41.7850273
51
85.9892764
0
ARC
8
DEFAULT_255_1_234
10
4.3801277
20
28.7905462
40
0.2928454
50
84.6957577
51
90.0676183
0
ARC
8
DEFAULT_255_1_234
10
4.3777761
20
28.7236716
40
0.3597255
50
89.6804936
51
99.1614436
0
ARC
8
DEFAULT_255_1_234
10
4.3572392
20
28.8464131
40
0.235281
50
98.9830931
51
113.8908934
0
ARC
8
DEFAULT_255_1_234
10
4.3342802
20
28.9005587
40
0.176479
50
114.1950727
51
127.3641004
0
LINE
8
DEFAULT_255_1_234
10
4.8395628
20
37.5598211
11
4.8395628
21
36.783152
0
LINE
8
DEFAULT_255_1_234
10
4.8395628
20
36.783152
11
5.0018039
21
36.783152
0
LINE
8
DEFAULT_255_1_234
10
5.0018039
20
36.783152
11
5.0018039
21
36.6618728
0
LINE
8
DEFAULT_255_1_234
10
5.0018039
20
36.6618728
11
4.8395628
21
36.6618728
0
LINE
8
DEFAULT_255_1_234
10
4.8395628
20
36.6618728
11
4.8395628
21
36.3904
0
LINE
8
DEFAULT_255_1_234
10
4.8395628
20
36.3904
11
4.6901725
21
36.3904
0
LINE
8
DEFAULT_255_1_234
10
4.6901725
20
36.3904
11
4.6901725
21
36.6618728
0
LINE
8
DEFAULT_255_1_234
10
4.6901725
20
36.6618728
11
4.1576682
21
36.6618728
0
LINE
8
DEFAULT_255_1_234
10
4.1576682
20
36.6618728
11
4.1576682
21
36.7494187
0
LINE
8
DEFAULT_255_1_234
10
4.1576682
20
36.7494187
11
4.6813375
21
37.5598211
0
LINE
8
DEFAULT_255_1_234
10
4.6813375
20
37.5598211
11
4.8395628
21
37.5598211
0
LINE
8
DEFAULT_255_1_234
10
4.6725026
20
37.3244912
11
4.3263347
21
36.783152
0
LINE
8
DEFAULT_255_1_234
10
4.3263347
20
36.783152
11
4.6901725
21
36.783152
0
LINE
8
DEFAULT_255_1_234
10
4.6901725
20
36.783152
11
4.6901725
21
37.3566181
0
LINE
8
DEFAULT_255_1_234
10
4.6901725
20
37.3566181
11
4.6725026
21
37.3244912
0
LINE
8
DEFAULT_255_1_234
10
4.2167378
20
44.8636169
11
4.2167378
21
44.9848962
0
LINE
8
DEFAULT_255_1_234
10
4.2167378
20
44.9848962
11
4.328379
21
44.9848962
0
LINE
8
DEFAULT_255_1_234
10
4.1380268
20
45.1905087
11
3.9894396
21
45.1905087
0
LINE
8
DEFAULT_255_1_234
10
3.9789983
20
44.6363188
11
4.1283887
21
44.6363188
0
LINE
8
DEFAULT_255_1_234
10
4.328379
20
44.8636169
11
4.2167378
21
44.8636169
0
ARC
8
DEFAULT_255_1_234
10
4.3254656
20
45.3241713
40
0.3392876
50
270.4919872
51
281.8951556
0
ARC
8
DEFAULT_255_1_234
10
4.3495918
20
45.2139702
40
0.2264817
50
281.6691735
51
301.2943132
0
ARC
8
DEFAULT_255_1_234
10
4.3666128
20
45.1828304
40
0.1910381
50
301.7833094
51
311.7545298
0
ARC
8
DEFAULT_255_1_234
10
4.3757704
20
45.1726748
40
0.1773635
50
311.7323931
51
354.2802411
0
ARC
8
DEFAULT_255_1_234
10
4.3031329
20
45.1851722
40
0.2509385
50
353.0937916
51
0.1181479
0
ARC
8
DEFAULT_255_1_234
10
4.2570114
20
45.1899386
40
0.2970898
50
359.1805295
51
15.0453146
0
ARC
8
DEFAULT_255_1_234
10
4.3915951
20
45.2291992
40
0.1569564
50
13.9577229
51
77.6713066
0
ARC
8
DEFAULT_255_1_234
10
4.352948
20
45.0906949
40
0.3006298
50
76.1116566
51
90.7026153
0
ARC
8
DEFAULT_255_1_234
10
4.3470318
20
45.1180545
40
0.2732568
50
89.5324876
51
103.531937
0
ARC
8
DEFAULT_255_1_234
10
4.3269762
20
45.1979884
40
0.1908508
50
103.2931773
51
133.5619022
0
ARC
8
DEFAULT_255_1_234
10
4.3225251
20
45.2039375
40
0.1834746
50
133.8349307
51
173.5344437
0
ARC
8
DEFAULT_255_1_234
10
4.3948294
20
45.1911213
40
0.2568033
50
172.5096846
51
180.1366907
0
ARC
8
DEFAULT_255_1_234
10
4.2997188
20
45.1945622
40
0.3103056
50
155.3484492
51
180.7484736
0
ARC
8
DEFAULT_255_1_234
10
4.2948277
20
45.1916846
40
0.3070957
50
131.5744599
51
154.4798489
0
ARC
8
DEFAULT_255_1_234
10
4.3261424
20
45.160031
40
0.3515643
50
96.9875458
51
131.9690667
0
ARC
8
DEFAULT_255_1_234
10
4.3480904
20
45.0354636
40
0.4779224
50
89.8596053
51
97.7825159
0
ARC
8
DEFAULT_255_1_234
10
4.3528967
20
45.0092616
40
0.5041361
50
78.3655447
51
90.4131539
0
ARC
8
DEFAULT_255_1_234
10
4.3886885
20
45.1751887
40
0.3344039
50
56.6229102
51
78.638727
0
ARC
8
DEFAULT_255_1_234
10
4.4101829
20
45.2127805
40
0.2912001
50
47.0253525
51
56.0854072
0
ARC
8
DEFAULT_255_1_234
10
4.4121609
20
45.2167223
40
0.2869704
50
10.9208013
51
46.7778124
0
ARC
8
DEFAULT_255_1_234
10
4.2757675
20
45.1851857
40
0.426899
50
359.6364486
51
11.6087304
0
ARC
8
DEFAULT_255_1_234
10
4.4592519
20
45.1836752
40
0.243409
50
332.3549906
51
359.7179418
0
ARC
8
DEFAULT_255_1_234
10
4.3942121
20
45.2145142
40
0.3153459
50
325.2333722
51
332.8745602
0
ARC
8
DEFAULT_255_1_234
10
4.4094744
20
45.2038828
40
0.2967456
50
292.9802137
51
325.2392345
0
ARC
8
DEFAULT_255_1_234
10
4.3820118
20
45.2572863
40
0.3566604
50
292.5402179
51
293.6924929
0
ARC
8
DEFAULT_255_1_234
10
4.4212714
20
44.6118091
40
0.3307468
50
57.6435486
51
72.8625112
0
ARC
8
DEFAULT_255_1_234
10
4.4567214
20
44.6692549
40
0.2632492
50
36.7248896
51
57.4697979
0
ARC
8
DEFAULT_255_1_234
10
4.4555847
20
44.670522
40
0.2634081
50
8.0545065
51
36.356114
0
ARC
8
DEFAULT_255_1_234
10
4.3693032
20
44.6550174
40
0.3510261
50
359.8320645
51
8.5869982
0
ARC
8
DEFAULT_255_1_234
10
4.3317808
20
44.6502101
40
0.3885653
50
343.9829931
51
0.5571613
0
ARC
8
DEFAULT_255_1_234
10
4.4204005
20
44.6259438
40
0.2966924
50
311.6359546
51
343.7651759
0
ARC
8
DEFAULT_255_1_234
10
4.3825574
20
44.6686102
40
0.3537231
50
279.7829875
51
311.6255694
0
ARC
8
DEFAULT_255_1_234
10
4.3524351
20
44.812328
40
0.5004971
50
269.7286406
51
280.3856417
0
ARC
8
DEFAULT_255_1_234
10
4.3462423
20
44.8081996
40
0.4963778
50
256.6828919
51
270.4412052
0
ARC
8
DEFAULT_255_1_234
10
4.3123719
20
44.6697394
40
0.3538406
50
229.4223008
51
256.8556159
0
ARC
8
DEFAULT_255_1_234
10
4.2709112
20
44.6230736
40
0.2914296
50
181.818294
51
229.6455059
0
ARC
8
DEFAULT_255_1_234
10
4.3749068
20
44.6361496
40
0.3959084
50
179.9755256
51
183.2323064
0
ARC
8
DEFAULT_255_1_234
10
4.3576814
20
44.6341037
40
0.2293034
50
179.4465117
51
196.2869258
0
ARC
8
DEFAULT_255_1_234
10
4.3089222
20
44.6207651
40
0.1787621
50
196.5661473
51
227.705904
0
ARC
8
DEFAULT_255_1_234
10
4.3253317
20
44.6391155
40
0.2033784
50
227.7652068
51
257.8762805
0
ARC
8
DEFAULT_255_1_234
10
4.3478287
20
44.7334156
40
0.3003081
50
257.4584385
51
270.426602
0
ARC
8
DEFAULT_255_1_234
10
4.3523853
20
44.7623996
40
0.329292
50
269.5962073
51
280.8789248
0
ARC
8
DEFAULT_255_1_234
10
4.3753382
20
44.6477685
40
0.2123908
50
280.6346389
51
299.8595945
0
ARC
8
DEFAULT_255_1_234
10
4.3944289
20
44.6115212
40
0.171457
50
300.3576302
51
314.5517981
0
ARC
8
DEFAULT_255_1_234
10
4.3861349
20
44.6175919
40
0.1816095
50
315.0728369
51
345.0431014
0
ARC
8
DEFAULT_255_1_234
10
4.2938163
20
44.6444841
40
0.2777492
50
344.5986631
51
357.9269593
0
ARC
8
DEFAULT_255_1_234
10
4.2042489
20
44.6506276
40
0.3674917
50
357.4748886
51
0.0231117
0
ARC
8
DEFAULT_255_1_234
10
4.3065599
20
44.6530679
40
0.2651907
50
359.5047933
51
13.4239635
0
ARC
8
DEFAULT_255_1_234
10
4.3932242
20
44.6752478
40
0.1757509
50
12.9498199
51
48.7551375
0
ARC
8
DEFAULT_255_1_234
10
4.3749976
20
44.65034
40
0.2065134
50
49.5088623
51
72.1836453
0
ARC
8
DEFAULT_255_1_234
10
4.3392129
20
44.5441291
40
0.3185836
50
71.9010081
51
84.3554254
0
ARC
8
DEFAULT_255_1_234
10
4.3230761
20
44.4080326
40
0.4556151
50
84.0193428
51
89.333121
0
LINE
8
DEFAULT_255_1_234
10
4.7669119
20
52.3866792
11
4.7669119
21
52.2654
0
LINE
8
DEFAULT_255_1_234
10
4.7669119
20
52.2654
11
4.000684
21
52.2654
0
LINE
8
DEFAULT_255_1_234
10
4.000684
20
52.2654
11
4.000684
21
52.3722221
0
LINE
8
DEFAULT_255_1_234
10
4.000684
20
52.3722221
11
4.4054836
21
52.8219995
0
LINE
8
DEFAULT_255_1_234
10
4.1267823
20
53.0902595
11
3.9781952
21
53.0902595
0
LINE
8
DEFAULT_255_1_234
10
4.4930296
20
52.7264218
11
4.1797918
21
52.3866792
0
LINE
8
DEFAULT_255_1_234
10
4.1797918
20
52.3866792
11
4.7669119
21
52.3866792
0
ARC
8
DEFAULT_255_1_234
10
3.056467
20
54.0149527
40
1.8008286
50
318.5132453
51
320.7828378
0
ARC
8
DEFAULT_255_1_234
10
3.5851644
20
53.5846426
40
1.1191493
50
320.7372736
51
323.9737074
0
ARC
8
DEFAULT_255_1_234
10
3.9771501
20
53.3006361
40
0.6350923
50
323.8961724
51
328.6421089
0
ARC
8
DEFAULT_255_1_234
10
4.1818096
20
53.1744031
40
0.3946393
50
328.8299013
51
331.789948
0
ARC
8
DEFAULT_255_1_234
10
4.2815274
20
53.1229509
40
0.2824501
50
331.4255242
51
352.9364833
0
ARC
8
DEFAULT_255_1_234
10
4.2951775
20
53.1198976
40
0.2685315
50
353.2248685
51
0.0169286
0
ARC
8
DEFAULT_255_1_234
10
4.3161652
20
53.122195
40
0.2475536
50
359.4866256
51
15.9339782
0
ARC
8
DEFAULT_255_1_234
10
4.3668637
20
53.1358286
40
0.1950618
50
16.1714718
51
43.5284424
0
ARC
8
DEFAULT_255_1_234
10
4.3745946
20
53.1435573
40
0.184134
50
43.4415429
51
83.1661404
0
ARC
8
DEFAULT_255_1_234
10
4.3611864
20
53.0698771
40
0.258926
50
82.160215
51
90.1505798
0
ARC
8
DEFAULT_255_1_234
10
4.3580291
20
53.0161865
40
0.3126255
50
89.5460705
51
102.5418777
0
ARC
8
DEFAULT_255_1_234
10
4.3337377
20
53.1192665
40
0.2067346
50
102.1739365
51
129.2061916
0
ARC
8
DEFAULT_255_1_234
10
4.3258449
20
53.1317094
40
0.1921118
50
129.7279328
51
135.7542026
0
ARC
8
DEFAULT_255_1_234
10
4.3379977
20
53.1220045
40
0.2075944
50
136.175737
51
166.3674722
0
ARC
8
DEFAULT_255_1_234
10
4.4386896
20
53.0950182
40
0.3118201
50
165.9092917
51
178.8683903
0
ARC
8
DEFAULT_255_1_234
10
4.5251757
20
53.0903179
40
0.3983935
50
178.438168
51
180.0083905
0
ARC
8
DEFAULT_255_1_234
10
4.3850359
20
53.0942231
40
0.4068601
50
163.2878735
51
180.5581814
0
ARC
8
DEFAULT_255_1_234
10
4.3048621
20
53.116284
40
0.3237344
50
133.454115
51
162.9470031
0
ARC
8
DEFAULT_255_1_234
10
4.3227162
20
53.0973
40
0.349795
50
100.7869394
51
133.4384016
0
ARC
8
DEFAULT_255_1_234
10
4.3574934
20
52.9424319
40
0.5084616
50
89.6605301
51
101.3704185
0
ARC
8
DEFAULT_255_1_234
10
4.3641273
20
52.9485496
40
0.502348
50
78.2171172
51
90.4130393
0
ARC
8
DEFAULT_255_1_234
10
4.3996351
20
53.1109637
40
0.3361092
50
55.9268222
51
78.4888551
0
ARC
8
DEFAULT_255_1_234
10
4.4192791
20
53.1448324
40
0.2970617
50
47.9292255
51
55.4054003
0
ARC
8
DEFAULT_255_1_234
10
4.4294352
20
53.1551502
40
0.2825983
50
4.3347696
51
48.0560701
0
ARC
8
DEFAULT_255_1_234
10
4.3198745
20
53.1381601
40
0.393225
50
359.925209
51
5.5967654
0
ARC
8
DEFAULT_255_1_234
10
4.3627637
20
53.1437816
40
0.3503892
50
337.8914096
51
358.9967724
0
ARC
8
DEFAULT_255_1_234
10
4.0914049
20
53.2484706
40
0.6412172
50
326.9135351
51
338.3505194
0
ARC
8
DEFAULT_255_1_234
10
3.6928353
20
53.5039284
40
1.1146189
50
319.6472867
51
327.095818
0
ARC
8
DEFAULT_255_1_234
10
3.3095356
20
53.8201
40
1.6114559
50
317.2586784
51
319.9046139
0
LINE
8
DEFAULT_255_1_234
10
4.4807137
20
61.3779433
11
4.4807137
21
60.2029
0
LINE
8
DEFAULT_255_1_234
10
4.4807137
20
60.2029
11
4.3313234
21
60.2029
0
LINE
8
DEFAULT_255_1_234
10
4.3313234
20
60.2029
11
4.3313234
21
61.1932133
0
LINE
8
DEFAULT_255_1_234
10
4.3313234
20
61.1932133
11
4.0317396
21
61.0831785
0
LINE
8
DEFAULT_255_1_234
10
4.0317396
20
61.0831785
11
4.0317396
21
61.2181117
0
LINE
8
DEFAULT_255_1_234
10
4.0317396
20
61.2181117
11
4.4574217
21
61.3779433
0
LINE
8
DEFAULT_255_1_234
10
4.4574217
20
61.3779433
11
4.4807137
21
61.3779433
0
LINE
8
DEFAULT_255_1_234
10
4.9008341
20
68.1404
11
4.6470312
21
68.6134694
0
LINE
8
DEFAULT_255_1_234
10
4.6470312
20
68.6134694
11
4.3723458
21
68.6134694
0
LINE
8
DEFAULT_255_1_234
10
4.3723458
20
68.6134694
11
4.3723458
21
68.1404
0
LINE
8
DEFAULT_255_1_234
10
4.3723458
20
68.1404
11
4.2173332
21
68.1404
0
LINE
8
DEFAULT_255_1_234
10
4.2173332
20
68.1404
11
4.2173332
21
69.3098211
0
LINE
8
DEFAULT_255_1_234
10
4.2173332
20
69.3098211
11
4.604463
21
69.3098211
0
LINE
8
DEFAULT_255_1_234
10
4.7916025
20
68.6463995
11
5.0662879
21
68.1500381
0
LINE
8
DEFAULT_255_1_234
10
5.0662879
20
68.1500381
11
5.0662879
21
68.1404
0
LINE
8
DEFAULT_255_1_234
10
5.0662879
20
68.1404
11
4.9008341
21
68.1404
0
LINE
8
DEFAULT_255_1_234
10
4.3723458
20
69.1829196
11
4.3723458
21
68.7395677
0
LINE
8
DEFAULT_255_1_234
10
4.3723458
20
68.7395677
11
4.609282
21
68.7395677
0
LINE
8
DEFAULT_255_1_234
10
4.6084789
20
69.1829196
11
4.3723458
21
69.1829196
0
ARC
8
DEFAULT_255_1_234
10
4.6086269
20
68.6136761
40
0.6961575
50
80.653586
51
90.3427061
0
ARC
8
DEFAULT_255_1_234
10
4.6505744
20
68.8599348
40
0.4463577
50
65.6987447
51
80.8329603
0
ARC
8
DEFAULT_255_1_234
10
4.6983385
20
68.9694322
40
0.3269094
50
50.0017161
51
65.4305835
0
ARC
8
DEFAULT_255_1_234
10
4.7201849
20
68.9989482
40
0.2902647
50
11.628416
51
49.5603263
0
ARC
8
DEFAULT_255_1_234
10
4.5666185
20
68.9614299
40
0.4482792
50
359.5655735
51
12.3691
0
ARC
8
DEFAULT_255_1_234
10
4.6743045
20
68.9551644
40
0.3405924
50
341.9983148
51
0.4822259
0
ARC
8
DEFAULT_255_1_234
10
4.7137885
20
68.9444471
40
0.2997359
50
323.8609373
51
341.61416
0
ARC
8
DEFAULT_255_1_234
10
4.6836129
20
68.9677484
40
0.3378487
50
296.7018614
51
323.6876402
0
ARC
8
DEFAULT_255_1_234
10
4.6395024
20
69.0466235
40
0.4281516
50
290.8086567
51
297.2323311
0
ARC
8
DEFAULT_255_1_234
10
4.6118554
20
69.0989351
40
0.3593766
50
269.589728
51
281.8058135
0
ARC
8
DEFAULT_255_1_234
10
4.6369453
20
68.9841743
40
0.2419125
50
281.5501019
51
303.9357432
0
ARC
8
DEFAULT_255_1_234
10
4.6506641
20
68.9603936
40
0.2145323
50
304.4415616
51
311.2106213
0
ARC
8
DEFAULT_255_1_234
10
4.6638746
20
68.9464632
40
0.1953505
50
310.9875673
51
356.2715578
0
ARC
8
DEFAULT_255_1_234
10
4.5882395
20
68.9577422
40
0.2716331
50
354.9348262
51
0.0609027
0
ARC
8
DEFAULT_255_1_234
10
4.5695269
20
68.9604435
40
0.2903554
50
359.5239371
51
12.8808918
0
ARC
8
DEFAULT_255_1_234
10
4.6672824
20
68.9843728
40
0.1897315
50
12.4173452
51
43.1022135
0
ARC
8
DEFAULT_255_1_234
10
4.6734429
20
68.9880724
40
0.1827118
50
43.5751728
51
48.203944
0
ARC
8
DEFAULT_255_1_234
10
4.6564921
20
68.9659302
40
0.2105272
50
48.7809703
51
72.6969569
0
ARC
8
DEFAULT_255_1_234
10
4.6210546
20
68.858382
40
0.3237537
50
72.3702241
51
84.8791103
0
ARC
8
DEFAULT_255_1_234
10
4.6063022
20
68.7241769
40
0.4587478
50
84.5400526
51
89.7281406
0
LINE
8
DEFAULT_255_1_234
10
5.7208746
20
68.4793394
11
5.7208746
21
69.3098211
0
LINE
8
DEFAULT_255_1_234
10
5.7208746
20
69.3098211
11
5.8758872
21
69.3098211
0
LINE
8
DEFAULT_255_1_234
10
5.8758872
20
69.3098211
11
5.8758872
21
68.4817489
0
LINE
8
DEFAULT_255_1_234
10
5.1377704
20
68.4632759
11
5.2919798
21
68.4632759
0
ARC
8
DEFAULT_255_1_234
10
5.4268057
20
68.4779089
40
0.4490979
50
346.3129415
51
0.4899112
0
ARC
8
DEFAULT_255_1_234
10
5.5636406
20
68.4428729
40
0.3078632
50
313.3793358
51
346.6225026
0
ARC
8
DEFAULT_255_1_234
10
5.5435593
20
68.4681522
40
0.3400404
50
281.1587967
51
312.9131091
0
ARC
8
DEFAULT_255_1_234
10
5.5095056
20
68.6176185
40
0.4932916
50
269.6424364
51
281.6795951
0
ARC
8
DEFAULT_255_1_234
10
5.5026421
20
68.6725382
40
0.5482147
50
258.9990078
51
270.3955952
0
ARC
8
DEFAULT_255_1_234
10
5.4651725
20
68.4876746
40
0.359601
50
239.6256123
51
259.238693
0
ARC
8
DEFAULT_255_1_234
10
5.4362807
20
68.4331669
40
0.2979777
50
227.4959765
51
239.1188186
0
ARC
8
DEFAULT_255_1_234
10
5.4325374
20
68.4270689
40
0.2909561
50
191.339631
51
227.2280909
0
ARC
8
DEFAULT_255_1_234
10
5.5730014
20
68.4603031
40
0.4352412
50
179.6086538
51
191.9934722
0
ARC
8
DEFAULT_255_1_234
10
5.5864037
20
68.4610427
40
0.2944324
50
179.5654258
51
192.070398
0
ARC
8
DEFAULT_255_1_234
10
5.4892527
20
68.4392079
40
0.194866
50
191.7656467
51
215.6461951
0
ARC
8
DEFAULT_255_1_234
10
5.4714027
20
68.4284546
40
0.1741017
50
216.1938368
51
224.3931108
0
ARC
8
DEFAULT_255_1_234
10
5.4720914
20
68.4311473
40
0.1764834
50
224.8613677
51
254.362656
0
ARC
8
DEFAULT_255_1_234
10
5.4991628
20
68.520601
40
0.2699302
50
253.9471729
51
267.3949949
0
ARC
8
DEFAULT_255_1_234
10
5.5062134
20
68.6130067
40
0.362572
50
266.9456419
51
270.0337791
0
ARC
8
DEFAULT_255_1_234
10
5.5087515
20
68.496823
40
0.2463991
50
269.4595111
51
286.1822844
0
ARC
8
DEFAULT_255_1_234
10
5.5228805
20
68.4450047
40
0.1926982
50
286.4416479
51
315.8044008
0
ARC
8
DEFAULT_255_1_234
10
5.5174612
20
68.4492207
40
0.1995241
50
316.0212565
51
345.4794351
0
ARC
8
DEFAULT_255_1_234
10
5.4204118
20
68.4765575
40
0.3003349
50
345.0729543
51
358.325089
0
ARC
8
DEFAULT_255_1_234
10
5.332809
20
68.4821568
40
0.3880759
50
357.8767804
51
359.5840246
0
LINE
8
DEFAULT_255_1_234
10
6.7272514
20
69.3098211
11
6.7272514
21
68.533152
0
LINE
8
DEFAULT_255_1_234
10
6.7272514
20
68.533152
11
6.8894925
21
68.533152
0
LINE
8
DEFAULT_255_1_234
10
6.8894925
20
68.533152
11
6.8894925
21
68.4118728
0
LINE
8
DEFAULT_255_1_234
10
6.8894925
20
68.4118728
11
6.7272514
21
68.4118728
0
LINE
8
DEFAULT_255_1_234
10
6.7272514
20
68.4118728
11
6.7272514
21
68.1404
0
LINE
8
DEFAULT_255_1_234
10
6.7272514
20
68.1404
11
6.5778611
21
68.1404
0
LINE
8
DEFAULT_255_1_234
10
6.5778611
20
68.1404
11
6.5778611
21
68.4118728
0
LINE
8
DEFAULT_255_1_234
10
6.5778611
20
68.4118728
11
6.0453568
21
68.4118728
0
LINE
8
DEFAULT_255_1_234
10
6.0453568
20
68.4118728
11
6.0453568
21
68.4994187
0
LINE
8
DEFAULT_255_1_234
10
6.0453568
20
68.4994187
11
6.5690262
21
69.3098211
0
LINE
8
DEFAULT_255_1_234
10
6.5690262
20
69.3098211
11
6.7272514
21
69.3098211
0
LINE
8
DEFAULT_255_1_234
10
6.5601913
20
69.0744912
11
6.2140233
21
68.533152
0
LINE
8
DEFAULT_255_1_234
10
6.2140233
20
68.533152
11
6.5778611
21
68.533152
0
LINE
8
DEFAULT_255_1_234
10
6.5778611
20
68.533152
11
6.5778611
21
69.1066181
0
LINE
8
DEFAULT_255_1_234
10
6.5778611
20
69.1066181
11
6.5601913
21
69.0744912
0
LINE
8
DEFAULT_255_1_234
10
7.2107621
20
68.6961963
11
7.0918923
21
68.7267169
0
LINE
8
DEFAULT_255_1_234
10
7.0918923
20
68.7267169
11
7.1513272
21
69.3098211
0
LINE
8
DEFAULT_255_1_234
10
7.1513272
20
69.3098211
11
7.7504949
21
69.3098211
0
LINE
8
DEFAULT_255_1_234
10
7.7504949
20
69.3098211
11
7.7504949
21
69.1724784
0
LINE
8
DEFAULT_255_1_234
10
7.7504949
20
69.1724784
11
7.2774255
21
69.1724784
0
LINE
8
DEFAULT_255_1_234
10
7.2774255
20
69.1724784
11
7.2420858
21
68.8536184
0
LINE
8
DEFAULT_255_1_234
10
7.0501273
20
68.4480156
11
7.1906827
21
68.4480156
0
LINE
8
DEFAULT_255_1_234
10
7.2501176
20
68.7283232
11
7.2107621
21
68.6961963
0
ARC
8
DEFAULT_255_1_234
10
7.4275642
20
68.535623
40
0.3681349
50
93.7182161
51
120.2538958
0
ARC
8
DEFAULT_255_1_234
10
7.4369905
20
68.4548394
40
0.449379
50
89.9660152
51
94.2496022
0
ARC
8
DEFAULT_255_1_234
10
7.4410639
20
68.5137549
40
0.390482
50
73.8043271
51
90.5585896
0
ARC
8
DEFAULT_255_1_234
10
7.4645536
20
68.5995602
40
0.3015334
50
41.3071453
51
73.5430202
0
ARC
8
DEFAULT_255_1_234
10
7.4229364
20
68.5637324
40
0.3564457
50
13.5075983
51
41.2174222
0
ARC
8
DEFAULT_255_1_234
10
7.2587567
20
68.5207486
40
0.5261351
50
1.1331335
51
13.8829381
0
ARC
8
DEFAULT_255_1_234
10
7.1175936
20
68.5131665
40
0.6674378
50
359.9919444
51
1.544251
0
ARC
8
DEFAULT_255_1_234
10
7.2452763
20
68.509028
40
0.5397702
50
347.8572367
51
0.4293338
0
ARC
8
DEFAULT_255_1_234
10
7.420308
20
68.4693736
40
0.3603188
50
323.673004
51
348.1672506
0
ARC
8
DEFAULT_255_1_234
10
7.4497588
20
68.4514168
40
0.3259678
50
316.8171152
51
323.1492751
0
ARC
8
DEFAULT_255_1_234
10
7.4558777
20
68.447746
40
0.3189975
50
281.8396411
51
316.5457803
0
ARC
8
DEFAULT_255_1_234
10
7.4183041
20
68.6032762
40
0.4789527
50
269.5770101
51
282.4214771
0
ARC
8
DEFAULT_255_1_234
10
7.4111853
20
68.5819125
40
0.45759
50
256.2427136
51
270.4486331
0
ARC
8
DEFAULT_255_1_234
10
7.3812755
20
68.4619229
40
0.3339303
50
228.9023911
51
256.3314342
0
ARC
8
DEFAULT_255_1_234
10
7.3738988
20
68.4502746
40
0.32031
50
193.753695
51
228.5271154
0
ARC
8
DEFAULT_255_1_234
10
7.4976941
20
68.48658
40
0.4492253
50
184.924711
51
194.497588
0
ARC
8
DEFAULT_255_1_234
10
7.5169508
20
68.4901591
40
0.3289787
50
187.3600538
51
198.6732863
0
ARC
8
DEFAULT_255_1_234
10
7.4119802
20
68.4537674
40
0.217884
50
198.4451669
51
217.794479
0
ARC
8
DEFAULT_255_1_234
10
7.3823977
20
68.4328085
40
0.1816698
50
218.2887171
51
228.5612368
0
ARC
8
DEFAULT_255_1_234
10
7.3921764
20
68.4459963
40
0.1980329
50
228.9654866
51
258.1234728
0
ARC
8
DEFAULT_255_1_234
10
7.4127474
20
68.5340833
40
0.2884748
50
257.7258293
51
270.401361
0
ARC
8
DEFAULT_255_1_234
10
7.4172361
20
68.4895821
40
0.2439788
50
269.4204404
51
286.4209037
0
ARC
8
DEFAULT_255_1_234
10
7.4320848
20
68.4356657
40
0.1880666
50
286.7251356
51
320.600362
0
ARC
8
DEFAULT_255_1_234
10
7.3937673
20
68.4667595
40
0.2374121
50
320.6712579
51
344.5441685
0
ARC
8
DEFAULT_255_1_234
10
7.2780999
20
68.5007045
40
0.3579479
50
344.2412205
51
356.7357071
0
ARC
8
DEFAULT_255_1_234
10
7.1532148
20
68.5110444
40
0.4832297
50
356.3548756
51
0.0500261
0
ARC
8
DEFAULT_255_1_234
10
7.2868657
20
68.514165
40
0.3495889
50
359.5576869
51
12.953486
0
ARC
8
DEFAULT_255_1_234
10
7.3923555
20
68.5397434
40
0.2410532
50
12.6490276
51
41.6081334
0
ARC
8
DEFAULT_255_1_234
10
7.4153926
20
68.5593321
40
0.2108218
50
41.7850273
51
85.9892764
0
ARC
8
DEFAULT_255_1_234
10
7.4030662
20
68.4780462
40
0.2928454
50
84.6957577
51
90.0676183
0
ARC
8
DEFAULT_255_1_234
10
7.4007146
20
68.4111716
40
0.3597255
50
89.6804936
51
99.1614436
0
ARC
8
DEFAULT_255_1_234
10
7.3801777
20
68.5339131
40
0.235281
50
98.9830931
51
113.8908934
0
ARC
8
DEFAULT_255_1_234
10
7.3572188
20
68.5880587
40
0.176479
50
114.1950727
51
127.3641004
0
LINE
8
DEFAULT_255_1_234
10
23.1656817
20
76.7694327
11
23.1656817
21
76.5766709
0
LINE
8
DEFAULT_255_1_234
10
22.427565
20
76.5565916
11
22.427565
21
76.7549755
0
LINE
8
DEFAULT_255_1_234
10
23.0170946
20
76.5365123
11
23.0170946
21
76.7798739
0
LINE
8
DEFAULT_255_1_234
10
22.5761521
20
76.7911184
11
22.5761521
21
76.5533789
0
ARC
8
DEFAULT_255_1_234
10
21.9409707
20
76.5717805
40
1.2247208
50
353.8441951
51
0.2287902
0
ARC
8
DEFAULT_255_1_234
10
22.4049211
20
76.5199806
40
0.7578929
50
344.4934747
51
353.9765454
0
ARC
8
DEFAULT_255_1_234
10
22.7041801
20
76.4348981
40
0.4467846
50
329.2803592
51
344.7472793
0
ARC
8
DEFAULT_255_1_234
10
22.8034626
20
76.3804018
40
0.3336173
50
324.9352394
51
328.6160465
0
ARC
8
DEFAULT_255_1_234
10
22.8411734
20
76.3540427
40
0.2876076
50
280.580143
51
324.9173126
0
ARC
8
DEFAULT_255_1_234
10
22.8010527
20
76.5211099
40
0.4592847
50
269.5977311
51
281.6734359
0
ARC
8
DEFAULT_255_1_234
10
22.7938433
20
76.5091173
40
0.4472986
50
256.6228859
51
270.51044
0
ARC
8
DEFAULT_255_1_234
10
22.753641
20
76.3542877
40
0.2873874
50
215.8618325
51
257.2788573
0
ARC
8
DEFAULT_255_1_234
10
22.8557442
20
76.4227977
40
0.4102928
50
197.9693508
51
215.2623606
0
ARC
8
DEFAULT_255_1_234
10
23.1042558
20
76.5066709
40
0.6725652
50
187.8816417
51
198.2346507
0
ARC
8
DEFAULT_255_1_234
10
23.5000766
20
76.5638079
40
1.0724845
50
180.8976217
51
188.0055519
0
ARC
8
DEFAULT_255_1_234
10
23.7800954
20
76.5741777
40
1.3526448
50
180.7449369
51
181.1510016
0
ARC
8
DEFAULT_255_1_234
10
23.6223683
20
76.7598042
40
1.1948131
50
173.7675579
51
180.231553
0
ARC
8
DEFAULT_255_1_234
10
23.170583
20
76.8108666
40
0.7401564
50
164.3058563
51
173.9002247
0
ARC
8
DEFAULT_255_1_234
10
22.8793899
20
76.8947656
40
0.4371288
50
148.7922025
51
164.568378
0
ARC
8
DEFAULT_255_1_234
10
22.7842351
20
76.9478929
40
0.3282386
50
144.5883898
51
148.1176286
0
ARC
8
DEFAULT_255_1_234
10
22.7499249
20
76.9718315
40
0.2864044
50
101.6440918
51
144.514236
0
ARC
8
DEFAULT_255_1_234
10
22.7924315
20
76.8029069
40
0.4604934
50
89.5284041
51
102.5819763
0
ARC
8
DEFAULT_255_1_234
10
22.8003403
20
76.7990018
40
0.464401
50
77.0437873
51
90.5081339
0
ARC
8
DEFAULT_255_1_234
10
22.8405405
20
76.9632615
40
0.2953195
50
48.2778575
51
77.4994676
0
ARC
8
DEFAULT_255_1_234
10
22.8478036
20
76.9761746
40
0.2808655
50
36.3142134
51
47.6305865
0
ARC
8
DEFAULT_255_1_234
10
22.7609343
20
76.9176515
40
0.3855453
50
18.2931786
51
35.6769206
0
ARC
8
DEFAULT_255_1_234
10
22.5066102
20
76.8303593
40
0.654423
50
8.024666
51
18.5605216
0
ARC
8
DEFAULT_255_1_234
10
22.0903022
20
76.7688792
40
1.0752407
50
1.1274072
51
8.1718305
0
ARC
8
DEFAULT_255_1_234
10
21.7667213
20
76.7561885
40
1.3990231
50
0.5424119
51
1.3863029
0
ARC
8
DEFAULT_255_1_234
10
21.948859
20
76.7834342
40
1.0682415
50
359.8090433
51
4.9407866
0
ARC
8
DEFAULT_255_1_234
10
22.3698604
20
76.8210113
40
0.6455691
50
4.8362157
51
12.2904523
0
ARC
8
DEFAULT_255_1_234
10
22.6453719
20
76.8823965
40
0.3633074
50
12.0805627
51
23.8173984
0
ARC
8
DEFAULT_255_1_234
10
22.7627425
20
76.9320919
40
0.2358723
50
24.2871213
51
31.3935614
0
ARC
8
DEFAULT_255_1_234
10
22.8152122
20
76.9664233
40
0.1732111
50
30.7407893
51
82.4657128
0
ARC
8
DEFAULT_255_1_234
10
22.7972256
20
76.8780691
40
0.263235
50
81.1060089
51
90.2184952
0
ARC
8
DEFAULT_255_1_234
10
22.7936555
20
76.9038924
40
0.2374236
50
89.3806855
51
105.6762551
0
ARC
8
DEFAULT_255_1_234
10
22.7753186
20
76.9705567
40
0.1682847
50
105.7981136
51
149.7388061
0
ARC
8
DEFAULT_255_1_234
10
22.8817264
20
76.906595
40
0.2924306
50
149.4208916
51
163.6286378
0
ARC
8
DEFAULT_255_1_234
10
23.0908152
20
76.842825
40
0.5110213
50
163.3763315
51
172.1410975
0
ARC
8
DEFAULT_255_1_234
10
23.4208871
20
76.7955518
40
0.8444586
50
172.0259487
51
178.0703232
0
ARC
8
DEFAULT_255_1_234
10
23.723896
20
76.7811906
40
1.1477868
50
177.8631668
51
179.5044149
0
ARC
8
DEFAULT_255_1_234
10
23.6166365
20
76.5497389
40
1.0404907
50
179.7995573
51
185.2460446
0
ARC
8
DEFAULT_255_1_234
10
23.2123404
20
76.5114513
40
0.6343885
50
185.1411642
51
193.0079639
0
ARC
8
DEFAULT_255_1_234
10
22.9479877
20
76.4489641
40
0.3627568
50
192.7897626
51
205.2507664
0
ARC
8
DEFAULT_255_1_234
10
22.8433424
20
76.4022415
40
0.2481908
50
205.8005384
51
211.2537509
0
ARC
8
DEFAULT_255_1_234
10
22.7909864
20
76.367158
40
0.1852521
50
210.3789793
51
238.4008143
0
ARC
8
DEFAULT_255_1_234
10
22.7890386
20
76.3718376
40
0.1882621
50
239.6520629
51
265.9793761
0
ARC
8
DEFAULT_255_1_234
10
22.7975586
20
76.4390427
40
0.2559272
50
265.1315437
51
270.060332
0
ARC
8
DEFAULT_255_1_234
10
22.8004365
20
76.4066534
40
0.2235528
50
269.3314664
51
287.2178029
0
ARC
8
DEFAULT_255_1_234
10
22.8142217
20
76.3563279
40
0.1714108
50
287.7958004
51
329.080874
0
ARC
8
DEFAULT_255_1_234
10
22.7184674
20
76.416093
40
0.2842745
50
328.6634704
51
343.3325132
0
ARC
8
DEFAULT_255_1_234
10
22.5011694
20
76.4837863
40
0.5118644
50
343.0499468
51
351.9393422
0
ARC
8
DEFAULT_255_1_234
10
22.1544994
20
76.5348949
40
0.8622784
50
351.8069023
51
357.7959224
0
ARC
8
DEFAULT_255_1_234
10
21.830955
20
76.5516721
40
1.1862365
50
357.5871873
51
359.2677531
0
LINE
8
DEFAULT_255_1_234
10
23.4492021
20
77.2473211
11
23.7817161
21
76.2827093
0
LINE
8
DEFAULT_255_1_234
10
23.7817161
20
76.2827093
11
24.1158364
21
77.2473211
0
LINE
8
DEFAULT_255_1_234
10
24.1158364
20
77.2473211
11
24.2845029
21
77.2473211
0
LINE
8
DEFAULT_255_1_234
10
24.2845029
20
77.2473211
11
23.850789
21
76.0779
0
LINE
8
DEFAULT_255_1_234
10
23.850789
20
76.0779
11
23.7142495
21
76.0779
0
LINE
8
DEFAULT_255_1_234
10
23.7142495
20
76.0779
11
23.2813388
21
77.2473211
0
LINE
8
DEFAULT_255_1_234
10
23.2813388
20
77.2473211
11
23.4492021
21
77.2473211
0
ENDSEC
0
EOF