0
SECTION
2
HEADER
9
$MEASUREMENT
70
1
0
ENDSEC
0
SECTION
2
TABLES
0
TABLE
2
LTYPE
0
LTYPE
72
65
70
64
2
CONTINUOUS
3
______
73
0
40
0
0
ENDTAB
0
TABLE
2
LAYER
0
LAYER
2
DEFAULT_255_2_778
70
0
62
255
6
CONTINUOUS
0
LAYER
2
DEFAULT_255_1_234
70
0
62
255
6
CONTINUOUS
0
ENDTAB
0
ENDSEC
0
SECTION
2
ENTITIES
0
ARC
8
DEFAULT_255_2_778
10
3.5700693
20
51.9926534
40
0.7914215
50
129.1312896
51
180.1450914
0
ARC
8
DEFAULT_255_2_778
10
3.5703345
20
51.9931405
40
0.7912112
50
89.854026
51
129.1684493
0
ARC
8
DEFAULT_255_2_778
10
25.7993937
20
51.992827
40
0.7915249
50
39.4792447
51
90.147911
0
ARC
8
DEFAULT_255_2_778
10
25.7999935
20
51.9926737
40
0.7911595
50
359.8533901
51
39.5154338
0
ARC
8
DEFAULT_255_2_778
10
25.7996693
20
-1.9863989
40
0.7914836
50
309.4761667
51
0.1482649
0
ARC
8
DEFAULT_255_2_778
10
25.799398
20
-1.98683
40
0.7913235
50
269.8517415
51
309.511178
0
ARC
8
DEFAULT_255_2_778
10
3.570342
20
-1.9867718
40
0.7913815
50
219.1282118
51
270.1454017
0
ARC
8
DEFAULT_255_2_778
10
3.5700247
20
-1.9863893
40
0.7913769
50
179.8524075
51
219.1641908
0
LINE
8
DEFAULT_255_2_778
10
3.5723503
20
52.7843492
11
25.7973503
21
52.7843492
0
LINE
8
DEFAULT_255_2_778
10
26.5911503
20
51.9906492
11
26.5911503
21
-1.9843508
0
LINE
8
DEFAULT_255_2_778
10
25.7973503
20
-2.7781508
11
3.5723503
21
-2.7781508
0
LINE
8
DEFAULT_255_2_778
10
2.7786503
20
-1.9843508
11
2.7786503
21
51.9906492
0
LINE
8
DEFAULT_255_1_234
10
10.128485
20
-0.0087609
11
10.128485
21
-0.1348592
0
LINE
8
DEFAULT_255_1_234
10
10.128485
20
-0.1348592
11
9.6377458
21
-0.1348592
0
LINE
8
DEFAULT_255_1_234
10
9.6377458
20
-0.1348592
11
9.6377458
21
-0.6513
0
LINE
8
DEFAULT_255_1_234
10
9.6377458
20
-0.6513
11
9.4835364
21
-0.6513
0
LINE
8
DEFAULT_255_1_234
10
9.4835364
20
-0.6513
11
9.4835364
21
0.5181211
0
LINE
8
DEFAULT_255_1_234
10
9.4835364
20
0.5181211
11
10.2079992
21
0.5181211
0
LINE
8
DEFAULT_255_1_234
10
10.2079992
20
0.5181211
11
10.2079992
21
0.3912196
0
LINE
8
DEFAULT_255_1_234
10
10.2079992
20
0.3912196
11
9.6377458
21
0.3912196
0
LINE
8
DEFAULT_255_1_234
10
9.6377458
20
0.3912196
11
9.6377458
21
-0.0087609
0
LINE
8
DEFAULT_255_1_234
10
9.6377458
20
-0.0087609
11
10.128485
21
-0.0087609
0
LINE
8
DEFAULT_255_1_234
10
10.4923227
20
0.5181211
11
10.7742367
21
0.0699501
0
LINE
8
DEFAULT_255_1_234
10
10.7742367
20
0.0699501
11
11.0545444
21
0.5181211
0
LINE
8
DEFAULT_255_1_234
10
11.0545444
20
0.5181211
11
11.2360617
21
0.5181211
0
LINE
8
DEFAULT_255_1_234
10
11.2360617
20
0.5181211
11
10.8666017
21
-0.0617704
0
LINE
8
DEFAULT_255_1_234
10
10.8666017
20
-0.0617704
11
11.2448966
21
-0.6513
0
LINE
8
DEFAULT_255_1_234
10
11.2448966
20
-0.6513
11
11.0617729
21
-0.6513
0
LINE
8
DEFAULT_255_1_234
10
11.0617729
20
-0.6513
11
10.7742367
21
-0.1950973
0
LINE
8
DEFAULT_255_1_234
10
10.7742367
20
-0.1950973
11
10.4850941
21
-0.6513
0
LINE
8
DEFAULT_255_1_234
10
10.4850941
20
-0.6513
11
10.3027737
21
-0.6513
0
LINE
8
DEFAULT_255_1_234
10
10.3027737
20
-0.6513
11
10.6818717
21
-0.0617704
0
LINE
8
DEFAULT_255_1_234
10
10.6818717
20
-0.0617704
11
10.3116086
21
0.5181211
0
LINE
8
DEFAULT_255_1_234
10
10.3116086
20
0.5181211
11
10.4923227
21
0.5181211
0
LINE
8
DEFAULT_255_1_234
10
11.5725915
20
-0.0955037
11
11.4537218
21
-0.0649831
0
LINE
8
DEFAULT_255_1_234
10
11.4537218
20
-0.0649831
11
11.5131566
21
0.5181211
0
LINE
8
DEFAULT_255_1_234
10
11.5131566
20
0.5181211
11
12.1123243
21
0.5181211
0
LINE
8
DEFAULT_255_1_234
10
12.1123243
20
0.5181211
11
12.1123243
21
0.3807784
0
LINE
8
DEFAULT_255_1_234
10
12.1123243
20
0.3807784
11
11.6392549
21
0.3807784
0
LINE
8
DEFAULT_255_1_234
10
11.6392549
20
0.3807784
11
11.6039153
21
0.0619184
0
LINE
8
DEFAULT_255_1_234
10
11.4119567
20
-0.3436844
11
11.5525122
21
-0.3436844
0
LINE
8
DEFAULT_255_1_234
10
11.611947
20
-0.0633768
11
11.5725915
21
-0.0955037
0
ARC
8
DEFAULT_255_1_234
10
11.7893937
20
-0.256077
40
0.3681349
50
93.7182161
51
120.2538958
0
ARC
8
DEFAULT_255_1_234
10
11.79882
20
-0.3368606
40
0.449379
50
89.9660152
51
94.2496022
0
ARC
8
DEFAULT_255_1_234
10
11.8028934
20
-0.2779451
40
0.390482
50
73.8043271
51
90.5585896
0
ARC
8
DEFAULT_255_1_234
10
11.8263831
20
-0.1921398
40
0.3015334
50
41.3071453
51
73.5430202
0
ARC
8
DEFAULT_255_1_234
10
11.7847658
20
-0.2279676
40
0.3564457
50
13.5075983
51
41.2174222
0
ARC
8
DEFAULT_255_1_234
10
11.6205862
20
-0.2709514
40
0.5261351
50
1.1331335
51
13.8829381
0
ARC
8
DEFAULT_255_1_234
10
11.4794231
20
-0.2785335
40
0.6674378
50
359.9919444
51
1.544251
0
ARC
8
DEFAULT_255_1_234
10
11.6071057
20
-0.282672
40
0.5397702
50
347.8572367
51
0.4293338
0
ARC
8
DEFAULT_255_1_234
10
11.7821375
20
-0.3223264
40
0.3603188
50
323.673004
51
348.1672506
0
ARC
8
DEFAULT_255_1_234
10
11.8115883
20
-0.3402832
40
0.3259678
50
316.8171152
51
323.1492751
0
ARC
8
DEFAULT_255_1_234
10
11.8177072
20
-0.343954
40
0.3189975
50
281.8396411
51
316.5457803
0
ARC
8
DEFAULT_255_1_234
10
11.7801335
20
-0.1884238
40
0.4789527
50
269.5770101
51
282.4214771
0
ARC
8
DEFAULT_255_1_234
10
11.7730147
20
-0.2097875
40
0.45759
50
256.2427136
51
270.4486331
0
ARC
8
DEFAULT_255_1_234
10
11.7431049
20
-0.3297771
40
0.3339303
50
228.9023911
51
256.3314342
0
ARC
8
DEFAULT_255_1_234
10
11.7357282
20
-0.3414254
40
0.32031
50
193.753695
51
228.5271154
0
ARC
8
DEFAULT_255_1_234
10
11.8595236
20
-0.30512
40
0.4492253
50
184.924711
51
194.497588
0
ARC
8
DEFAULT_255_1_234
10
11.8787803
20
-0.3015409
40
0.3289787
50
187.3600538
51
198.6732863
0
ARC
8
DEFAULT_255_1_234
10
11.7738097
20
-0.3379326
40
0.217884
50
198.4451669
51
217.794479
0
ARC
8
DEFAULT_255_1_234
10
11.7442272
20
-0.3588915
40
0.1816698
50
218.2887171
51
228.5612368
0
ARC
8
DEFAULT_255_1_234
10
11.7540059
20
-0.3457037
40
0.1980329
50
228.9654866
51
258.1234728
0
ARC
8
DEFAULT_255_1_234
10
11.7745769
20
-0.2576167
40
0.2884748
50
257.7258293
51
270.401361
0
ARC
8
DEFAULT_255_1_234
10
11.7790655
20
-0.3021179
40
0.2439788
50
269.4204404
51
286.4209037
0
ARC
8
DEFAULT_255_1_234
10
11.7939143
20
-0.3560343
40
0.1880666
50
286.7251356
51
320.600362
0
ARC
8
DEFAULT_255_1_234
10
11.7555968
20
-0.3249405
40
0.2374121
50
320.6712579
51
344.5441685
0
ARC
8
DEFAULT_255_1_234
10
11.6399294
20
-0.2909955
40
0.3579479
50
344.2412205
51
356.7357071
0
ARC
8
DEFAULT_255_1_234
10
11.5150442
20
-0.2806556
40
0.4832297
50
356.3548756
51
0.0500261
0
ARC
8
DEFAULT_255_1_234
10
11.6486952
20
-0.277535
40
0.3495889
50
359.5576869
51
12.953486
0
ARC
8
DEFAULT_255_1_234
10
11.7541849
20
-0.2519566
40
0.2410532
50
12.6490276
51
41.6081334
0
ARC
8
DEFAULT_255_1_234
10
11.777222
20
-0.2323679
40
0.2108218
50
41.7850273
51
85.9892764
0
ARC
8
DEFAULT_255_1_234
10
11.7648957
20
-0.3136538
40
0.2928454
50
84.6957577
51
90.0676183
0
ARC
8
DEFAULT_255_1_234
10
11.7625441
20
-0.3805284
40
0.3597255
50
89.6804936
51
99.1614436
0
ARC
8
DEFAULT_255_1_234
10
11.7420072
20
-0.2577869
40
0.235281
50
98.9830931
51
113.8908934
0
ARC
8
DEFAULT_255_1_234
10
11.7190482
20
-0.2036413
40
0.176479
50
114.1950727
51
127.3641004
0
LINE
8
DEFAULT_255_1_234
10
12.6335841
20
-0.0938974
11
12.6335841
21
-0.2151766
0
LINE
8
DEFAULT_255_1_234
10
12.6335841
20
-0.2151766
11
12.2416353
21
-0.2151766
0
LINE
8
DEFAULT_255_1_234
10
12.2416353
20
-0.2151766
11
12.2416353
21
-0.0938974
0
LINE
8
DEFAULT_255_1_234
10
12.2416353
20
-0.0938974
11
12.6335841
21
-0.0938974
0
LINE
8
DEFAULT_255_1_234
10
13.3901739
20
0.5181211
11
13.3901739
21
-0.258548
0
LINE
8
DEFAULT_255_1_234
10
13.3901739
20
-0.258548
11
13.552415
21
-0.258548
0
LINE
8
DEFAULT_255_1_234
10
13.552415
20
-0.258548
11
13.552415
21
-0.3798272
0
LINE
8
DEFAULT_255_1_234
10
13.552415
20
-0.3798272
11
13.3901739
21
-0.3798272
0
LINE
8
DEFAULT_255_1_234
10
13.3901739
20
-0.3798272
11
13.3901739
21
-0.6513
0
LINE
8
DEFAULT_255_1_234
10
13.3901739
20
-0.6513
11
13.2407835
21
-0.6513
0
LINE
8
DEFAULT_255_1_234
10
13.2407835
20
-0.6513
11
13.2407835
21
-0.3798272
0
LINE
8
DEFAULT_255_1_234
10
13.2407835
20
-0.3798272
11
12.7082793
21
-0.3798272
0
LINE
8
DEFAULT_255_1_234
10
12.7082793
20
-0.3798272
11
12.7082793
21
-0.2922813
0
LINE
8
DEFAULT_255_1_234
10
12.7082793
20
-0.2922813
11
13.2319486
21
0.5181211
0
LINE
8
DEFAULT_255_1_234
10
13.2319486
20
0.5181211
11
13.3901739
21
0.5181211
0
LINE
8
DEFAULT_255_1_234
10
13.2231137
20
0.2827912
11
12.8769458
21
-0.258548
0
LINE
8
DEFAULT_255_1_234
10
12.8769458
20
-0.258548
11
13.2407835
21
-0.258548
0
LINE
8
DEFAULT_255_1_234
10
13.2407835
20
-0.258548
11
13.2407835
21
0.3149181
0
LINE
8
DEFAULT_255_1_234
10
13.2407835
20
0.3149181
11
13.2231137
21
0.2827912
0
LINE
8
DEFAULT_255_1_234
10
14.4198427
20
0.0402327
11
14.4198427
21
-0.1525291
0
LINE
8
DEFAULT_255_1_234
10
13.681726
20
-0.1726084
11
13.681726
21
0.0257755
0
LINE
8
DEFAULT_255_1_234
10
14.2712556
20
-0.1926877
11
14.2712556
21
0.0506739
0
LINE
8
DEFAULT_255_1_234
10
13.8303131
20
0.0619184
11
13.8303131
21
-0.1758211
0
ARC
8
DEFAULT_255_1_234
10
13.1951317
20
-0.1574195
40
1.2247208
50
353.8441951
51
0.2287902
0
ARC
8
DEFAULT_255_1_234
10
13.659082
20
-0.2092194
40
0.7578929
50
344.4934747
51
353.9765454
0
ARC
8
DEFAULT_255_1_234
10
13.9583411
20
-0.2943019
40
0.4467846
50
329.2803592
51
344.7472793
0
ARC
8
DEFAULT_255_1_234
10
14.0576236
20
-0.3487982
40
0.3336173
50
324.9352394
51
328.6160465
0
ARC
8
DEFAULT_255_1_234
10
14.0953344
20
-0.3751573
40
0.2876076
50
280.580143
51
324.9173126
0
ARC
8
DEFAULT_255_1_234
10
14.0552137
20
-0.2080901
40
0.4592847
50
269.5977311
51
281.6734359
0
ARC
8
DEFAULT_255_1_234
10
14.0480042
20
-0.2200827
40
0.4472986
50
256.6228859
51
270.51044
0
ARC
8
DEFAULT_255_1_234
10
14.007802
20
-0.3749123
40
0.2873874
50
215.8618325
51
257.2788573
0
ARC
8
DEFAULT_255_1_234
10
14.1099052
20
-0.3064023
40
0.4102928
50
197.9693508
51
215.2623606
0
ARC
8
DEFAULT_255_1_234
10
14.3584167
20
-0.2225291
40
0.6725652
50
187.8816417
51
198.2346507
0
ARC
8
DEFAULT_255_1_234
10
14.7542376
20
-0.1653921
40
1.0724845
50
180.8976217
51
188.0055519
0
ARC
8
DEFAULT_255_1_234
10
15.0342564
20
-0.1550223
40
1.3526448
50
180.7449369
51
181.1510016
0
ARC
8
DEFAULT_255_1_234
10
14.8765293
20
0.0306042
40
1.1948131
50
173.7675579
51
180.231553
0
ARC
8
DEFAULT_255_1_234
10
14.424744
20
0.0816666
40
0.7401564
50
164.3058563
51
173.9002247
0
ARC
8
DEFAULT_255_1_234
10
14.1335508
20
0.1655656
40
0.4371288
50
148.7922025
51
164.568378
0
ARC
8
DEFAULT_255_1_234
10
14.0383961
20
0.2186929
40
0.3282386
50
144.5883898
51
148.1176286
0
ARC
8
DEFAULT_255_1_234
10
14.0040858
20
0.2426315
40
0.2864044
50
101.6440918
51
144.514236
0
ARC
8
DEFAULT_255_1_234
10
14.0465925
20
0.0737069
40
0.4604934
50
89.5284041
51
102.5819763
0
ARC
8
DEFAULT_255_1_234
10
14.0545013
20
0.0698018
40
0.464401
50
77.0437873
51
90.5081339
0
ARC
8
DEFAULT_255_1_234
10
14.0947015
20
0.2340615
40
0.2953195
50
48.2778575
51
77.4994676
0
ARC
8
DEFAULT_255_1_234
10
14.1019646
20
0.2469746
40
0.2808655
50
36.3142134
51
47.6305865
0
ARC
8
DEFAULT_255_1_234
10
14.0150953
20
0.1884515
40
0.3855453
50
18.2931786
51
35.6769206
0
ARC
8
DEFAULT_255_1_234
10
13.7607712
20
0.1011593
40
0.654423
50
8.024666
51
18.5605216
0
ARC
8
DEFAULT_255_1_234
10
13.3444632
20
0.0396792
40
1.0752407
50
1.1274072
51
8.1718305
0
ARC
8
DEFAULT_255_1_234
10
13.0208822
20
0.0269885
40
1.3990231
50
0.5424119
51
1.3863029
0
ARC
8
DEFAULT_255_1_234
10
13.20302
20
0.0542342
40
1.0682415
50
359.8090433
51
4.9407866
0
ARC
8
DEFAULT_255_1_234
10
13.6240214
20
0.0918113
40
0.6455691
50
4.8362157
51
12.2904523
0
ARC
8
DEFAULT_255_1_234
10
13.8995329
20
0.1531965
40
0.3633074
50
12.0805627
51
23.8173984
0
ARC
8
DEFAULT_255_1_234
10
14.0169034
20
0.2028919
40
0.2358723
50
24.2871213
51
31.3935614
0
ARC
8
DEFAULT_255_1_234
10
14.0693732
20
0.2372233
40
0.1732111
50
30.7407893
51
82.4657128
0
ARC
8
DEFAULT_255_1_234
10
14.0513866
20
0.1488691
40
0.263235
50
81.1060089
51
90.2184952
0
ARC
8
DEFAULT_255_1_234
10
14.0478165
20
0.1746924
40
0.2374236
50
89.3806855
51
105.6762551
0
ARC
8
DEFAULT_255_1_234
10
14.0294795
20
0.2413567
40
0.1682847
50
105.7981136
51
149.7388061
0
ARC
8
DEFAULT_255_1_234
10
14.1358874
20
0.177395
40
0.2924306
50
149.4208916
51
163.6286378
0
ARC
8
DEFAULT_255_1_234
10
14.3449762
20
0.113625
40
0.5110213
50
163.3763315
51
172.1410975
0
ARC
8
DEFAULT_255_1_234
10
14.6750481
20
0.0663518
40
0.8444586
50
172.0259487
51
178.0703232
0
ARC
8
DEFAULT_255_1_234
10
14.978057
20
0.0519906
40
1.1477868
50
177.8631668
51
179.5044149
0
ARC
8
DEFAULT_255_1_234
10
14.8707975
20
-0.1794611
40
1.0404907
50
179.7995573
51
185.2460446
0
ARC
8
DEFAULT_255_1_234
10
14.4665014
20
-0.2177487
40
0.6343885
50
185.1411642
51
193.0079639
0
ARC
8
DEFAULT_255_1_234
10
14.2021487
20
-0.2802359
40
0.3627568
50
192.7897626
51
205.2507664
0
ARC
8
DEFAULT_255_1_234
10
14.0975034
20
-0.3269585
40
0.2481908
50
205.8005384
51
211.2537509
0
ARC
8
DEFAULT_255_1_234
10
14.0451474
20
-0.362042
40
0.1852521
50
210.3789793
51
238.4008143
0
ARC
8
DEFAULT_255_1_234
10
14.0431996
20
-0.3573624
40
0.1882621
50
239.6520629
51
265.9793761
0
ARC
8
DEFAULT_255_1_234
10
14.0517196
20
-0.2901573
40
0.2559272
50
265.1315437
51
270.060332
0
ARC
8
DEFAULT_255_1_234
10
14.0545975
20
-0.3225466
40
0.2235528
50
269.3314664
51
287.2178029
0
ARC
8
DEFAULT_255_1_234
10
14.0683827
20
-0.3728721
40
0.1714108
50
287.7958004
51
329.080874
0
ARC
8
DEFAULT_255_1_234
10
13.9726284
20
-0.313107
40
0.2842745
50
328.6634704
51
343.3325132
0
ARC
8
DEFAULT_255_1_234
10
13.7553304
20
-0.2454137
40
0.5118644
50
343.0499468
51
351.9393422
0
ARC
8
DEFAULT_255_1_234
10
13.4086604
20
-0.1943051
40
0.8622784
50
351.8069023
51
357.7959224
0
ARC
8
DEFAULT_255_1_234
10
13.085116
20
-0.1775279
40
1.1862365
50
357.5871873
51
359.2677531
0
LINE
8
DEFAULT_255_1_234
10
15.4246132
20
0.1799849
11
15.2696006
21
0.1799849
0
LINE
8
DEFAULT_255_1_234
10
14.5772648
20
-0.3123606
11
14.7322773
21
-0.3123606
0
ARC
8
DEFAULT_255_1_234
10
15.3354819
20
1.0746768
40
1.252368
50
248.9199003
51
254.1439814
0
ARC
8
DEFAULT_255_1_234
10
15.1674314
20
0.6420234
40
0.788226
50
241.633709
51
249.0064503
0
ARC
8
DEFAULT_255_1_234
10
15.0145708
20
0.3619317
40
0.4691427
50
230.498225
51
241.8087113
0
ARC
8
DEFAULT_255_1_234
10
14.9361283
20
0.2619906
40
0.3421437
50
227.4064532
51
229.9881192
0
ARC
8
DEFAULT_255_1_234
10
14.8873803
20
0.2144088
40
0.2741476
50
200.6781896
51
228.1763934
0
ARC
8
DEFAULT_255_1_234
10
14.8946114
20
0.2129077
40
0.2804109
50
179.5061581
51
199.8694617
0
ARC
8
DEFAULT_255_1_234
10
14.8936866
20
0.220321
40
0.2795204
50
132.4834203
51
181.0242172
0
ARC
8
DEFAULT_255_1_234
10
14.9532448
20
0.1640704
40
0.3612768
50
129.2532479
51
133.4242687
0
ARC
8
DEFAULT_255_1_234
10
14.9678898
20
0.1420965
40
0.3875675
50
101.98776
51
128.8742646
0
ARC
8
DEFAULT_255_1_234
10
15.0077508
20
-0.0300259
40
0.5642249
50
89.5906553
51
102.3169264
0
ARC
8
DEFAULT_255_1_234
10
15.0148
20
0.0018148
40
0.5323783
50
77.2360837
51
90.3248275
0
ARC
8
DEFAULT_255_1_234
10
15.0355079
20
0.09854
40
0.4334697
50
63.837784
51
77.0809408
0
ARC
8
DEFAULT_255_1_234
10
15.0632841
20
0.1502911
40
0.3747796
50
45.9864267
51
64.1607727
0
ARC
8
DEFAULT_255_1_234
10
15.0893722
20
0.1800866
40
0.3352302
50
32.2747395
51
45.6547121
0
ARC
8
DEFAULT_255_1_234
10
15.0960163
20
0.181988
40
0.328603
50
359.6507365
51
32.6130309
0
ARC
8
DEFAULT_255_1_234
10
15.0017258
20
0.182466
40
0.2678863
50
359.469343
51
14.9832209
0
ARC
8
DEFAULT_255_1_234
10
15.0722321
20
0.2013539
40
0.1948938
50
14.9781179
51
48.2004265
0
ARC
8
DEFAULT_255_1_234
10
15.0557965
20
0.1806983
40
0.2212521
50
48.5927837
51
74.1241538
0
ARC
8
DEFAULT_255_1_234
10
15.0224455
20
0.0706248
40
0.3362561
50
73.7888341
51
86.6652678
0
ARC
8
DEFAULT_255_1_234
10
15.012202
20
-0.0501119
40
0.4573953
50
86.2640471
51
90.0526343
0
ARC
8
DEFAULT_255_1_234
10
15.0093733
20
-0.0105808
40
0.4178709
50
89.6697524
51
99.2309573
0
ARC
8
DEFAULT_255_1_234
10
14.9851184
20
0.1338964
40
0.2713749
50
99.069534
51
113.7658566
0
ARC
8
DEFAULT_255_1_234
10
14.9577375
20
0.1984677
40
0.2012469
50
114.0401004
51
127.9850673
0
ARC
8
DEFAULT_255_1_234
10
14.9336939
20
0.228073
40
0.1631167
50
127.7287463
51
176.7105154
0
ARC
8
DEFAULT_255_1_234
10
15.0015656
20
0.2179693
40
0.2315392
50
175.1779447
51
180.0581938
0
ARC
8
DEFAULT_255_1_234
10
14.9172503
20
0.2167428
40
0.1472271
50
179.6142195
51
228.1246017
0
ARC
8
DEFAULT_255_1_234
10
14.9614172
20
0.2576308
40
0.2072299
50
226.5779593
51
230.8800004
0
ARC
8
DEFAULT_255_1_234
10
15.008525
20
0.3201636
40
0.2854818
50
231.4635071
51
241.9260842
0
ARC
8
DEFAULT_255_1_234
10
15.1282428
20
0.54048
40
0.53622
50
241.7178533
51
248.3259551
0
ARC
8
DEFAULT_255_1_234
10
15.26678
20
0.8837064
40
0.9063478
50
248.2007737
51
252.4528373
0
ARC
8
DEFAULT_255_1_234
10
15.3871525
20
1.2558441
40
1.2974635
50
252.3391078
51
254.3469452
0
ARC
8
DEFAULT_255_1_234
10
14.6329228
20
-1.4418852
40
1.5037162
50
71.0197183
51
74.4087047
0
ARC
8
DEFAULT_255_1_234
10
14.8023913
20
-0.9526889
40
0.9859993
50
66.1847285
51
71.086374
0
ARC
8
DEFAULT_255_1_234
10
14.9580225
20
-0.60228
40
0.6025855
50
59.3536294
51
66.2691831
0
ARC
8
DEFAULT_255_1_234
10
15.0468878
20
-0.4519391
40
0.4279449
50
49.1020879
51
59.3293958
0
ARC
8
DEFAULT_255_1_234
10
15.1287618
20
-0.3586166
40
0.3038015
50
32.7919921
51
49.2505539
0
ARC
8
DEFAULT_255_1_234
10
15.1608707
20
-0.3357809
40
0.264448
50
31.1181161
51
32.4005348
0
ARC
8
DEFAULT_255_1_234
10
15.1520245
20
-0.3393221
40
0.2738556
50
8.1116974
51
30.7958831
0
ARC
8
DEFAULT_255_1_234
10
15.0709913
20
-0.3531247
40
0.3560327
50
359.8389159
51
8.4706516
0
ARC
8
DEFAULT_255_1_234
10
15.1335705
20
-0.3579863
40
0.2934776
50
337.4731098
51
0.7537279
0
ARC
8
DEFAULT_255_1_234
10
15.15144
20
-0.3599613
40
0.2762607
50
307.5917067
51
336.4315538
0
ARC
8
DEFAULT_255_1_234
10
15.1054228
20
-0.3086898
40
0.3449979
50
307.6551545
51
308.4529766
0
ARC
8
DEFAULT_255_1_234
10
15.0823946
20
-0.273175
40
0.3871988
50
284.3734338
51
307.1424381
0
ARC
8
DEFAULT_255_1_234
10
15.0328777
20
-0.0910068
40
0.5759636
50
272.4382747
51
284.646547
0
ARC
8
DEFAULT_255_1_234
10
15.0201985
20
0.0889893
40
0.7563528
50
269.9708387
51
272.8178037
0
ARC
8
DEFAULT_255_1_234
10
15.0159025
20
-0.1148284
40
0.5525489
50
248.2707594
51
270.4055579
0
ARC
8
DEFAULT_255_1_234
10
15.0104766
20
-0.1338808
40
0.5328452
50
246.1383403
51
248.0542782
0
ARC
8
DEFAULT_255_1_234
10
14.9686145
20
-0.2218157
40
0.4355005
50
233.1670131
51
246.4950969
0
ARC
8
DEFAULT_255_1_234
10
14.913205
20
-0.2966188
40
0.3424126
50
215.3403242
51
233.0843104
0
ARC
8
DEFAULT_255_1_234
10
14.8859481
20
-0.3164451
40
0.3087104
50
179.2419209
51
215.2648451
0
ARC
8
DEFAULT_255_1_234
10
14.9627075
20
-0.3150334
40
0.2304457
50
179.335461
51
199.1045811
0
ARC
8
DEFAULT_255_1_234
10
14.9294752
20
-0.3237234
40
0.1962176
50
199.8828939
51
232.7063202
0
ARC
8
DEFAULT_255_1_234
10
14.976702
20
-0.2643212
40
0.2720938
50
232.3738199
51
255.5136649
0
ARC
8
DEFAULT_255_1_234
10
15.0107887
20
-0.1399165
40
0.4010747
50
255.2446292
51
267.5320849
0
ARC
8
DEFAULT_255_1_234
10
15.019551
20
-0.0166298
40
0.5246356
50
267.1557994
51
270.0286766
0
ARC
8
DEFAULT_255_1_234
10
15.0223282
20
-0.061005
40
0.4802668
50
269.7000017
51
278.1660162
0
ARC
8
DEFAULT_255_1_234
10
15.0479287
20
-0.2340485
40
0.3053425
50
278.0231263
51
290.625471
0
ARC
8
DEFAULT_255_1_234
10
15.0826974
20
-0.3267975
40
0.206291
50
290.6619762
51
307.0370976
0
ARC
8
DEFAULT_255_1_234
10
15.1127363
20
-0.3636496
40
0.1587906
50
306.3943566
51
355.3030547
0
ARC
8
DEFAULT_255_1_234
10
15.0615295
20
-0.3559887
40
0.2104809
50
354.3660432
51
0.0698737
0
ARC
8
DEFAULT_255_1_234
10
15.075764
20
-0.3537383
40
0.1962563
50
359.417946
51
16.1971788
0
ARC
8
DEFAULT_255_1_234
10
15.121295
20
-0.3412582
40
0.149053
50
16.4723299
51
52.6262157
0
ARC
8
DEFAULT_255_1_234
10
15.0392004
20
-0.4496567
40
0.2850296
50
52.7386432
51
62.4979148
0
ARC
8
DEFAULT_255_1_234
10
14.9007081
20
-0.7102717
40
0.5801521
50
62.2515216
51
68.1220564
0
ARC
8
DEFAULT_255_1_234
10
14.7286992
20
-1.1330128
40
1.0365451
50
68.0062803
51
71.8053402
0
ARC
8
DEFAULT_255_1_234
10
14.5491364
20
-1.6715242
40
1.6042013
50
71.7183119
51
73.9258742
0
LINE
8
DEFAULT_255_1_234
10
16.4004694
20
0.1799849
11
16.2454568
21
0.1799849
0
LINE
8
DEFAULT_255_1_234
10
15.553121
20
-0.3123606
11
15.7081335
21
-0.3123606
0
ARC
8
DEFAULT_255_1_234
10
16.3113381
20
1.0746768
40
1.252368
50
248.9199003
51
254.1439814
0
ARC
8
DEFAULT_255_1_234
10
16.1432876
20
0.6420234
40
0.788226
50
241.633709
51
249.0064503
0
ARC
8
DEFAULT_255_1_234
10
15.990427
20
0.3619317
40
0.4691427
50
230.498225
51
241.8087113
0
ARC
8
DEFAULT_255_1_234
10
15.9119845
20
0.2619906
40
0.3421437
50
227.4064532
51
229.9881192
0
ARC
8
DEFAULT_255_1_234
10
15.8632365
20
0.2144088
40
0.2741476
50
200.6781896
51
228.1763934
0
ARC
8
DEFAULT_255_1_234
10
15.8704676
20
0.2129077
40
0.2804109
50
179.5061581
51
199.8694617
0
ARC
8
DEFAULT_255_1_234
10
15.8695428
20
0.220321
40
0.2795204
50
132.4834203
51
181.0242172
0
ARC
8
DEFAULT_255_1_234
10
15.929101
20
0.1640704
40
0.3612768
50
129.2532479
51
133.4242687
0
ARC
8
DEFAULT_255_1_234
10
15.943746
20
0.1420965
40
0.3875675
50
101.98776
51
128.8742646
0
ARC
8
DEFAULT_255_1_234
10
15.983607
20
-0.0300259
40
0.5642249
50
89.5906553
51
102.3169264
0
ARC
8
DEFAULT_255_1_234
10
15.9906562
20
0.0018148
40
0.5323783
50
77.2360837
51
90.3248275
0
ARC
8
DEFAULT_255_1_234
10
16.0113641
20
0.09854
40
0.4334697
50
63.837784
51
77.0809408
0
ARC
8
DEFAULT_255_1_234
10
16.0391403
20
0.1502911
40
0.3747796
50
45.9864267
51
64.1607727
0
ARC
8
DEFAULT_255_1_234
10
16.0652284
20
0.1800866
40
0.3352302
50
32.2747395
51
45.6547121
0
ARC
8
DEFAULT_255_1_234
10
16.0718725
20
0.181988
40
0.328603
50
359.6507365
51
32.6130309
0
ARC
8
DEFAULT_255_1_234
10
15.977582
20
0.182466
40
0.2678863
50
359.469343
51
14.9832209
0
ARC
8
DEFAULT_255_1_234
10
16.0480883
20
0.2013539
40
0.1948938
50
14.9781179
51
48.2004265
0
ARC
8
DEFAULT_255_1_234
10
16.0316527
20
0.1806983
40
0.2212521
50
48.5927837
51
74.1241538
0
ARC
8
DEFAULT_255_1_234
10
15.9983017
20
0.0706248
40
0.3362561
50
73.7888341
51
86.6652678
0
ARC
8
DEFAULT_255_1_234
10
15.9880582
20
-0.0501119
40
0.4573953
50
86.2640471
51
90.0526343
0
ARC
8
DEFAULT_255_1_234
10
15.9852295
20
-0.0105808
40
0.4178709
50
89.6697524
51
99.2309573
0
ARC
8
DEFAULT_255_1_234
10
15.9609746
20
0.1338964
40
0.2713749
50
99.069534
51
113.7658566
0
ARC
8
DEFAULT_255_1_234
10
15.9335937
20
0.1984677
40
0.2012469
50
114.0401004
51
127.9850673
0
ARC
8
DEFAULT_255_1_234
10
15.9095501
20
0.228073
40
0.1631167
50
127.7287463
51
176.7105154
0
ARC
8
DEFAULT_255_1_234
10
15.9774218
20
0.2179693
40
0.2315392
50
175.1779447
51
180.0581938
0
ARC
8
DEFAULT_255_1_234
10
15.8931065
20
0.2167428
40
0.1472271
50
179.6142195
51
228.1246017
0
ARC
8
DEFAULT_255_1_234
10
15.9372734
20
0.2576308
40
0.2072299
50
226.5779593
51
230.8800004
0
ARC
8
DEFAULT_255_1_234
10
15.9843812
20
0.3201636
40
0.2854818
50
231.4635071
51
241.9260842
0
ARC
8
DEFAULT_255_1_234
10
16.104099
20
0.54048
40
0.53622
50
241.7178533
51
248.3259551
0
ARC
8
DEFAULT_255_1_234
10
16.2426362
20
0.8837064
40
0.9063478
50
248.2007737
51
252.4528373
0
ARC
8
DEFAULT_255_1_234
10
16.3630087
20
1.2558441
40
1.2974635
50
252.3391078
51
254.3469452
0
ARC
8
DEFAULT_255_1_234
10
15.608779
20
-1.4418852
40
1.5037162
50
71.0197183
51
74.4087047
0
ARC
8
DEFAULT_255_1_234
10
15.7782475
20
-0.9526889
40
0.9859993
50
66.1847285
51
71.086374
0
ARC
8
DEFAULT_255_1_234
10
15.9338787
20
-0.60228
40
0.6025855
50
59.3536294
51
66.2691831
0
ARC
8
DEFAULT_255_1_234
10
16.022744
20
-0.4519391
40
0.4279449
50
49.1020879
51
59.3293958
0
ARC
8
DEFAULT_255_1_234
10
16.104618
20
-0.3586166
40
0.3038015
50
32.7919921
51
49.2505539
0
ARC
8
DEFAULT_255_1_234
10
16.1367269
20
-0.3357809
40
0.264448
50
31.1181161
51
32.4005348
0
ARC
8
DEFAULT_255_1_234
10
16.1278807
20
-0.3393221
40
0.2738556
50
8.1116974
51
30.7958831
0
ARC
8
DEFAULT_255_1_234
10
16.0468475
20
-0.3531247
40
0.3560327
50
359.8389159
51
8.4706516
0
ARC
8
DEFAULT_255_1_234
10
16.1094267
20
-0.3579863
40
0.2934776
50
337.4731098
51
0.7537279
0
ARC
8
DEFAULT_255_1_234
10
16.1272962
20
-0.3599613
40
0.2762607
50
307.5917067
51
336.4315538
0
ARC
8
DEFAULT_255_1_234
10
16.081279
20
-0.3086898
40
0.3449979
50
307.6551545
51
308.4529766
0
ARC
8
DEFAULT_255_1_234
10
16.0582508
20
-0.273175
40
0.3871988
50
284.3734338
51
307.1424381
0
ARC
8
DEFAULT_255_1_234
10
16.0087339
20
-0.0910068
40
0.5759636
50
272.4382747
51
284.646547
0
ARC
8
DEFAULT_255_1_234
10
15.9960547
20
0.0889893
40
0.7563528
50
269.9708387
51
272.8178037
0
ARC
8
DEFAULT_255_1_234
10
15.9917587
20
-0.1148284
40
0.5525489
50
248.2707594
51
270.4055579
0
ARC
8
DEFAULT_255_1_234
10
15.9863328
20
-0.1338808
40
0.5328452
50
246.1383403
51
248.0542782
0
ARC
8
DEFAULT_255_1_234
10
15.9444707
20
-0.2218157
40
0.4355005
50
233.1670131
51
246.4950969
0
ARC
8
DEFAULT_255_1_234
10
15.8890612
20
-0.2966188
40
0.3424126
50
215.3403242
51
233.0843104
0
ARC
8
DEFAULT_255_1_234
10
15.8618043
20
-0.3164451
40
0.3087104
50
179.2419209
51
215.2648451
0
ARC
8
DEFAULT_255_1_234
10
15.9385637
20
-0.3150334
40
0.2304457
50
179.335461
51
199.1045811
0
ARC
8
DEFAULT_255_1_234
10
15.9053314
20
-0.3237234
40
0.1962176
50
199.8828939
51
232.7063202
0
ARC
8
DEFAULT_255_1_234
10
15.9525582
20
-0.2643212
40
0.2720938
50
232.3738199
51
255.5136649
0
ARC
8
DEFAULT_255_1_234
10
15.9866449
20
-0.1399165
40
0.4010747
50
255.2446292
51
267.5320849
0
ARC
8
DEFAULT_255_1_234
10
15.9954072
20
-0.0166298
40
0.5246356
50
267.1557994
51
270.0286766
0
ARC
8
DEFAULT_255_1_234
10
15.9981844
20
-0.061005
40
0.4802668
50
269.7000017
51
278.1660162
0
ARC
8
DEFAULT_255_1_234
10
16.0237849
20
-0.2340485
40
0.3053425
50
278.0231263
51
290.625471
0
ARC
8
DEFAULT_255_1_234
10
16.0585536
20
-0.3267975
40
0.206291
50
290.6619762
51
307.0370976
0
ARC
8
DEFAULT_255_1_234
10
16.0885925
20
-0.3636496
40
0.1587906
50
306.3943566
51
355.3030547
0
ARC
8
DEFAULT_255_1_234
10
16.0373857
20
-0.3559887
40
0.2104809
50
354.3660432
51
0.0698737
0
ARC
8
DEFAULT_255_1_234
10
16.0516202
20
-0.3537383
40
0.1962563
50
359.417946
51
16.1971788
0
ARC
8
DEFAULT_255_1_234
10
16.0971512
20
-0.3412582
40
0.149053
50
16.4723299
51
52.6262157
0
ARC
8
DEFAULT_255_1_234
10
16.0150566
20
-0.4496567
40
0.2850296
50
52.7386432
51
62.4979148
0
ARC
8
DEFAULT_255_1_234
10
15.8765643
20
-0.7102717
40
0.5801521
50
62.2515216
51
68.1220564
0
ARC
8
DEFAULT_255_1_234
10
15.7045554
20
-1.1330128
40
1.0365451
50
68.0062803
51
71.8053402
0
ARC
8
DEFAULT_255_1_234
10
15.5249926
20
-1.6715242
40
1.6042013
50
71.7183119
51
73.9258742
0
LINE
8
DEFAULT_255_1_234
10
17.3056463
20
-0.2802337
11
17.4606588
21
-0.2802337
0
LINE
8
DEFAULT_255_1_234
10
16.560301
20
-0.1212053
11
16.560301
21
-0.0087609
0
LINE
8
DEFAULT_255_1_234
10
17.4606588
20
0.1422357
11
17.3056463
21
0.1422357
0
LINE
8
DEFAULT_255_1_234
10
16.7153135
20
-0.0127768
11
16.7153135
21
-0.1260243
0
ARC
8
DEFAULT_255_1_234
10
16.9125975
20
-0.2205154
40
0.5513052
50
340.1774281
51
353.7814284
0
ARC
8
DEFAULT_255_1_234
10
17.0697327
20
-0.2790418
40
0.3836379
50
311.4558989
51
340.4421614
0
ARC
8
DEFAULT_255_1_234
10
17.0663996
20
-0.2679472
40
0.3941894
50
282.4333181
51
310.7513653
0
ARC
8
DEFAULT_255_1_234
10
17.0224735
20
-0.0864321
40
0.5809175
50
269.9358511
51
282.809604
0
ARC
8
DEFAULT_255_1_234
10
17.0172801
20
0.0593212
40
0.7266847
50
270.0021091
51
270.3581957
0
ARC
8
DEFAULT_255_1_234
10
17.0120218
20
-0.2007415
40
0.4666519
50
250.7884749
51
270.6489167
0
ARC
8
DEFAULT_255_1_234
10
16.9952053
20
-0.2644681
40
0.4009729
50
219.3627325
51
250.0611886
0
ARC
8
DEFAULT_255_1_234
10
17.0781264
20
-0.1939958
40
0.5097822
50
193.5479632
51
219.5756669
0
ARC
8
DEFAULT_255_1_234
10
17.3152884
20
-0.1324081
40
0.7547848
50
181.1218675
51
193.87563
0
ARC
8
DEFAULT_255_1_234
10
17.5223066
20
-0.121342
40
0.9620055
50
179.9918545
51
181.5394234
0
ARC
8
DEFAULT_255_1_234
10
17.3372168
20
-0.0050212
40
0.7769248
50
169.5837241
51
180.2757934
0
ARC
8
DEFAULT_255_1_234
10
17.1535106
20
0.0289229
40
0.590109
50
155.0365899
51
169.6003176
0
ARC
8
DEFAULT_255_1_234
10
17.039957
20
0.0836677
40
0.4640625
50
136.783148
51
155.2472683
0
ARC
8
DEFAULT_255_1_234
10
17.0010047
20
0.1167562
40
0.4130255
50
121.7633186
51
136.428115
0
ARC
8
DEFAULT_255_1_234
10
17.0145009
20
0.0918227
40
0.4413323
50
95.6459699
51
121.5490577
0
ARC
8
DEFAULT_255_1_234
10
17.0302291
20
-0.0190051
40
0.55319
50
89.924208
51
96.1377933
0
ARC
8
DEFAULT_255_1_234
10
17.0352724
20
-0.0071458
40
0.5413475
50
76.6779277
51
90.4563316
0
ARC
8
DEFAULT_255_1_234
10
17.0746347
20
0.1519114
40
0.3775041
50
47.485847
51
76.9287264
0
ARC
8
DEFAULT_255_1_234
10
17.059932
20
0.1419159
40
0.3948286
50
16.5424086
51
46.8933463
0
ARC
8
DEFAULT_255_1_234
10
16.8991477
20
0.0890861
40
0.564021
50
5.4072051
51
17.0365086
0
ARC
8
DEFAULT_255_1_234
10
16.7552494
20
0.0659679
40
0.5556559
50
7.8891745
51
15.9239216
0
ARC
8
DEFAULT_255_1_234
10
16.9539507
20
0.1236631
40
0.3487515
50
15.7653144
51
27.9410532
0
ARC
8
DEFAULT_255_1_234
10
17.0643725
20
0.182779
40
0.2235026
50
27.8166557
51
46.4008329
0
ARC
8
DEFAULT_255_1_234
10
17.0693368
20
0.1822082
40
0.2205286
50
47.4371857
51
75.0698205
0
ARC
8
DEFAULT_255_1_234
10
17.0384762
20
0.0747765
40
0.3322915
50
74.7008593
51
87.8124495
0
ARC
8
DEFAULT_255_1_234
10
17.031145
20
-0.0308156
40
0.4380987
50
87.3814673
51
90.0240855
0
ARC
8
DEFAULT_255_1_234
10
17.0272993
20
0.0869291
40
0.3203749
50
89.3451631
51
108.5745436
0
ARC
8
DEFAULT_255_1_234
10
17.0136098
20
0.1382908
40
0.2673494
50
109.2998449
51
143.3037509
0
ARC
8
DEFAULT_255_1_234
10
17.0898171
20
0.0796881
40
0.3634757
50
143.0753173
51
163.1916937
0
ARC
8
DEFAULT_255_1_234
10
17.2849898
20
0.0180967
40
0.5681262
50
162.9373603
51
174.6208611
0
ARC
8
DEFAULT_255_1_234
10
17.5475941
20
-0.010699
40
0.8322832
50
174.3419979
51
180.1430411
0
ARC
8
DEFAULT_255_1_234
10
17.4545097
20
-0.1301302
40
0.7392076
50
179.6817502
51
189.150529
0
ARC
8
DEFAULT_255_1_234
10
17.2044345
20
-0.171781
40
0.4856932
50
188.9910863
51
203.5773039
0
ARC
8
DEFAULT_255_1_234
10
17.0964678
20
-0.2165789
40
0.3688271
50
203.9077269
51
215.1312379
0
ARC
8
DEFAULT_255_1_234
10
17.0041772
20
-0.2881059
40
0.2522457
50
213.9071664
51
263.8849284
0
ARC
8
DEFAULT_255_1_234
10
17.0167101
20
-0.2096482
40
0.3316174
50
263.1758525
51
270.1031083
0
ARC
8
DEFAULT_255_1_234
10
17.0199192
20
-0.0849635
40
0.4563091
50
269.6719807
51
279.0609165
0
ARC
8
DEFAULT_255_1_234
10
17.0465961
20
-0.2462093
40
0.2928759
50
278.8750225
51
293.6346586
0
ARC
8
DEFAULT_255_1_234
10
17.0786169
20
-0.32141
40
0.2111472
50
293.8553404
51
310.0518804
0
ARC
8
DEFAULT_255_1_234
10
17.0791023
20
-0.3276484
40
0.2060917
50
311.0646779
51
332.0108348
0
ARC
8
DEFAULT_255_1_234
10
16.959875
20
-0.2619022
40
0.3422352
50
331.6588543
51
343.2878891
0
ARC
8
DEFAULT_255_1_234
10
16.7536264
20
-0.1985202
40
0.5580003
50
343.1446044
51
351.010618
0
ARC
8
DEFAULT_255_1_234
10
16.5994911
20
-0.1704129
40
0.7146438
50
350.7157277
51
351.1602153
0
LINE
8
DEFAULT_255_1_234
10
17.9570203
20
-0.0938974
11
17.9570203
21
-0.2151766
0
LINE
8
DEFAULT_255_1_234
10
17.9570203
20
-0.2151766
11
17.5650714
21
-0.2151766
0
LINE
8
DEFAULT_255_1_234
10
17.5650714
20
-0.2151766
11
17.5650714
21
-0.0938974
0
LINE
8
DEFAULT_255_1_234
10
17.5650714
20
-0.0938974
11
17.9570203
21
-0.0938974
0
LINE
8
DEFAULT_255_1_234
10
18.9007495
20
0.1799849
11
18.745737
21
0.1799849
0
LINE
8
DEFAULT_255_1_234
10
18.0534011
20
-0.3123606
11
18.2084137
21
-0.3123606
0
ARC
8
DEFAULT_255_1_234
10
18.8116183
20
1.0746768
40
1.252368
50
248.9199003
51
254.1439814
0
ARC
8
DEFAULT_255_1_234
10
18.6435677
20
0.6420234
40
0.788226
50
241.633709
51
249.0064503
0
ARC
8
DEFAULT_255_1_234
10
18.4907072
20
0.3619317
40
0.4691427
50
230.498225
51
241.8087113
0
ARC
8
DEFAULT_255_1_234
10
18.4122646
20
0.2619906
40
0.3421437
50
227.4064532
51
229.9881192
0
ARC
8
DEFAULT_255_1_234
10
18.3635167
20
0.2144088
40
0.2741476
50
200.6781896
51
228.1763934
0
ARC
8
DEFAULT_255_1_234
10
18.3707477
20
0.2129077
40
0.2804109
50
179.5061581
51
199.8694617
0
ARC
8
DEFAULT_255_1_234
10
18.3698229
20
0.220321
40
0.2795204
50
132.4834203
51
181.0242172
0
ARC
8
DEFAULT_255_1_234
10
18.4293811
20
0.1640704
40
0.3612768
50
129.2532479
51
133.4242687
0
ARC
8
DEFAULT_255_1_234
10
18.4440261
20
0.1420965
40
0.3875675
50
101.98776
51
128.8742646
0
ARC
8
DEFAULT_255_1_234
10
18.4838871
20
-0.0300259
40
0.5642249
50
89.5906553
51
102.3169264
0
ARC
8
DEFAULT_255_1_234
10
18.4909364
20
0.0018148
40
0.5323783
50
77.2360837
51
90.3248275
0
ARC
8
DEFAULT_255_1_234
10
18.5116443
20
0.09854
40
0.4334697
50
63.837784
51
77.0809408
0
ARC
8
DEFAULT_255_1_234
10
18.5394204
20
0.1502911
40
0.3747796
50
45.9864267
51
64.1607727
0
ARC
8
DEFAULT_255_1_234
10
18.5655086
20
0.1800866
40
0.3352302
50
32.2747395
51
45.6547121
0
ARC
8
DEFAULT_255_1_234
10
18.5721526
20
0.181988
40
0.328603
50
359.6507365
51
32.6130309
0
ARC
8
DEFAULT_255_1_234
10
18.4778622
20
0.182466
40
0.2678863
50
359.469343
51
14.9832209
0
ARC
8
DEFAULT_255_1_234
10
18.5483684
20
0.2013539
40
0.1948938
50
14.9781179
51
48.2004265
0
ARC
8
DEFAULT_255_1_234
10
18.5319328
20
0.1806983
40
0.2212521
50
48.5927837
51
74.1241538
0
ARC
8
DEFAULT_255_1_234
10
18.4985818
20
0.0706248
40
0.3362561
50
73.7888341
51
86.6652678
0
ARC
8
DEFAULT_255_1_234
10
18.4883383
20
-0.0501119
40
0.4573953
50
86.2640471
51
90.0526343
0
ARC
8
DEFAULT_255_1_234
10
18.4855096
20
-0.0105808
40
0.4178709
50
89.6697524
51
99.2309573
0
ARC
8
DEFAULT_255_1_234
10
18.4612547
20
0.1338964
40
0.2713749
50
99.069534
51
113.7658566
0
ARC
8
DEFAULT_255_1_234
10
18.4338738
20
0.1984677
40
0.2012469
50
114.0401004
51
127.9850673
0
ARC
8
DEFAULT_255_1_234
10
18.4098302
20
0.228073
40
0.1631167
50
127.7287463
51
176.7105154
0
ARC
8
DEFAULT_255_1_234
10
18.4777019
20
0.2179693
40
0.2315392
50
175.1779447
51
180.0581938
0
ARC
8
DEFAULT_255_1_234
10
18.3933866
20
0.2167428
40
0.1472271
50
179.6142195
51
228.1246017
0
ARC
8
DEFAULT_255_1_234
10
18.4375535
20
0.2576308
40
0.2072299
50
226.5779593
51
230.8800004
0
ARC
8
DEFAULT_255_1_234
10
18.4846613
20
0.3201636
40
0.2854818
50
231.4635071
51
241.9260842
0
ARC
8
DEFAULT_255_1_234
10
18.6043792
20
0.54048
40
0.53622
50
241.7178533
51
248.3259551
0
ARC
8
DEFAULT_255_1_234
10
18.7429163
20
0.8837064
40
0.9063478
50
248.2007737
51
252.4528373
0
ARC
8
DEFAULT_255_1_234
10
18.8632888
20
1.2558441
40
1.2974635
50
252.3391078
51
254.3469452
0
ARC
8
DEFAULT_255_1_234
10
18.1090591
20
-1.4418852
40
1.5037162
50
71.0197183
51
74.4087047
0
ARC
8
DEFAULT_255_1_234
10
18.2785276
20
-0.9526889
40
0.9859993
50
66.1847285
51
71.086374
0
ARC
8
DEFAULT_255_1_234
10
18.4341588
20
-0.60228
40
0.6025855
50
59.3536294
51
66.2691831
0
ARC
8
DEFAULT_255_1_234
10
18.5230241
20
-0.4519391
40
0.4279449
50
49.1020879
51
59.3293958
0
ARC
8
DEFAULT_255_1_234
10
18.6048981
20
-0.3586166
40
0.3038015
50
32.7919921
51
49.2505539
0
ARC
8
DEFAULT_255_1_234
10
18.6370071
20
-0.3357809
40
0.264448
50
31.1181161
51
32.4005348
0
ARC
8
DEFAULT_255_1_234
10
18.6281608
20
-0.3393221
40
0.2738556
50
8.1116974
51
30.7958831
0
ARC
8
DEFAULT_255_1_234
10
18.5471276
20
-0.3531247
40
0.3560327
50
359.8389159
51
8.4706516
0
ARC
8
DEFAULT_255_1_234
10
18.6097068
20
-0.3579863
40
0.2934776
50
337.4731098
51
0.7537279
0
ARC
8
DEFAULT_255_1_234
10
18.6275763
20
-0.3599613
40
0.2762607
50
307.5917067
51
336.4315538
0
ARC
8
DEFAULT_255_1_234
10
18.5815591
20
-0.3086898
40
0.3449979
50
307.6551545
51
308.4529766
0
ARC
8
DEFAULT_255_1_234
10
18.558531
20
-0.273175
40
0.3871988
50
284.3734338
51
307.1424381
0
ARC
8
DEFAULT_255_1_234
10
18.509014
20
-0.0910068
40
0.5759636
50
272.4382747
51
284.646547
0
ARC
8
DEFAULT_255_1_234
10
18.4963349
20
0.0889893
40
0.7563528
50
269.9708387
51
272.8178037
0
ARC
8
DEFAULT_255_1_234
10
18.4920388
20
-0.1148284
40
0.5525489
50
248.2707594
51
270.4055579
0
ARC
8
DEFAULT_255_1_234
10
18.4866129
20
-0.1338808
40
0.5328452
50
246.1383403
51
248.0542782
0
ARC
8
DEFAULT_255_1_234
10
18.4447508
20
-0.2218157
40
0.4355005
50
233.1670131
51
246.4950969
0
ARC
8
DEFAULT_255_1_234
10
18.3893413
20
-0.2966188
40
0.3424126
50
215.3403242
51
233.0843104
0
ARC
8
DEFAULT_255_1_234
10
18.3620845
20
-0.3164451
40
0.3087104
50
179.2419209
51
215.2648451
0
ARC
8
DEFAULT_255_1_234
10
18.4388438
20
-0.3150334
40
0.2304457
50
179.335461
51
199.1045811
0
ARC
8
DEFAULT_255_1_234
10
18.4056115
20
-0.3237234
40
0.1962176
50
199.8828939
51
232.7063202
0
ARC
8
DEFAULT_255_1_234
10
18.4528383
20
-0.2643212
40
0.2720938
50
232.3738199
51
255.5136649
0
ARC
8
DEFAULT_255_1_234
10
18.486925
20
-0.1399165
40
0.4010747
50
255.2446292
51
267.5320849
0
ARC
8
DEFAULT_255_1_234
10
18.4956873
20
-0.0166298
40
0.5246356
50
267.1557994
51
270.0286766
0
ARC
8
DEFAULT_255_1_234
10
18.4984645
20
-0.061005
40
0.4802668
50
269.7000017
51
278.1660162
0
ARC
8
DEFAULT_255_1_234
10
18.524065
20
-0.2340485
40
0.3053425
50
278.0231263
51
290.625471
0
ARC
8
DEFAULT_255_1_234
10
18.5588337
20
-0.3267975
40
0.206291
50
290.6619762
51
307.0370976
0
ARC
8
DEFAULT_255_1_234
10
18.5888727
20
-0.3636496
40
0.1587906
50
306.3943566
51
355.3030547
0
ARC
8
DEFAULT_255_1_234
10
18.5376658
20
-0.3559887
40
0.2104809
50
354.3660432
51
0.0698737
0
ARC
8
DEFAULT_255_1_234
10
18.5519003
20
-0.3537383
40
0.1962563
50
359.417946
51
16.1971788
0
ARC
8
DEFAULT_255_1_234
10
18.5974314
20
-0.3412582
40
0.149053
50
16.4723299
51
52.6262157
0
ARC
8
DEFAULT_255_1_234
10
18.5153367
20
-0.4496567
40
0.2850296
50
52.7386432
51
62.4979148
0
ARC
8
DEFAULT_255_1_234
10
18.3768444
20
-0.7102717
40
0.5801521
50
62.2515216
51
68.1220564
0
ARC
8
DEFAULT_255_1_234
10
18.2048355
20
-1.1330128
40
1.0365451
50
68.0062803
51
71.8053402
0
ARC
8
DEFAULT_255_1_234
10
18.0252727
20
-1.6715242
40
1.6042013
50
71.7183119
51
73.9258742
0
LINE
8
DEFAULT_255_1_234
10
10.5187823
20
47.1812341
11
10.5187823
21
46.3122
0
LINE
8
DEFAULT_255_1_234
10
10.5187823
20
46.3122
11
10.3701951
21
46.3122
0
LINE
8
DEFAULT_255_1_234
10
10.3701951
20
46.3122
11
10.3701951
21
47.1812341
0
LINE
8
DEFAULT_255_1_234
10
10.3701951
20
47.1812341
11
10.5187823
21
47.1812341
0
ARC
8
DEFAULT_255_1_234
10
10.45601
20
47.4126889
40
0.097867
50
161.415052
51
180.5526306
0
ARC
8
DEFAULT_255_1_234
10
10.4435878
20
47.4161077
40
0.0850062
50
138.1827368
51
160.9307106
0
ARC
8
DEFAULT_255_1_234
10
10.4325824
20
47.4256588
40
0.0704362
50
104.6368899
51
138.0039868
0
ARC
8
DEFAULT_255_1_234
10
10.4432978
20
47.3889963
40
0.1086221
50
92.0600725
51
105.2189128
0
ARC
8
DEFAULT_255_1_234
10
10.4456327
20
47.3547117
40
0.1429728
50
89.9756393
51
92.5012496
0
ARC
8
DEFAULT_255_1_234
10
10.4466346
20
47.3772731
40
0.1204151
50
78.0235316
51
90.4478182
0
ARC
8
DEFAULT_255_1_234
10
10.4558438
20
47.4186295
40
0.0780493
50
55.051506
51
78.3369085
0
ARC
8
DEFAULT_255_1_234
10
10.4608712
20
47.4270711
40
0.0682538
50
42.0501187
51
54.4513741
0
ARC
8
DEFAULT_255_1_234
10
10.447358
20
47.4146798
40
0.0865878
50
1.7497075
51
42.1496013
0
ARC
8
DEFAULT_255_1_234
10
10.4218912
20
47.4117738
40
0.1121515
50
359.9852656
51
2.8364544
0
ARC
8
DEFAULT_255_1_234
10
10.4384905
20
47.4108229
40
0.0955566
50
342.1070653
51
0.552888
0
ARC
8
DEFAULT_255_1_234
10
10.4527602
20
47.4068904
40
0.0807713
50
316.7107116
51
341.6516965
0
ARC
8
DEFAULT_255_1_234
10
10.4594639
20
47.4008823
40
0.0717724
50
285.4397031
51
316.5324284
0
ARC
8
DEFAULT_255_1_234
10
10.4484556
20
47.4374554
40
0.1099597
50
272.3547054
51
285.8953117
0
ARC
8
DEFAULT_255_1_234
10
10.4457714
20
47.4740048
40
0.1465932
50
269.9695369
51
272.8160237
0
ARC
8
DEFAULT_255_1_234
10
10.4447896
20
47.4520863
40
0.1246779
50
258.8431134
51
270.4153935
0
ARC
8
DEFAULT_255_1_234
10
10.4357938
20
47.4085414
40
0.0802162
50
238.5431189
51
259.1288175
0
ARC
8
DEFAULT_255_1_234
10
10.4289823
20
47.3961856
40
0.0661247
50
222.5062634
51
237.9906969
0
ARC
8
DEFAULT_255_1_234
10
10.441741
20
47.4077889
40
0.0833707
50
184.1069131
51
222.460413
0
ARC
8
DEFAULT_255_1_234
10
10.4686651
20
47.4116349
40
0.1105176
50
179.9429482
51
185.0960898
0
LINE
8
DEFAULT_255_1_234
10
11.6729431
20
46.9338565
11
11.6729431
21
46.8591614
0
LINE
8
DEFAULT_255_1_234
10
11.4681337
20
46.3756507
11
11.6769589
21
46.2118033
0
LINE
8
DEFAULT_255_1_234
10
11.6769589
20
46.2118033
11
11.5717432
21
46.1146192
0
LINE
8
DEFAULT_255_1_234
10
11.5717432
20
46.1146192
11
11.3251688
21
46.3105937
0
LINE
8
DEFAULT_255_1_234
10
10.7316233
20
46.8487201
11
10.7316233
21
46.9330534
0
LINE
8
DEFAULT_255_1_234
10
11.5187337
20
46.8479169
11
11.5187337
21
46.9346597
0
LINE
8
DEFAULT_255_1_234
10
10.8858327
20
46.945101
11
10.8858327
21
46.8591614
0
ARC
8
DEFAULT_255_1_234
10
10.7775682
20
46.8552707
40
0.8953833
50
351.453011
51
0.2489685
0
ARC
8
DEFAULT_255_1_234
10
11.0360483
20
46.8152933
40
0.6338333
50
338.6861641
51
351.5540711
0
ARC
8
DEFAULT_255_1_234
10
11.1294367
20
46.7822828
40
0.5348431
50
336.2887631
51
338.3442418
0
ARC
8
DEFAULT_255_1_234
10
11.1633989
20
46.7636698
40
0.4962747
50
321.1170344
51
336.6795229
0
ARC
8
DEFAULT_255_1_234
10
11.2265818
20
46.7150206
40
0.4165565
50
305.4419708
51
320.8705636
0
ARC
8
DEFAULT_255_1_234
10
11.2069288
20
46.7897707
40
0.4935497
50
271.6373023
51
283.8611969
0
ARC
8
DEFAULT_255_1_234
10
11.2031541
20
46.8553572
40
0.5592206
50
269.9930596
51
271.8318864
0
ARC
8
DEFAULT_255_1_234
10
11.1993984
20
46.7745681
40
0.4784458
50
252.5219675
51
270.4416499
0
ARC
8
DEFAULT_255_1_234
10
11.1850243
20
46.7206592
40
0.422716
50
237.5352116
51
252.1857531
0
ARC
8
DEFAULT_255_1_234
10
11.1939439
20
46.7320363
40
0.4371052
50
209.063312
51
237.3492538
0
ARC
8
DEFAULT_255_1_234
10
11.2809287
20
46.7866685
40
0.5397041
50
205.1183774
51
209.6470015
0
ARC
8
DEFAULT_255_1_234
10
11.3606324
20
46.820483
40
0.6262326
50
188.7215458
51
204.8240747
0
ARC
8
DEFAULT_255_1_234
10
11.5603852
20
46.8541067
40
0.8287794
50
180.3723947
51
188.9252049
0
ARC
8
DEFAULT_255_1_234
10
11.5576604
20
46.9370402
40
0.8260467
50
169.5253763
51
180.2765336
0
ARC
8
DEFAULT_255_1_234
10
11.3674053
20
46.9720309
40
0.6326007
50
155.8315255
51
169.5089989
0
ARC
8
DEFAULT_255_1_234
10
11.2393554
20
47.0314348
40
0.4914567
50
139.6258461
51
156.0379525
0
ARC
8
DEFAULT_255_1_234
10
11.1803887
20
47.0788799
40
0.4158054
50
122.6416387
51
139.3430715
0
ARC
8
DEFAULT_255_1_234
10
11.1904507
20
47.0605451
40
0.4366739
50
93.0223692
51
122.455762
0
ARC
8
DEFAULT_255_1_234
10
11.2012504
20
46.9640709
40
0.5336137
50
89.975342
51
93.6341897
0
ARC
8
DEFAULT_255_1_234
10
11.205139
20
47.0020375
40
0.4956606
50
73.9665422
51
90.4229648
0
ARC
8
DEFAULT_255_1_234
10
11.2235037
20
47.0735451
40
0.4218674
50
57.5178019
51
73.6813337
0
ARC
8
DEFAULT_255_1_234
10
11.219082
20
47.0699462
40
0.4272816
50
28.7261108
51
57.2767933
0
ARC
8
DEFAULT_255_1_234
10
11.1280152
20
47.0136688
40
0.534218
50
24.2448911
51
29.3248482
0
ARC
8
DEFAULT_255_1_234
10
11.0354253
20
46.9753819
40
0.6343711
50
9.064382
51
23.9639114
0
ARC
8
DEFAULT_255_1_234
10
10.8098581
20
46.9374925
40
0.8630926
50
359.7586264
51
9.1891435
0
ARC
8
DEFAULT_255_1_234
10
10.6844061
20
46.9388343
40
0.834338
50
359.7133237
51
7.96545
0
ARC
8
DEFAULT_255_1_234
10
10.9806278
20
46.9815681
40
0.5350538
50
7.8291991
51
20.0421623
0
ARC
8
DEFAULT_255_1_234
10
11.1430841
20
47.0406606
40
0.3621841
50
20.0677553
51
35.9161685
0
ARC
8
DEFAULT_255_1_234
10
11.2205879
20
47.098267
40
0.2656263
50
35.6594382
51
85.1578074
0
ARC
8
DEFAULT_255_1_234
10
11.2021135
20
46.9867378
40
0.3784238
50
83.7959068
51
90.095906
0
ARC
8
DEFAULT_255_1_234
10
11.1978069
20
47.0600601
40
0.3051229
50
89.3102392
51
109.9889877
0
ARC
8
DEFAULT_255_1_234
10
11.1895552
20
47.0956433
40
0.2688988
50
110.9285147
51
143.9411762
0
ARC
8
DEFAULT_255_1_234
10
11.2826498
20
47.0244236
40
0.3860887
50
143.5289163
51
163.2980757
0
ARC
8
DEFAULT_255_1_234
10
11.4734319
20
46.9644433
40
0.5860659
50
163.0418846
51
174.3140048
0
ARC
8
DEFAULT_255_1_234
10
11.7138431
20
46.9366854
40
0.8280531
50
174.0509143
51
179.4176892
0
ARC
8
DEFAULT_255_1_234
10
11.6624766
20
46.8548634
40
0.7766558
50
179.6829237
51
188.9631324
0
ARC
8
DEFAULT_255_1_234
10
11.3954327
20
46.8113752
40
0.5060992
50
188.8100743
51
202.9300012
0
ARC
8
DEFAULT_255_1_234
10
11.2737956
20
46.7618855
40
0.3747967
50
203.2069261
51
215.7876482
0
ARC
8
DEFAULT_255_1_234
10
11.1889353
20
46.6947671
40
0.2667526
50
214.7521006
51
264.2834488
0
ARC
8
DEFAULT_255_1_234
10
11.2025008
20
46.780278
40
0.3532247
50
263.4755397
51
270.0949833
0
ARC
8
DEFAULT_255_1_234
10
11.2067119
20
46.7541374
40
0.3271036
50
269.3649385
51
287.5152008
0
ARC
8
DEFAULT_255_1_234
10
11.2245277
20
46.6894238
40
0.2600406
50
288.0630309
51
323.8113348
0
ARC
8
DEFAULT_255_1_234
10
11.1374119
20
46.7544049
40
0.3687189
50
323.6547608
51
342.6590488
0
ARC
8
DEFAULT_255_1_234
10
10.9342734
20
46.8204952
40
0.5823286
50
342.4091907
51
353.6451149
0
ARC
8
DEFAULT_255_1_234
10
10.6511244
20
46.855719
40
0.8676442
50
353.4029884
51
359.4847795
0
LINE
8
DEFAULT_255_1_234
10
12.1966124
20
46.8696026
11
12.1966124
21
46.7483234
0
LINE
8
DEFAULT_255_1_234
10
12.1966124
20
46.7483234
11
11.8046636
21
46.7483234
0
LINE
8
DEFAULT_255_1_234
10
11.8046636
20
46.7483234
11
11.8046636
21
46.8696026
0
LINE
8
DEFAULT_255_1_234
10
11.8046636
20
46.8696026
11
12.1966124
21
46.8696026
0
LINE
8
DEFAULT_255_1_234
10
13.0094243
20
46.9547391
11
13.0094243
21
46.8286408
0
LINE
8
DEFAULT_255_1_234
10
13.0094243
20
46.8286408
11
12.5186851
21
46.8286408
0
LINE
8
DEFAULT_255_1_234
10
12.5186851
20
46.8286408
11
12.5186851
21
46.3122
0
LINE
8
DEFAULT_255_1_234
10
12.5186851
20
46.3122
11
12.3644757
21
46.3122
0
LINE
8
DEFAULT_255_1_234
10
12.3644757
20
46.3122
11
12.3644757
21
47.4816211
0
LINE
8
DEFAULT_255_1_234
10
12.3644757
20
47.4816211
11
13.0889385
21
47.4816211
0
LINE
8
DEFAULT_255_1_234
10
13.0889385
20
47.4816211
11
13.0889385
21
47.3547196
0
LINE
8
DEFAULT_255_1_234
10
13.0889385
20
47.3547196
11
12.5186851
21
47.3547196
0
LINE
8
DEFAULT_255_1_234
10
12.5186851
20
47.3547196
11
12.5186851
21
46.9547391
0
LINE
8
DEFAULT_255_1_234
10
12.5186851
20
46.9547391
11
13.0094243
21
46.9547391
0
LINE
8
DEFAULT_255_1_234
10
14.4567436
20
47.1434849
11
14.301731
21
47.1434849
0
LINE
8
DEFAULT_255_1_234
10
13.6093952
20
46.6511394
11
13.7644077
21
46.6511394
0
ARC
8
DEFAULT_255_1_234
10
14.3676123
20
48.0381768
40
1.252368
50
248.9199003
51
254.1439814
0
ARC
8
DEFAULT_255_1_234
10
14.1995618
20
47.6055234
40
0.788226
50
241.633709
51
249.0064503
0
ARC
8
DEFAULT_255_1_234
10
14.0467012
20
47.3254317
40
0.4691427
50
230.498225
51
241.8087113
0
ARC
8
DEFAULT_255_1_234
10
13.9682586
20
47.2254906
40
0.3421437
50
227.4064532
51
229.9881192
0
ARC
8
DEFAULT_255_1_234
10
13.9195107
20
47.1779088
40
0.2741476
50
200.6781896
51
228.1763934
0
ARC
8
DEFAULT_255_1_234
10
13.9267418
20
47.1764077
40
0.2804109
50
179.5061581
51
199.8694617
0
ARC
8
DEFAULT_255_1_234
10
13.9258169
20
47.183821
40
0.2795204
50
132.4834203
51
181.0242172
0
ARC
8
DEFAULT_255_1_234
10
13.9853752
20
47.1275704
40
0.3612768
50
129.2532479
51
133.4242687
0
ARC
8
DEFAULT_255_1_234
10
14.0000201
20
47.1055965
40
0.3875675
50
101.98776
51
128.8742646
0
ARC
8
DEFAULT_255_1_234
10
14.0398812
20
46.9334741
40
0.5642249
50
89.5906553
51
102.3169264
0
ARC
8
DEFAULT_255_1_234
10
14.0469304
20
46.9653148
40
0.5323783
50
77.2360837
51
90.3248275
0
ARC
8
DEFAULT_255_1_234
10
14.0676383
20
47.06204
40
0.4334697
50
63.837784
51
77.0809408
0
ARC
8
DEFAULT_255_1_234
10
14.0954145
20
47.1137911
40
0.3747796
50
45.9864267
51
64.1607727
0
ARC
8
DEFAULT_255_1_234
10
14.1215026
20
47.1435866
40
0.3352302
50
32.2747395
51
45.6547121
0
ARC
8
DEFAULT_255_1_234
10
14.1281467
20
47.145488
40
0.328603
50
359.6507365
51
32.6130309
0
ARC
8
DEFAULT_255_1_234
10
14.0338562
20
47.145966
40
0.2678863
50
359.469343
51
14.9832209
0
ARC
8
DEFAULT_255_1_234
10
14.1043625
20
47.1648539
40
0.1948938
50
14.9781179
51
48.2004265
0
ARC
8
DEFAULT_255_1_234
10
14.0879269
20
47.1441983
40
0.2212521
50
48.5927837
51
74.1241538
0
ARC
8
DEFAULT_255_1_234
10
14.0545758
20
47.0341248
40
0.3362561
50
73.7888341
51
86.6652678
0
ARC
8
DEFAULT_255_1_234
10
14.0443324
20
46.9133881
40
0.4573953
50
86.2640471
51
90.0526343
0
ARC
8
DEFAULT_255_1_234
10
14.0415037
20
46.9529192
40
0.4178709
50
89.6697524
51
99.2309573
0
ARC
8
DEFAULT_255_1_234
10
14.0172487
20
47.0973964
40
0.2713749
50
99.069534
51
113.7658566
0
ARC
8
DEFAULT_255_1_234
10
13.9898679
20
47.1619677
40
0.2012469
50
114.0401004
51
127.9850673
0
ARC
8
DEFAULT_255_1_234
10
13.9658242
20
47.191573
40
0.1631167
50
127.7287463
51
176.7105154
0
ARC
8
DEFAULT_255_1_234
10
14.033696
20
47.1814693
40
0.2315392
50
175.1779447
51
180.0581938
0
ARC
8
DEFAULT_255_1_234
10
13.9493807
20
47.1802428
40
0.1472271
50
179.6142195
51
228.1246017
0
ARC
8
DEFAULT_255_1_234
10
13.9935475
20
47.2211308
40
0.2072299
50
226.5779593
51
230.8800004
0
ARC
8
DEFAULT_255_1_234
10
14.0406554
20
47.2836636
40
0.2854818
50
231.4635071
51
241.9260842
0
ARC
8
DEFAULT_255_1_234
10
14.1603732
20
47.50398
40
0.53622
50
241.7178533
51
248.3259551
0
ARC
8
DEFAULT_255_1_234
10
14.2989104
20
47.8472064
40
0.9063478
50
248.2007737
51
252.4528373
0
ARC
8
DEFAULT_255_1_234
10
14.4192829
20
48.2193441
40
1.2974635
50
252.3391078
51
254.3469452
0
ARC
8
DEFAULT_255_1_234
10
13.6650531
20
45.5216148
40
1.5037162
50
71.0197183
51
74.4087047
0
ARC
8
DEFAULT_255_1_234
10
13.8345217
20
46.0108111
40
0.9859993
50
66.1847285
51
71.086374
0
ARC
8
DEFAULT_255_1_234
10
13.9901529
20
46.36122
40
0.6025855
50
59.3536294
51
66.2691831
0
ARC
8
DEFAULT_255_1_234
10
14.0790181
20
46.5115609
40
0.4279449
50
49.1020879
51
59.3293958
0
ARC
8
DEFAULT_255_1_234
10
14.1608921
20
46.6048834
40
0.3038015
50
32.7919921
51
49.2505539
0
ARC
8
DEFAULT_255_1_234
10
14.1930011
20
46.6277191
40
0.264448
50
31.1181161
51
32.4005348
0
ARC
8
DEFAULT_255_1_234
10
14.1841549
20
46.6241779
40
0.2738556
50
8.1116974
51
30.7958831
0
ARC
8
DEFAULT_255_1_234
10
14.1031217
20
46.6103753
40
0.3560327
50
359.8389159
51
8.4706516
0
ARC
8
DEFAULT_255_1_234
10
14.1657008
20
46.6055137
40
0.2934776
50
337.4731098
51
0.7537279
0
ARC
8
DEFAULT_255_1_234
10
14.1835703
20
46.6035387
40
0.2762607
50
307.5917067
51
336.4315538
0
ARC
8
DEFAULT_255_1_234
10
14.1375531
20
46.6548102
40
0.3449979
50
307.6551545
51
308.4529766
0
ARC
8
DEFAULT_255_1_234
10
14.114525
20
46.690325
40
0.3871988
50
284.3734338
51
307.1424381
0
ARC
8
DEFAULT_255_1_234
10
14.065008
20
46.8724932
40
0.5759636
50
272.4382747
51
284.646547
0
ARC
8
DEFAULT_255_1_234
10
14.0523289
20
47.0524893
40
0.7563528
50
269.9708387
51
272.8178037
0
ARC
8
DEFAULT_255_1_234
10
14.0480329
20
46.8486716
40
0.5525489
50
248.2707594
51
270.4055579
0
ARC
8
DEFAULT_255_1_234
10
14.042607
20
46.8296192
40
0.5328452
50
246.1383403
51
248.0542782
0
ARC
8
DEFAULT_255_1_234
10
14.0007449
20
46.7416843
40
0.4355005
50
233.1670131
51
246.4950969
0
ARC
8
DEFAULT_255_1_234
10
13.9453354
20
46.6668812
40
0.3424126
50
215.3403242
51
233.0843104
0
ARC
8
DEFAULT_255_1_234
10
13.9180785
20
46.6470549
40
0.3087104
50
179.2419209
51
215.2648451
0
ARC
8
DEFAULT_255_1_234
10
13.9948379
20
46.6484666
40
0.2304457
50
179.335461
51
199.1045811
0
ARC
8
DEFAULT_255_1_234
10
13.9616055
20
46.6397766
40
0.1962176
50
199.8828939
51
232.7063202
0
ARC
8
DEFAULT_255_1_234
10
14.0088324
20
46.6991788
40
0.2720938
50
232.3738199
51
255.5136649
0
ARC
8
DEFAULT_255_1_234
10
14.042919
20
46.8235835
40
0.4010747
50
255.2446292
51
267.5320849
0
ARC
8
DEFAULT_255_1_234
10
14.0516814
20
46.9468702
40
0.5246356
50
267.1557994
51
270.0286766
0
ARC
8
DEFAULT_255_1_234
10
14.0544586
20
46.902495
40
0.4802668
50
269.7000017
51
278.1660162
0
ARC
8
DEFAULT_255_1_234
10
14.0800591
20
46.7294515
40
0.3053425
50
278.0231263
51
290.625471
0
ARC
8
DEFAULT_255_1_234
10
14.1148278
20
46.6367025
40
0.206291
50
290.6619762
51
307.0370976
0
ARC
8
DEFAULT_255_1_234
10
14.1448667
20
46.5998504
40
0.1587906
50
306.3943566
51
355.3030547
0
ARC
8
DEFAULT_255_1_234
10
14.0936599
20
46.6075113
40
0.2104809
50
354.3660432
51
0.0698737
0
ARC
8
DEFAULT_255_1_234
10
14.1078944
20
46.6097617
40
0.1962563
50
359.417946
51
16.1971788
0
ARC
8
DEFAULT_255_1_234
10
14.1534254
20
46.6222418
40
0.149053
50
16.4723299
51
52.6262157
0
ARC
8
DEFAULT_255_1_234
10
14.0713308
20
46.5138433
40
0.2850296
50
52.7386432
51
62.4979148
0
ARC
8
DEFAULT_255_1_234
10
13.9328385
20
46.2532283
40
0.5801521
50
62.2515216
51
68.1220564
0
ARC
8
DEFAULT_255_1_234
10
13.7608296
20
45.8304872
40
1.0365451
50
68.0062803
51
71.8053402
0
ARC
8
DEFAULT_255_1_234
10
13.5812667
20
45.2919758
40
1.6042013
50
71.7183119
51
73.9258742
0
LINE
8
DEFAULT_255_1_234
10
14.5956926
20
46.7226218
11
14.5956926
21
46.7499297
0
LINE
8
DEFAULT_255_1_234
10
15.3330062
20
46.7659932
11
15.3330062
21
46.7041488
0
LINE
8
DEFAULT_255_1_234
10
15.3330062
20
46.7041488
11
14.7442798
21
46.7041488
0
LINE
8
DEFAULT_255_1_234
10
15.2310031
20
46.5346792
11
15.3217618
21
46.4639999
0
LINE
8
DEFAULT_255_1_234
10
14.7490988
20
46.8262313
11
15.184419
21
46.8262313
0
LINE
8
DEFAULT_255_1_234
10
15.184419
20
46.8262313
11
15.184419
21
46.8374757
0
ARC
8
DEFAULT_255_1_234
10
14.9896291
20
46.7337332
40
0.4376191
50
252.3266134
51
270.5810217
0
ARC
8
DEFAULT_255_1_234
10
14.9691381
20
46.6596644
40
0.3608374
50
223.3000567
51
251.8561855
0
ARC
8
DEFAULT_255_1_234
10
14.9902741
20
46.6801937
40
0.3902993
50
190.9374509
51
223.3654032
0
ARC
8
DEFAULT_255_1_234
10
15.1627713
20
46.7191885
40
0.5670891
50
179.6531105
51
191.4989439
0
ARC
8
DEFAULT_255_1_234
10
15.1749726
20
46.7531417
40
0.5792888
50
167.4007466
51
180.3176909
0
ARC
8
DEFAULT_255_1_234
10
15.0697787
20
46.7753885
40
0.471777
50
154.1835823
51
167.250763
0
ARC
8
DEFAULT_255_1_234
10
15.0066255
20
46.8086417
40
0.4004528
50
134.3149965
51
154.5315275
0
ARC
8
DEFAULT_255_1_234
10
14.984875
20
46.8277228
40
0.371612
50
122.8616532
51
133.9707695
0
ARC
8
DEFAULT_255_1_234
10
14.9745324
20
46.8499703
40
0.3473289
50
89.8249009
51
123.4199222
0
ARC
8
DEFAULT_255_1_234
10
14.9795365
20
46.7852967
40
0.4120197
50
74.7876118
51
90.5482747
0
ARC
8
DEFAULT_255_1_234
10
15.0089108
20
46.893803
40
0.2996077
50
39.8178249
51
74.7633718
0
ARC
8
DEFAULT_255_1_234
10
14.9576428
20
46.8538351
40
0.3645855
50
16.8990863
51
39.4829761
0
ARC
8
DEFAULT_255_1_234
10
14.7681725
20
46.7931526
40
0.5635218
50
4.9636328
51
17.2026414
0
ARC
8
DEFAULT_255_1_234
10
14.5263795
20
46.767634
40
0.8066286
50
359.8834553
51
5.2834307
0
ARC
8
DEFAULT_255_1_234
10
15.1301319
20
46.7107803
40
0.3859091
50
180.9846213
51
194.9401313
0
ARC
8
DEFAULT_255_1_234
10
15.0251597
20
46.6820849
40
0.2770883
50
194.80314
51
222.0412631
0
ARC
8
DEFAULT_255_1_234
10
14.9947479
20
46.6519116
40
0.2343055
50
221.5417084
51
268.8614402
0
ARC
8
DEFAULT_255_1_234
10
15.0020474
20
46.7195686
40
0.3021528
50
267.732405
51
270.0097136
0
ARC
8
DEFAULT_255_1_234
10
15.0038284
20
46.7397105
40
0.3222994
50
269.6924892
51
280.4117579
0
ARC
8
DEFAULT_255_1_234
10
15.0214691
20
46.6478193
40
0.2287344
50
280.2255091
51
298.6338936
0
ARC
8
DEFAULT_255_1_234
10
15.0331483
20
46.6234223
40
0.2017294
50
299.0430333
51
300.4643464
0
ARC
8
DEFAULT_255_1_234
10
14.9651488
20
46.7368038
40
0.3339357
50
300.6577328
51
322.0378878
0
ARC
8
DEFAULT_255_1_234
10
14.9301027
20
46.7672021
40
0.3802736
50
321.6750233
51
322.3046845
0
ARC
8
DEFAULT_255_1_234
10
15.0231988
20
46.650537
40
0.3520454
50
276.9728461
51
328.0035423
0
ARC
8
DEFAULT_255_1_234
10
14.9955041
20
46.7985841
40
0.5024498
50
269.8361028
51
278.0581756
0
ARC
8
DEFAULT_255_1_234
10
14.9727779
20
46.8730757
40
0.202159
50
89.2018686
51
117.2851756
0
ARC
8
DEFAULT_255_1_234
10
14.9780948
20
46.8688752
40
0.2083484
50
118.0551165
51
137.4540413
0
ARC
8
DEFAULT_255_1_234
10
15.0155688
20
46.8348304
40
0.2589774
50
137.5109581
51
158.8516286
0
ARC
8
DEFAULT_255_1_234
10
15.1293523
20
46.7889074
40
0.38167
50
158.5845963
51
170.1721436
0
ARC
8
DEFAULT_255_1_234
10
15.2462912
20
46.7656823
40
0.5008657
50
169.8376422
51
173.0566086
0
ARC
8
DEFAULT_255_1_234
10
14.7765986
20
46.8167509
40
0.4083467
50
2.9091802
51
12.8847116
0
ARC
8
DEFAULT_255_1_234
10
14.9136663
20
46.8490101
40
0.2675383
50
12.6957781
51
28.6404489
0
ARC
8
DEFAULT_255_1_234
10
14.9678334
20
46.8770458
40
0.2065654
50
29.0169854
51
41.1487595
0
ARC
8
DEFAULT_255_1_234
10
14.9881119
20
46.8947003
40
0.1796786
50
41.1646065
51
85.0013516
0
ARC
8
DEFAULT_255_1_234
10
14.9760216
20
46.8212431
40
0.2539726
50
83.7280015
51
90.0964893
0
LINE
8
DEFAULT_255_1_234
10
15.9249453
20
47.1860531
11
15.9249453
21
47.0479072
0
LINE
8
DEFAULT_255_1_234
10
15.6534726
20
46.9290375
11
15.6534726
21
46.3122
0
LINE
8
DEFAULT_255_1_234
10
15.6534726
20
46.3122
11
15.5048854
21
46.3122
0
LINE
8
DEFAULT_255_1_234
10
15.5048854
20
46.3122
11
15.5048854
21
47.1812341
0
LINE
8
DEFAULT_255_1_234
10
15.5048854
20
47.1812341
11
15.6494567
21
47.1812341
0
LINE
8
DEFAULT_255_1_234
10
15.6494567
20
47.1812341
11
15.6518662
21
47.0808374
0
ARC
8
DEFAULT_255_1_234
10
15.8582859
20
46.6419342
40
0.4114092
50
80.6754243
51
86.8932892
0
ARC
8
DEFAULT_255_1_234
10
15.8522393
20
46.54517
40
0.5083596
50
86.8038578
51
90.0431435
0
ARC
8
DEFAULT_255_1_234
10
15.8485374
20
46.7908866
40
0.2626638
50
89.2759698
51
106.6213787
0
ARC
8
DEFAULT_255_1_234
10
15.8280938
20
46.865183
40
0.1856317
50
107.1346045
51
157.6458115
0
ARC
8
DEFAULT_255_1_234
10
15.8972539
20
46.8268311
40
0.2643398
50
155.6586782
51
157.2539184
0
ARC
8
DEFAULT_255_1_234
10
15.8767741
20
46.9437157
40
0.2634121
50
127.8165941
51
148.6302098
0
ARC
8
DEFAULT_255_1_234
10
15.851421
20
46.9697218
40
0.2273596
50
91.3329982
51
126.7875809
0
ARC
8
DEFAULT_255_1_234
10
15.8590151
20
46.8982195
40
0.299078
50
89.986594
51
92.4688449
0
ARC
8
DEFAULT_255_1_234
10
15.8598546
20
46.9257078
40
0.2715908
50
85.3589899
51
90.1623399
0
ARC
8
DEFAULT_255_1_234
10
15.8683062
20
47.0261164
40
0.1708278
50
78.401942
51
85.4594656
0
ARC
8
DEFAULT_255_1_234
10
15.8827945
20
47.0952236
40
0.1002194
50
67.7858312
51
78.5728455
0
ARC
8
DEFAULT_255_1_234
10
15.8935798
20
47.1231887
40
0.0702548
50
63.4835954
51
67.3062642
0
LINE
8
DEFAULT_255_1_234
10
16.2229228
20
47.1812341
11
16.2229228
21
46.3122
0
LINE
8
DEFAULT_255_1_234
10
16.2229228
20
46.3122
11
16.0743356
21
46.3122
0
LINE
8
DEFAULT_255_1_234
10
16.0743356
20
46.3122
11
16.0743356
21
47.1812341
0
LINE
8
DEFAULT_255_1_234
10
16.0743356
20
47.1812341
11
16.2229228
21
47.1812341
0
ARC
8
DEFAULT_255_1_234
10
16.1601505
20
47.4126889
40
0.097867
50
161.415052
51
180.5526306
0
ARC
8
DEFAULT_255_1_234
10
16.1477283
20
47.4161077
40
0.0850062
50
138.1827368
51
160.9307106
0
ARC
8
DEFAULT_255_1_234
10
16.1367229
20
47.4256588
40
0.0704362
50
104.6368899
51
138.0039868
0
ARC
8
DEFAULT_255_1_234
10
16.1474384
20
47.3889963
40
0.1086221
50
92.0600725
51
105.2189128
0
ARC
8
DEFAULT_255_1_234
10
16.1497732
20
47.3547117
40
0.1429728
50
89.9756393
51
92.5012496
0
ARC
8
DEFAULT_255_1_234
10
16.1507751
20
47.3772731
40
0.1204151
50
78.0235316
51
90.4478182
0
ARC
8
DEFAULT_255_1_234
10
16.1599843
20
47.4186295
40
0.0780493
50
55.051506
51
78.3369085
0
ARC
8
DEFAULT_255_1_234
10
16.1650118
20
47.4270711
40
0.0682538
50
42.0501187
51
54.4513741
0
ARC
8
DEFAULT_255_1_234
10
16.1514985
20
47.4146798
40
0.0865878
50
1.7497075
51
42.1496013
0
ARC
8
DEFAULT_255_1_234
10
16.1260318
20
47.4117738
40
0.1121515
50
359.9852656
51
2.8364544
0
ARC
8
DEFAULT_255_1_234
10
16.142631
20
47.4108229
40
0.0955566
50
342.1070653
51
0.552888
0
ARC
8
DEFAULT_255_1_234
10
16.1569007
20
47.4068904
40
0.0807713
50
316.7107116
51
341.6516965
0
ARC
8
DEFAULT_255_1_234
10
16.1636044
20
47.4008823
40
0.0717724
50
285.4397031
51
316.5324284
0
ARC
8
DEFAULT_255_1_234
10
16.1525961
20
47.4374554
40
0.1099597
50
272.3547054
51
285.8953117
0
ARC
8
DEFAULT_255_1_234
10
16.1499119
20
47.4740048
40
0.1465932
50
269.9695369
51
272.8160237
0
ARC
8
DEFAULT_255_1_234
10
16.1489301
20
47.4520863
40
0.1246779
50
258.8431134
51
270.4153935
0
ARC
8
DEFAULT_255_1_234
10
16.1399343
20
47.4085414
40
0.0802162
50
238.5431189
51
259.1288175
0
ARC
8
DEFAULT_255_1_234
10
16.1331228
20
47.3961856
40
0.0661247
50
222.5062634
51
237.9906969
0
ARC
8
DEFAULT_255_1_234
10
16.1458815
20
47.4077889
40
0.0833707
50
184.1069131
51
222.460413
0
ARC
8
DEFAULT_255_1_234
10
16.1728056
20
47.4116349
40
0.1105176
50
179.9429482
51
185.0960898
0
LINE
8
DEFAULT_255_1_234
10
16.4229131
20
46.7226218
11
16.4229131
21
46.7499297
0
LINE
8
DEFAULT_255_1_234
10
17.1602267
20
46.7659932
11
17.1602267
21
46.7041488
0
LINE
8
DEFAULT_255_1_234
10
17.1602267
20
46.7041488
11
16.5715002
21
46.7041488
0
LINE
8
DEFAULT_255_1_234
10
17.0582236
20
46.5346792
11
17.1489822
21
46.4639999
0
LINE
8
DEFAULT_255_1_234
10
16.5763193
20
46.8262313
11
17.0116395
21
46.8262313
0
LINE
8
DEFAULT_255_1_234
10
17.0116395
20
46.8262313
11
17.0116395
21
46.8374757
0
ARC
8
DEFAULT_255_1_234
10
16.8168496
20
46.7337332
40
0.4376191
50
252.3266134
51
270.5810217
0
ARC
8
DEFAULT_255_1_234
10
16.7963585
20
46.6596644
40
0.3608374
50
223.3000567
51
251.8561855
0
ARC
8
DEFAULT_255_1_234
10
16.8174946
20
46.6801937
40
0.3902993
50
190.9374509
51
223.3654032
0
ARC
8
DEFAULT_255_1_234
10
16.9899918
20
46.7191885
40
0.5670891
50
179.6531105
51
191.4989439
0
ARC
8
DEFAULT_255_1_234
10
17.002193
20
46.7531417
40
0.5792888
50
167.4007466
51
180.3176909
0
ARC
8
DEFAULT_255_1_234
10
16.8969992
20
46.7753885
40
0.471777
50
154.1835823
51
167.250763
0
ARC
8
DEFAULT_255_1_234
10
16.8338459
20
46.8086417
40
0.4004528
50
134.3149965
51
154.5315275
0
ARC
8
DEFAULT_255_1_234
10
16.8120954
20
46.8277228
40
0.371612
50
122.8616532
51
133.9707695
0
ARC
8
DEFAULT_255_1_234
10
16.8017529
20
46.8499703
40
0.3473289
50
89.8249009
51
123.4199222
0
ARC
8
DEFAULT_255_1_234
10
16.8067569
20
46.7852967
40
0.4120197
50
74.7876118
51
90.5482747
0
ARC
8
DEFAULT_255_1_234
10
16.8361313
20
46.893803
40
0.2996077
50
39.8178249
51
74.7633718
0
ARC
8
DEFAULT_255_1_234
10
16.7848633
20
46.8538351
40
0.3645855
50
16.8990863
51
39.4829761
0
ARC
8
DEFAULT_255_1_234
10
16.5953929
20
46.7931526
40
0.5635218
50
4.9636328
51
17.2026414
0
ARC
8
DEFAULT_255_1_234
10
16.3535999
20
46.767634
40
0.8066286
50
359.8834553
51
5.2834307
0
ARC
8
DEFAULT_255_1_234
10
16.9573524
20
46.7107803
40
0.3859091
50
180.9846213
51
194.9401313
0
ARC
8
DEFAULT_255_1_234
10
16.8523802
20
46.6820849
40
0.2770883
50
194.80314
51
222.0412631
0
ARC
8
DEFAULT_255_1_234
10
16.8219684
20
46.6519116
40
0.2343055
50
221.5417084
51
268.8614402
0
ARC
8
DEFAULT_255_1_234
10
16.8292678
20
46.7195686
40
0.3021528
50
267.732405
51
270.0097136
0
ARC
8
DEFAULT_255_1_234
10
16.8310488
20
46.7397105
40
0.3222994
50
269.6924892
51
280.4117579
0
ARC
8
DEFAULT_255_1_234
10
16.8486895
20
46.6478193
40
0.2287344
50
280.2255091
51
298.6338936
0
ARC
8
DEFAULT_255_1_234
10
16.8603687
20
46.6234223
40
0.2017294
50
299.0430333
51
300.4643464
0
ARC
8
DEFAULT_255_1_234
10
16.7923693
20
46.7368038
40
0.3339357
50
300.6577328
51
322.0378878
0
ARC
8
DEFAULT_255_1_234
10
16.7573232
20
46.7672021
40
0.3802736
50
321.6750233
51
322.3046845
0
ARC
8
DEFAULT_255_1_234
10
16.8504193
20
46.650537
40
0.3520454
50
276.9728461
51
328.0035423
0
ARC
8
DEFAULT_255_1_234
10
16.8227246
20
46.7985841
40
0.5024498
50
269.8361028
51
278.0581756
0
ARC
8
DEFAULT_255_1_234
10
16.7999983
20
46.8730757
40
0.202159
50
89.2018686
51
117.2851756
0
ARC
8
DEFAULT_255_1_234
10
16.8053152
20
46.8688752
40
0.2083484
50
118.0551165
51
137.4540413
0
ARC
8
DEFAULT_255_1_234
10
16.8427892
20
46.8348304
40
0.2589774
50
137.5109581
51
158.8516286
0
ARC
8
DEFAULT_255_1_234
10
16.9565728
20
46.7889074
40
0.38167
50
158.5845963
51
170.1721436
0
ARC
8
DEFAULT_255_1_234
10
17.0735117
20
46.7656823
40
0.5008657
50
169.8376422
51
173.0566086
0
ARC
8
DEFAULT_255_1_234
10
16.6038191
20
46.8167509
40
0.4083467
50
2.9091802
51
12.8847116
0
ARC
8
DEFAULT_255_1_234
10
16.7408867
20
46.8490101
40
0.2675383
50
12.6957781
51
28.6404489
0
ARC
8
DEFAULT_255_1_234
10
16.7950538
20
46.8770458
40
0.2065654
50
29.0169854
51
41.1487595
0
ARC
8
DEFAULT_255_1_234
10
16.8153323
20
46.8947003
40
0.1796786
50
41.1646065
51
85.0013516
0
ARC
8
DEFAULT_255_1_234
10
16.803242
20
46.8212431
40
0.2539726
50
83.7280015
51
90.0964893
0
LINE
8
DEFAULT_255_1_234
10
17.9786608
20
46.9258248
11
17.8292705
21
46.9258248
0
LINE
8
DEFAULT_255_1_234
10
17.295963
20
46.5796569
11
17.4445502
21
46.5796569
0
ARC
8
DEFAULT_255_1_234
10
17.7104523
20
46.5441959
40
0.1276617
50
359.3334982
51
18.5871358
0
ARC
8
DEFAULT_255_1_234
10
17.7313161
20
46.5497133
40
0.1061371
50
19.3540742
51
54.6485071
0
ARC
8
DEFAULT_255_1_234
10
17.6809062
20
46.4801919
40
0.1920087
50
54.3827097
51
65.0622807
0
ARC
8
DEFAULT_255_1_234
10
17.6040459
20
46.31849
40
0.3710447
50
64.8282493
51
71.4200025
0
ARC
8
DEFAULT_255_1_234
10
17.5138334
20
46.0538107
40
0.6506741
50
71.3164301
51
75.8006402
0
ARC
8
DEFAULT_255_1_234
10
17.4297154
20
45.7297561
40
0.9854641
50
75.6809531
51
78.0061883
0
ARC
8
DEFAULT_255_1_234
10
17.8745687
20
47.827677
40
1.1591028
50
254.6901892
51
258.0466452
0
ARC
8
DEFAULT_255_1_234
10
17.7707596
20
47.4517781
40
0.7691345
50
249.9010773
51
254.755261
0
ARC
8
DEFAULT_255_1_234
10
17.6703938
20
47.1791982
40
0.478665
50
243.3097214
51
249.9709442
0
ARC
8
DEFAULT_255_1_234
10
17.6074959
20
47.0537778
40
0.3383568
50
234.4047477
51
243.2862168
0
ARC
8
DEFAULT_255_1_234
10
17.5452483
20
46.9678232
40
0.2322322
50
220.8667099
51
234.5493881
0
ARC
8
DEFAULT_255_1_234
10
17.5110423
20
46.9366817
40
0.1859923
50
214.3062465
51
220.5065136
0
ARC
8
DEFAULT_255_1_234
10
17.5084503
20
46.933588
40
0.1821108
50
186.912965
51
213.9618616
0
ARC
8
DEFAULT_255_1_234
10
17.5616597
20
46.9422009
40
0.2359799
50
179.8808832
51
187.4339886
0
ARC
8
DEFAULT_255_1_234
10
17.5461731
20
46.9442088
40
0.2204978
50
132.005434
51
180.3942919
0
ARC
8
DEFAULT_255_1_234
10
17.6118344
20
46.8836083
40
0.3095791
50
129.2319861
51
133.5302299
0
ARC
8
DEFAULT_255_1_234
10
17.6171852
20
46.8741928
40
0.3202615
50
100.4410011
51
128.9081242
0
ARC
8
DEFAULT_255_1_234
10
17.6445736
20
46.7456455
40
0.4516583
50
89.6985377
51
100.9026564
0
ARC
8
DEFAULT_255_1_234
10
17.6502778
20
46.7296166
40
0.4676928
50
77.6965325
51
90.4076836
0
ARC
8
DEFAULT_255_1_234
10
17.6833762
20
46.8723413
40
0.3211988
50
50.7276602
51
78.0399361
0
ARC
8
DEFAULT_255_1_234
10
17.7278221
20
46.9241296
40
0.2529778
50
25.7545084
51
51.0957453
0
ARC
8
DEFAULT_255_1_234
10
17.7279445
20
46.9291206
40
0.250738
50
359.2468627
51
24.7394243
0
ARC
8
DEFAULT_255_1_234
10
17.6994897
20
46.9262664
40
0.1297815
50
359.8050318
51
45.1544908
0
ARC
8
DEFAULT_255_1_234
10
17.6588039
20
46.8914794
40
0.1831883
50
43.8047702
51
49.6271585
0
ARC
8
DEFAULT_255_1_234
10
17.6595941
20
46.8915678
40
0.18261
50
49.7980766
51
82.1218353
0
ARC
8
DEFAULT_255_1_234
10
17.6476912
20
46.8268998
40
0.2483163
50
81.4465357
51
90.1710293
0
ARC
8
DEFAULT_255_1_234
10
17.6452515
20
46.774288
40
0.300932
50
89.6766211
51
99.1264602
0
ARC
8
DEFAULT_255_1_234
10
17.6280977
20
46.8776537
40
0.1961547
50
98.968313
51
113.4570237
0
ARC
8
DEFAULT_255_1_234
10
17.6085062
20
46.9244965
40
0.1453859
50
113.722589
51
127.4763106
0
ARC
8
DEFAULT_255_1_234
10
17.5916709
20
46.9445124
40
0.1192639
50
126.9083309
51
150.3165862
0
ARC
8
DEFAULT_255_1_234
10
17.5869041
20
46.9495981
40
0.112623
50
151.3635175
51
180.0701457
0
ARC
8
DEFAULT_255_1_234
10
17.6177826
20
46.947499
40
0.1435149
50
179.2169974
51
179.9954013
0
ARC
8
DEFAULT_255_1_234
10
17.5816883
20
46.9462056
40
0.1074286
50
179.3040112
51
198.4225446
0
ARC
8
DEFAULT_255_1_234
10
17.5625017
20
46.9412127
40
0.0876573
50
199.2895851
51
238.6034594
0
ARC
8
DEFAULT_255_1_234
10
17.6227863
20
47.035845
40
0.1998512
50
237.9846301
51
246.8744712
0
ARC
8
DEFAULT_255_1_234
10
17.7085808
20
47.2321205
40
0.4140547
50
246.6234531
51
251.8168941
0
ARC
8
DEFAULT_255_1_234
10
17.8116352
20
47.5415905
40
0.7402308
50
251.713434
51
255.0778414
0
ARC
8
DEFAULT_255_1_234
10
17.9315614
20
47.9882563
40
1.2027155
50
255.0367487
51
257.4705983
0
ARC
8
DEFAULT_255_1_234
10
17.4207624
20
45.6868863
40
1.1546601
50
73.6837552
51
77.5016755
0
ARC
8
DEFAULT_255_1_234
10
17.5296399
20
46.0568581
40
0.7690009
50
68.7044154
51
73.7249639
0
ARC
8
DEFAULT_255_1_234
10
17.619942
20
46.2895654
40
0.5193873
50
63.590599
51
68.6626804
0
ARC
8
DEFAULT_255_1_234
10
17.6970439
20
46.4433123
40
0.3473927
50
54.7106439
51
63.7013633
0
ARC
8
DEFAULT_255_1_234
10
17.7594893
20
46.53054
40
0.2401192
50
41.0622434
51
54.8487496
0
ARC
8
DEFAULT_255_1_234
10
17.793628
20
46.5618592
40
0.1938094
50
34.4950568
51
40.7105546
0
ARC
8
DEFAULT_255_1_234
10
17.7983087
20
46.5667078
40
0.1872106
50
9.3763373
51
34.0833615
0
ARC
8
DEFAULT_255_1_234
10
17.7329957
20
46.5541728
40
0.2536988
50
359.7694872
51
9.7663171
0
ARC
8
DEFAULT_255_1_234
10
17.7527458
20
46.5498764
40
0.2339696
50
335.8654732
51
0.8022045
0
ARC
8
DEFAULT_255_1_234
10
17.7602503
20
46.5512197
40
0.2277108
50
307.7357725
51
334.7849066
0
ARC
8
DEFAULT_255_1_234
10
17.7201678
20
46.5962645
40
0.2878951
50
307.0241536
51
308.5578354
0
ARC
8
DEFAULT_255_1_234
10
17.694401
20
46.6348801
40
0.3342515
50
282.9362969
51
306.5646424
0
ARC
8
DEFAULT_255_1_234
10
17.6582307
20
46.7816108
40
0.4853615
50
271.1026298
51
283.2200835
0
ARC
8
DEFAULT_255_1_234
10
17.6518551
20
46.9057418
40
0.6096052
50
269.9919117
51
271.4772449
0
ARC
8
DEFAULT_255_1_234
10
17.6492306
20
46.7979436
40
0.5018135
50
259.0723564
51
270.289833
0
ARC
8
DEFAULT_255_1_234
10
17.6280038
20
46.6862271
40
0.388099
50
245.4963068
51
259.0227342
0
ARC
8
DEFAULT_255_1_234
10
17.6001995
20
46.6280615
40
0.3236422
50
228.9684658
51
245.7044727
0
ARC
8
DEFAULT_255_1_234
10
17.5736438
20
46.5953575
40
0.2815426
50
214.4011705
51
228.6759915
0
ARC
8
DEFAULT_255_1_234
10
17.5447179
20
46.579529
40
0.2487548
50
179.9705531
51
215.1572795
0
ARC
8
DEFAULT_255_1_234
10
17.6147779
20
46.5868806
40
0.1703809
50
182.4299387
51
203.0329699
0
ARC
8
DEFAULT_255_1_234
10
17.5963437
20
46.5812396
40
0.1512226
50
203.798802
51
232.548466
0
ARC
8
DEFAULT_255_1_234
10
17.6239958
20
46.6163826
40
0.1959374
50
232.3782728
51
256.3934612
0
ARC
8
DEFAULT_255_1_234
10
17.6470319
20
46.7053842
40
0.2878639
50
256.104506
51
268.4626716
0
ARC
8
DEFAULT_255_1_234
10
17.6516804
20
46.7850487
40
0.3676329
50
268.0715632
51
270.0138206
0
ARC
8
DEFAULT_255_1_234
10
17.6535328
20
46.7578083
40
0.3403971
50
269.7031147
51
278.8341955
0
ARC
8
DEFAULT_255_1_234
10
17.6717422
20
46.6447876
40
0.2259217
50
278.6728789
51
292.8232582
0
ARC
8
DEFAULT_255_1_234
10
17.691796
20
46.5946449
40
0.171929
50
293.1452328
51
303.6655899
0
ARC
8
DEFAULT_255_1_234
10
17.7182839
20
46.5570204
40
0.1259367
50
303.1248165
51
321.742847
0
ARC
8
DEFAULT_255_1_234
10
17.7368719
20
46.5407156
40
0.1012531
50
322.4748573
51
1.1291126
0
LINE
8
DEFAULT_255_2_778
10
10.5738396
20
48.8368073
11
9.3932396
21
48.8368073
0
LINE
8
DEFAULT_255_2_778
10
9.3932396
20
48.8368073
11
9.9837396
21
49.8594073
0
LINE
8
DEFAULT_255_2_778
10
9.9837396
20
49.8594073
11
11.1643396
21
49.8594073
0
LINE
8
DEFAULT_255_2_778
10
11.1643396
20
49.8594073
11
10.5738396
21
48.8368073
0
LINE
8
DEFAULT_255_2_778
10
10.5738396
20
48.8368073
11
10.5738396
21
48.8368073
0
LINE
8
DEFAULT_255_2_778
10
11.7546396
20
48.8368073
11
12.9354396
21
48.8368073
0
LINE
8
DEFAULT_255_2_778
10
12.9354396
20
48.8368073
11
12.3451396
21
49.8594073
0
LINE
8
DEFAULT_255_2_778
10
12.3451396
20
49.8594073
11
11.1643396
21
49.8594073
0
LINE
8
DEFAULT_255_2_778
10
11.1643396
20
49.8594073
11
11.7546396
21
48.8368073
0
LINE
8
DEFAULT_255_2_778
10
11.7546396
20
48.8368073
11
11.7546396
21
48.8368073
0
LINE
8
DEFAULT_255_2_778
10
11.7545823
20
50.8820146
11
11.1642823
21
51.9046146
0
LINE
8
DEFAULT_255_2_778
10
11.1642823
20
51.9046146
11
10.5737823
21
50.8820146
0
LINE
8
DEFAULT_255_2_778
10
10.5737823
20
50.8820146
11
11.1642823
21
49.8594146
0
LINE
8
DEFAULT_255_2_778
10
11.1642823
20
49.8594146
11
11.7545823
21
50.8820146
0
LINE
8
DEFAULT_255_2_778
10
11.7545823
20
50.8820146
11
11.7545823
21
50.8820146
0
ARC
8
DEFAULT_255_2_778
10
16.5183731
20
50.5282426
40
0.5650491
50
268.7543645
51
289.1417717
0
ARC
8
DEFAULT_255_2_778
10
16.606208
20
50.2730531
40
0.2951681
50
289.2776255
51
3.7648372
0
ARC
8
DEFAULT_255_2_778
10
16.3901618
20
50.2996085
40
0.5106278
50
359.1949826
51
0.0020862
0
ARC
8
DEFAULT_255_2_778
10
16.547449
20
50.2855832
40
0.1541914
50
280.2616216
51
358.5297855
0
ARC
8
DEFAULT_255_2_778
10
16.5080075
20
50.398155
40
0.2726346
50
269.5969454
51
284.2065679
0
ARC
8
DEFAULT_255_2_778
10
16.4981967
20
50.3825316
40
0.2571258
50
246.5290903
51
271.7590909
0
ARC
8
DEFAULT_255_2_778
10
16.4527148
20
50.2745009
40
0.1399248
50
188.1071678
51
245.9934684
0
ARC
8
DEFAULT_255_2_778
10
16.4829007
20
50.2814617
40
0.1708111
50
179.9445314
51
188.990814
0
ARC
8
DEFAULT_255_2_778
10
16.4924507
20
50.2882849
40
0.3763411
50
178.2272621
51
205.8283807
0
ARC
8
DEFAULT_255_2_778
10
16.4132476
20
50.2705833
40
0.2979176
50
209.4028057
51
263.0375728
0
ARC
8
DEFAULT_255_2_778
10
16.5005111
20
50.6452629
40
0.6816586
50
259.5722942
51
270.4689037
0
ARC
8
DEFAULT_255_2_778
10
17.411252
20
50.7014767
40
0.1217154
50
2.0482843
51
87.015299
0
ARC
8
DEFAULT_255_2_778
10
17.4060617
20
50.7058852
40
0.126828
50
353.0600847
51
359.9737428
0
ARC
8
DEFAULT_255_2_778
10
17.4110442
20
50.7027555
40
0.1215295
50
270.5739762
51
354.2410513
0
ARC
8
DEFAULT_255_2_778
10
17.4065059
20
50.7389297
40
0.1578027
50
269.9941256
51
272.0902921
0
ARC
8
DEFAULT_255_2_778
10
17.414084
20
50.2880295
40
0.1400686
50
358.2807293
51
95.6106825
0
ARC
8
DEFAULT_255_2_778
10
17.4103233
20
50.2841963
40
0.1437669
50
266.9962473
51
359.8528392
0
ARC
8
DEFAULT_255_2_778
10
17.4725249
20
50.3244988
40
0.3335288
50
268.2414507
51
302.0223478
0
ARC
8
DEFAULT_255_2_778
10
17.5091261
20
50.249183
40
0.2504234
50
304.0600275
51
2.0468005
0
ARC
8
DEFAULT_255_2_778
10
17.4832788
20
50.2558521
40
0.2761203
50
0.4720601
51
65.8403529
0
ARC
8
DEFAULT_255_2_778
10
17.5191655
20
50.3206061
40
0.2024466
50
67.606893
51
75.8693222
0
ARC
8
DEFAULT_255_2_778
10
17.5042026
20
50.728222
40
0.2208874
50
286.9473417
51
358.0074963
0
ARC
8
DEFAULT_255_2_778
10
17.4710866
20
50.7370045
40
0.2544031
50
356.2897886
51
0.0050857
0
ARC
8
DEFAULT_255_2_778
10
17.497262
20
50.7420946
40
0.2282839
50
358.7280137
51
81.8073164
0
ARC
8
DEFAULT_255_2_778
10
17.4216369
20
50.4906283
40
0.4895182
50
77.2355086
51
90.5088275
0
ARC
8
DEFAULT_255_2_778
10
17.5842747
20
49.5260989
40
0.1302704
50
89.9972707
51
92.6773048
0
ARC
8
DEFAULT_255_2_778
10
17.5844071
20
49.52687
40
0.1294993
50
45.0546048
51
90.0558451
0
ARC
8
DEFAULT_255_2_778
10
17.5844118
20
49.526719
40
0.1296029
50
0.001866
51
45.1031959
0
ARC
8
DEFAULT_255_2_778
10
17.5845123
20
49.5267202
40
0.1295026
50
357.4803735
51
0.0013544
0
ARC
8
DEFAULT_255_2_778
10
17.5901979
20
49.5228512
40
0.1237052
50
339.8672523
51
359.1550732
0
ARC
8
DEFAULT_255_2_778
10
17.5794513
20
49.5200079
40
0.1329691
50
272.0853006
51
342.6124646
0
ARC
8
DEFAULT_255_2_778
10
17.6596145
20
49.5582661
40
0.2575135
50
286.787355
51
290.6121696
0
ARC
8
DEFAULT_255_2_778
10
17.6689461
20
49.5439533
40
0.24086
50
289.7330405
51
342.3216972
0
ARC
8
DEFAULT_255_2_778
10
17.641261
20
49.5487954
40
0.268735
50
343.130572
51
0.3905272
0
ARC
8
DEFAULT_255_2_778
10
17.6578783
20
49.5661767
40
0.2525904
50
356.4706028
51
80.1788963
0
ARC
8
DEFAULT_255_2_778
10
17.5921649
20
49.3392163
40
0.4881286
50
77.1212301
51
90.4900821
0
ARC
8
DEFAULT_255_2_778
10
17.5166337
20
49.041536
40
0.1865405
50
50.1507009
51
92.9634648
0
ARC
8
DEFAULT_255_2_778
10
17.5301354
20
49.0698678
40
0.1563319
50
12.621233
51
47.2950617
0
ARC
8
DEFAULT_255_2_778
10
16.8485884
20
48.9369726
40
0.8506657
50
2.8173892
51
11.3253986
0
ARC
8
DEFAULT_255_2_778
10
-29.2295733
20
45.4406175
40
47.060992
50
4.3048394
51
4.3117143
0
ARC
8
DEFAULT_255_2_778
10
18.5500859
20
49.013084
40
0.8523717
50
182.6850102
51
191.2954256
0
ARC
8
DEFAULT_255_2_778
10
17.9656837
20
48.9067399
40
0.2586603
50
193.5512904
51
195.3825538
0
ARC
8
DEFAULT_255_2_778
10
19.3507425
20
49.1656408
40
1.4700994
50
182.6283124
51
192.8725697
0
ARC
8
DEFAULT_255_2_778
10
17.6207606
20
49.0927215
40
0.261487
50
1.2064311
51
30.4123358
0
ARC
8
DEFAULT_255_2_778
10
17.6663626
20
49.107776
40
0.2147766
50
33.1081154
51
71.7312197
0
LINE
8
DEFAULT_255_2_778
10
13.4657897
20
49.2723271
11
13.9385897
21
49.2723271
0
LINE
8
DEFAULT_255_2_778
10
13.9385897
20
49.2723271
11
13.9385897
21
49.4437271
0
LINE
8
DEFAULT_255_2_778
10
13.9385897
20
49.4437271
11
13.4657897
21
49.4437271
0
LINE
8
DEFAULT_255_2_778
10
13.4657897
20
49.4437271
11
13.4657897
21
49.6546271
0
LINE
8
DEFAULT_255_2_778
10
13.4657897
20
49.6546271
11
13.9977897
21
49.6546271
0
LINE
8
DEFAULT_255_2_778
10
13.9977897
20
49.6546271
11
13.9977897
21
49.8260271
0
LINE
8
DEFAULT_255_2_778
10
13.9977897
20
49.8260271
11
13.4657897
21
49.8260271
0
LINE
8
DEFAULT_255_2_778
10
13.4657897
20
49.8260271
11
13.2651897
21
49.8260271
0
LINE
8
DEFAULT_255_2_778
10
13.2651897
20
49.8260271
11
13.2651897
21
49.6546271
0
LINE
8
DEFAULT_255_2_778
10
13.2651897
20
49.6546271
11
13.2651897
21
49.0082271
0
LINE
8
DEFAULT_255_2_778
10
13.2651897
20
49.0082271
11
13.2651897
21
48.8367271
0
LINE
8
DEFAULT_255_2_778
10
13.2651897
20
48.8367271
11
13.4657897
21
48.8367271
0
LINE
8
DEFAULT_255_2_778
10
13.4657897
20
48.8367271
11
14.0118897
21
48.8367271
0
LINE
8
DEFAULT_255_2_778
10
14.0118897
20
48.8367271
11
14.0118897
21
49.0082271
0
LINE
8
DEFAULT_255_2_778
10
14.0118897
20
49.0082271
11
13.4657897
21
49.0082271
0
LINE
8
DEFAULT_255_2_778
10
13.4657897
20
49.0082271
11
13.4657897
21
49.2720271
0
LINE
8
DEFAULT_255_2_778
10
13.4657897
20
49.2720271
11
13.4657897
21
49.2723271
0
LINE
8
DEFAULT_255_2_778
10
13.4519897
20
50.7264271
11
13.6620897
21
49.9911271
0
LINE
8
DEFAULT_255_2_778
10
13.6620897
20
49.9911271
11
13.6704897
21
49.9911271
0
LINE
8
DEFAULT_255_2_778
10
13.6704897
20
49.9911271
11
13.8464897
21
49.9911271
0
LINE
8
DEFAULT_255_2_778
10
13.8464897
20
49.9911271
11
13.8546897
21
49.9911271
0
LINE
8
DEFAULT_255_2_778
10
13.8546897
20
49.9911271
11
14.0647897
21
50.7264271
0
LINE
8
DEFAULT_255_2_778
10
14.0647897
20
50.7264271
11
14.0647897
21
49.9911271
0
LINE
8
DEFAULT_255_2_778
10
14.0647897
20
49.9911271
11
14.2515897
21
49.9911271
0
LINE
8
DEFAULT_255_2_778
10
14.2515897
20
49.9911271
11
14.2515897
21
50.9804271
0
LINE
8
DEFAULT_255_2_778
10
14.2515897
20
50.9804271
11
14.1496897
21
50.9804271
0
LINE
8
DEFAULT_255_2_778
10
14.1496897
20
50.9804271
11
14.0615897
21
50.9804271
0
LINE
8
DEFAULT_255_2_778
10
14.0615897
20
50.9804271
11
13.9655897
21
50.9804271
0
LINE
8
DEFAULT_255_2_778
10
13.9655897
20
50.9804271
11
13.7583897
21
50.2861271
0
LINE
8
DEFAULT_255_2_778
10
13.7583897
20
50.2861271
11
13.5511897
21
50.9804271
0
LINE
8
DEFAULT_255_2_778
10
13.5511897
20
50.9804271
11
13.4551897
21
50.9804271
0
LINE
8
DEFAULT_255_2_778
10
13.4551897
20
50.9804271
11
13.3670897
21
50.9804271
0
LINE
8
DEFAULT_255_2_778
10
13.3670897
20
50.9804271
11
13.2651897
21
50.9804271
0
LINE
8
DEFAULT_255_2_778
10
13.2651897
20
50.9804271
11
13.2651897
21
49.9911271
0
LINE
8
DEFAULT_255_2_778
10
13.2651897
20
49.9911271
11
13.4519897
21
49.9911271
0
LINE
8
DEFAULT_255_2_778
10
13.4519897
20
49.9911271
11
13.4519897
21
50.7264271
0
LINE
8
DEFAULT_255_2_778
10
13.4519897
20
50.7264271
11
13.4519897
21
50.7264271
0
LINE
8
DEFAULT_255_2_778
10
18.0056897
20
50.9804271
11
17.8064897
21
50.9804271
0
LINE
8
DEFAULT_255_2_778
10
17.8064897
20
50.9804271
11
17.8064897
21
49.9911271
0
LINE
8
DEFAULT_255_2_778
10
17.8064897
20
49.9911271
11
18.0056897
21
49.9911271
0
LINE
8
DEFAULT_255_2_778
10
18.0056897
20
49.9911271
11
18.0056897
21
50.9804271
0
LINE
8
DEFAULT_255_2_778
10
18.0056897
20
50.9804271
11
18.0056897
21
50.9804271
0
LINE
8
DEFAULT_255_2_778
10
18.1681897
20
49.8263271
11
17.9689897
21
49.8263271
0
LINE
8
DEFAULT_255_2_778
10
17.9689897
20
49.8263271
11
17.9689897
21
48.8370271
0
LINE
8
DEFAULT_255_2_778
10
17.9689897
20
48.8370271
11
18.1681897
21
48.8370271
0
LINE
8
DEFAULT_255_2_778
10
18.1681897
20
48.8370271
11
18.1681897
21
49.8263271
0
LINE
8
DEFAULT_255_2_778
10
18.1681897
20
49.8263271
11
18.1681897
21
49.8263271
0
LINE
8
DEFAULT_255_2_778
10
19.9765897
20
50.9804271
11
19.7773897
21
50.9804271
0
LINE
8
DEFAULT_255_2_778
10
19.7773897
20
50.9804271
11
19.7773897
21
49.9911271
0
LINE
8
DEFAULT_255_2_778
10
19.7773897
20
49.9911271
11
19.9765897
21
49.9911271
0
LINE
8
DEFAULT_255_2_778
10
19.9765897
20
49.9911271
11
19.9765897
21
50.9804271
0
LINE
8
DEFAULT_255_2_778
10
19.9765897
20
50.9804271
11
19.9765897
21
50.9804271
0
LINE
8
DEFAULT_255_2_778
10
14.5298897
20
50.9804271
11
14.3306897
21
50.9804271
0
LINE
8
DEFAULT_255_2_778
10
14.3306897
20
50.9804271
11
14.3306897
21
49.9911271
0
LINE
8
DEFAULT_255_2_778
10
14.3306897
20
49.9911271
11
14.5298897
21
49.9911271
0
LINE
8
DEFAULT_255_2_778
10
14.5298897
20
49.9911271
11
14.5298897
21
50.9804271
0
LINE
8
DEFAULT_255_2_778
10
14.5298897
20
50.9804271
11
14.5298897
21
50.9804271
0
LINE
8
DEFAULT_255_2_778
10
19.4989897
20
50.5944271
11
19.1029897
21
50.5944271
0
LINE
8
DEFAULT_255_2_778
10
19.1029897
20
50.5944271
11
19.1029897
21
50.9801271
0
LINE
8
DEFAULT_255_2_778
10
19.1029897
20
50.9801271
11
18.9068897
21
50.9801271
0
LINE
8
DEFAULT_255_2_778
10
18.9068897
20
50.9801271
11
18.9068897
21
49.9911271
0
LINE
8
DEFAULT_255_2_778
10
18.9068897
20
49.9911271
11
19.1029897
21
49.9911271
0
LINE
8
DEFAULT_255_2_778
10
19.1029897
20
49.9911271
11
19.1029897
21
50.4229271
0
LINE
8
DEFAULT_255_2_778
10
19.1029897
20
50.4229271
11
19.4989897
21
50.4229271
0
LINE
8
DEFAULT_255_2_778
10
19.4989897
20
50.4229271
11
19.4989897
21
49.9911271
0
LINE
8
DEFAULT_255_2_778
10
19.4989897
20
49.9911271
11
19.6950897
21
49.9911271
0
LINE
8
DEFAULT_255_2_778
10
19.6950897
20
49.9911271
11
19.6950897
21
50.9801271
0
LINE
8
DEFAULT_255_2_778
10
19.6950897
20
50.9801271
11
19.4989897
21
50.9801271
0
LINE
8
DEFAULT_255_2_778
10
19.4989897
20
50.9801271
11
19.4989897
21
50.5944271
0
LINE
8
DEFAULT_255_2_778
10
19.4989897
20
50.5944271
11
19.4989897
21
50.5944271
0
LINE
8
DEFAULT_255_2_778
10
14.8246897
20
49.9911271
11
15.0280897
21
49.9911271
0
LINE
8
DEFAULT_255_2_778
10
15.0280897
20
49.9911271
11
15.0280897
21
50.8090271
0
LINE
8
DEFAULT_255_2_778
10
15.0280897
20
50.8090271
11
15.2696897
21
50.8090271
0
LINE
8
DEFAULT_255_2_778
10
15.2696897
20
50.8090271
11
15.2696897
21
50.9804271
0
LINE
8
DEFAULT_255_2_778
10
15.2696897
20
50.9804271
11
15.0280897
21
50.9804271
0
LINE
8
DEFAULT_255_2_778
10
15.0280897
20
50.9804271
11
14.8246897
21
50.9804271
0
LINE
8
DEFAULT_255_2_778
10
14.8246897
20
50.9804271
11
14.5830897
21
50.9804271
0
LINE
8
DEFAULT_255_2_778
10
14.5830897
20
50.9804271
11
14.5830897
21
50.8090271
0
LINE
8
DEFAULT_255_2_778
10
14.5830897
20
50.8090271
11
14.8246897
21
50.8090271
0
LINE
8
DEFAULT_255_2_778
10
14.8246897
20
50.8090271
11
14.8246897
21
49.9911271
0
LINE
8
DEFAULT_255_2_778
10
14.8246897
20
49.9911271
11
14.8246897
21
49.9911271
0
LINE
8
DEFAULT_255_2_778
10
16.6422897
20
48.8370271
11
16.8454897
21
48.8370271
0
LINE
8
DEFAULT_255_2_778
10
16.8454897
20
48.8370271
11
16.8454897
21
49.6548271
0
LINE
8
DEFAULT_255_2_778
10
16.8454897
20
49.6548271
11
17.0873897
21
49.6548271
0
LINE
8
DEFAULT_255_2_778
10
17.0873897
20
49.6548271
11
17.0873897
21
49.8266271
0
LINE
8
DEFAULT_255_2_778
10
17.0873897
20
49.8266271
11
16.8454897
21
49.8266271
0
LINE
8
DEFAULT_255_2_778
10
16.8454897
20
49.8266271
11
16.6422897
21
49.8266271
0
LINE
8
DEFAULT_255_2_778
10
16.6422897
20
49.8266271
11
16.4004897
21
49.8266271
0
LINE
8
DEFAULT_255_2_778
10
16.4004897
20
49.8266271
11
16.4004897
21
49.6548271
0
LINE
8
DEFAULT_255_2_778
10
16.4004897
20
49.6548271
11
16.6422897
21
49.6548271
0
LINE
8
DEFAULT_255_2_778
10
16.6422897
20
49.6548271
11
16.6422897
21
48.8370271
0
LINE
8
DEFAULT_255_2_778
10
16.6422897
20
48.8370271
11
16.6422897
21
48.8370271
0
LINE
8
DEFAULT_255_2_778
10
16.9007897
20
50.2996271
11
16.9007897
21
50.9801271
0
LINE
8
DEFAULT_255_2_778
10
16.9007897
20
50.9801271
11
16.7015897
21
50.9801271
0
LINE
8
DEFAULT_255_2_778
10
16.7015897
20
50.9801271
11
16.7015897
21
50.2816271
0
LINE
8
DEFAULT_255_2_778
10
16.3120897
20
50.2816271
11
16.3120897
21
50.9801271
0
LINE
8
DEFAULT_255_2_778
10
16.3120897
20
50.9801271
11
16.1162897
21
50.9801271
0
LINE
8
DEFAULT_255_2_778
10
16.1162897
20
50.9801271
11
16.1162897
21
50.2999271
0
LINE
8
DEFAULT_255_2_778
10
15.0000897
20
49.2723271
11
15.4730897
21
49.2723271
0
LINE
8
DEFAULT_255_2_778
10
15.4730897
20
49.2723271
11
15.4730897
21
49.4437271
0
LINE
8
DEFAULT_255_2_778
10
15.4730897
20
49.4437271
11
15.0000897
21
49.4437271
0
LINE
8
DEFAULT_255_2_778
10
15.0000897
20
49.4437271
11
15.0000897
21
49.6546271
0
LINE
8
DEFAULT_255_2_778
10
15.0000897
20
49.6546271
11
15.5320897
21
49.6546271
0
LINE
8
DEFAULT_255_2_778
10
15.5320897
20
49.6546271
11
15.5320897
21
49.8260271
0
LINE
8
DEFAULT_255_2_778
10
15.5320897
20
49.8260271
11
15.0000897
21
49.8260271
0
LINE
8
DEFAULT_255_2_778
10
15.0000897
20
49.8260271
11
14.7997897
21
49.8260271
0
LINE
8
DEFAULT_255_2_778
10
14.7997897
20
49.8260271
11
14.7997897
21
49.6546271
0
LINE
8
DEFAULT_255_2_778
10
14.7997897
20
49.6546271
11
14.7997897
21
49.0082271
0
LINE
8
DEFAULT_255_2_778
10
14.7997897
20
49.0082271
11
14.7997897
21
48.8367271
0
LINE
8
DEFAULT_255_2_778
10
14.7997897
20
48.8367271
11
15.0000897
21
48.8367271
0
LINE
8
DEFAULT_255_2_778
10
15.0000897
20
48.8367271
11
15.5461897
21
48.8367271
0
LINE
8
DEFAULT_255_2_778
10
15.5461897
20
48.8367271
11
15.5461897
21
49.0082271
0
LINE
8
DEFAULT_255_2_778
10
15.5461897
20
49.0082271
11
15.0000897
21
49.0082271
0
LINE
8
DEFAULT_255_2_778
10
15.0000897
20
49.0082271
11
15.0000897
21
49.2720271
0
LINE
8
DEFAULT_255_2_778
10
15.0000897
20
49.2720271
11
15.0000897
21
49.2723271
0
LINE
8
DEFAULT_255_2_778
10
17.4064897
20
50.5811271
11
17.1690897
21
50.5811271
0
LINE
8
DEFAULT_255_2_778
10
17.1690897
20
50.5811271
11
17.1690897
21
50.8227271
0
LINE
8
DEFAULT_255_2_778
10
17.1690897
20
50.8227271
11
17.4175897
21
50.8227271
0
LINE
8
DEFAULT_255_2_778
10
17.4175897
20
50.8227271
11
17.4175897
21
50.8230271
0
LINE
8
DEFAULT_255_2_778
10
17.4027897
20
50.1403271
11
17.1690897
21
50.1403271
0
LINE
8
DEFAULT_255_2_778
10
17.1690897
20
50.1403271
11
17.1690897
21
50.4274271
0
LINE
8
DEFAULT_255_2_778
10
17.1690897
20
50.4274271
11
17.4003897
21
50.4274271
0
LINE
8
DEFAULT_255_2_778
10
17.1767897
20
49.9911271
11
17.4622897
21
49.9911271
0
LINE
8
DEFAULT_255_2_778
10
17.4172897
20
50.9801271
11
17.1770897
21
50.9801271
0
LINE
8
DEFAULT_255_2_778
10
17.1770897
20
50.9801271
11
16.9722897
21
50.9801271
0
LINE
8
DEFAULT_255_2_778
10
16.9722897
20
50.9801271
11
16.9711897
21
50.9801271
0
LINE
8
DEFAULT_255_2_778
10
16.9711897
20
50.9801271
11
16.9711897
21
49.9911271
0
LINE
8
DEFAULT_255_2_778
10
16.9711897
20
49.9911271
11
16.9722897
21
49.9911271
0
LINE
8
DEFAULT_255_2_778
10
16.9722897
20
49.9911271
11
17.1770897
21
49.9911271
0
LINE
8
DEFAULT_255_2_778
10
17.1770897
20
49.9911271
11
17.1767897
21
49.9911271
0
LINE
8
DEFAULT_255_2_778
10
17.3368897
20
49.3868271
11
17.3368897
21
49.6562271
0
LINE
8
DEFAULT_255_2_778
10
17.3368897
20
49.6562271
11
17.5781897
21
49.6562271
0
LINE
8
DEFAULT_255_2_778
10
17.5842897
20
49.3871271
11
17.3370897
21
49.3871271
0
LINE
8
DEFAULT_255_2_778
10
17.3370897
20
49.3871271
11
17.3368897
21
49.3868271
0
LINE
8
DEFAULT_255_2_778
10
17.5879897
20
49.8273271
11
17.3368897
21
49.8273271
0
LINE
8
DEFAULT_255_2_778
10
17.3368897
20
49.8273271
11
17.1383897
21
49.8273271
0
LINE
8
DEFAULT_255_2_778
10
17.1383897
20
49.8273271
11
17.1362897
21
49.8273271
0
LINE
8
DEFAULT_255_2_778
10
17.1362897
20
49.8273271
11
17.1362897
21
48.8381271
0
LINE
8
DEFAULT_255_2_778
10
17.1362897
20
48.8381271
11
17.3368897
21
48.8381271
0
LINE
8
DEFAULT_255_2_778
10
17.3368897
20
48.8381271
11
17.3368897
21
49.2278271
0
LINE
8
DEFAULT_255_2_778
10
17.3368897
20
49.2278271
11
17.5069897
21
49.2278271
0
LINE
8
DEFAULT_255_2_778
10
17.7162897
20
48.8381271
11
17.9175897
21
48.8381271
0
LINE
8
DEFAULT_255_2_778
10
14.2763897
20
49.8263271
11
14.0760897
21
49.8263271
0
LINE
8
DEFAULT_255_2_778
10
14.0760897
20
49.8263271
11
14.0760897
21
49.0085271
0
LINE
8
DEFAULT_255_2_778
10
14.0760897
20
49.0085271
11
14.0760897
21
48.8370271
0
LINE
8
DEFAULT_255_2_778
10
14.0760897
20
48.8370271
11
14.2763897
21
48.8370271
0
LINE
8
DEFAULT_255_2_778
10
14.2763897
20
48.8370271
11
14.7428897
21
48.8370271
0
LINE
8
DEFAULT_255_2_778
10
14.7428897
20
48.8370271
11
14.7428897
21
49.0085271
0
LINE
8
DEFAULT_255_2_778
10
14.7428897
20
49.0085271
11
14.2763897
21
49.0085271
0
LINE
8
DEFAULT_255_2_778
10
14.2763897
20
49.0085271
11
14.2763897
21
49.8263271
0
LINE
8
DEFAULT_255_2_778
10
14.2763897
20
49.8263271
11
14.2763897
21
49.8263271
0
ARC
8
DEFAULT_255_2_778
10
15.4584271
20
49.4521969
40
0.9681224
50
72.4822103
51
81.3184214
0
ARC
8
DEFAULT_255_2_778
10
15.7160297
20
50.2288918
40
0.1503783
50
28.8883513
51
77.0092434
0
ARC
8
DEFAULT_255_2_778
10
15.7432379
20
50.2578196
40
0.113238
50
358.9917455
51
22.7117017
0
ARC
8
DEFAULT_255_2_778
10
15.7394861
20
50.2619918
40
0.1171346
50
289.2958104
51
356.9831562
0
ARC
8
DEFAULT_255_2_778
10
15.6668261
20
50.4194882
40
0.2902651
50
268.4665462
51
292.5613311
0
ARC
8
DEFAULT_255_2_778
10
15.6496856
20
50.3604179
40
0.2312808
50
236.4956947
51
272.3225735
0
ARC
8
DEFAULT_255_2_778
10
15.6106646
20
50.2921839
40
0.1529307
50
178.9722202
51
234.5742435
0
ARC
8
DEFAULT_255_2_778
10
15.5656113
20
50.2826079
40
0.3002058
50
177.6481608
51
245.5596397
0
ARC
8
DEFAULT_255_2_778
10
15.6409971
20
50.4548561
40
0.488217
50
245.8690375
51
267.169035
0
ARC
8
DEFAULT_255_2_778
10
15.6671503
20
50.7058916
40
0.7403648
50
266.1069867
51
270.0547972
0
ARC
8
DEFAULT_255_2_778
10
15.6772894
20
50.5371135
40
0.5716642
50
269.0547216
51
287.7147747
0
ARC
8
DEFAULT_255_2_778
10
15.7598889
20
50.2914091
40
0.3125017
50
286.995984
51
325.1221533
0
ARC
8
DEFAULT_255_2_778
10
15.7678294
20
50.274861
40
0.2966627
50
326.8673922
51
0.8625726
0
ARC
8
DEFAULT_255_2_778
10
15.7898286
20
50.2834409
40
0.2746606
50
359.1417932
51
76.9739731
0
ARC
8
DEFAULT_255_2_778
10
15.6705461
20
50.0025719
40
0.577616
50
71.7185727
51
79.1315439
0
ARC
8
DEFAULT_255_2_778
10
14.2492968
20
42.648967
40
8.0673056
50
79.0662148
51
79.6216572
0
ARC
8
DEFAULT_255_2_778
10
16.4356585
20
54.5266581
40
4.0099443
50
259.1227669
51
259.4665204
0
ARC
8
DEFAULT_255_2_778
10
15.7836732
20
51.2316142
40
0.6513291
50
249.9945768
51
260.7485895
0
ARC
8
DEFAULT_255_2_778
10
15.5880401
20
50.7205999
40
0.1046098
50
178.6705173
51
254.9333545
0
ARC
8
DEFAULT_255_2_778
10
15.6049957
20
50.7171688
40
0.1216785
50
93.288632
51
177.2403935
0
ARC
8
DEFAULT_255_2_778
10
15.6585677
20
50.5301752
40
0.3143588
50
89.6189463
51
101.1057977
0
ARC
8
DEFAULT_255_2_778
10
15.6722733
20
50.642016
40
0.2028439
50
53.5634072
51
93.2825843
0
ARC
8
DEFAULT_255_2_778
10
15.7018505
20
50.7002144
40
0.1388739
50
357.1985816
51
49.1152298
0
ARC
8
DEFAULT_255_2_778
10
15.7254907
20
50.6934274
40
0.3087677
50
359.9999335
51
2.3703878
0
ARC
8
DEFAULT_255_2_778
10
15.7353555
20
50.6949337
40
0.298851
50
2.1600756
51
60.1092229
0
ARC
8
DEFAULT_255_2_778
10
15.6766212
20
50.5883133
40
0.4205645
50
60.4106856
51
86.1444419
0
ARC
8
DEFAULT_255_2_778
10
15.6536151
20
50.4116228
40
0.5985046
50
85.0843314
51
90.0628677
0
ARC
8
DEFAULT_255_2_778
10
15.6529718
20
50.5350466
40
0.4750804
50
90.001616
51
92.2300394
0
ARC
8
DEFAULT_255_2_778
10
15.6281193
20
50.640187
40
0.3696351
50
89.0131319
51
149.6364996
0
ARC
8
DEFAULT_255_2_778
10
15.5505461
20
50.7124055
40
0.2671974
50
154.5962367
51
180.4885883
0
ARC
8
DEFAULT_255_2_778
10
15.5651524
20
50.710884
40
0.281795
50
180.1539064
51
255.1120325
0
ARC
8
DEFAULT_255_2_778
10
15.7094242
20
51.033732
40
0.6333958
50
249.9962237
51
260.4976723
0
ARC
8
DEFAULT_255_2_778
10
18.2470963
20
49.4533351
40
0.967002
50
72.4685023
51
81.3064395
0
ARC
8
DEFAULT_255_2_778
10
18.5045397
20
50.228927
40
0.1503535
50
28.8782248
51
76.9904304
0
ARC
8
DEFAULT_255_2_778
10
18.5317197
20
50.2578189
40
0.1132561
50
358.9922779
51
22.7082666
0
ARC
8
DEFAULT_255_2_778
10
18.5280402
20
50.2619088
40
0.1170763
50
289.2761556
51
357.0223042
0
ARC
8
DEFAULT_255_2_778
10
18.4553612
20
50.4197836
40
0.2905613
50
268.4611814
51
292.5289055
0
ARC
8
DEFAULT_255_2_778
10
18.4381801
20
50.3613175
40
0.2321799
50
236.6698634
51
272.3149402
0
ARC
8
DEFAULT_255_2_778
10
18.39878
20
50.2921762
40
0.1528464
50
178.9687581
51
234.7686008
0
ARC
8
DEFAULT_255_2_778
10
18.3540113
20
50.2826079
40
0.3002058
50
177.6481608
51
245.5596397
0
ARC
8
DEFAULT_255_2_778
10
18.4293971
20
50.4548561
40
0.488217
50
245.8690375
51
267.169035
0
ARC
8
DEFAULT_255_2_778
10
18.4555503
20
50.7058916
40
0.7403648
50
266.1069867
51
270.0547972
0
ARC
8
DEFAULT_255_2_778
10
18.4656836
20
50.5377451
40
0.5722957
50
269.0563423
51
287.7048702
0
ARC
8
DEFAULT_255_2_778
10
18.548344
20
50.2917682
40
0.312856
50
286.9832601
51
325.0871916
0
ARC
8
DEFAULT_255_2_778
10
18.5567708
20
50.2748856
40
0.2964208
50
326.8311942
51
0.8585267
0
ARC
8
DEFAULT_255_2_778
10
18.5785756
20
50.2835282
40
0.2746149
50
359.1234265
51
76.9343785
0
ARC
8
DEFAULT_255_2_778
10
18.4596421
20
50.0036965
40
0.5764934
50
71.6999697
51
79.1198353
0
ARC
8
DEFAULT_255_2_778
10
17.0173657
20
42.5269392
40
8.1910887
50
79.0843627
51
79.6321368
0
ARC
8
DEFAULT_255_2_778
10
19.2200266
20
54.5064177
40
3.9892176
50
259.1314419
51
259.4772924
0
ARC
8
DEFAULT_255_2_778
10
18.5723251
20
51.2310131
40
0.6507003
50
249.9919323
51
260.7592458
0
ARC
8
DEFAULT_255_2_778
10
18.376901
20
50.7205546
40
0.1045718
50
178.6452075
51
254.9151907
0
ARC
8
DEFAULT_255_2_778
10
18.3939581
20
50.7171016
40
0.121744
50
93.2745253
51
177.21023
0
ARC
8
DEFAULT_255_2_778
10
18.4475726
20
50.5300052
40
0.3145287
50
89.6200387
51
101.1027534
0
ARC
8
DEFAULT_255_2_778
10
18.4613489
20
50.6433453
40
0.2015212
50
53.1490002
51
93.3256649
0
ARC
8
DEFAULT_255_2_778
10
18.4902753
20
50.7001519
40
0.1391457
50
357.2298288
51
48.6469881
0
ARC
8
DEFAULT_255_2_778
10
18.5137232
20
50.6934226
40
0.3092351
50
0.0008291
51
2.3676985
0
ARC
8
DEFAULT_255_2_778
10
18.5240744
20
50.6949868
40
0.2988304
50
2.1500394
51
60.0956838
0
ARC
8
DEFAULT_255_2_778
10
18.4654399
20
50.5884909
40
0.4203859
50
60.40452
51
86.1455285
0
ARC
8
DEFAULT_255_2_778
10
18.4424157
20
50.4116686
40
0.5984588
50
85.0841409
51
90.0629301
0
ARC
8
DEFAULT_255_2_778
10
18.4417778
20
50.5346392
40
0.4754878
50
90.0023409
51
92.3231329
0
ARC
8
DEFAULT_255_2_778
10
18.4167555
20
50.6399604
40
0.3698206
50
89.1093915
51
149.6400816
0
ARC
8
DEFAULT_255_2_778
10
18.338761
20
50.7123917
40
0.2669122
50
154.6001925
51
180.486137
0
ARC
8
DEFAULT_255_2_778
10
18.3537607
20
50.7110152
40
0.2819037
50
180.1805176
51
255.132702
0
ARC
8
DEFAULT_255_2_778
10
18.4982264
20
51.0342784
40
0.6339516
50
250.0026216
51
260.4967164
0
ARC
8
DEFAULT_255_2_778
10
16.008917
20
49.2414283
40
0.2519711
50
190.2626864
51
267.3480013
0
ARC
8
DEFAULT_255_2_778
10
16.2443543
20
49.3327548
40
0.5022041
50
179.6723028
51
195.7380858
0
ARC
8
DEFAULT_255_2_778
10
16.1790511
20
49.3482671
40
0.4370755
50
148.7005643
51
181.6572045
0
ARC
8
DEFAULT_255_2_778
10
15.9957576
20
49.4583723
40
0.2232598
50
89.6148479
51
148.4074796
0
ARC
8
DEFAULT_255_2_778
10
16.0060936
20
49.480449
40
0.201372
50
41.9769772
51
92.5146611
0
ARC
8
DEFAULT_255_2_778
10
15.9522078
20
49.4427523
40
0.2667646
50
15.1848537
51
40.2549591
0
ARC
8
DEFAULT_255_2_778
10
16.028123
20
49.4530326
40
0.3935735
50
8.7091682
51
82.0550801
0
ARC
8
DEFAULT_255_2_778
10
15.9931241
20
49.3065871
40
0.543642
50
80.5350289
51
90.1544743
0
ARC
8
DEFAULT_255_2_778
10
15.9818804
20
49.3952192
40
0.4551129
50
88.7689246
51
119.6437418
0
ARC
8
DEFAULT_255_2_778
10
16.0077717
20
49.3989647
40
0.4653013
50
122.644121
51
173.3997839
0
ARC
8
DEFAULT_255_2_778
10
16.2711934
20
49.3346568
40
0.7351371
50
170.7798304
51
180.1348114
0
ARC
8
DEFAULT_255_2_778
10
16.1377257
20
49.3192615
40
0.6018225
50
178.6988735
51
210.5289552
0
ARC
8
DEFAULT_255_2_778
10
15.970325
20
49.2284953
40
0.4115783
50
211.4828222
51
265.8686737
0
ARC
8
DEFAULT_255_2_778
10
15.9909864
20
49.3532011
40
0.5375742
50
264.6297133
51
270.0503073
0
ARC
8
DEFAULT_255_2_778
10
16.0020995
20
49.2850749
40
0.4695684
50
268.7014824
51
300.1403067
0
ARC
8
DEFAULT_255_2_778
10
16.0350333
20
49.2066852
40
0.385394
50
301.7580058
51
353.77968
0
ARC
8
DEFAULT_255_2_778
10
16.0012256
20
49.2010219
40
0.2113379
50
268.8430278
51
350.1661143
0
ARC
8
DEFAULT_255_2_778
10
18.6896799
20
49.2413824
40
0.2519281
50
190.2538303
51
267.3332171
0
ARC
8
DEFAULT_255_2_778
10
18.9252249
20
49.3327581
40
0.5022746
50
179.672724
51
195.7362088
0
ARC
8
DEFAULT_255_2_778
10
18.8600432
20
49.3482917
40
0.4372682
50
148.7196987
51
181.6596982
0
ARC
8
DEFAULT_255_2_778
10
18.676443
20
49.4584906
40
0.2231415
50
89.6108896
51
148.4244661
0
ARC
8
DEFAULT_255_2_778
10
18.686876
20
49.480467
40
0.2013576
50
42.5913083
51
92.5383066
0
ARC
8
DEFAULT_255_2_778
10
18.6345542
20
49.4440973
40
0.2646316
50
15.0085433
51
40.7215892
0
ARC
8
DEFAULT_255_2_778
10
18.708623
20
49.4530326
40
0.3935735
50
8.7091682
51
82.0550801
0
ARC
8
DEFAULT_255_2_778
10
18.6736241
20
49.3065871
40
0.543642
50
80.5350289
51
90.1544743
0
ARC
8
DEFAULT_255_2_778
10
18.6623804
20
49.3952192
40
0.4551129
50
88.7689246
51
119.6437418
0
ARC
8
DEFAULT_255_2_778
10
18.6882717
20
49.3989647
40
0.4653013
50
122.644121
51
173.3997839
0
ARC
8
DEFAULT_255_2_778
10
18.9516934
20
49.3346568
40
0.7351371
50
170.7798304
51
180.1348114
0
ARC
8
DEFAULT_255_2_778
10
18.8177822
20
49.31932
40
0.6013778
50
178.7034849
51
210.5604279
0
ARC
8
DEFAULT_255_2_778
10
18.6511312
20
49.2288377
40
0.4119265
50
211.5090145
51
265.8592607
0
ARC
8
DEFAULT_255_2_778
10
18.6716883
20
49.3529521
40
0.5373252
50
264.628472
51
270.0501277
0
ARC
8
DEFAULT_255_2_778
10
18.682837
20
49.2848685
40
0.4693629
50
268.6963312
51
300.2191972
0
ARC
8
DEFAULT_255_2_778
10
18.7155684
20
49.2069124
40
0.3856821
50
301.8465101
51
353.7503927
0
ARC
8
DEFAULT_255_2_778
10
18.6820648
20
49.2008604
40
0.2111733
50
268.8857714
51
350.2028431
0
LINE
8
DEFAULT_255_2_778
10
15.4577584
20
50.2949271
11
15.2656584
21
50.2949271
0
LINE
8
DEFAULT_255_2_778
10
15.8405584
20
50.6934271
11
16.0342584
21
50.6934271
0
LINE
8
DEFAULT_255_2_778
10
18.2459584
20
50.2949271
11
18.0540584
21
50.2949271
0
LINE
8
DEFAULT_255_2_778
10
18.6292584
20
50.6934271
11
18.8229584
21
50.6934271
0
LINE
8
DEFAULT_255_2_778
10
16.2096584
20
49.5126271
11
16.4171584
21
49.5126271
0
LINE
8
DEFAULT_255_2_778
10
16.4181584
20
49.1649271
11
16.2094584
21
49.1649271
0
LINE
8
DEFAULT_255_2_778
10
18.8901584
20
49.5126271
11
19.0976584
21
49.5126271
0
LINE
8
DEFAULT_255_2_778
10
19.0989584
20
49.1649271
11
18.8901584
21
49.1649271
0
LINE
8
DEFAULT_255_1_234
10
4.9274119
20
44.4491792
11
4.9274119
21
44.3279
0
LINE
8
DEFAULT_255_1_234
10
4.9274119
20
44.3279
11
4.161184
21
44.3279
0
LINE
8
DEFAULT_255_1_234
10
4.161184
20
44.3279
11
4.161184
21
44.4347221
0
LINE
8
DEFAULT_255_1_234
10
4.161184
20
44.4347221
11
4.5659836
21
44.8844995
0
LINE
8
DEFAULT_255_1_234
10
4.2872823
20
45.1527595
11
4.1386952
21
45.1527595
0
LINE
8
DEFAULT_255_1_234
10
4.6535296
20
44.7889218
11
4.3402918
21
44.4491792
0
LINE
8
DEFAULT_255_1_234
10
4.3402918
20
44.4491792
11
4.9274119
21
44.4491792
0
ARC
8
DEFAULT_255_1_234
10
3.216967
20
46.0774527
40
1.8008286
50
318.5132453
51
320.7828378
0
ARC
8
DEFAULT_255_1_234
10
3.7456644
20
45.6471426
40
1.1191493
50
320.7372736
51
323.9737074
0
ARC
8
DEFAULT_255_1_234
10
4.1376501
20
45.3631361
40
0.6350923
50
323.8961724
51
328.6421089
0
ARC
8
DEFAULT_255_1_234
10
4.3423096
20
45.2369031
40
0.3946393
50
328.8299013
51
331.789948
0
ARC
8
DEFAULT_255_1_234
10
4.4420274
20
45.1854509
40
0.2824501
50
331.4255242
51
352.9364833
0
ARC
8
DEFAULT_255_1_234
10
4.4556775
20
45.1823976
40
0.2685315
50
353.2248685
51
0.0169286
0
ARC
8
DEFAULT_255_1_234
10
4.4766652
20
45.184695
40
0.2475536
50
359.4866256
51
15.9339782
0
ARC
8
DEFAULT_255_1_234
10
4.5273637
20
45.1983286
40
0.1950618
50
16.1714718
51
43.5284424
0
ARC
8
DEFAULT_255_1_234
10
4.5350946
20
45.2060573
40
0.184134
50
43.4415429
51
83.1661404
0
ARC
8
DEFAULT_255_1_234
10
4.5216864
20
45.1323771
40
0.258926
50
82.160215
51
90.1505798
0
ARC
8
DEFAULT_255_1_234
10
4.5185291
20
45.0786865
40
0.3126255
50
89.5460705
51
102.5418777
0
ARC
8
DEFAULT_255_1_234
10
4.4942377
20
45.1817665
40
0.2067346
50
102.1739365
51
129.2061916
0
ARC
8
DEFAULT_255_1_234
10
4.4863449
20
45.1942094
40
0.1921118
50
129.7279328
51
135.7542026
0
ARC
8
DEFAULT_255_1_234
10
4.4984977
20
45.1845045
40
0.2075944
50
136.175737
51
166.3674722
0
ARC
8
DEFAULT_255_1_234
10
4.5991896
20
45.1575182
40
0.3118201
50
165.9092917
51
178.8683903
0
ARC
8
DEFAULT_255_1_234
10
4.6856757
20
45.1528179
40
0.3983935
50
178.438168
51
180.0083905
0
ARC
8
DEFAULT_255_1_234
10
4.5455359
20
45.1567231
40
0.4068601
50
163.2878735
51
180.5581814
0
ARC
8
DEFAULT_255_1_234
10
4.4653621
20
45.178784
40
0.3237344
50
133.454115
51
162.9470031
0
ARC
8
DEFAULT_255_1_234
10
4.4832162
20
45.1598
40
0.349795
50
100.7869394
51
133.4384016
0
ARC
8
DEFAULT_255_1_234
10
4.5179934
20
45.0049319
40
0.5084616
50
89.6605301
51
101.3704185
0
ARC
8
DEFAULT_255_1_234
10
4.5246273
20
45.0110496
40
0.502348
50
78.2171172
51
90.4130393
0
ARC
8
DEFAULT_255_1_234
10
4.5601351
20
45.1734637
40
0.3361092
50
55.9268222
51
78.4888551
0
ARC
8
DEFAULT_255_1_234
10
4.5797791
20
45.2073324
40
0.2970617
50
47.9292255
51
55.4054003
0
ARC
8
DEFAULT_255_1_234
10
4.5899352
20
45.2176502
40
0.2825983
50
4.3347696
51
48.0560701
0
ARC
8
DEFAULT_255_1_234
10
4.4803745
20
45.2006601
40
0.393225
50
359.925209
51
5.5967654
0
ARC
8
DEFAULT_255_1_234
10
4.5232637
20
45.2062816
40
0.3503892
50
337.8914096
51
358.9967724
0
ARC
8
DEFAULT_255_1_234
10
4.2519049
20
45.3109706
40
0.6412172
50
326.9135351
51
338.3505194
0
ARC
8
DEFAULT_255_1_234
10
3.8533353
20
45.5664284
40
1.1146189
50
319.6472867
51
327.095818
0
ARC
8
DEFAULT_255_1_234
10
3.4700356
20
45.8826
40
1.6114559
50
317.2586784
51
319.9046139
0
LINE
8
DEFAULT_255_1_234
10
5.7121127
20
45.4973211
11
5.7121127
21
44.720652
0
LINE
8
DEFAULT_255_1_234
10
5.7121127
20
44.720652
11
5.8743538
21
44.720652
0
LINE
8
DEFAULT_255_1_234
10
5.8743538
20
44.720652
11
5.8743538
21
44.5993728
0
LINE
8
DEFAULT_255_1_234
10
5.8743538
20
44.5993728
11
5.7121127
21
44.5993728
0
LINE
8
DEFAULT_255_1_234
10
5.7121127
20
44.5993728
11
5.7121127
21
44.3279
0
LINE
8
DEFAULT_255_1_234
10
5.7121127
20
44.3279
11
5.5627224
21
44.3279
0
LINE
8
DEFAULT_255_1_234
10
5.5627224
20
44.3279
11
5.5627224
21
44.5993728
0
LINE
8
DEFAULT_255_1_234
10
5.5627224
20
44.5993728
11
5.0302181
21
44.5993728
0
LINE
8
DEFAULT_255_1_234
10
5.0302181
20
44.5993728
11
5.0302181
21
44.6869187
0
LINE
8
DEFAULT_255_1_234
10
5.0302181
20
44.6869187
11
5.5538875
21
45.4973211
0
LINE
8
DEFAULT_255_1_234
10
5.5538875
20
45.4973211
11
5.7121127
21
45.4973211
0
LINE
8
DEFAULT_255_1_234
10
5.5450525
20
45.2619912
11
5.1988846
21
44.720652
0
LINE
8
DEFAULT_255_1_234
10
5.1988846
20
44.720652
11
5.5627224
21
44.720652
0
LINE
8
DEFAULT_255_1_234
10
5.5627224
20
44.720652
11
5.5627224
21
45.2941181
0
LINE
8
DEFAULT_255_1_234
10
5.5627224
20
45.2941181
11
5.5450525
21
45.2619912
0
LINE
8
DEFAULT_255_1_234
10
6.101652
20
45.4973211
11
6.434166
21
44.5327093
0
LINE
8
DEFAULT_255_1_234
10
6.434166
20
44.5327093
11
6.7682863
21
45.4973211
0
LINE
8
DEFAULT_255_1_234
10
6.7682863
20
45.4973211
11
6.9369528
21
45.4973211
0
LINE
8
DEFAULT_255_1_234
10
6.9369528
20
45.4973211
11
6.5032389
21
44.3279
0
LINE
8
DEFAULT_255_1_234
10
6.5032389
20
44.3279
11
6.3666994
21
44.3279
0
LINE
8
DEFAULT_255_1_234
10
6.3666994
20
44.3279
11
5.9337887
21
45.4973211
0
LINE
8
DEFAULT_255_1_234
10
5.9337887
20
45.4973211
11
6.101652
21
45.4973211
0
LINE
8
DEFAULT_255_1_234
10
4.8392628
20
5.8098211
11
4.8392628
21
5.033152
0
LINE
8
DEFAULT_255_1_234
10
4.8392628
20
5.033152
11
5.0015039
21
5.033152
0
LINE
8
DEFAULT_255_1_234
10
5.0015039
20
5.033152
11
5.0015039
21
4.9118728
0
LINE
8
DEFAULT_255_1_234
10
5.0015039
20
4.9118728
11
4.8392628
21
4.9118728
0
LINE
8
DEFAULT_255_1_234
10
4.8392628
20
4.9118728
11
4.8392628
21
4.6404
0
LINE
8
DEFAULT_255_1_234
10
4.8392628
20
4.6404
11
4.6898725
21
4.6404
0
LINE
8
DEFAULT_255_1_234
10
4.6898725
20
4.6404
11
4.6898725
21
4.9118728
0
LINE
8
DEFAULT_255_1_234
10
4.6898725
20
4.9118728
11
4.1573682
21
4.9118728
0
LINE
8
DEFAULT_255_1_234
10
4.1573682
20
4.9118728
11
4.1573682
21
4.9994187
0
LINE
8
DEFAULT_255_1_234
10
4.1573682
20
4.9994187
11
4.6810375
21
5.8098211
0
LINE
8
DEFAULT_255_1_234
10
4.6810375
20
5.8098211
11
4.8392628
21
5.8098211
0
LINE
8
DEFAULT_255_1_234
10
4.6722026
20
5.5744912
11
4.3260347
21
5.033152
0
LINE
8
DEFAULT_255_1_234
10
4.3260347
20
5.033152
11
4.6898725
21
5.033152
0
LINE
8
DEFAULT_255_1_234
10
4.6898725
20
5.033152
11
4.6898725
21
5.6066181
0
LINE
8
DEFAULT_255_1_234
10
4.6898725
20
5.6066181
11
4.6722026
21
5.5744912
0
LINE
8
DEFAULT_255_1_234
10
4.2163378
20
13.1136169
11
4.2163378
21
13.2348962
0
LINE
8
DEFAULT_255_1_234
10
4.2163378
20
13.2348962
11
4.327979
21
13.2348962
0
LINE
8
DEFAULT_255_1_234
10
4.1376268
20
13.4405087
11
3.9890396
21
13.4405087
0
LINE
8
DEFAULT_255_1_234
10
3.9785983
20
12.8863188
11
4.1279887
21
12.8863188
0
LINE
8
DEFAULT_255_1_234
10
4.327979
20
13.1136169
11
4.2163378
21
13.1136169
0
ARC
8
DEFAULT_255_1_234
10
4.3250656
20
13.5741713
40
0.3392876
50
270.4919872
51
281.8951556
0
ARC
8
DEFAULT_255_1_234
10
4.3491918
20
13.4639702
40
0.2264817
50
281.6691735
51
301.2943132
0
ARC
8
DEFAULT_255_1_234
10
4.3662128
20
13.4328304
40
0.1910381
50
301.7833094
51
311.7545298
0
ARC
8
DEFAULT_255_1_234
10
4.3753704
20
13.4226748
40
0.1773635
50
311.7323931
51
354.2802411
0
ARC
8
DEFAULT_255_1_234
10
4.3027329
20
13.4351722
40
0.2509385
50
353.0937916
51
0.1181479
0
ARC
8
DEFAULT_255_1_234
10
4.2566114
20
13.4399386
40
0.2970898
50
359.1805295
51
15.0453146
0
ARC
8
DEFAULT_255_1_234
10
4.3911951
20
13.4791992
40
0.1569564
50
13.9577229
51
77.6713066
0
ARC
8
DEFAULT_255_1_234
10
4.352548
20
13.3406949
40
0.3006298
50
76.1116566
51
90.7026153
0
ARC
8
DEFAULT_255_1_234
10
4.3466318
20
13.3680545
40
0.2732568
50
89.5324876
51
103.531937
0
ARC
8
DEFAULT_255_1_234
10
4.3265762
20
13.4479884
40
0.1908508
50
103.2931773
51
133.5619022
0
ARC
8
DEFAULT_255_1_234
10
4.3221251
20
13.4539375
40
0.1834746
50
133.8349307
51
173.5344437
0
ARC
8
DEFAULT_255_1_234
10
4.3944294
20
13.4411213
40
0.2568033
50
172.5096846
51
180.1366907
0
ARC
8
DEFAULT_255_1_234
10
4.2993188
20
13.4445622
40
0.3103056
50
155.3484492
51
180.7484736
0
ARC
8
DEFAULT_255_1_234
10
4.2944277
20
13.4416846
40
0.3070957
50
131.5744599
51
154.4798489
0
ARC
8
DEFAULT_255_1_234
10
4.3257424
20
13.410031
40
0.3515643
50
96.9875458
51
131.9690667
0
ARC
8
DEFAULT_255_1_234
10
4.3476904
20
13.2854636
40
0.4779224
50
89.8596053
51
97.7825159
0
ARC
8
DEFAULT_255_1_234
10
4.3524967
20
13.2592616
40
0.5041361
50
78.3655447
51
90.4131539
0
ARC
8
DEFAULT_255_1_234
10
4.3882885
20
13.4251887
40
0.3344039
50
56.6229102
51
78.638727
0
ARC
8
DEFAULT_255_1_234
10
4.4097829
20
13.4627805
40
0.2912001
50
47.0253525
51
56.0854072
0
ARC
8
DEFAULT_255_1_234
10
4.4117609
20
13.4667223
40
0.2869704
50
10.9208013
51
46.7778124
0
ARC
8
DEFAULT_255_1_234
10
4.2753675
20
13.4351857
40
0.426899
50
359.6364486
51
11.6087304
0
ARC
8
DEFAULT_255_1_234
10
4.4588519
20
13.4336752
40
0.243409
50
332.3549906
51
359.7179418
0
ARC
8
DEFAULT_255_1_234
10
4.3938121
20
13.4645142
40
0.3153459
50
325.2333722
51
332.8745602
0
ARC
8
DEFAULT_255_1_234
10
4.4090744
20
13.4538828
40
0.2967456
50
292.9802137
51
325.2392345
0
ARC
8
DEFAULT_255_1_234
10
4.3816118
20
13.5072863
40
0.3566604
50
292.5402179
51
293.6924929
0
ARC
8
DEFAULT_255_1_234
10
4.4208714
20
12.8618091
40
0.3307468
50
57.6435486
51
72.8625112
0
ARC
8
DEFAULT_255_1_234
10
4.4563214
20
12.9192549
40
0.2632492
50
36.7248896
51
57.4697979
0
ARC
8
DEFAULT_255_1_234
10
4.4551847
20
12.920522
40
0.2634081
50
8.0545065
51
36.356114
0
ARC
8
DEFAULT_255_1_234
10
4.3689032
20
12.9050174
40
0.3510261
50
359.8320645
51
8.5869982
0
ARC
8
DEFAULT_255_1_234
10
4.3313808
20
12.9002101
40
0.3885653
50
343.9829931
51
0.5571613
0
ARC
8
DEFAULT_255_1_234
10
4.4200005
20
12.8759438
40
0.2966924
50
311.6359546
51
343.7651759
0
ARC
8
DEFAULT_255_1_234
10
4.3821574
20
12.9186102
40
0.3537231
50
279.7829875
51
311.6255694
0
ARC
8
DEFAULT_255_1_234
10
4.3520351
20
13.062328
40
0.5004971
50
269.7286406
51
280.3856417
0
ARC
8
DEFAULT_255_1_234
10
4.3458423
20
13.0581996
40
0.4963778
50
256.6828919
51
270.4412052
0
ARC
8
DEFAULT_255_1_234
10
4.3119719
20
12.9197394
40
0.3538406
50
229.4223008
51
256.8556159
0
ARC
8
DEFAULT_255_1_234
10
4.2705112
20
12.8730736
40
0.2914296
50
181.818294
51
229.6455059
0
ARC
8
DEFAULT_255_1_234
10
4.3745068
20
12.8861496
40
0.3959084
50
179.9755256
51
183.2323064
0
ARC
8
DEFAULT_255_1_234
10
4.3572814
20
12.8841037
40
0.2293034
50
179.4465117
51
196.2869258
0
ARC
8
DEFAULT_255_1_234
10
4.3085222
20
12.8707651
40
0.1787621
50
196.5661473
51
227.705904
0
ARC
8
DEFAULT_255_1_234
10
4.3249317
20
12.8891155
40
0.2033784
50
227.7652068
51
257.8762805
0
ARC
8
DEFAULT_255_1_234
10
4.3474287
20
12.9834156
40
0.3003081
50
257.4584385
51
270.426602
0
ARC
8
DEFAULT_255_1_234
10
4.3519853
20
13.0123996
40
0.329292
50
269.5962073
51
280.8789248
0
ARC
8
DEFAULT_255_1_234
10
4.3749382
20
12.8977685
40
0.2123908
50
280.6346389
51
299.8595945
0
ARC
8
DEFAULT_255_1_234
10
4.3940289
20
12.8615212
40
0.171457
50
300.3576302
51
314.5517981
0
ARC
8
DEFAULT_255_1_234
10
4.3857349
20
12.8675919
40
0.1816095
50
315.0728369
51
345.0431014
0
ARC
8
DEFAULT_255_1_234
10
4.2934163
20
12.8944841
40
0.2777492
50
344.5986631
51
357.9269593
0
ARC
8
DEFAULT_255_1_234
10
4.2038489
20
12.9006276
40
0.3674917
50
357.4748886
51
0.0231117
0
ARC
8
DEFAULT_255_1_234
10
4.3061599
20
12.9030679
40
0.2651907
50
359.5047933
51
13.4239635
0
ARC
8
DEFAULT_255_1_234
10
4.3928242
20
12.9252478
40
0.1757509
50
12.9498199
51
48.7551375
0
ARC
8
DEFAULT_255_1_234
10
4.3745976
20
12.90034
40
0.2065134
50
49.5088623
51
72.1836453
0
ARC
8
DEFAULT_255_1_234
10
4.3388129
20
12.7941291
40
0.3185836
50
71.9010081
51
84.3554254
0
ARC
8
DEFAULT_255_1_234
10
4.3226761
20
12.6580326
40
0.4556151
50
84.0193428
51
89.333121
0
LINE
8
DEFAULT_255_1_234
10
4.7665119
20
20.6366792
11
4.7665119
21
20.5154
0
LINE
8
DEFAULT_255_1_234
10
4.7665119
20
20.5154
11
4.000284
21
20.5154
0
LINE
8
DEFAULT_255_1_234
10
4.000284
20
20.5154
11
4.000284
21
20.6222221
0
LINE
8
DEFAULT_255_1_234
10
4.000284
20
20.6222221
11
4.4050836
21
21.0719995
0
LINE
8
DEFAULT_255_1_234
10
4.1263823
20
21.3402595
11
3.9777952
21
21.3402595
0
LINE
8
DEFAULT_255_1_234
10
4.4926296
20
20.9764218
11
4.1793918
21
20.6366792
0
LINE
8
DEFAULT_255_1_234
10
4.1793918
20
20.6366792
11
4.7665119
21
20.6366792
0
ARC
8
DEFAULT_255_1_234
10
3.056067
20
22.2649527
40
1.8008286
50
318.5132453
51
320.7828378
0
ARC
8
DEFAULT_255_1_234
10
3.5847644
20
21.8346426
40
1.1191493
50
320.7372736
51
323.9737074
0
ARC
8
DEFAULT_255_1_234
10
3.9767501
20
21.5506361
40
0.6350923
50
323.8961724
51
328.6421089
0
ARC
8
DEFAULT_255_1_234
10
4.1814096
20
21.4244031
40
0.3946393
50
328.8299013
51
331.789948
0
ARC
8
DEFAULT_255_1_234
10
4.2811274
20
21.3729509
40
0.2824501
50
331.4255242
51
352.9364833
0
ARC
8
DEFAULT_255_1_234
10
4.2947775
20
21.3698976
40
0.2685315
50
353.2248685
51
0.0169286
0
ARC
8
DEFAULT_255_1_234
10
4.3157652
20
21.372195
40
0.2475536
50
359.4866256
51
15.9339782
0
ARC
8
DEFAULT_255_1_234
10
4.3664637
20
21.3858286
40
0.1950618
50
16.1714718
51
43.5284424
0
ARC
8
DEFAULT_255_1_234
10
4.3741946
20
21.3935573
40
0.184134
50
43.4415429
51
83.1661404
0
ARC
8
DEFAULT_255_1_234
10
4.3607864
20
21.3198771
40
0.258926
50
82.160215
51
90.1505798
0
ARC
8
DEFAULT_255_1_234
10
4.3576291
20
21.2661865
40
0.3126255
50
89.5460705
51
102.5418777
0
ARC
8
DEFAULT_255_1_234
10
4.3333377
20
21.3692665
40
0.2067346
50
102.1739365
51
129.2061916
0
ARC
8
DEFAULT_255_1_234
10
4.3254449
20
21.3817094
40
0.1921118
50
129.7279328
51
135.7542026
0
ARC
8
DEFAULT_255_1_234
10
4.3375977
20
21.3720045
40
0.2075944
50
136.175737
51
166.3674722
0
ARC
8
DEFAULT_255_1_234
10
4.4382896
20
21.3450182
40
0.3118201
50
165.9092917
51
178.8683903
0
ARC
8
DEFAULT_255_1_234
10
4.5247757
20
21.3403179
40
0.3983935
50
178.438168
51
180.0083905
0
ARC
8
DEFAULT_255_1_234
10
4.3846359
20
21.3442231
40
0.4068601
50
163.2878735
51
180.5581814
0
ARC
8
DEFAULT_255_1_234
10
4.3044621
20
21.366284
40
0.3237344
50
133.454115
51
162.9470031
0
ARC
8
DEFAULT_255_1_234
10
4.3223162
20
21.3473
40
0.349795
50
100.7869394
51
133.4384016
0
ARC
8
DEFAULT_255_1_234
10
4.3570934
20
21.1924319
40
0.5084616
50
89.6605301
51
101.3704185
0
ARC
8
DEFAULT_255_1_234
10
4.3637273
20
21.1985496
40
0.502348
50
78.2171172
51
90.4130393
0
ARC
8
DEFAULT_255_1_234
10
4.3992351
20
21.3609637
40
0.3361092
50
55.9268222
51
78.4888551
0
ARC
8
DEFAULT_255_1_234
10
4.4188791
20
21.3948324
40
0.2970617
50
47.9292255
51
55.4054003
0
ARC
8
DEFAULT_255_1_234
10
4.4290352
20
21.4051502
40
0.2825983
50
4.3347696
51
48.0560701
0
ARC
8
DEFAULT_255_1_234
10
4.3194745
20
21.3881601
40
0.393225
50
359.925209
51
5.5967654
0
ARC
8
DEFAULT_255_1_234
10
4.3623637
20
21.3937816
40
0.3503892
50
337.8914096
51
358.9967724
0
ARC
8
DEFAULT_255_1_234
10
4.0910049
20
21.4984706
40
0.6412172
50
326.9135351
51
338.3505194
0
ARC
8
DEFAULT_255_1_234
10
3.6924353
20
21.7539284
40
1.1146189
50
319.6472867
51
327.095818
0
ARC
8
DEFAULT_255_1_234
10
3.3091356
20
22.0701
40
1.6114559
50
317.2586784
51
319.9046139
0
LINE
8
DEFAULT_255_1_234
10
4.4804137
20
29.6279433
11
4.4804137
21
28.4529
0
LINE
8
DEFAULT_255_1_234
10
4.4804137
20
28.4529
11
4.3310234
21
28.4529
0
LINE
8
DEFAULT_255_1_234
10
4.3310234
20
28.4529
11
4.3310234
21
29.4432133
0
LINE
8
DEFAULT_255_1_234
10
4.3310234
20
29.4432133
11
4.0314396
21
29.3331785
0
LINE
8
DEFAULT_255_1_234
10
4.0314396
20
29.3331785
11
4.0314396
21
29.4681117
0
LINE
8
DEFAULT_255_1_234
10
4.0314396
20
29.4681117
11
4.4571217
21
29.6279433
0
LINE
8
DEFAULT_255_1_234
10
4.4571217
20
29.6279433
11
4.4804137
21
29.6279433
0
LINE
8
DEFAULT_255_1_234
10
4.9005341
20
36.3904
11
4.6467312
21
36.8634694
0
LINE
8
DEFAULT_255_1_234
10
4.6467312
20
36.8634694
11
4.3720458
21
36.8634694
0
LINE
8
DEFAULT_255_1_234
10
4.3720458
20
36.8634694
11
4.3720458
21
36.3904
0
LINE
8
DEFAULT_255_1_234
10
4.3720458
20
36.3904
11
4.2170332
21
36.3904
0
LINE
8
DEFAULT_255_1_234
10
4.2170332
20
36.3904
11
4.2170332
21
37.5598211
0
LINE
8
DEFAULT_255_1_234
10
4.2170332
20
37.5598211
11
4.604163
21
37.5598211
0
LINE
8
DEFAULT_255_1_234
10
4.7913025
20
36.8963995
11
5.0659879
21
36.4000381
0
LINE
8
DEFAULT_255_1_234
10
5.0659879
20
36.4000381
11
5.0659879
21
36.3904
0
LINE
8
DEFAULT_255_1_234
10
5.0659879
20
36.3904
11
4.9005341
21
36.3904
0
LINE
8
DEFAULT_255_1_234
10
4.3720458
20
37.4329196
11
4.3720458
21
36.9895677
0
LINE
8
DEFAULT_255_1_234
10
4.3720458
20
36.9895677
11
4.608982
21
36.9895677
0
LINE
8
DEFAULT_255_1_234
10
4.6081789
20
37.4329196
11
4.3720458
21
37.4329196
0
ARC
8
DEFAULT_255_1_234
10
4.6083269
20
36.8636761
40
0.6961575
50
80.653586
51
90.3427061
0
ARC
8
DEFAULT_255_1_234
10
4.6502744
20
37.1099348
40
0.4463577
50
65.6987447
51
80.8329603
0
ARC
8
DEFAULT_255_1_234
10
4.6980385
20
37.2194322
40
0.3269094
50
50.0017161
51
65.4305835
0
ARC
8
DEFAULT_255_1_234
10
4.7198849
20
37.2489482
40
0.2902647
50
11.628416
51
49.5603263
0
ARC
8
DEFAULT_255_1_234
10
4.5663185
20
37.2114299
40
0.4482792
50
359.5655735
51
12.3691
0
ARC
8
DEFAULT_255_1_234
10
4.6740045
20
37.2051644
40
0.3405924
50
341.9983148
51
0.4822259
0
ARC
8
DEFAULT_255_1_234
10
4.7134885
20
37.1944471
40
0.2997359
50
323.8609373
51
341.61416
0
ARC
8
DEFAULT_255_1_234
10
4.6833129
20
37.2177484
40
0.3378487
50
296.7018614
51
323.6876402
0
ARC
8
DEFAULT_255_1_234
10
4.6392024
20
37.2966235
40
0.4281516
50
290.8086567
51
297.2323311
0
ARC
8
DEFAULT_255_1_234
10
4.6115554
20
37.3489351
40
0.3593766
50
269.589728
51
281.8058135
0
ARC
8
DEFAULT_255_1_234
10
4.6366453
20
37.2341743
40
0.2419125
50
281.5501019
51
303.9357432
0
ARC
8
DEFAULT_255_1_234
10
4.6503641
20
37.2103936
40
0.2145323
50
304.4415616
51
311.2106213
0
ARC
8
DEFAULT_255_1_234
10
4.6635746
20
37.1964632
40
0.1953505
50
310.9875673
51
356.2715578
0
ARC
8
DEFAULT_255_1_234
10
4.5879395
20
37.2077422
40
0.2716331
50
354.9348262
51
0.0609027
0
ARC
8
DEFAULT_255_1_234
10
4.5692269
20
37.2104435
40
0.2903554
50
359.5239371
51
12.8808918
0
ARC
8
DEFAULT_255_1_234
10
4.6669824
20
37.2343728
40
0.1897315
50
12.4173452
51
43.1022135
0
ARC
8
DEFAULT_255_1_234
10
4.6731429
20
37.2380724
40
0.1827118
50
43.5751728
51
48.203944
0
ARC
8
DEFAULT_255_1_234
10
4.6561921
20
37.2159302
40
0.2105272
50
48.7809703
51
72.6969569
0
ARC
8
DEFAULT_255_1_234
10
4.6207546
20
37.108382
40
0.3237537
50
72.3702241
51
84.8791103
0
ARC
8
DEFAULT_255_1_234
10
4.6060022
20
36.9741769
40
0.4587478
50
84.5400526
51
89.7281406
0
LINE
8
DEFAULT_255_1_234
10
5.7205746
20
36.7293394
11
5.7205746
21
37.5598211
0
LINE
8
DEFAULT_255_1_234
10
5.7205746
20
37.5598211
11
5.8755872
21
37.5598211
0
LINE
8
DEFAULT_255_1_234
10
5.8755872
20
37.5598211
11
5.8755872
21
36.7317489
0
LINE
8
DEFAULT_255_1_234
10
5.1374704
20
36.7132759
11
5.2916798
21
36.7132759
0
ARC
8
DEFAULT_255_1_234
10
5.4265057
20
36.7279089
40
0.4490979
50
346.3129415
51
0.4899112
0
ARC
8
DEFAULT_255_1_234
10
5.5633406
20
36.6928729
40
0.3078632
50
313.3793358
51
346.6225026
0
ARC
8
DEFAULT_255_1_234
10
5.5432593
20
36.7181522
40
0.3400404
50
281.1587967
51
312.9131091
0
ARC
8
DEFAULT_255_1_234
10
5.5092056
20
36.8676185
40
0.4932916
50
269.6424364
51
281.6795951
0
ARC
8
DEFAULT_255_1_234
10
5.5023421
20
36.9225382
40
0.5482147
50
258.9990078
51
270.3955952
0
ARC
8
DEFAULT_255_1_234
10
5.4648725
20
36.7376746
40
0.359601
50
239.6256123
51
259.238693
0
ARC
8
DEFAULT_255_1_234
10
5.4359807
20
36.6831669
40
0.2979777
50
227.4959765
51
239.1188186
0
ARC
8
DEFAULT_255_1_234
10
5.4322374
20
36.6770689
40
0.2909561
50
191.339631
51
227.2280909
0
ARC
8
DEFAULT_255_1_234
10
5.5727014
20
36.7103031
40
0.4352412
50
179.6086538
51
191.9934722
0
ARC
8
DEFAULT_255_1_234
10
5.5861037
20
36.7110427
40
0.2944324
50
179.5654258
51
192.070398
0
ARC
8
DEFAULT_255_1_234
10
5.4889527
20
36.6892079
40
0.194866
50
191.7656467
51
215.6461951
0
ARC
8
DEFAULT_255_1_234
10
5.4711027
20
36.6784546
40
0.1741017
50
216.1938368
51
224.3931108
0
ARC
8
DEFAULT_255_1_234
10
5.4717914
20
36.6811473
40
0.1764834
50
224.8613677
51
254.362656
0
ARC
8
DEFAULT_255_1_234
10
5.4988628
20
36.770601
40
0.2699302
50
253.9471729
51
267.3949949
0
ARC
8
DEFAULT_255_1_234
10
5.5059134
20
36.8630067
40
0.362572
50
266.9456419
51
270.0337791
0
ARC
8
DEFAULT_255_1_234
10
5.5084515
20
36.746823
40
0.2463991
50
269.4595111
51
286.1822844
0
ARC
8
DEFAULT_255_1_234
10
5.5225805
20
36.6950047
40
0.1926982
50
286.4416479
51
315.8044008
0
ARC
8
DEFAULT_255_1_234
10
5.5171612
20
36.6992207
40
0.1995241
50
316.0212565
51
345.4794351
0
ARC
8
DEFAULT_255_1_234
10
5.4201118
20
36.7265575
40
0.3003349
50
345.0729543
51
358.325089
0
ARC
8
DEFAULT_255_1_234
10
5.332509
20
36.7321568
40
0.3880759
50
357.8767804
51
359.5840246
0
LINE
8
DEFAULT_255_1_234
10
6.7269514
20
37.5598211
11
6.7269514
21
36.783152
0
LINE
8
DEFAULT_255_1_234
10
6.7269514
20
36.783152
11
6.8891925
21
36.783152
0
LINE
8
DEFAULT_255_1_234
10
6.8891925
20
36.783152
11
6.8891925
21
36.6618728
0
LINE
8
DEFAULT_255_1_234
10
6.8891925
20
36.6618728
11
6.7269514
21
36.6618728
0
LINE
8
DEFAULT_255_1_234
10
6.7269514
20
36.6618728
11
6.7269514
21
36.3904
0
LINE
8
DEFAULT_255_1_234
10
6.7269514
20
36.3904
11
6.5775611
21
36.3904
0
LINE
8
DEFAULT_255_1_234
10
6.5775611
20
36.3904
11
6.5775611
21
36.6618728
0
LINE
8
DEFAULT_255_1_234
10
6.5775611
20
36.6618728
11
6.0450568
21
36.6618728
0
LINE
8
DEFAULT_255_1_234
10
6.0450568
20
36.6618728
11
6.0450568
21
36.7494187
0
LINE
8
DEFAULT_255_1_234
10
6.0450568
20
36.7494187
11
6.5687262
21
37.5598211
0
LINE
8
DEFAULT_255_1_234
10
6.5687262
20
37.5598211
11
6.7269514
21
37.5598211
0
LINE
8
DEFAULT_255_1_234
10
6.5598913
20
37.3244912
11
6.2137233
21
36.783152
0
LINE
8
DEFAULT_255_1_234
10
6.2137233
20
36.783152
11
6.5775611
21
36.783152
0
LINE
8
DEFAULT_255_1_234
10
6.5775611
20
36.783152
11
6.5775611
21
37.3566181
0
LINE
8
DEFAULT_255_1_234
10
6.5775611
20
37.3566181
11
6.5598913
21
37.3244912
0
LINE
8
DEFAULT_255_1_234
10
7.2104621
20
36.9461963
11
7.0915923
21
36.9767169
0
LINE
8
DEFAULT_255_1_234
10
7.0915923
20
36.9767169
11
7.1510272
21
37.5598211
0
LINE
8
DEFAULT_255_1_234
10
7.1510272
20
37.5598211
11
7.7501949
21
37.5598211
0
LINE
8
DEFAULT_255_1_234
10
7.7501949
20
37.5598211
11
7.7501949
21
37.4224784
0
LINE
8
DEFAULT_255_1_234
10
7.7501949
20
37.4224784
11
7.2771255
21
37.4224784
0
LINE
8
DEFAULT_255_1_234
10
7.2771255
20
37.4224784
11
7.2417858
21
37.1036184
0
LINE
8
DEFAULT_255_1_234
10
7.0498273
20
36.6980156
11
7.1903827
21
36.6980156
0
LINE
8
DEFAULT_255_1_234
10
7.2498176
20
36.9783232
11
7.2104621
21
36.9461963
0
ARC
8
DEFAULT_255_1_234
10
7.4272642
20
36.785623
40
0.3681349
50
93.7182161
51
120.2538958
0
ARC
8
DEFAULT_255_1_234
10
7.4366905
20
36.7048394
40
0.449379
50
89.9660152
51
94.2496022
0
ARC
8
DEFAULT_255_1_234
10
7.4407639
20
36.7637549
40
0.390482
50
73.8043271
51
90.5585896
0
ARC
8
DEFAULT_255_1_234
10
7.4642536
20
36.8495602
40
0.3015334
50
41.3071453
51
73.5430202
0
ARC
8
DEFAULT_255_1_234
10
7.4226364
20
36.8137324
40
0.3564457
50
13.5075983
51
41.2174222
0
ARC
8
DEFAULT_255_1_234
10
7.2584567
20
36.7707486
40
0.5261351
50
1.1331335
51
13.8829381
0
ARC
8
DEFAULT_255_1_234
10
7.1172936
20
36.7631665
40
0.6674378
50
359.9919444
51
1.544251
0
ARC
8
DEFAULT_255_1_234
10
7.2449763
20
36.759028
40
0.5397702
50
347.8572367
51
0.4293338
0
ARC
8
DEFAULT_255_1_234
10
7.420008
20
36.7193736
40
0.3603188
50
323.673004
51
348.1672506
0
ARC
8
DEFAULT_255_1_234
10
7.4494588
20
36.7014168
40
0.3259678
50
316.8171152
51
323.1492751
0
ARC
8
DEFAULT_255_1_234
10
7.4555777
20
36.697746
40
0.3189975
50
281.8396411
51
316.5457803
0
ARC
8
DEFAULT_255_1_234
10
7.4180041
20
36.8532762
40
0.4789527
50
269.5770101
51
282.4214771
0
ARC
8
DEFAULT_255_1_234
10
7.4108853
20
36.8319125
40
0.45759
50
256.2427136
51
270.4486331
0
ARC
8
DEFAULT_255_1_234
10
7.3809755
20
36.7119229
40
0.3339303
50
228.9023911
51
256.3314342
0
ARC
8
DEFAULT_255_1_234
10
7.3735988
20
36.7002746
40
0.32031
50
193.753695
51
228.5271154
0
ARC
8
DEFAULT_255_1_234
10
7.4973941
20
36.73658
40
0.4492253
50
184.924711
51
194.497588
0
ARC
8
DEFAULT_255_1_234
10
7.5166508
20
36.7401591
40
0.3289787
50
187.3600538
51
198.6732863
0
ARC
8
DEFAULT_255_1_234
10
7.4116802
20
36.7037674
40
0.217884
50
198.4451669
51
217.794479
0
ARC
8
DEFAULT_255_1_234
10
7.3820977
20
36.6828085
40
0.1816698
50
218.2887171
51
228.5612368
0
ARC
8
DEFAULT_255_1_234
10
7.3918764
20
36.6959963
40
0.1980329
50
228.9654866
51
258.1234728
0
ARC
8
DEFAULT_255_1_234
10
7.4124474
20
36.7840833
40
0.2884748
50
257.7258293
51
270.401361
0
ARC
8
DEFAULT_255_1_234
10
7.4169361
20
36.7395821
40
0.2439788
50
269.4204404
51
286.4209037
0
ARC
8
DEFAULT_255_1_234
10
7.4317848
20
36.6856657
40
0.1880666
50
286.7251356
51
320.600362
0
ARC
8
DEFAULT_255_1_234
10
7.3934673
20
36.7167595
40
0.2374121
50
320.6712579
51
344.5441685
0
ARC
8
DEFAULT_255_1_234
10
7.2777999
20
36.7507045
40
0.3579479
50
344.2412205
51
356.7357071
0
ARC
8
DEFAULT_255_1_234
10
7.1529148
20
36.7610444
40
0.4832297
50
356.3548756
51
0.0500261
0
ARC
8
DEFAULT_255_1_234
10
7.2865657
20
36.764165
40
0.3495889
50
359.5576869
51
12.953486
0
ARC
8
DEFAULT_255_1_234
10
7.3920555
20
36.7897434
40
0.2410532
50
12.6490276
51
41.6081334
0
ARC
8
DEFAULT_255_1_234
10
7.4150926
20
36.8093321
40
0.2108218
50
41.7850273
51
85.9892764
0
ARC
8
DEFAULT_255_1_234
10
7.4027662
20
36.7280462
40
0.2928454
50
84.6957577
51
90.0676183
0
ARC
8
DEFAULT_255_1_234
10
7.4004146
20
36.6611716
40
0.3597255
50
89.6804936
51
99.1614436
0
ARC
8
DEFAULT_255_1_234
10
7.3798777
20
36.7839131
40
0.235281
50
98.9830931
51
113.8908934
0
ARC
8
DEFAULT_255_1_234
10
7.3569188
20
36.8380587
40
0.176479
50
114.1950727
51
127.3641004
0
LINE
8
DEFAULT_255_1_234
10
23.1660817
20
45.0194327
11
23.1660817
21
44.8266709
0
LINE
8
DEFAULT_255_1_234
10
22.427965
20
44.8065916
11
22.427965
21
45.0049755
0
LINE
8
DEFAULT_255_1_234
10
23.0174946
20
44.7865123
11
23.0174946
21
45.0298739
0
LINE
8
DEFAULT_255_1_234
10
22.5765521
20
45.0411184
11
22.5765521
21
44.8033789
0
ARC
8
DEFAULT_255_1_234
10
21.9413707
20
44.8217805
40
1.2247208
50
353.8441951
51
0.2287902
0
ARC
8
DEFAULT_255_1_234
10
22.4053211
20
44.7699806
40
0.7578929
50
344.4934747
51
353.9765454
0
ARC
8
DEFAULT_255_1_234
10
22.7045801
20
44.6848981
40
0.4467846
50
329.2803592
51
344.7472793
0
ARC
8
DEFAULT_255_1_234
10
22.8038626
20
44.6304018
40
0.3336173
50
324.9352394
51
328.6160465
0
ARC
8
DEFAULT_255_1_234
10
22.8415734
20
44.6040427
40
0.2876076
50
280.580143
51
324.9173126
0
ARC
8
DEFAULT_255_1_234
10
22.8014527
20
44.7711099
40
0.4592847
50
269.5977311
51
281.6734359
0
ARC
8
DEFAULT_255_1_234
10
22.7942433
20
44.7591173
40
0.4472986
50
256.6228859
51
270.51044
0
ARC
8
DEFAULT_255_1_234
10
22.754041
20
44.6042877
40
0.2873874
50
215.8618325
51
257.2788573
0
ARC
8
DEFAULT_255_1_234
10
22.8561442
20
44.6727977
40
0.4102928
50
197.9693508
51
215.2623606
0
ARC
8
DEFAULT_255_1_234
10
23.1046558
20
44.7566709
40
0.6725652
50
187.8816417
51
198.2346507
0
ARC
8
DEFAULT_255_1_234
10
23.5004766
20
44.8138079
40
1.0724845
50
180.8976217
51
188.0055519
0
ARC
8
DEFAULT_255_1_234
10
23.7804954
20
44.8241777
40
1.3526448
50
180.7449369
51
181.1510016
0
ARC
8
DEFAULT_255_1_234
10
23.6227683
20
45.0098042
40
1.1948131
50
173.7675579
51
180.231553
0
ARC
8
DEFAULT_255_1_234
10
23.170983
20
45.0608666
40
0.7401564
50
164.3058563
51
173.9002247
0
ARC
8
DEFAULT_255_1_234
10
22.8797899
20
45.1447656
40
0.4371288
50
148.7922025
51
164.568378
0
ARC
8
DEFAULT_255_1_234
10
22.7846351
20
45.1978929
40
0.3282386
50
144.5883898
51
148.1176286
0
ARC
8
DEFAULT_255_1_234
10
22.7503249
20
45.2218315
40
0.2864044
50
101.6440918
51
144.514236
0
ARC
8
DEFAULT_255_1_234
10
22.7928315
20
45.0529069
40
0.4604934
50
89.5284041
51
102.5819763
0
ARC
8
DEFAULT_255_1_234
10
22.8007403
20
45.0490018
40
0.464401
50
77.0437873
51
90.5081339
0
ARC
8
DEFAULT_255_1_234
10
22.8409405
20
45.2132615
40
0.2953195
50
48.2778575
51
77.4994676
0
ARC
8
DEFAULT_255_1_234
10
22.8482036
20
45.2261746
40
0.2808655
50
36.3142134
51
47.6305865
0
ARC
8
DEFAULT_255_1_234
10
22.7613343
20
45.1676515
40
0.3855453
50
18.2931786
51
35.6769206
0
ARC
8
DEFAULT_255_1_234
10
22.5070102
20
45.0803593
40
0.654423
50
8.024666
51
18.5605216
0
ARC
8
DEFAULT_255_1_234
10
22.0907022
20
45.0188792
40
1.0752407
50
1.1274072
51
8.1718305
0
ARC
8
DEFAULT_255_1_234
10
21.7671213
20
45.0061885
40
1.3990231
50
0.5424119
51
1.3863029
0
ARC
8
DEFAULT_255_1_234
10
21.949259
20
45.0334342
40
1.0682415
50
359.8090433
51
4.9407866
0
ARC
8
DEFAULT_255_1_234
10
22.3702604
20
45.0710113
40
0.6455691
50
4.8362157
51
12.2904523
0
ARC
8
DEFAULT_255_1_234
10
22.6457719
20
45.1323965
40
0.3633074
50
12.0805627
51
23.8173984
0
ARC
8
DEFAULT_255_1_234
10
22.7631425
20
45.1820919
40
0.2358723
50
24.2871213
51
31.3935614
0
ARC
8
DEFAULT_255_1_234
10
22.8156122
20
45.2164233
40
0.1732111
50
30.7407893
51
82.4657128
0
ARC
8
DEFAULT_255_1_234
10
22.7976256
20
45.1280691
40
0.263235
50
81.1060089
51
90.2184952
0
ARC
8
DEFAULT_255_1_234
10
22.7940555
20
45.1538924
40
0.2374236
50
89.3806855
51
105.6762551
0
ARC
8
DEFAULT_255_1_234
10
22.7757186
20
45.2205567
40
0.1682847
50
105.7981136
51
149.7388061
0
ARC
8
DEFAULT_255_1_234
10
22.8821264
20
45.156595
40
0.2924306
50
149.4208916
51
163.6286378
0
ARC
8
DEFAULT_255_1_234
10
23.0912152
20
45.092825
40
0.5110213
50
163.3763315
51
172.1410975
0
ARC
8
DEFAULT_255_1_234
10
23.4212871
20
45.0455518
40
0.8444586
50
172.0259487
51
178.0703232
0
ARC
8
DEFAULT_255_1_234
10
23.724296
20
45.0311906
40
1.1477868
50
177.8631668
51
179.5044149
0
ARC
8
DEFAULT_255_1_234
10
23.6170365
20
44.7997389
40
1.0404907
50
179.7995573
51
185.2460446
0
ARC
8
DEFAULT_255_1_234
10
23.2127404
20
44.7614513
40
0.6343885
50
185.1411642
51
193.0079639
0
ARC
8
DEFAULT_255_1_234
10
22.9483877
20
44.6989641
40
0.3627568
50
192.7897626
51
205.2507664
0
ARC
8
DEFAULT_255_1_234
10
22.8437424
20
44.6522415
40
0.2481908
50
205.8005384
51
211.2537509
0
ARC
8
DEFAULT_255_1_234
10
22.7913864
20
44.617158
40
0.1852521
50
210.3789793
51
238.4008143
0
ARC
8
DEFAULT_255_1_234
10
22.7894386
20
44.6218376
40
0.1882621
50
239.6520629
51
265.9793761
0
ARC
8
DEFAULT_255_1_234
10
22.7979586
20
44.6890427
40
0.2559272
50
265.1315437
51
270.060332
0
ARC
8
DEFAULT_255_1_234
10
22.8008365
20
44.6566534
40
0.2235528
50
269.3314664
51
287.2178029
0
ARC
8
DEFAULT_255_1_234
10
22.8146217
20
44.6063279
40
0.1714108
50
287.7958004
51
329.080874
0
ARC
8
DEFAULT_255_1_234
10
22.7188674
20
44.666093
40
0.2842745
50
328.6634704
51
343.3325132
0
ARC
8
DEFAULT_255_1_234
10
22.5015694
20
44.7337863
40
0.5118644
50
343.0499468
51
351.9393422
0
ARC
8
DEFAULT_255_1_234
10
22.1548994
20
44.7848949
40
0.8622784
50
351.8069023
51
357.7959224
0
ARC
8
DEFAULT_255_1_234
10
21.831355
20
44.8016721
40
1.1862365
50
357.5871873
51
359.2677531
0
LINE
8
DEFAULT_255_1_234
10
23.4496021
20
45.4973211
11
23.7821161
21
44.5327093
0
LINE
8
DEFAULT_255_1_234
10
23.7821161
20
44.5327093
11
24.1162364
21
45.4973211
0
LINE
8
DEFAULT_255_1_234
10
24.1162364
20
45.4973211
11
24.2849029
21
45.4973211
0
LINE
8
DEFAULT_255_1_234
10
24.2849029
20
45.4973211
11
23.851189
21
44.3279
0
LINE
8
DEFAULT_255_1_234
10
23.851189
20
44.3279
11
23.7146495
21
44.3279
0
LINE
8
DEFAULT_255_1_234
10
23.7146495
20
44.3279
11
23.2817388
21
45.4973211
0
LINE
8
DEFAULT_255_1_234
10
23.2817388
20
45.4973211
11
23.4496021
21
45.4973211
0
ENDSEC
0
EOF