0
SECTION
2
HEADER
9
$MEASUREMENT
70
1
0
ENDSEC
0
SECTION
2
TABLES
0
TABLE
2
LTYPE
0
LTYPE
72
65
70
64
2
CONTINUOUS
3
______
73
0
40
0
0
ENDTAB
0
TABLE
2
LAYER
0
LAYER
2
DEFAULT_255_2_778
70
0
62
255
6
CONTINUOUS
0
ENDTAB
0
ENDSEC
0
SECTION
2
ENTITIES
0
ARC
8
DEFAULT_255_2_778
10
49.6351215
20
89.2563706
40
0.5000969
50
359.9996485
51
90.0003515
0
ARC
8
DEFAULT_255_2_778
10
0.6357101
20
89.2562624
40
0.5002052
50
90.0334169
51
135.0151151
0
ARC
8
DEFAULT_255_2_778
10
0.6355238
20
89.2560752
40
0.5002057
50
134.9848649
51
179.966524
0
ARC
8
DEFAULT_255_2_778
10
0.6353942
20
0.2564432
40
0.5000758
50
180.008676
51
270.0027763
0
ARC
8
DEFAULT_255_2_778
10
49.6354426
20
0.2564432
40
0.5000757
50
269.9972237
51
359.991324
0
LINE
8
DEFAULT_255_2_778
10
50.1352184
20
58.7065675
11
50.1352184
21
89.2563675
0
LINE
8
DEFAULT_255_2_778
10
49.6351184
20
89.7564675
11
0.6354184
21
89.7564675
0
LINE
8
DEFAULT_255_2_778
10
0.1353184
20
89.2563675
11
0.1353184
21
0.2563675
0
LINE
8
DEFAULT_255_2_778
10
0.6354184
20
-0.2436325
11
49.6354184
21
-0.2436325
0
LINE
8
DEFAULT_255_2_778
10
50.1355184
20
0.2563675
11
50.1355184
21
20.9063675
0
LINE
8
DEFAULT_255_2_778
10
42.3414219
20
74.4944198
11
42.6378219
21
74.4944198
0
LINE
8
DEFAULT_255_2_778
10
42.6378219
20
74.4944198
11
42.6378219
21
73.2506198
0
LINE
8
DEFAULT_255_2_778
10
42.6378219
20
73.2506198
11
43.2111219
21
73.2506198
0
LINE
8
DEFAULT_255_2_778
10
43.2111219
20
73.2506198
11
43.2111219
21
73.0178198
0
LINE
8
DEFAULT_255_2_778
10
43.2111219
20
73.0178198
11
42.3417219
21
73.0178198
0
LINE
8
DEFAULT_255_2_778
10
42.3417219
20
73.0178198
11
42.3417219
21
74.4944198
0
LINE
8
DEFAULT_255_2_778
10
43.9347219
20
74.4944198
11
44.2858219
21
73.3755198
0
LINE
8
DEFAULT_255_2_778
10
44.2858219
20
73.3755198
11
44.2903219
21
73.3755198
0
LINE
8
DEFAULT_255_2_778
10
44.2903219
20
73.3755198
11
44.6414219
21
74.4944198
0
LINE
8
DEFAULT_255_2_778
10
44.6414219
20
74.4944198
11
45.1156219
21
74.4944198
0
LINE
8
DEFAULT_255_2_778
10
45.1156219
20
74.4944198
11
45.1156219
21
73.0178198
0
LINE
8
DEFAULT_255_2_778
10
45.1156219
20
73.0178198
11
44.8319219
21
73.0178198
0
LINE
8
DEFAULT_255_2_778
10
44.8319219
20
73.0178198
11
44.8319219
21
74.2362198
0
LINE
8
DEFAULT_255_2_778
10
44.8319219
20
74.2362198
11
44.8274219
21
74.2362198
0
LINE
8
DEFAULT_255_2_778
10
44.8274219
20
74.2362198
11
44.4298219
21
73.0178198
0
LINE
8
DEFAULT_255_2_778
10
44.4298219
20
73.0178198
11
44.1461219
21
73.0178198
0
LINE
8
DEFAULT_255_2_778
10
44.1461219
20
73.0178198
11
43.7485219
21
74.2362198
0
LINE
8
DEFAULT_255_2_778
10
43.7485219
20
74.2362198
11
43.7440219
21
74.2319198
0
LINE
8
DEFAULT_255_2_778
10
43.7440219
20
74.2319198
11
43.7440219
21
73.0178198
0
LINE
8
DEFAULT_255_2_778
10
43.7440219
20
73.0178198
11
43.4609219
21
73.0178198
0
LINE
8
DEFAULT_255_2_778
10
43.4609219
20
73.0178198
11
43.4609219
21
74.4944198
0
LINE
8
DEFAULT_255_2_778
10
43.4609219
20
74.4944198
11
43.9345219
21
74.4944198
0
ARC
8
DEFAULT_255_2_778
10
46.3340696
20
73.7575304
40
0.5488398
50
89.8682888
51
180.1317112
0
ARC
8
DEFAULT_255_2_778
10
46.3365782
20
73.7576154
40
0.5487547
50
359.8593896
51
90.1301939
0
ARC
8
DEFAULT_255_2_778
10
46.3366632
20
73.7549368
40
0.5486696
50
269.8609058
51
0.1390942
0
ARC
8
DEFAULT_255_2_778
10
46.3339846
20
73.7550218
40
0.5487547
50
179.8698061
51
270.1406104
0
LINE
8
DEFAULT_255_2_778
10
45.7852313
20
73.7562687
11
45.7852313
21
73.7562687
0
ARC
8
DEFAULT_255_2_778
10
18.1349283
20
6.255572
40
4.0009459
50
67.7200733
51
89.9930308
0
LINE
8
DEFAULT_255_2_778
10
41.509515
20
74.4944179
11
42.089015
21
73.0178179
0
LINE
8
DEFAULT_255_2_778
10
42.089015
20
73.0178179
11
41.761415
21
73.0178179
0
LINE
8
DEFAULT_255_2_778
10
41.761415
20
73.0178179
11
41.634415
21
73.3562179
0
LINE
8
DEFAULT_255_2_778
10
41.634415
20
73.3562179
11
41.035715
21
73.3562179
0
LINE
8
DEFAULT_255_2_778
10
41.035715
20
73.3562179
11
40.906815
21
73.0178179
0
LINE
8
DEFAULT_255_2_778
10
40.906815
20
73.0178179
11
40.599915
21
73.0178179
0
LINE
8
DEFAULT_255_2_778
10
40.599915
20
73.0178179
11
41.175615
21
74.4944179
0
LINE
8
DEFAULT_255_2_778
10
41.175615
20
74.4944179
11
41.509515
21
74.4944179
0
LINE
8
DEFAULT_255_2_778
10
41.551915
20
73.5890179
11
41.338315
21
74.1983179
0
LINE
8
DEFAULT_255_2_778
10
41.338315
20
74.1983179
11
41.333815
21
74.1983179
0
LINE
8
DEFAULT_255_2_778
10
41.333815
20
74.1983179
11
41.120315
21
73.5890179
0
LINE
8
DEFAULT_255_2_778
10
41.120315
20
73.5890179
11
41.551915
21
73.5890179
0
LINE
8
DEFAULT_255_2_778
10
15.635415
20
10.6166179
11
15.635415
21
10.2565179
0
LINE
8
DEFAULT_255_2_778
10
15.635415
20
10.2565179
11
18.135415
21
10.2565179
0
ARC
8
DEFAULT_255_2_778
10
18.1107451
20
6.2233728
40
4.034475
50
67.7945796
51
81.8730295
0
ARC
8
DEFAULT_255_2_778
10
18.1309983
20
6.3774738
40
3.8790587
50
81.8474035
51
89.9366446
0
LINE
8
DEFAULT_255_2_778
10
15.7854877
20
14.1816304
11
15.7854877
21
13.5566304
0
LINE
8
DEFAULT_255_2_778
10
18.9353877
20
10.5065304
11
18.9353877
21
10.4565304
0
LINE
8
DEFAULT_255_2_778
10
18.9353877
20
73.4265304
11
18.9353877
21
73.4564304
0
LINE
8
DEFAULT_255_2_778
10
25.2353877
20
13.5564304
11
25.2353877
21
11.4064304
0
LINE
8
DEFAULT_255_2_778
10
25.2353877
20
70.3566304
11
25.2353877
21
72.5066304
0
LINE
8
DEFAULT_255_2_778
10
25.3863877
20
73.4265304
11
25.3863877
21
73.4064304
0
LINE
8
DEFAULT_255_2_778
10
26.9352877
20
9.9564304
11
26.9352877
21
10.5065304
0
LINE
8
DEFAULT_255_2_778
10
26.9352877
20
73.4064304
11
26.9352877
21
73.9565304
0
LINE
8
DEFAULT_255_2_778
10
26.9421877
20
73.4064304
11
26.9421877
21
72.5063304
0
LINE
8
DEFAULT_255_2_778
10
27.0852877
20
14.1816304
11
27.0852877
21
13.5566304
0
LINE
8
DEFAULT_255_2_778
10
25.2353877
20
70.4066304
11
16.5858877
21
70.4066304
0
LINE
8
DEFAULT_255_2_778
10
26.9355877
20
73.8541304
11
26.3854877
21
73.8541304
0
ARC
8
DEFAULT_255_2_778
10
15.9351511
20
10.2564451
40
0.2997853
50
179.976134
51
225.0256554
0
ARC
8
DEFAULT_255_2_778
10
15.9350577
20
10.2559122
40
0.2993425
50
224.9661999
51
270.0781112
0
ARC
8
DEFAULT_255_2_778
10
27.1358739
20
10.2559122
40
0.2993425
50
269.9218888
51
315.0338001
0
ARC
8
DEFAULT_255_2_778
10
27.1357805
20
10.2564451
40
0.2997853
50
314.9743446
51
0.023866
0
LINE
8
DEFAULT_255_2_778
10
16.1351658
20
10.61667
11
16.1351658
21
10.45657
0
LINE
8
DEFAULT_255_2_778
10
16.1351658
20
10.45657
11
26.9351658
21
10.45657
0
LINE
8
DEFAULT_255_2_778
10
15.9354658
20
9.95657
11
27.1354658
21
9.95657
0
LINE
8
DEFAULT_255_2_778
10
27.4355658
20
10.25657
11
27.4355658
21
10.50657
0
LINE
8
DEFAULT_255_2_778
10
27.9353658
20
70.35667
11
14.6852658
21
70.35667
0
LINE
8
DEFAULT_255_2_778
10
14.6852658
20
70.35667
11
14.6852658
21
13.55667
0
LINE
8
DEFAULT_255_2_778
10
14.6852658
20
13.55667
11
27.9353658
21
13.55667
0
LINE
8
DEFAULT_255_2_778
10
16.585822
20
10.5065616
11
27.935422
21
10.5065616
0
LINE
8
DEFAULT_255_2_778
10
27.935422
20
10.5065616
11
27.935422
21
73.4064616
0
LINE
8
DEFAULT_255_2_778
10
27.935422
20
73.4064616
11
25.035322
21
73.4064616
0
LINE
8
DEFAULT_255_2_778
10
25.035322
20
73.4064616
11
25.035322
21
72.5063616
0
LINE
8
DEFAULT_255_2_778
10
25.035322
20
72.5063616
11
27.435322
21
72.5063616
0
LINE
8
DEFAULT_255_2_778
10
15.585422
20
21.1814616
11
18.378122
21
21.1814616
0
LINE
8
DEFAULT_255_2_778
10
15.585422
20
20.7316616
11
18.378122
21
20.7316616
0
LINE
8
DEFAULT_255_2_778
10
15.585422
20
17.6814616
11
18.378122
21
17.6814616
0
LINE
8
DEFAULT_255_2_778
10
15.585422
20
17.2314616
11
18.378122
21
17.2314616
0
LINE
8
DEFAULT_255_2_778
10
15.585422
20
14.1815616
11
18.378322
21
14.1815616
0
LINE
8
DEFAULT_255_2_778
10
24.4926292
20
21.1814082
11
27.2853292
21
21.1814082
0
LINE
8
DEFAULT_255_2_778
10
27.2853292
20
20.7316082
11
24.4926292
21
20.7316082
0
LINE
8
DEFAULT_255_2_778
10
24.4926292
20
17.6815082
11
27.2853292
21
17.6815082
0
LINE
8
DEFAULT_255_2_778
10
27.2853292
20
17.2314082
11
24.4926292
21
17.2314082
0
LINE
8
DEFAULT_255_2_778
10
24.4926292
20
14.1816082
11
27.2855292
21
14.1816082
0
LINE
8
DEFAULT_255_2_778
10
17.5851261
20
24.1315458
11
17.5851261
21
21.2814458
0
LINE
8
DEFAULT_255_2_778
10
17.5851261
20
21.2814458
11
15.8852261
21
21.2814458
0
LINE
8
DEFAULT_255_2_778
10
15.8852261
20
21.2814458
11
15.8852261
21
24.1315458
0
LINE
8
DEFAULT_255_2_778
10
15.8852261
20
24.1315458
11
17.5851261
21
24.1315458
0
LINE
8
DEFAULT_255_2_778
10
17.5851261
20
20.6316458
11
17.5851261
21
17.7815458
0
LINE
8
DEFAULT_255_2_778
10
17.5851261
20
17.7815458
11
15.8852261
21
17.7815458
0
LINE
8
DEFAULT_255_2_778
10
15.8852261
20
17.7815458
11
15.8852261
21
20.6316458
0
LINE
8
DEFAULT_255_2_778
10
15.8852261
20
20.6316458
11
17.5851261
21
20.6316458
0
LINE
8
DEFAULT_255_2_778
10
17.5851261
20
17.1314458
11
17.5851261
21
14.2813458
0
LINE
8
DEFAULT_255_2_778
10
17.5851261
20
14.2813458
11
15.8852261
21
14.2813458
0
LINE
8
DEFAULT_255_2_778
10
15.8852261
20
14.2813458
11
15.8852261
21
17.1314458
0
LINE
8
DEFAULT_255_2_778
10
15.8852261
20
17.1314458
11
17.5851261
21
17.1314458
0
LINE
8
DEFAULT_255_2_778
10
15.5854627
20
31.6814364
11
18.3781627
21
31.6814364
0
LINE
8
DEFAULT_255_2_778
10
15.5854627
20
31.2316364
11
18.3781627
21
31.2316364
0
LINE
8
DEFAULT_255_2_778
10
15.5854627
20
28.1815364
11
18.3781627
21
28.1815364
0
LINE
8
DEFAULT_255_2_778
10
15.5854627
20
27.7314364
11
18.3781627
21
27.7314364
0
LINE
8
DEFAULT_255_2_778
10
15.5854627
20
24.6816364
11
18.3781627
21
24.6816364
0
LINE
8
DEFAULT_255_2_778
10
15.5854627
20
24.2315364
11
18.3781627
21
24.2315364
0
LINE
8
DEFAULT_255_2_778
10
24.4926627
20
31.6814364
11
27.2853627
21
31.6814364
0
LINE
8
DEFAULT_255_2_778
10
27.2853627
20
31.2316364
11
24.4926627
21
31.2316364
0
LINE
8
DEFAULT_255_2_778
10
24.4926627
20
28.1815364
11
27.2853627
21
28.1815364
0
LINE
8
DEFAULT_255_2_778
10
27.2853627
20
27.7314364
11
24.4926627
21
27.7314364
0
LINE
8
DEFAULT_255_2_778
10
24.4926627
20
24.6816364
11
27.2853627
21
24.6816364
0
LINE
8
DEFAULT_255_2_778
10
27.2853627
20
24.2315364
11
24.4926627
21
24.2315364
0
LINE
8
DEFAULT_255_2_778
10
17.5851261
20
34.6315458
11
17.5851261
21
31.7814458
0
LINE
8
DEFAULT_255_2_778
10
17.5851261
20
31.7814458
11
15.8852261
21
31.7814458
0
LINE
8
DEFAULT_255_2_778
10
15.8852261
20
31.7814458
11
15.8852261
21
34.6315458
0
LINE
8
DEFAULT_255_2_778
10
15.8852261
20
34.6315458
11
17.5851261
21
34.6315458
0
LINE
8
DEFAULT_255_2_778
10
17.5851261
20
31.1316458
11
17.5851261
21
28.2815458
0
LINE
8
DEFAULT_255_2_778
10
17.5851261
20
28.2815458
11
15.8852261
21
28.2815458
0
LINE
8
DEFAULT_255_2_778
10
15.8852261
20
28.2815458
11
15.8852261
21
31.1316458
0
LINE
8
DEFAULT_255_2_778
10
15.8852261
20
31.1316458
11
17.5851261
21
31.1316458
0
LINE
8
DEFAULT_255_2_778
10
17.5851261
20
27.6314458
11
17.5851261
21
24.7813458
0
LINE
8
DEFAULT_255_2_778
10
17.5851261
20
24.7813458
11
15.8852261
21
24.7813458
0
LINE
8
DEFAULT_255_2_778
10
15.8852261
20
24.7813458
11
15.8852261
21
27.6314458
0
LINE
8
DEFAULT_255_2_778
10
15.8852261
20
27.6314458
11
17.5851261
21
27.6314458
0
LINE
8
DEFAULT_255_2_778
10
15.7854
20
66.6815784
11
15.7854
21
66.2315784
0
LINE
8
DEFAULT_255_2_778
10
15.7854
20
70.3566784
11
15.7854
21
69.7317784
0
LINE
8
DEFAULT_255_2_778
10
15.7854
20
56.1815784
11
15.7854
21
55.7315784
0
LINE
8
DEFAULT_255_2_778
10
15.7854
20
59.6815784
11
15.7854
21
59.2314784
0
LINE
8
DEFAULT_255_2_778
10
15.7854
20
63.1816784
11
15.7854
21
62.7316784
0
LINE
8
DEFAULT_255_2_778
10
15.7854
20
45.6816784
11
15.7854
21
45.2315784
0
LINE
8
DEFAULT_255_2_778
10
15.7854
20
49.1815784
11
15.7854
21
48.7314784
0
LINE
8
DEFAULT_255_2_778
10
15.7854
20
52.6816784
11
15.7854
21
52.2316784
0
LINE
8
DEFAULT_255_2_778
10
15.7854
20
35.1816784
11
15.7854
21
34.7315784
0
LINE
8
DEFAULT_255_2_778
10
15.7854
20
38.6815784
11
15.7854
21
38.2314784
0
LINE
8
DEFAULT_255_2_778
10
15.7854
20
42.1814784
11
15.7854
21
41.7313784
0
LINE
8
DEFAULT_255_2_778
10
15.7854
20
24.6816784
11
15.7854
21
24.2315784
0
LINE
8
DEFAULT_255_2_778
10
15.7854
20
28.1815784
11
15.7854
21
27.7314784
0
LINE
8
DEFAULT_255_2_778
10
15.7854
20
31.6814784
11
15.7854
21
31.2313784
0
LINE
8
DEFAULT_255_2_778
10
15.7854
20
17.6815784
11
15.7854
21
17.2314784
0
LINE
8
DEFAULT_255_2_778
10
15.7854
20
21.1814784
11
15.7854
21
20.7314784
0
LINE
8
DEFAULT_255_2_778
10
17.5851261
20
62.6316458
11
15.8852261
21
62.6316458
0
LINE
8
DEFAULT_255_2_778
10
15.8852261
20
62.6316458
11
15.8852261
21
59.7815458
0
LINE
8
DEFAULT_255_2_778
10
15.8852261
20
59.7815458
11
17.5851261
21
59.7815458
0
LINE
8
DEFAULT_255_2_778
10
17.5851261
20
59.7815458
11
17.5851261
21
62.6316458
0
LINE
8
DEFAULT_255_2_778
10
17.5851261
20
66.1314999
11
15.8852261
21
66.1314999
0
LINE
8
DEFAULT_255_2_778
10
15.8852261
20
66.1314999
11
15.8852261
21
63.2813999
0
LINE
8
DEFAULT_255_2_778
10
15.8852261
20
63.2813999
11
17.5851261
21
63.2813999
0
LINE
8
DEFAULT_255_2_778
10
17.5851261
20
63.2813999
11
17.5851261
21
66.1314999
0
LINE
8
DEFAULT_255_2_778
10
17.5851261
20
69.6313999
11
15.8852261
21
69.6313999
0
LINE
8
DEFAULT_255_2_778
10
15.8852261
20
69.6313999
11
15.8852261
21
66.7812999
0
LINE
8
DEFAULT_255_2_778
10
15.8852261
20
66.7812999
11
17.5851261
21
66.7812999
0
LINE
8
DEFAULT_255_2_778
10
17.5851261
20
66.7812999
11
17.5851261
21
69.6313999
0
LINE
8
DEFAULT_255_2_778
10
17.5851261
20
52.1316458
11
15.8852261
21
52.1316458
0
LINE
8
DEFAULT_255_2_778
10
15.8852261
20
52.1316458
11
15.8852261
21
49.2815458
0
LINE
8
DEFAULT_255_2_778
10
15.8852261
20
49.2815458
11
17.5851261
21
49.2815458
0
LINE
8
DEFAULT_255_2_778
10
17.5851261
20
49.2815458
11
17.5851261
21
52.1316458
0
LINE
8
DEFAULT_255_2_778
10
17.5851261
20
55.6315458
11
15.8852261
21
55.6315458
0
LINE
8
DEFAULT_255_2_778
10
15.8852261
20
55.6315458
11
15.8852261
21
52.7814458
0
LINE
8
DEFAULT_255_2_778
10
15.8852261
20
52.7814458
11
17.5851261
21
52.7814458
0
LINE
8
DEFAULT_255_2_778
10
17.5851261
20
52.7814458
11
17.5851261
21
55.6315458
0
LINE
8
DEFAULT_255_2_778
10
17.5851261
20
59.1314458
11
15.8852261
21
59.1314458
0
LINE
8
DEFAULT_255_2_778
10
15.8852261
20
59.1314458
11
15.8852261
21
56.2813458
0
LINE
8
DEFAULT_255_2_778
10
15.8852261
20
56.2813458
11
17.5851261
21
56.2813458
0
LINE
8
DEFAULT_255_2_778
10
17.5851261
20
56.2813458
11
17.5851261
21
59.1314458
0
LINE
8
DEFAULT_255_2_778
10
17.5851261
20
45.1315458
11
15.8852261
21
45.1315458
0
LINE
8
DEFAULT_255_2_778
10
15.8852261
20
45.1315458
11
15.8852261
21
42.2814458
0
LINE
8
DEFAULT_255_2_778
10
15.8852261
20
42.2814458
11
17.5851261
21
42.2814458
0
LINE
8
DEFAULT_255_2_778
10
17.5851261
20
42.2814458
11
17.5851261
21
45.1315458
0
LINE
8
DEFAULT_255_2_778
10
17.5851261
20
41.6316458
11
17.5851261
21
38.7815458
0
LINE
8
DEFAULT_255_2_778
10
17.5851261
20
38.7815458
11
15.8852261
21
38.7815458
0
LINE
8
DEFAULT_255_2_778
10
15.8852261
20
38.7815458
11
15.8852261
21
41.6316458
0
LINE
8
DEFAULT_255_2_778
10
15.8852261
20
41.6316458
11
17.5851261
21
41.6316458
0
LINE
8
DEFAULT_255_2_778
10
17.5851261
20
38.1314458
11
17.5851261
21
35.2813458
0
LINE
8
DEFAULT_255_2_778
10
17.5851261
20
35.2813458
11
15.8852261
21
35.2813458
0
LINE
8
DEFAULT_255_2_778
10
15.8852261
20
35.2813458
11
15.8852261
21
38.1314458
0
LINE
8
DEFAULT_255_2_778
10
15.8852261
20
38.1314458
11
17.5851261
21
38.1314458
0
LINE
8
DEFAULT_255_2_778
10
16.1352627
20
13.4164961
11
16.1352627
21
13.5564961
0
LINE
8
DEFAULT_255_2_778
10
15.6354627
20
13.5564961
11
15.6354627
21
13.4164961
0
LINE
8
DEFAULT_255_2_778
10
16.1352627
20
70.3563961
11
16.1352627
21
70.5164961
0
LINE
8
DEFAULT_255_2_778
10
15.6354627
20
70.5164961
11
15.6354627
21
70.3563961
0
LINE
8
DEFAULT_255_2_778
10
15.5854627
20
42.1814961
11
18.3781627
21
42.1814961
0
LINE
8
DEFAULT_255_2_778
10
15.5854627
20
41.7316961
11
18.3781627
21
41.7316961
0
LINE
8
DEFAULT_255_2_778
10
15.5854627
20
38.6815961
11
18.3781627
21
38.6815961
0
LINE
8
DEFAULT_255_2_778
10
15.5854627
20
38.2314961
11
18.3781627
21
38.2314961
0
LINE
8
DEFAULT_255_2_778
10
15.5854627
20
35.1816961
11
18.3781627
21
35.1816961
0
LINE
8
DEFAULT_255_2_778
10
15.5854627
20
34.7315961
11
18.3781627
21
34.7315961
0
LINE
8
DEFAULT_255_2_778
10
24.4926627
20
42.1814961
11
27.2853627
21
42.1814961
0
LINE
8
DEFAULT_255_2_778
10
27.2853627
20
41.7316961
11
24.4926627
21
41.7316961
0
LINE
8
DEFAULT_255_2_778
10
24.4926627
20
38.6815961
11
27.2853627
21
38.6815961
0
LINE
8
DEFAULT_255_2_778
10
27.2853627
20
38.2314961
11
24.4926627
21
38.2314961
0
LINE
8
DEFAULT_255_2_778
10
24.4926627
20
35.1816961
11
27.2853627
21
35.1816961
0
LINE
8
DEFAULT_255_2_778
10
27.2853627
20
34.7315961
11
24.4926627
21
34.7315961
0
LINE
8
DEFAULT_255_2_778
10
26.9852261
20
42.2814458
11
26.9852261
21
45.1315458
0
LINE
8
DEFAULT_255_2_778
10
26.9852261
20
45.1315458
11
25.2853261
21
45.1315458
0
LINE
8
DEFAULT_255_2_778
10
25.2853261
20
45.1315458
11
25.2853261
21
42.2814458
0
LINE
8
DEFAULT_255_2_778
10
25.2853261
20
42.2814458
11
26.9852261
21
42.2814458
0
LINE
8
DEFAULT_255_2_778
10
26.9852261
20
38.7815458
11
26.9852261
21
41.6316458
0
LINE
8
DEFAULT_255_2_778
10
26.9852261
20
41.6316458
11
25.2853261
21
41.6316458
0
LINE
8
DEFAULT_255_2_778
10
25.2853261
20
41.6316458
11
25.2853261
21
38.7815458
0
LINE
8
DEFAULT_255_2_778
10
25.2853261
20
38.7815458
11
26.9852261
21
38.7815458
0
LINE
8
DEFAULT_255_2_778
10
26.9852261
20
35.2813458
11
26.9852261
21
38.1314458
0
LINE
8
DEFAULT_255_2_778
10
26.9852261
20
38.1314458
11
25.2853261
21
38.1314458
0
LINE
8
DEFAULT_255_2_778
10
25.2853261
20
38.1314458
11
25.2853261
21
35.2813458
0
LINE
8
DEFAULT_255_2_778
10
25.2853261
20
35.2813458
11
26.9852261
21
35.2813458
0
LINE
8
DEFAULT_255_2_778
10
16.984521
20
70.516496
11
16.984521
21
70.406396
0
LINE
8
DEFAULT_255_2_778
10
16.984521
20
73.426596
11
16.984521
21
73.316596
0
LINE
8
DEFAULT_255_2_778
10
16.585521
20
70.516496
11
16.585521
21
70.406396
0
LINE
8
DEFAULT_255_2_778
10
16.984521
20
10.616696
11
16.984521
21
10.506596
0
LINE
8
DEFAULT_255_2_778
10
16.984521
20
13.526596
11
16.984521
21
13.416496
0
LINE
8
DEFAULT_255_2_778
10
16.585521
20
10.616696
11
16.585521
21
10.506596
0
LINE
8
DEFAULT_255_2_778
10
22.633121
20
13.416496
11
22.633121
21
13.526596
0
LINE
8
DEFAULT_255_2_778
10
22.633121
20
10.506596
11
22.633121
21
10.616696
0
LINE
8
DEFAULT_255_2_778
10
16.585521
20
13.416496
11
16.585521
21
13.526596
0
LINE
8
DEFAULT_255_2_778
10
16.585521
20
13.526596
11
25.235321
21
13.526596
0
LINE
8
DEFAULT_255_2_778
10
23.485321
20
73.456496
11
23.485321
21
73.956596
0
LINE
8
DEFAULT_255_2_778
10
21.9854522
20
73.9565312
11
21.9854522
21
73.4564312
0
LINE
8
DEFAULT_255_2_778
10
17.2853522
20
73.4564312
11
17.2853522
21
73.9565312
0
LINE
8
DEFAULT_255_2_778
10
16.9853522
20
73.4564312
11
16.9853522
21
73.9565312
0
LINE
8
DEFAULT_255_2_778
10
26.9852261
20
62.6316458
11
25.2853261
21
62.6316458
0
LINE
8
DEFAULT_255_2_778
10
25.2853261
20
62.6316458
11
25.2853261
21
59.7815458
0
LINE
8
DEFAULT_255_2_778
10
25.2853261
20
59.7815458
11
26.9852261
21
59.7815458
0
LINE
8
DEFAULT_255_2_778
10
26.9852261
20
59.7815458
11
26.9852261
21
62.6316458
0
LINE
8
DEFAULT_255_2_778
10
26.9852261
20
66.1314999
11
25.2853261
21
66.1314999
0
LINE
8
DEFAULT_255_2_778
10
25.2853261
20
66.1314999
11
25.2853261
21
63.2813999
0
LINE
8
DEFAULT_255_2_778
10
25.2853261
20
63.2813999
11
26.9852261
21
63.2813999
0
LINE
8
DEFAULT_255_2_778
10
26.9852261
20
63.2813999
11
26.9852261
21
66.1314999
0
LINE
8
DEFAULT_255_2_778
10
26.9852261
20
69.6313999
11
25.2853261
21
69.6313999
0
LINE
8
DEFAULT_255_2_778
10
25.2853261
20
69.6313999
11
25.2853261
21
66.7812999
0
LINE
8
DEFAULT_255_2_778
10
25.2853261
20
66.7812999
11
26.9852261
21
66.7812999
0
LINE
8
DEFAULT_255_2_778
10
26.9852261
20
66.7812999
11
26.9852261
21
69.6313999
0
LINE
8
DEFAULT_255_2_778
10
26.9852261
20
55.6315458
11
25.2853261
21
55.6315458
0
LINE
8
DEFAULT_255_2_778
10
25.2853261
20
55.6315458
11
25.2853261
21
52.7814458
0
LINE
8
DEFAULT_255_2_778
10
25.2853261
20
52.7814458
11
26.9852261
21
52.7814458
0
LINE
8
DEFAULT_255_2_778
10
26.9852261
20
52.7814458
11
26.9852261
21
55.6315458
0
LINE
8
DEFAULT_255_2_778
10
26.9852261
20
52.1316458
11
25.2853261
21
52.1316458
0
LINE
8
DEFAULT_255_2_778
10
25.2853261
20
52.1316458
11
25.2853261
21
49.2815458
0
LINE
8
DEFAULT_255_2_778
10
25.2853261
20
49.2815458
11
26.9852261
21
49.2815458
0
LINE
8
DEFAULT_255_2_778
10
26.9852261
20
49.2815458
11
26.9852261
21
52.1316458
0
LINE
8
DEFAULT_255_2_778
10
26.9852261
20
45.7813458
11
26.9852261
21
48.6314458
0
LINE
8
DEFAULT_255_2_778
10
26.9852261
20
48.6314458
11
25.2853261
21
48.6314458
0
LINE
8
DEFAULT_255_2_778
10
25.2853261
20
48.6314458
11
25.2853261
21
45.7813458
0
LINE
8
DEFAULT_255_2_778
10
25.2853261
20
45.7813458
11
26.9852261
21
45.7813458
0
LINE
8
DEFAULT_255_2_778
10
25.5850158
20
73.4064304
11
25.5850158
21
73.4265304
0
LINE
8
DEFAULT_255_2_778
10
25.5850158
20
73.4265304
11
16.5855158
21
73.4265304
0
LINE
8
DEFAULT_255_2_778
10
16.5855158
20
73.4265304
11
16.5855158
21
73.3165304
0
LINE
8
DEFAULT_255_2_778
10
22.6331158
20
73.3165304
11
22.6331158
21
73.4265304
0
LINE
8
DEFAULT_255_2_778
10
22.6331158
20
70.4063304
11
22.6331158
21
70.5164304
0
LINE
8
DEFAULT_255_2_778
10
26.3854158
20
73.4564304
11
26.3854158
21
73.4689304
0
LINE
8
DEFAULT_255_2_778
10
26.3854158
20
73.4689304
11
26.5854158
21
73.4689304
0
LINE
8
DEFAULT_255_2_778
10
26.5854158
20
73.4689304
11
26.7354158
21
73.5689304
0
LINE
8
DEFAULT_255_2_778
10
26.7354158
20
73.5689304
11
26.7354158
21
73.7038304
0
LINE
8
DEFAULT_255_2_778
10
26.7354158
20
73.7038304
11
26.5854158
21
73.8038304
0
LINE
8
DEFAULT_255_2_778
10
26.5854158
20
73.8038304
11
26.3854158
21
73.8038304
0
LINE
8
DEFAULT_255_2_778
10
26.3854158
20
73.8038304
11
26.3854158
21
73.9562304
0
LINE
8
DEFAULT_255_2_778
10
25.5853158
20
73.9565304
11
25.5853158
21
73.4564304
0
LINE
8
DEFAULT_255_2_778
10
26.7852158
20
9.9564304
11
26.7852158
21
10.4565304
0
LINE
8
DEFAULT_255_2_778
10
26.0354158
20
9.9564304
11
26.0354158
21
10.4565304
0
LINE
8
DEFAULT_255_2_778
10
26.8352158
20
73.8541304
11
26.8352158
21
73.9565304
0
LINE
8
DEFAULT_255_2_778
10
26.4351158
20
73.9565304
11
26.4351158
21
73.8541304
0
LINE
8
DEFAULT_255_2_778
10
26.9421158
20
11.4064304
11
26.9421158
21
10.5062304
0
LINE
8
DEFAULT_255_2_778
10
25.0352158
20
10.5062304
11
25.0352158
21
11.4064304
0
LINE
8
DEFAULT_255_2_778
10
25.0352158
20
11.4064304
11
27.4353158
21
11.4064304
0
ARC
8
DEFAULT_255_2_778
10
27.1352452
20
73.6566872
40
0.3001081
50
359.9825861
51
44.9730961
0
ARC
8
DEFAULT_255_2_778
10
27.1354441
20
73.6564871
40
0.3001089
50
45.0269695
51
90.0173429
0
ARC
8
DEFAULT_255_2_778
10
15.9353626
20
73.6564866
40
0.3001094
50
89.9826924
51
134.9729979
0
ARC
8
DEFAULT_255_2_778
10
15.9355618
20
73.6566869
40
0.3001086
50
135.0269231
51
180.0173591
0
LINE
8
DEFAULT_255_2_778
10
27.0852533
20
66.681596
11
27.0852533
21
66.231596
0
LINE
8
DEFAULT_255_2_778
10
27.0852533
20
70.356696
11
27.0852533
21
69.731696
0
LINE
8
DEFAULT_255_2_778
10
27.0852533
20
56.181596
11
27.0852533
21
55.731596
0
LINE
8
DEFAULT_255_2_778
10
27.0852533
20
59.681496
11
27.0852533
21
59.231496
0
LINE
8
DEFAULT_255_2_778
10
27.0852533
20
63.181696
11
27.0852533
21
62.731696
0
LINE
8
DEFAULT_255_2_778
10
27.0852533
20
45.681596
11
27.0852533
21
45.231596
0
LINE
8
DEFAULT_255_2_778
10
27.0852533
20
49.181496
11
27.0852533
21
48.731496
0
LINE
8
DEFAULT_255_2_778
10
27.0852533
20
52.681696
11
27.0852533
21
52.231696
0
LINE
8
DEFAULT_255_2_778
10
27.0852533
20
35.181596
11
27.0852533
21
34.731596
0
LINE
8
DEFAULT_255_2_778
10
27.0852533
20
38.681596
11
27.0852533
21
38.231496
0
LINE
8
DEFAULT_255_2_778
10
27.0852533
20
42.181496
11
27.0852533
21
41.731396
0
LINE
8
DEFAULT_255_2_778
10
27.0852533
20
24.681696
11
27.0852533
21
24.231596
0
LINE
8
DEFAULT_255_2_778
10
27.0852533
20
28.181596
11
27.0852533
21
27.731496
0
LINE
8
DEFAULT_255_2_778
10
27.0852533
20
31.681496
11
27.0852533
21
31.231396
0
LINE
8
DEFAULT_255_2_778
10
27.0852533
20
17.681596
11
27.0852533
21
17.231496
0
LINE
8
DEFAULT_255_2_778
10
27.0852533
20
21.181496
11
27.0852533
21
20.731396
0
LINE
8
DEFAULT_255_2_778
10
27.4353533
20
73.406496
11
27.4353533
21
73.656596
0
LINE
8
DEFAULT_255_2_778
10
27.1353533
20
73.956596
11
15.9354533
21
73.956596
0
LINE
8
DEFAULT_255_2_778
10
15.6354533
20
73.656596
11
15.6354533
21
73.316596
0
LINE
8
DEFAULT_255_2_778
10
26.9352533
20
73.456496
11
16.1352533
21
73.456496
0
LINE
8
DEFAULT_255_2_778
10
16.1352533
20
73.456496
11
16.1352533
21
73.316596
0
LINE
8
DEFAULT_255_2_778
10
15.5854533
20
52.681696
11
18.3781533
21
52.681696
0
LINE
8
DEFAULT_255_2_778
10
15.5854533
20
52.231696
11
18.3781533
21
52.231696
0
LINE
8
DEFAULT_255_2_778
10
15.5854533
20
49.181496
11
18.3781533
21
49.181496
0
LINE
8
DEFAULT_255_2_778
10
15.5854533
20
48.731496
11
18.3781533
21
48.731496
0
LINE
8
DEFAULT_255_2_778
10
15.5854533
20
45.681596
11
18.3781533
21
45.681596
0
LINE
8
DEFAULT_255_2_778
10
15.5854533
20
45.231596
11
18.3781533
21
45.231596
0
LINE
8
DEFAULT_255_2_778
10
24.4926533
20
52.681696
11
27.2853533
21
52.681696
0
LINE
8
DEFAULT_255_2_778
10
27.2853533
20
52.231696
11
24.4926533
21
52.231696
0
LINE
8
DEFAULT_255_2_778
10
24.4926533
20
49.181496
11
27.2853533
21
49.181496
0
LINE
8
DEFAULT_255_2_778
10
27.2853533
20
48.731496
11
24.4926533
21
48.731496
0
LINE
8
DEFAULT_255_2_778
10
24.4926533
20
45.681596
11
27.2853533
21
45.681596
0
LINE
8
DEFAULT_255_2_778
10
27.2853533
20
45.231596
11
24.4926533
21
45.231596
0
LINE
8
DEFAULT_255_2_778
10
15.5854533
20
63.181696
11
18.3781533
21
63.181696
0
LINE
8
DEFAULT_255_2_778
10
15.5854533
20
62.731696
11
18.3781533
21
62.731696
0
LINE
8
DEFAULT_255_2_778
10
15.5854533
20
59.681496
11
18.3781533
21
59.681496
0
LINE
8
DEFAULT_255_2_778
10
15.5854533
20
59.231496
11
18.3781533
21
59.231496
0
LINE
8
DEFAULT_255_2_778
10
15.5854533
20
56.181596
11
18.3781533
21
56.181596
0
LINE
8
DEFAULT_255_2_778
10
15.5854533
20
55.731596
11
18.3781533
21
55.731596
0
LINE
8
DEFAULT_255_2_778
10
24.4926533
20
63.181696
11
27.2853533
21
63.181696
0
LINE
8
DEFAULT_255_2_778
10
27.2853533
20
62.731696
11
24.4926533
21
62.731696
0
LINE
8
DEFAULT_255_2_778
10
24.4926533
20
59.681496
11
27.2853533
21
59.681496
0
LINE
8
DEFAULT_255_2_778
10
27.2853533
20
59.231496
11
24.4926533
21
59.231496
0
LINE
8
DEFAULT_255_2_778
10
24.4926533
20
56.181596
11
27.2853533
21
56.181596
0
LINE
8
DEFAULT_255_2_778
10
27.2853533
20
55.731596
11
24.4926533
21
55.731596
0
LINE
8
DEFAULT_255_2_778
10
15.5854533
20
69.731496
11
18.3783533
21
69.731496
0
LINE
8
DEFAULT_255_2_778
10
15.5854533
20
66.681596
11
18.3781533
21
66.681596
0
LINE
8
DEFAULT_255_2_778
10
15.5854533
20
66.231596
11
18.3781533
21
66.231596
0
LINE
8
DEFAULT_255_2_778
10
24.4926533
20
69.731496
11
27.2855533
21
69.731496
0
LINE
8
DEFAULT_255_2_778
10
24.4926533
20
66.681596
11
27.2853533
21
66.681596
0
LINE
8
DEFAULT_255_2_778
10
27.2853533
20
66.231596
11
24.4926533
21
66.231596
0
LINE
8
DEFAULT_255_2_778
10
19.0237533
20
10.506596
11
19.0922533
21
10.616696
0
LINE
8
DEFAULT_255_2_778
10
19.0922719
20
13.416377
11
19.0236719
21
13.526477
0
LINE
8
DEFAULT_255_2_778
10
17.7277719
20
10.506477
11
17.7856719
21
10.616577
0
LINE
8
DEFAULT_255_2_778
10
17.7856241
20
13.4164198
11
17.7277241
21
13.5265198
0
LINE
8
DEFAULT_255_2_778
10
25.1387241
20
12.5166198
11
25.2353241
21
12.5166198
0
LINE
8
DEFAULT_255_2_778
10
25.2353241
20
11.5165198
11
25.1387241
21
11.5165198
0
LINE
8
DEFAULT_255_2_778
10
22.6616241
20
12.5166198
11
25.1371241
21
12.5166198
0
LINE
8
DEFAULT_255_2_778
10
25.1371241
20
12.5166198
11
25.1371241
21
11.5165198
0
LINE
8
DEFAULT_255_2_778
10
25.1371241
20
11.5165198
11
22.6616241
21
11.5165198
0
LINE
8
DEFAULT_255_2_778
10
22.6617136
20
13.4165148
11
22.6617136
21
10.6164148
0
LINE
8
DEFAULT_255_2_778
10
22.6617136
20
10.6164148
11
15.4023136
21
10.6164148
0
LINE
8
DEFAULT_255_2_778
10
15.4023136
20
10.6164148
11
15.4023136
21
13.4165148
0
LINE
8
DEFAULT_255_2_778
10
15.4023136
20
13.4165148
11
22.6617136
21
13.4165148
0
LINE
8
DEFAULT_255_2_778
10
19.0237136
20
70.4064148
11
19.0922136
21
70.5164148
0
LINE
8
DEFAULT_255_2_778
10
19.0922136
20
73.3165148
11
19.0237136
21
73.4266148
0
LINE
8
DEFAULT_255_2_778
10
17.7277136
20
70.4064148
11
17.7857136
21
70.5164148
0
LINE
8
DEFAULT_255_2_778
10
17.7856241
20
73.3164521
11
17.7277241
21
73.4265521
0
LINE
8
DEFAULT_255_2_778
10
25.1387241
20
72.4163521
11
25.2353241
21
72.4163521
0
LINE
8
DEFAULT_255_2_778
10
25.2353241
20
71.4165521
11
25.1387241
21
71.4165521
0
LINE
8
DEFAULT_255_2_778
10
22.6616241
20
71.4162521
11
25.1371241
21
71.4162521
0
LINE
8
DEFAULT_255_2_778
10
25.1371241
20
71.4162521
11
25.1371241
21
72.4163521
0
LINE
8
DEFAULT_255_2_778
10
25.1371241
20
72.4163521
11
22.6616241
21
72.4163521
0
ARC
8
DEFAULT_255_2_778
10
22.6603676
20
70.8570807
40
0.5004753
50
244.1705544
51
269.9938249
0
ARC
8
DEFAULT_255_2_778
10
19.510233
20
70.856761
40
0.5001555
50
269.9977809
51
295.8378445
0
ARC
8
DEFAULT_255_2_778
10
19.4288565
20
75.4620227
40
5.1054213
50
267.3926366
51
270.0724651
0
ARC
8
DEFAULT_255_2_778
10
19.308135
20
72.9291501
40
2.5696848
50
264.1321427
51
267.5124301
0
ARC
8
DEFAULT_255_2_778
10
19.1033016
20
71.0055424
40
0.6352549
50
257.0622531
51
264.7726263
0
ARC
8
DEFAULT_255_2_778
10
18.961423
20
70.4178923
40
0.0314802
50
213.9636456
51
269.3628829
0
ARC
8
DEFAULT_255_2_778
10
19.0987043
20
12.9362238
40
0.6062646
50
95.2979221
51
103.1854009
0
ARC
8
DEFAULT_255_2_778
10
19.3003381
20
11.0731694
40
2.4801444
50
92.576209
51
95.9620738
0
ARC
8
DEFAULT_255_2_778
10
19.4279944
20
8.4509297
40
5.1054811
50
89.9178607
51
92.6846445
0
ARC
8
DEFAULT_255_2_778
10
22.6602896
20
13.0548977
40
0.5015078
50
89.9972521
51
109.8845658
0
ARC
8
DEFAULT_255_2_778
10
19.5103128
20
13.0547558
40
0.5016496
50
70.1182723
51
90.0113268
0
LINE
8
DEFAULT_255_2_778
10
22.6617136
20
73.3165054
11
15.4023136
21
73.3165054
0
LINE
8
DEFAULT_255_2_778
10
15.4023136
20
73.3165054
11
15.4023136
21
70.5164054
0
LINE
8
DEFAULT_255_2_778
10
15.4023136
20
70.5164054
11
22.6617136
21
70.5164054
0
LINE
8
DEFAULT_255_2_778
10
22.6617136
20
70.5164054
11
22.6617136
21
73.3165054
0
LINE
8
DEFAULT_255_2_778
10
19.4353136
20
70.3566054
11
19.4353136
21
70.3566054
0
LINE
8
DEFAULT_255_2_778
10
18.9353136
20
70.4003054
11
18.9353136
21
70.4066054
0
ARC
8
DEFAULT_255_2_778
10
20.1012899
20
19.189151
40
1.0341682
50
1.0396104
51
71.146047
0
ARC
8
DEFAULT_255_2_778
10
20.1062347
20
19.2066314
40
1.0290538
50
359.9999904
51
0.0714426
0
ARC
8
DEFAULT_255_2_778
10
20.1014546
20
19.2239283
40
1.0339786
50
288.9887411
51
359.0414721
0
ARC
8
DEFAULT_255_2_778
10
20.0802016
20
19.2142964
40
1.0320477
50
290.1362893
51
290.2785313
0
ARC
8
DEFAULT_255_2_778
10
20.1012899
20
22.689051
40
1.0341682
50
1.0396104
51
71.146047
0
ARC
8
DEFAULT_255_2_778
10
20.1062347
20
22.7065314
40
1.0290538
50
359.9999904
51
0.0714426
0
ARC
8
DEFAULT_255_2_778
10
20.1014546
20
22.7238283
40
1.0339786
50
288.9887411
51
359.0414721
0
ARC
8
DEFAULT_255_2_778
10
20.0802016
20
22.7141964
40
1.0320477
50
290.1362893
51
290.2785313
0
ARC
8
DEFAULT_255_2_778
10
20.1012899
20
26.188951
40
1.0341682
50
1.0396104
51
71.146047
0
ARC
8
DEFAULT_255_2_778
10
20.1062347
20
26.2064314
40
1.0290538
50
359.9999904
51
0.0714426
0
ARC
8
DEFAULT_255_2_778
10
20.1014546
20
26.2237283
40
1.0339786
50
288.9887411
51
359.0414721
0
ARC
8
DEFAULT_255_2_778
10
20.0802016
20
26.2140964
40
1.0320477
50
290.1362893
51
290.2785313
0
ARC
8
DEFAULT_255_2_778
10
23.7014899
20
15.688951
40
1.0341682
50
1.0396104
51
71.146047
0
ARC
8
DEFAULT_255_2_778
10
23.7064347
20
15.7064314
40
1.0290538
50
359.9999904
51
0.0714426
0
ARC
8
DEFAULT_255_2_778
10
23.7016546
20
15.7237283
40
1.0339786
50
288.9887411
51
359.0414721
0
ARC
8
DEFAULT_255_2_778
10
23.6804016
20
15.7140964
40
1.0320477
50
290.1362893
51
290.2785313
0
ARC
8
DEFAULT_255_2_778
10
23.7014899
20
19.189151
40
1.0341682
50
1.0396104
51
71.146047
0
ARC
8
DEFAULT_255_2_778
10
23.7064347
20
19.2066314
40
1.0290538
50
359.9999904
51
0.0714426
0
ARC
8
DEFAULT_255_2_778
10
23.7016546
20
19.2239283
40
1.0339786
50
288.9887411
51
359.0414721
0
ARC
8
DEFAULT_255_2_778
10
23.6804016
20
19.2142964
40
1.0320477
50
290.1362893
51
290.2785313
0
ARC
8
DEFAULT_255_2_778
10
20.1012899
20
15.688951
40
1.0341682
50
1.0396104
51
71.146047
0
ARC
8
DEFAULT_255_2_778
10
20.1062347
20
15.7064314
40
1.0290538
50
359.9999904
51
0.0714426
0
ARC
8
DEFAULT_255_2_778
10
20.1014546
20
15.7237283
40
1.0339786
50
288.9887411
51
359.0414721
0
ARC
8
DEFAULT_255_2_778
10
20.0802016
20
15.7140964
40
1.0320477
50
290.1362893
51
290.2785313
0
ARC
8
DEFAULT_255_2_778
10
19.1693849
20
15.7239768
40
1.0343885
50
181.1141133
51
251.1386426
0
ARC
8
DEFAULT_255_2_778
10
19.164328
20
15.7064308
40
1.0291393
50
179.9999781
51
180.1428824
0
ARC
8
DEFAULT_255_2_778
10
19.1690068
20
15.6890749
40
1.033964
50
108.9176855
51
179.0381763
0
ARC
8
DEFAULT_255_2_778
10
19.152622
20
15.8007684
40
0.9232238
50
110.1237043
51
110.2032091
0
ARC
8
DEFAULT_255_2_778
10
19.6331903
20
15.7098633
40
1.4980165
50
151.5794485
51
180.1201144
0
ARC
8
DEFAULT_255_2_778
10
19.6314083
20
15.7101486
40
1.4963136
50
98.4345278
51
151.556579
0
ARC
8
DEFAULT_255_2_778
10
19.634528
20
15.682677
40
1.523946
50
89.9793545
51
98.3990533
0
ARC
8
DEFAULT_255_2_778
10
19.6381732
20
15.7087841
40
1.497842
50
61.5777617
51
90.1184315
0
ARC
8
DEFAULT_255_2_778
10
19.6383573
20
15.7102384
40
1.4964755
50
8.4395422
51
61.5574586
0
ARC
8
DEFAULT_255_2_778
10
19.6114386
20
15.7072708
40
1.5235387
50
359.9793954
51
8.4013619
0
ARC
8
DEFAULT_255_2_778
10
19.6371384
20
15.7036268
40
1.497842
50
331.5777617
51
0.1184315
0
ARC
8
DEFAULT_255_2_778
10
19.6385927
20
15.7034427
40
1.4964755
50
278.4395422
51
331.5574586
0
ARC
8
DEFAULT_255_2_778
10
19.635625
20
15.7303614
40
1.5235387
50
269.9793954
51
278.4013619
0
ARC
8
DEFAULT_255_2_778
10
19.6319811
20
15.7046616
40
1.497842
50
241.5777617
51
270.1184315
0
ARC
8
DEFAULT_255_2_778
10
19.631797
20
15.7032073
40
1.4964755
50
188.4395422
51
241.5574586
0
ARC
8
DEFAULT_255_2_778
10
19.6587157
20
15.706175
40
1.5235387
50
179.9793954
51
188.4013619
0
LINE
8
DEFAULT_255_2_778
10
18.1351771
20
15.7067229
11
18.1351771
21
15.7067229
0
ARC
8
DEFAULT_255_2_778
10
19.1693849
20
19.2241768
40
1.0343885
50
181.1141133
51
251.1386426
0
ARC
8
DEFAULT_255_2_778
10
19.164328
20
19.2066308
40
1.0291393
50
179.9999781
51
180.1428824
0
ARC
8
DEFAULT_255_2_778
10
19.1690068
20
19.1892749
40
1.033964
50
108.9176855
51
179.0381763
0
ARC
8
DEFAULT_255_2_778
10
19.152622
20
19.3009684
40
0.9232238
50
110.1237043
51
110.2032091
0
ARC
8
DEFAULT_255_2_778
10
19.6331903
20
19.2097633
40
1.4980165
50
151.5794485
51
180.1201144
0
ARC
8
DEFAULT_255_2_778
10
19.6314083
20
19.2100486
40
1.4963136
50
98.4345278
51
151.556579
0
ARC
8
DEFAULT_255_2_778
10
19.634528
20
19.182577
40
1.523946
50
89.9793545
51
98.3990533
0
ARC
8
DEFAULT_255_2_778
10
19.6381732
20
19.2086841
40
1.497842
50
61.5777617
51
90.1184315
0
ARC
8
DEFAULT_255_2_778
10
19.6383573
20
19.2101384
40
1.4964755
50
8.4395422
51
61.5574586
0
ARC
8
DEFAULT_255_2_778
10
19.6114386
20
19.2071708
40
1.5235387
50
359.9793954
51
8.4013619
0
ARC
8
DEFAULT_255_2_778
10
19.6371384
20
19.2035268
40
1.497842
50
331.5777617
51
0.1184315
0
ARC
8
DEFAULT_255_2_778
10
19.6385927
20
19.2033427
40
1.4964755
50
278.4395422
51
331.5574586
0
ARC
8
DEFAULT_255_2_778
10
19.635625
20
19.2302614
40
1.5235387
50
269.9793954
51
278.4013619
0
ARC
8
DEFAULT_255_2_778
10
19.6319811
20
19.2045616
40
1.497842
50
241.5777617
51
270.1184315
0
ARC
8
DEFAULT_255_2_778
10
19.631797
20
19.2031073
40
1.4964755
50
188.4395422
51
241.5574586
0
ARC
8
DEFAULT_255_2_778
10
19.6587157
20
19.206075
40
1.5235387
50
179.9793954
51
188.4013619
0
LINE
8
DEFAULT_255_2_778
10
18.1351771
20
19.2066229
11
18.1351771
21
19.2066229
0
ARC
8
DEFAULT_255_2_778
10
19.1693849
20
22.7240768
40
1.0343885
50
181.1141133
51
251.1386426
0
ARC
8
DEFAULT_255_2_778
10
19.164328
20
22.7065308
40
1.0291393
50
179.9999781
51
180.1428824
0
ARC
8
DEFAULT_255_2_778
10
19.1690068
20
22.6891749
40
1.033964
50
108.9176855
51
179.0381763
0
ARC
8
DEFAULT_255_2_778
10
19.152622
20
22.8008684
40
0.9232238
50
110.1237043
51
110.2032091
0
ARC
8
DEFAULT_255_2_778
10
19.6331903
20
22.7096633
40
1.4980165
50
151.5794485
51
180.1201144
0
ARC
8
DEFAULT_255_2_778
10
19.6314083
20
22.7099486
40
1.4963136
50
98.4345278
51
151.556579
0
ARC
8
DEFAULT_255_2_778
10
19.634528
20
22.682477
40
1.523946
50
89.9793545
51
98.3990533
0
ARC
8
DEFAULT_255_2_778
10
19.6381732
20
22.7085841
40
1.497842
50
61.5777617
51
90.1184315
0
ARC
8
DEFAULT_255_2_778
10
19.6383573
20
22.7100384
40
1.4964755
50
8.4395422
51
61.5574586
0
ARC
8
DEFAULT_255_2_778
10
19.6114386
20
22.7070708
40
1.5235387
50
359.9793954
51
8.4013619
0
ARC
8
DEFAULT_255_2_778
10
19.6371384
20
22.7034268
40
1.497842
50
331.5777617
51
0.1184315
0
ARC
8
DEFAULT_255_2_778
10
19.6385927
20
22.7032427
40
1.4964755
50
278.4395422
51
331.5574586
0
ARC
8
DEFAULT_255_2_778
10
19.635625
20
22.7301614
40
1.5235387
50
269.9793954
51
278.4013619
0
ARC
8
DEFAULT_255_2_778
10
19.6319811
20
22.7044616
40
1.497842
50
241.5777617
51
270.1184315
0
ARC
8
DEFAULT_255_2_778
10
19.631797
20
22.7030073
40
1.4964755
50
188.4395422
51
241.5574586
0
ARC
8
DEFAULT_255_2_778
10
19.6587157
20
22.705975
40
1.5235387
50
179.9793954
51
188.4013619
0
LINE
8
DEFAULT_255_2_778
10
18.1351771
20
22.7065229
11
18.1351771
21
22.7065229
0
ARC
8
DEFAULT_255_2_778
10
19.6365614
20
22.70352
40
1.2468396
50
285.9034121
51
309.8333069
0
ARC
8
DEFAULT_255_2_778
10
19.6353484
20
22.7090017
40
1.2524439
50
270.0121366
51
285.8880651
0
LINE
8
DEFAULT_255_2_778
10
19.6356137
20
21.4565578
11
19.6352073
21
21.4565578
0
ARC
8
DEFAULT_255_2_778
10
19.6344001
20
22.7041028
40
1.2475453
50
237.2308356
51
270.0370747
0
ARC
8
DEFAULT_255_2_778
10
19.6393275
20
22.7107544
40
1.2558056
50
230.1915809
51
237.2060608
0
ARC
8
DEFAULT_255_2_778
10
19.6340032
20
22.7094955
40
1.2468396
50
105.9034121
51
129.8333069
0
ARC
8
DEFAULT_255_2_778
10
19.6352162
20
22.7040139
40
1.2524439
50
90.0121366
51
105.8880651
0
LINE
8
DEFAULT_255_2_778
10
19.6349509
20
23.9564577
11
19.6353573
21
23.9564578
0
ARC
8
DEFAULT_255_2_778
10
19.6361646
20
22.7089127
40
1.2475453
50
57.2308356
51
90.0370747
0
ARC
8
DEFAULT_255_2_778
10
19.6312372
20
22.7022611
40
1.2558056
50
50.1915809
51
57.2060608
0
LINE
8
DEFAULT_255_2_778
10
18.8353323
20
21.7460578
11
18.8353323
21
23.6669578
0
LINE
8
DEFAULT_255_2_778
10
20.4352323
20
23.6669578
11
20.4352323
21
21.7460578
0
ARC
8
DEFAULT_255_2_778
10
19.6365614
20
19.20332
40
1.2468396
50
285.9034121
51
309.8333069
0
ARC
8
DEFAULT_255_2_778
10
19.6353484
20
19.2088017
40
1.2524439
50
270.0121366
51
285.8880651
0
LINE
8
DEFAULT_255_2_778
10
19.6356137
20
17.9563578
11
19.6352073
21
17.9563578
0
ARC
8
DEFAULT_255_2_778
10
19.6344001
20
19.2039028
40
1.2475453
50
237.2308356
51
270.0370747
0
ARC
8
DEFAULT_255_2_778
10
19.6393275
20
19.2105544
40
1.2558056
50
230.1915809
51
237.2060608
0
ARC
8
DEFAULT_255_2_778
10
19.6340032
20
19.2092955
40
1.2468396
50
105.9034121
51
129.8333069
0
ARC
8
DEFAULT_255_2_778
10
19.6352162
20
19.2038139
40
1.2524439
50
90.0121366
51
105.8880651
0
LINE
8
DEFAULT_255_2_778
10
19.6349509
20
20.4562577
11
19.6353573
21
20.4562578
0
ARC
8
DEFAULT_255_2_778
10
19.6361646
20
19.2087127
40
1.2475453
50
57.2308356
51
90.0370747
0
ARC
8
DEFAULT_255_2_778
10
19.6312372
20
19.2020611
40
1.2558056
50
50.1915809
51
57.2060608
0
LINE
8
DEFAULT_255_2_778
10
18.8353323
20
18.2458578
11
18.8353323
21
20.1667578
0
LINE
8
DEFAULT_255_2_778
10
20.4352323
20
20.1667578
11
20.4352323
21
18.2458578
0
ARC
8
DEFAULT_255_2_778
10
19.6365614
20
15.7034266
40
1.2468396
50
285.9034121
51
309.8333069
0
ARC
8
DEFAULT_255_2_778
10
19.6353484
20
15.7089083
40
1.2524439
50
270.0121366
51
285.8880651
0
LINE
8
DEFAULT_255_2_778
10
19.6356137
20
14.4564645
11
19.6352073
21
14.4564644
0
ARC
8
DEFAULT_255_2_778
10
19.6344001
20
15.7040094
40
1.2475453
50
237.2308356
51
270.0370747
0
ARC
8
DEFAULT_255_2_778
10
19.6393275
20
15.7106611
40
1.2558056
50
230.1915809
51
237.2060608
0
ARC
8
DEFAULT_255_2_778
10
19.6340032
20
15.7094022
40
1.2468396
50
105.9034121
51
129.8333069
0
ARC
8
DEFAULT_255_2_778
10
19.6352162
20
15.7039205
40
1.2524439
50
90.0121366
51
105.8880651
0
LINE
8
DEFAULT_255_2_778
10
19.6349509
20
16.9563643
11
19.6353573
21
16.9563644
0
ARC
8
DEFAULT_255_2_778
10
19.6361646
20
15.7088194
40
1.2475453
50
57.2308356
51
90.0370747
0
ARC
8
DEFAULT_255_2_778
10
19.6312372
20
15.7021677
40
1.2558056
50
50.1915809
51
57.2060608
0
LINE
8
DEFAULT_255_2_778
10
18.8353323
20
14.7459644
11
18.8353323
21
16.6668644
0
LINE
8
DEFAULT_255_2_778
10
20.4352323
20
16.6668644
11
20.4352323
21
14.7459644
0
ARC
8
DEFAULT_255_2_778
10
22.7695849
20
22.7240768
40
1.0343885
50
181.1141133
51
251.1386426
0
ARC
8
DEFAULT_255_2_778
10
22.764528
20
22.7065308
40
1.0291393
50
179.9999781
51
180.1428824
0
ARC
8
DEFAULT_255_2_778
10
22.7692068
20
22.6891749
40
1.033964
50
108.9176855
51
179.0381763
0
ARC
8
DEFAULT_255_2_778
10
22.752822
20
22.8008684
40
0.9232238
50
110.1237043
51
110.2032091
0
ARC
8
DEFAULT_255_2_778
10
23.2333903
20
22.7096633
40
1.4980165
50
151.5794485
51
180.1201144
0
ARC
8
DEFAULT_255_2_778
10
23.2316083
20
22.7099486
40
1.4963136
50
98.4345278
51
151.556579
0
ARC
8
DEFAULT_255_2_778
10
23.234728
20
22.682477
40
1.523946
50
89.9793545
51
98.3990533
0
ARC
8
DEFAULT_255_2_778
10
23.2383732
20
22.7085841
40
1.497842
50
61.5777617
51
90.1184315
0
ARC
8
DEFAULT_255_2_778
10
23.2385573
20
22.7100384
40
1.4964755
50
8.4395422
51
61.5574586
0
ARC
8
DEFAULT_255_2_778
10
23.2116386
20
22.7070708
40
1.5235387
50
359.9793954
51
8.4013619
0
ARC
8
DEFAULT_255_2_778
10
23.2373384
20
22.7034268
40
1.497842
50
331.5777617
51
0.1184315
0
ARC
8
DEFAULT_255_2_778
10
23.2387927
20
22.7032427
40
1.4964755
50
278.4395422
51
331.5574586
0
ARC
8
DEFAULT_255_2_778
10
23.235825
20
22.7301614
40
1.5235387
50
269.9793954
51
278.4013619
0
ARC
8
DEFAULT_255_2_778
10
23.2321811
20
22.7044616
40
1.497842
50
241.5777617
51
270.1184315
0
ARC
8
DEFAULT_255_2_778
10
23.231997
20
22.7030073
40
1.4964755
50
188.4395422
51
241.5574586
0
ARC
8
DEFAULT_255_2_778
10
23.2589157
20
22.705975
40
1.5235387
50
179.9793954
51
188.4013619
0
LINE
8
DEFAULT_255_2_778
10
21.7353771
20
22.7065229
11
21.7353771
21
22.7065229
0
ARC
8
DEFAULT_255_2_778
10
22.7695849
20
15.7239768
40
1.0343885
50
181.1141133
51
251.1386426
0
ARC
8
DEFAULT_255_2_778
10
22.764528
20
15.7064308
40
1.0291393
50
179.9999781
51
180.1428824
0
ARC
8
DEFAULT_255_2_778
10
22.7692068
20
15.6890749
40
1.033964
50
108.9176855
51
179.0381763
0
ARC
8
DEFAULT_255_2_778
10
22.752822
20
15.8007684
40
0.9232238
50
110.1237043
51
110.2032091
0
ARC
8
DEFAULT_255_2_778
10
23.2333903
20
15.7098633
40
1.4980165
50
151.5794485
51
180.1201144
0
ARC
8
DEFAULT_255_2_778
10
23.2316083
20
15.7101486
40
1.4963136
50
98.4345278
51
151.556579
0
ARC
8
DEFAULT_255_2_778
10
23.234728
20
15.682677
40
1.523946
50
89.9793545
51
98.3990533
0
ARC
8
DEFAULT_255_2_778
10
23.2383732
20
15.7087841
40
1.497842
50
61.5777617
51
90.1184315
0
ARC
8
DEFAULT_255_2_778
10
23.2385573
20
15.7102384
40
1.4964755
50
8.4395422
51
61.5574586
0
ARC
8
DEFAULT_255_2_778
10
23.2116386
20
15.7072708
40
1.5235387
50
359.9793954
51
8.4013619
0
ARC
8
DEFAULT_255_2_778
10
23.2373384
20
15.7036268
40
1.497842
50
331.5777617
51
0.1184315
0
ARC
8
DEFAULT_255_2_778
10
23.2387927
20
15.7034427
40
1.4964755
50
278.4395422
51
331.5574586
0
ARC
8
DEFAULT_255_2_778
10
23.235825
20
15.7303614
40
1.5235387
50
269.9793954
51
278.4013619
0
ARC
8
DEFAULT_255_2_778
10
23.2321811
20
15.7046616
40
1.497842
50
241.5777617
51
270.1184315
0
ARC
8
DEFAULT_255_2_778
10
23.231997
20
15.7032073
40
1.4964755
50
188.4395422
51
241.5574586
0
ARC
8
DEFAULT_255_2_778
10
23.2589157
20
15.706175
40
1.5235387
50
179.9793954
51
188.4013619
0
LINE
8
DEFAULT_255_2_778
10
21.7353771
20
15.7067229
11
21.7353771
21
15.7067229
0
ARC
8
DEFAULT_255_2_778
10
22.7695849
20
19.2241768
40
1.0343885
50
181.1141133
51
251.1386426
0
ARC
8
DEFAULT_255_2_778
10
22.764528
20
19.2066308
40
1.0291393
50
179.9999781
51
180.1428824
0
ARC
8
DEFAULT_255_2_778
10
22.7692068
20
19.1892749
40
1.033964
50
108.9176855
51
179.0381763
0
ARC
8
DEFAULT_255_2_778
10
22.752822
20
19.3009684
40
0.9232238
50
110.1237043
51
110.2032091
0
ARC
8
DEFAULT_255_2_778
10
23.2333903
20
19.2097633
40
1.4980165
50
151.5794485
51
180.1201144
0
ARC
8
DEFAULT_255_2_778
10
23.2316083
20
19.2100486
40
1.4963136
50
98.4345278
51
151.556579
0
ARC
8
DEFAULT_255_2_778
10
23.234728
20
19.182577
40
1.523946
50
89.9793545
51
98.3990533
0
ARC
8
DEFAULT_255_2_778
10
23.2383732
20
19.2086841
40
1.497842
50
61.5777617
51
90.1184315
0
ARC
8
DEFAULT_255_2_778
10
23.2385573
20
19.2101384
40
1.4964755
50
8.4395422
51
61.5574586
0
ARC
8
DEFAULT_255_2_778
10
23.2116386
20
19.2071708
40
1.5235387
50
359.9793954
51
8.4013619
0
ARC
8
DEFAULT_255_2_778
10
23.2373384
20
19.2035268
40
1.497842
50
331.5777617
51
0.1184315
0
ARC
8
DEFAULT_255_2_778
10
23.2387927
20
19.2033427
40
1.4964755
50
278.4395422
51
331.5574586
0
ARC
8
DEFAULT_255_2_778
10
23.235825
20
19.2302614
40
1.5235387
50
269.9793954
51
278.4013619
0
ARC
8
DEFAULT_255_2_778
10
23.2321811
20
19.2045616
40
1.497842
50
241.5777617
51
270.1184315
0
ARC
8
DEFAULT_255_2_778
10
23.231997
20
19.2031073
40
1.4964755
50
188.4395422
51
241.5574586
0
ARC
8
DEFAULT_255_2_778
10
23.2589157
20
19.206075
40
1.5235387
50
179.9793954
51
188.4013619
0
LINE
8
DEFAULT_255_2_778
10
21.7353771
20
19.2066229
11
21.7353771
21
19.2066229
0
ARC
8
DEFAULT_255_2_778
10
23.2364614
20
22.7098022
40
1.2468396
50
50.1666931
51
74.0965879
0
ARC
8
DEFAULT_255_2_778
10
23.2352484
20
22.7043205
40
1.2524439
50
74.1119349
51
89.9878634
0
LINE
8
DEFAULT_255_2_778
10
23.2355137
20
23.9567643
11
23.2351073
21
23.9567644
0
ARC
8
DEFAULT_255_2_778
10
23.2343001
20
22.7092194
40
1.2475453
50
89.9629253
51
122.7691644
0
ARC
8
DEFAULT_255_2_778
10
23.2392275
20
22.7025677
40
1.2558056
50
122.7939392
51
129.8084191
0
ARC
8
DEFAULT_255_2_778
10
23.2339032
20
22.7038266
40
1.2468396
50
230.1666931
51
254.0965879
0
ARC
8
DEFAULT_255_2_778
10
23.2351162
20
22.7093083
40
1.2524439
50
254.1119349
51
269.9878634
0
LINE
8
DEFAULT_255_2_778
10
23.2348509
20
21.4568645
11
23.2352573
21
21.4568644
0
ARC
8
DEFAULT_255_2_778
10
23.2360646
20
22.7044094
40
1.2475453
50
269.9629253
51
302.7691644
0
ARC
8
DEFAULT_255_2_778
10
23.2311372
20
22.7110611
40
1.2558056
50
302.7939392
51
309.8084191
0
LINE
8
DEFAULT_255_2_778
10
22.4352323
20
23.6672644
11
22.4352323
21
21.7463644
0
LINE
8
DEFAULT_255_2_778
10
24.0351323
20
21.7463644
11
24.0351323
21
23.6672644
0
ARC
8
DEFAULT_255_2_778
10
23.2364614
20
19.2095955
40
1.2468396
50
50.1666931
51
74.0965879
0
ARC
8
DEFAULT_255_2_778
10
23.2352484
20
19.2041139
40
1.2524439
50
74.1119349
51
89.9878634
0
LINE
8
DEFAULT_255_2_778
10
23.2355137
20
20.4565577
11
23.2351073
21
20.4565578
0
ARC
8
DEFAULT_255_2_778
10
23.2343001
20
19.2090127
40
1.2475453
50
89.9629253
51
122.7691644
0
ARC
8
DEFAULT_255_2_778
10
23.2392275
20
19.2023611
40
1.2558056
50
122.7939392
51
129.8084191
0
ARC
8
DEFAULT_255_2_778
10
23.2339032
20
19.20362
40
1.2468396
50
230.1666931
51
254.0965879
0
ARC
8
DEFAULT_255_2_778
10
23.2351162
20
19.2091017
40
1.2524439
50
254.1119349
51
269.9878634
0
LINE
8
DEFAULT_255_2_778
10
23.2348509
20
17.9566578
11
23.2352573
21
17.9566578
0
ARC
8
DEFAULT_255_2_778
10
23.2360646
20
19.2042028
40
1.2475453
50
269.9629253
51
302.7691644
0
ARC
8
DEFAULT_255_2_778
10
23.2311372
20
19.2108544
40
1.2558056
50
302.7939392
51
309.8084191
0
LINE
8
DEFAULT_255_2_778
10
22.4352323
20
20.1670578
11
22.4352323
21
18.2461578
0
LINE
8
DEFAULT_255_2_778
10
24.0351323
20
18.2461578
11
24.0351323
21
20.1670578
0
ARC
8
DEFAULT_255_2_778
10
23.2364614
20
15.7034266
40
1.2468396
50
285.9034121
51
309.8333069
0
ARC
8
DEFAULT_255_2_778
10
23.2352484
20
15.7089083
40
1.2524439
50
270.0121366
51
285.8880651
0
LINE
8
DEFAULT_255_2_778
10
23.2355137
20
14.4564645
11
23.2351073
21
14.4564644
0
ARC
8
DEFAULT_255_2_778
10
23.2343001
20
15.7040094
40
1.2475453
50
237.2308356
51
270.0370747
0
ARC
8
DEFAULT_255_2_778
10
23.2392275
20
15.7106611
40
1.2558056
50
230.1915809
51
237.2060608
0
ARC
8
DEFAULT_255_2_778
10
23.2339032
20
15.7094022
40
1.2468396
50
105.9034121
51
129.8333069
0
ARC
8
DEFAULT_255_2_778
10
23.2351162
20
15.7039205
40
1.2524439
50
90.0121366
51
105.8880651
0
LINE
8
DEFAULT_255_2_778
10
23.2348509
20
16.9563643
11
23.2352573
21
16.9563644
0
ARC
8
DEFAULT_255_2_778
10
23.2360646
20
15.7088194
40
1.2475453
50
57.2308356
51
90.0370747
0
ARC
8
DEFAULT_255_2_778
10
23.2311372
20
15.7021677
40
1.2558056
50
50.1915809
51
57.2060608
0
LINE
8
DEFAULT_255_2_778
10
22.4352323
20
14.7459644
11
22.4352323
21
16.6668644
0
LINE
8
DEFAULT_255_2_778
10
24.0351323
20
16.6668644
11
24.0351323
21
14.7459644
0
LINE
8
DEFAULT_255_2_778
10
26.9852261
20
21.2814458
11
26.9852261
21
24.1315458
0
LINE
8
DEFAULT_255_2_778
10
26.9852261
20
24.1315458
11
25.2853261
21
24.1315458
0
LINE
8
DEFAULT_255_2_778
10
25.2853261
20
24.1315458
11
25.2853261
21
21.2814458
0
LINE
8
DEFAULT_255_2_778
10
25.2853261
20
21.2814458
11
26.9852261
21
21.2814458
0
LINE
8
DEFAULT_255_2_778
10
26.9852261
20
17.7815458
11
26.9852261
21
20.6316458
0
LINE
8
DEFAULT_255_2_778
10
26.9852261
20
20.6316458
11
25.2853261
21
20.6316458
0
LINE
8
DEFAULT_255_2_778
10
25.2853261
20
20.6316458
11
25.2853261
21
17.7815458
0
LINE
8
DEFAULT_255_2_778
10
25.2853261
20
17.7815458
11
26.9852261
21
17.7815458
0
LINE
8
DEFAULT_255_2_778
10
26.9852261
20
14.2813458
11
26.9852261
21
17.1314458
0
LINE
8
DEFAULT_255_2_778
10
26.9852261
20
17.1314458
11
25.2853261
21
17.1314458
0
LINE
8
DEFAULT_255_2_778
10
25.2853261
20
17.1314458
11
25.2853261
21
14.2813458
0
LINE
8
DEFAULT_255_2_778
10
25.2853261
20
14.2813458
11
26.9852261
21
14.2813458
0
ARC
8
DEFAULT_255_2_778
10
22.7695849
20
36.7239768
40
1.0343885
50
181.1141133
51
251.1386426
0
ARC
8
DEFAULT_255_2_778
10
22.764528
20
36.7064308
40
1.0291393
50
179.9999781
51
180.1428824
0
ARC
8
DEFAULT_255_2_778
10
22.7692068
20
36.6890749
40
1.033964
50
108.9176855
51
179.0381763
0
ARC
8
DEFAULT_255_2_778
10
22.752822
20
36.8007684
40
0.9232238
50
110.1237043
51
110.2032091
0
ARC
8
DEFAULT_255_2_778
10
23.2333903
20
36.7098633
40
1.4980165
50
151.5794485
51
180.1201144
0
ARC
8
DEFAULT_255_2_778
10
23.2316083
20
36.7101486
40
1.4963136
50
98.4345278
51
151.556579
0
ARC
8
DEFAULT_255_2_778
10
23.234728
20
36.682677
40
1.523946
50
89.9793545
51
98.3990533
0
ARC
8
DEFAULT_255_2_778
10
23.2383732
20
36.7087841
40
1.497842
50
61.5777617
51
90.1184315
0
ARC
8
DEFAULT_255_2_778
10
23.2385573
20
36.7102384
40
1.4964755
50
8.4395422
51
61.5574586
0
ARC
8
DEFAULT_255_2_778
10
23.2116386
20
36.7072708
40
1.5235387
50
359.9793954
51
8.4013619
0
ARC
8
DEFAULT_255_2_778
10
23.2373384
20
36.7036268
40
1.497842
50
331.5777617
51
0.1184315
0
ARC
8
DEFAULT_255_2_778
10
23.2387927
20
36.7034427
40
1.4964755
50
278.4395422
51
331.5574586
0
ARC
8
DEFAULT_255_2_778
10
23.235825
20
36.7303614
40
1.5235387
50
269.9793954
51
278.4013619
0
ARC
8
DEFAULT_255_2_778
10
23.2321811
20
36.7046616
40
1.497842
50
241.5777617
51
270.1184315
0
ARC
8
DEFAULT_255_2_778
10
23.231997
20
36.7032073
40
1.4964755
50
188.4395422
51
241.5574586
0
ARC
8
DEFAULT_255_2_778
10
23.2589157
20
36.706175
40
1.5235387
50
179.9793954
51
188.4013619
0
LINE
8
DEFAULT_255_2_778
10
21.7353771
20
36.7067229
11
21.7353771
21
36.7067229
0
ARC
8
DEFAULT_255_2_778
10
22.7695849
20
40.2241768
40
1.0343885
50
181.1141133
51
251.1386426
0
ARC
8
DEFAULT_255_2_778
10
22.764528
20
40.2066308
40
1.0291393
50
179.9999781
51
180.1428824
0
ARC
8
DEFAULT_255_2_778
10
22.7692068
20
40.1892749
40
1.033964
50
108.9176855
51
179.0381763
0
ARC
8
DEFAULT_255_2_778
10
22.752822
20
40.3009684
40
0.9232238
50
110.1237043
51
110.2032091
0
ARC
8
DEFAULT_255_2_778
10
23.2333903
20
40.2097633
40
1.4980165
50
151.5794485
51
180.1201144
0
ARC
8
DEFAULT_255_2_778
10
23.2316083
20
40.2100486
40
1.4963136
50
98.4345278
51
151.556579
0
ARC
8
DEFAULT_255_2_778
10
23.234728
20
40.182577
40
1.523946
50
89.9793545
51
98.3990533
0
ARC
8
DEFAULT_255_2_778
10
23.2383732
20
40.2086841
40
1.497842
50
61.5777617
51
90.1184315
0
ARC
8
DEFAULT_255_2_778
10
23.2385573
20
40.2101384
40
1.4964755
50
8.4395422
51
61.5574586
0
ARC
8
DEFAULT_255_2_778
10
23.2116386
20
40.2071708
40
1.5235387
50
359.9793954
51
8.4013619
0
ARC
8
DEFAULT_255_2_778
10
23.2373384
20
40.2035268
40
1.497842
50
331.5777617
51
0.1184315
0
ARC
8
DEFAULT_255_2_778
10
23.2387927
20
40.2033427
40
1.4964755
50
278.4395422
51
331.5574586
0
ARC
8
DEFAULT_255_2_778
10
23.235825
20
40.2302614
40
1.5235387
50
269.9793954
51
278.4013619
0
ARC
8
DEFAULT_255_2_778
10
23.2321811
20
40.2045616
40
1.497842
50
241.5777617
51
270.1184315
0
ARC
8
DEFAULT_255_2_778
10
23.231997
20
40.2031073
40
1.4964755
50
188.4395422
51
241.5574586
0
ARC
8
DEFAULT_255_2_778
10
23.2589157
20
40.206075
40
1.5235387
50
179.9793954
51
188.4013619
0
LINE
8
DEFAULT_255_2_778
10
21.7353771
20
40.2066229
11
21.7353771
21
40.2066229
0
ARC
8
DEFAULT_255_2_778
10
22.7695849
20
43.7240768
40
1.0343885
50
181.1141133
51
251.1386426
0
ARC
8
DEFAULT_255_2_778
10
22.764528
20
43.7065308
40
1.0291393
50
179.9999781
51
180.1428824
0
ARC
8
DEFAULT_255_2_778
10
22.7692068
20
43.6891749
40
1.033964
50
108.9176855
51
179.0381763
0
ARC
8
DEFAULT_255_2_778
10
22.752822
20
43.8008684
40
0.9232238
50
110.1237043
51
110.2032091
0
ARC
8
DEFAULT_255_2_778
10
23.2333903
20
43.7098633
40
1.4980165
50
151.5794485
51
180.1201144
0
ARC
8
DEFAULT_255_2_778
10
23.2316083
20
43.7101486
40
1.4963136
50
98.4345278
51
151.556579
0
ARC
8
DEFAULT_255_2_778
10
23.234728
20
43.682677
40
1.523946
50
89.9793545
51
98.3990533
0
ARC
8
DEFAULT_255_2_778
10
23.2383732
20
43.7087841
40
1.497842
50
61.5777617
51
90.1184315
0
ARC
8
DEFAULT_255_2_778
10
23.2385573
20
43.7102384
40
1.4964755
50
8.4395422
51
61.5574586
0
ARC
8
DEFAULT_255_2_778
10
23.2116386
20
43.7072708
40
1.5235387
50
359.9793954
51
8.4013619
0
ARC
8
DEFAULT_255_2_778
10
23.2373384
20
43.7036268
40
1.497842
50
331.5777617
51
0.1184315
0
ARC
8
DEFAULT_255_2_778
10
23.2387927
20
43.7034427
40
1.4964755
50
278.4395422
51
331.5574586
0
ARC
8
DEFAULT_255_2_778
10
23.235825
20
43.7303614
40
1.5235387
50
269.9793954
51
278.4013619
0
ARC
8
DEFAULT_255_2_778
10
23.2321811
20
43.7046616
40
1.497842
50
241.5777617
51
270.1184315
0
ARC
8
DEFAULT_255_2_778
10
23.231997
20
43.7032073
40
1.4964755
50
188.4395422
51
241.5574586
0
ARC
8
DEFAULT_255_2_778
10
23.2589157
20
43.706175
40
1.5235387
50
179.9793954
51
188.4013619
0
LINE
8
DEFAULT_255_2_778
10
21.7353771
20
43.7067229
11
21.7353771
21
43.7067229
0
ARC
8
DEFAULT_255_2_778
10
23.2364614
20
43.7096955
40
1.2468396
50
50.1666931
51
74.0965879
0
ARC
8
DEFAULT_255_2_778
10
23.2352484
20
43.7042139
40
1.2524439
50
74.1119349
51
89.9878634
0
LINE
8
DEFAULT_255_2_778
10
23.2355137
20
44.9566577
11
23.2351073
21
44.9566578
0
ARC
8
DEFAULT_255_2_778
10
23.2343001
20
43.7091127
40
1.2475453
50
89.9629253
51
122.7691644
0
ARC
8
DEFAULT_255_2_778
10
23.2392275
20
43.7024611
40
1.2558056
50
122.7939392
51
129.8084191
0
ARC
8
DEFAULT_255_2_778
10
23.2339032
20
43.70372
40
1.2468396
50
230.1666931
51
254.0965879
0
ARC
8
DEFAULT_255_2_778
10
23.2351162
20
43.7092017
40
1.2524439
50
254.1119349
51
269.9878634
0
LINE
8
DEFAULT_255_2_778
10
23.2348509
20
42.4567578
11
23.2352573
21
42.4567578
0
ARC
8
DEFAULT_255_2_778
10
23.2360646
20
43.7043028
40
1.2475453
50
269.9629253
51
302.7691644
0
ARC
8
DEFAULT_255_2_778
10
23.2311372
20
43.7109544
40
1.2558056
50
302.7939392
51
309.8084191
0
LINE
8
DEFAULT_255_2_778
10
22.4352323
20
44.6671578
11
22.4352323
21
42.7462578
0
LINE
8
DEFAULT_255_2_778
10
24.0351323
20
42.7462578
11
24.0351323
21
44.6671578
0
ARC
8
DEFAULT_255_2_778
10
23.2364614
20
36.7096955
40
1.2468396
50
50.1666931
51
74.0965879
0
ARC
8
DEFAULT_255_2_778
10
23.2352484
20
36.7042139
40
1.2524439
50
74.1119349
51
89.9878634
0
LINE
8
DEFAULT_255_2_778
10
23.2355137
20
37.9566577
11
23.2351073
21
37.9566578
0
ARC
8
DEFAULT_255_2_778
10
23.2343001
20
36.7091127
40
1.2475453
50
89.9629253
51
122.7691644
0
ARC
8
DEFAULT_255_2_778
10
23.2392275
20
36.7024611
40
1.2558056
50
122.7939392
51
129.8084191
0
ARC
8
DEFAULT_255_2_778
10
23.2339032
20
36.70372
40
1.2468396
50
230.1666931
51
254.0965879
0
ARC
8
DEFAULT_255_2_778
10
23.2351162
20
36.7092017
40
1.2524439
50
254.1119349
51
269.9878634
0
LINE
8
DEFAULT_255_2_778
10
23.2348509
20
35.4567578
11
23.2352573
21
35.4567578
0
ARC
8
DEFAULT_255_2_778
10
23.2360646
20
36.7043028
40
1.2475453
50
269.9629253
51
302.7691644
0
ARC
8
DEFAULT_255_2_778
10
23.2311372
20
36.7109544
40
1.2558056
50
302.7939392
51
309.8084191
0
LINE
8
DEFAULT_255_2_778
10
22.4352323
20
37.6671578
11
22.4352323
21
35.7462578
0
LINE
8
DEFAULT_255_2_778
10
24.0351323
20
35.7462578
11
24.0351323
21
37.6671578
0
ARC
8
DEFAULT_255_2_778
10
23.2364614
20
40.20332
40
1.2468396
50
285.9034121
51
309.8333069
0
ARC
8
DEFAULT_255_2_778
10
23.2352484
20
40.2088017
40
1.2524439
50
270.0121366
51
285.8880651
0
LINE
8
DEFAULT_255_2_778
10
23.2355137
20
38.9563578
11
23.2351073
21
38.9563578
0
ARC
8
DEFAULT_255_2_778
10
23.2343001
20
40.2039028
40
1.2475453
50
237.2308356
51
270.0370747
0
ARC
8
DEFAULT_255_2_778
10
23.2392275
20
40.2105544
40
1.2558056
50
230.1915809
51
237.2060608
0
ARC
8
DEFAULT_255_2_778
10
23.2339032
20
40.2092955
40
1.2468396
50
105.9034121
51
129.8333069
0
ARC
8
DEFAULT_255_2_778
10
23.2351162
20
40.2038139
40
1.2524439
50
90.0121366
51
105.8880651
0
LINE
8
DEFAULT_255_2_778
10
23.2348509
20
41.4562577
11
23.2352573
21
41.4562578
0
ARC
8
DEFAULT_255_2_778
10
23.2360646
20
40.2087127
40
1.2475453
50
57.2308356
51
90.0370747
0
ARC
8
DEFAULT_255_2_778
10
23.2311372
20
40.2020611
40
1.2558056
50
50.1915809
51
57.2060608
0
LINE
8
DEFAULT_255_2_778
10
22.4352323
20
39.2458578
11
22.4352323
21
41.1667578
0
LINE
8
DEFAULT_255_2_778
10
24.0351323
20
41.1667578
11
24.0351323
21
39.2458578
0
ARC
8
DEFAULT_255_2_778
10
23.7014899
20
36.688951
40
1.0341682
50
1.0396104
51
71.146047
0
ARC
8
DEFAULT_255_2_778
10
23.7064347
20
36.7064314
40
1.0290538
50
359.9999904
51
0.0714426
0
ARC
8
DEFAULT_255_2_778
10
23.7016546
20
36.7237283
40
1.0339786
50
288.9887411
51
359.0414721
0
ARC
8
DEFAULT_255_2_778
10
23.6804016
20
36.7140964
40
1.0320477
50
290.1362893
51
290.2785313
0
ARC
8
DEFAULT_255_2_778
10
23.7014899
20
40.189151
40
1.0341682
50
1.0396104
51
71.146047
0
ARC
8
DEFAULT_255_2_778
10
23.7064347
20
40.2066314
40
1.0290538
50
359.9999904
51
0.0714426
0
ARC
8
DEFAULT_255_2_778
10
23.7016546
20
40.2239283
40
1.0339786
50
288.9887411
51
359.0414721
0
ARC
8
DEFAULT_255_2_778
10
23.6804016
20
40.2142964
40
1.0320477
50
290.1362893
51
290.2785313
0
ARC
8
DEFAULT_255_2_778
10
23.7014899
20
43.689051
40
1.0341682
50
1.0396104
51
71.146047
0
ARC
8
DEFAULT_255_2_778
10
23.7064347
20
43.7065314
40
1.0290538
50
359.9999904
51
0.0714426
0
ARC
8
DEFAULT_255_2_778
10
23.7016546
20
43.7238283
40
1.0339786
50
288.9887411
51
359.0414721
0
ARC
8
DEFAULT_255_2_778
10
23.6804016
20
43.7141964
40
1.0320477
50
290.1362893
51
290.2785313
0
ARC
8
DEFAULT_255_2_778
10
23.7014899
20
33.189051
40
1.0341682
50
1.0396104
51
71.146047
0
ARC
8
DEFAULT_255_2_778
10
23.7064347
20
33.2065314
40
1.0290538
50
359.9999904
51
0.0714426
0
ARC
8
DEFAULT_255_2_778
10
23.7016546
20
33.2238283
40
1.0339786
50
288.9887411
51
359.0414721
0
ARC
8
DEFAULT_255_2_778
10
23.6804016
20
33.2141964
40
1.0320477
50
290.1362893
51
290.2785313
0
LINE
8
DEFAULT_255_2_778
10
26.9852261
20
31.7814458
11
26.9852261
21
34.6315458
0
LINE
8
DEFAULT_255_2_778
10
26.9852261
20
34.6315458
11
25.2853261
21
34.6315458
0
LINE
8
DEFAULT_255_2_778
10
25.2853261
20
34.6315458
11
25.2853261
21
31.7814458
0
LINE
8
DEFAULT_255_2_778
10
25.2853261
20
31.7814458
11
26.9852261
21
31.7814458
0
LINE
8
DEFAULT_255_2_778
10
26.9852261
20
28.2815458
11
26.9852261
21
31.1316458
0
LINE
8
DEFAULT_255_2_778
10
26.9852261
20
31.1316458
11
25.2853261
21
31.1316458
0
LINE
8
DEFAULT_255_2_778
10
25.2853261
20
31.1316458
11
25.2853261
21
28.2815458
0
LINE
8
DEFAULT_255_2_778
10
25.2853261
20
28.2815458
11
26.9852261
21
28.2815458
0
LINE
8
DEFAULT_255_2_778
10
26.9852261
20
24.7813458
11
26.9852261
21
27.6314458
0
LINE
8
DEFAULT_255_2_778
10
26.9852261
20
27.6314458
11
25.2853261
21
27.6314458
0
LINE
8
DEFAULT_255_2_778
10
25.2853261
20
27.6314458
11
25.2853261
21
24.7813458
0
LINE
8
DEFAULT_255_2_778
10
25.2853261
20
24.7813458
11
26.9852261
21
24.7813458
0
ARC
8
DEFAULT_255_2_778
10
19.1693849
20
54.2240768
40
1.0343885
50
181.1141133
51
251.1386426
0
ARC
8
DEFAULT_255_2_778
10
19.164328
20
54.2065308
40
1.0291393
50
179.9999781
51
180.1428824
0
ARC
8
DEFAULT_255_2_778
10
19.1690068
20
54.1891749
40
1.033964
50
108.9176855
51
179.0381763
0
ARC
8
DEFAULT_255_2_778
10
19.152622
20
54.3008684
40
0.9232238
50
110.1237043
51
110.2032091
0
ARC
8
DEFAULT_255_2_778
10
19.6331903
20
54.2098633
40
1.4980165
50
151.5794485
51
180.1201144
0
ARC
8
DEFAULT_255_2_778
10
19.6314083
20
54.2101486
40
1.4963136
50
98.4345278
51
151.556579
0
ARC
8
DEFAULT_255_2_778
10
19.634528
20
54.182677
40
1.523946
50
89.9793545
51
98.3990533
0
ARC
8
DEFAULT_255_2_778
10
19.6381732
20
54.2087841
40
1.497842
50
61.5777617
51
90.1184315
0
ARC
8
DEFAULT_255_2_778
10
19.6383573
20
54.2102384
40
1.4964755
50
8.4395422
51
61.5574586
0
ARC
8
DEFAULT_255_2_778
10
19.6114386
20
54.2072708
40
1.5235387
50
359.9793954
51
8.4013619
0
ARC
8
DEFAULT_255_2_778
10
19.6371384
20
54.2036268
40
1.497842
50
331.5777617
51
0.1184315
0
ARC
8
DEFAULT_255_2_778
10
19.6385927
20
54.2034427
40
1.4964755
50
278.4395422
51
331.5574586
0
ARC
8
DEFAULT_255_2_778
10
19.635625
20
54.2303614
40
1.5235387
50
269.9793954
51
278.4013619
0
ARC
8
DEFAULT_255_2_778
10
19.6319811
20
54.2046616
40
1.497842
50
241.5777617
51
270.1184315
0
ARC
8
DEFAULT_255_2_778
10
19.631797
20
54.2032073
40
1.4964755
50
188.4395422
51
241.5574586
0
ARC
8
DEFAULT_255_2_778
10
19.6587157
20
54.206175
40
1.5235387
50
179.9793954
51
188.4013619
0
LINE
8
DEFAULT_255_2_778
10
18.1351771
20
54.2067229
11
18.1351771
21
54.2067229
0
ARC
8
DEFAULT_255_2_778
10
19.1693849
20
57.7239768
40
1.0343885
50
181.1141133
51
251.1386426
0
ARC
8
DEFAULT_255_2_778
10
19.164328
20
57.7064308
40
1.0291393
50
179.9999781
51
180.1428824
0
ARC
8
DEFAULT_255_2_778
10
19.1690068
20
57.6890749
40
1.033964
50
108.9176855
51
179.0381763
0
ARC
8
DEFAULT_255_2_778
10
19.152622
20
57.8007684
40
0.9232238
50
110.1237043
51
110.2032091
0
ARC
8
DEFAULT_255_2_778
10
19.6331903
20
57.7097633
40
1.4980165
50
151.5794485
51
180.1201144
0
ARC
8
DEFAULT_255_2_778
10
19.6314083
20
57.7100486
40
1.4963136
50
98.4345278
51
151.556579
0
ARC
8
DEFAULT_255_2_778
10
19.634528
20
57.682577
40
1.523946
50
89.9793545
51
98.3990533
0
ARC
8
DEFAULT_255_2_778
10
19.6381732
20
57.7086841
40
1.497842
50
61.5777617
51
90.1184315
0
ARC
8
DEFAULT_255_2_778
10
19.6383573
20
57.7101384
40
1.4964755
50
8.4395422
51
61.5574586
0
ARC
8
DEFAULT_255_2_778
10
19.6114386
20
57.7071708
40
1.5235387
50
359.9793954
51
8.4013619
0
ARC
8
DEFAULT_255_2_778
10
19.6371384
20
57.7035268
40
1.497842
50
331.5777617
51
0.1184315
0
ARC
8
DEFAULT_255_2_778
10
19.6385927
20
57.7033427
40
1.4964755
50
278.4395422
51
331.5574586
0
ARC
8
DEFAULT_255_2_778
10
19.635625
20
57.7302614
40
1.5235387
50
269.9793954
51
278.4013619
0
ARC
8
DEFAULT_255_2_778
10
19.6319811
20
57.7045616
40
1.497842
50
241.5777617
51
270.1184315
0
ARC
8
DEFAULT_255_2_778
10
19.631797
20
57.7031073
40
1.4964755
50
188.4395422
51
241.5574586
0
ARC
8
DEFAULT_255_2_778
10
19.6587157
20
57.706075
40
1.5235387
50
179.9793954
51
188.4013619
0
LINE
8
DEFAULT_255_2_778
10
18.1351771
20
57.7066229
11
18.1351771
21
57.7066229
0
ARC
8
DEFAULT_255_2_778
10
19.1693849
20
61.2241768
40
1.0343885
50
181.1141133
51
251.1386426
0
ARC
8
DEFAULT_255_2_778
10
19.164328
20
61.2066308
40
1.0291393
50
179.9999781
51
180.1428824
0
ARC
8
DEFAULT_255_2_778
10
19.1690068
20
61.1892749
40
1.033964
50
108.9176855
51
179.0381763
0
ARC
8
DEFAULT_255_2_778
10
19.152622
20
61.3009684
40
0.9232238
50
110.1237043
51
110.2032091
0
ARC
8
DEFAULT_255_2_778
10
19.6331903
20
61.2097633
40
1.4980165
50
151.5794485
51
180.1201144
0
ARC
8
DEFAULT_255_2_778
10
19.6314083
20
61.2100486
40
1.4963136
50
98.4345278
51
151.556579
0
ARC
8
DEFAULT_255_2_778
10
19.634528
20
61.182577
40
1.523946
50
89.9793545
51
98.3990533
0
ARC
8
DEFAULT_255_2_778
10
19.6381732
20
61.2086841
40
1.497842
50
61.5777617
51
90.1184315
0
ARC
8
DEFAULT_255_2_778
10
19.6383573
20
61.2101384
40
1.4964755
50
8.4395422
51
61.5574586
0
ARC
8
DEFAULT_255_2_778
10
19.6114386
20
61.2071708
40
1.5235387
50
359.9793954
51
8.4013619
0
ARC
8
DEFAULT_255_2_778
10
19.6371384
20
61.2035268
40
1.497842
50
331.5777617
51
0.1184315
0
ARC
8
DEFAULT_255_2_778
10
19.6385927
20
61.2033427
40
1.4964755
50
278.4395422
51
331.5574586
0
ARC
8
DEFAULT_255_2_778
10
19.635625
20
61.2302614
40
1.5235387
50
269.9793954
51
278.4013619
0
ARC
8
DEFAULT_255_2_778
10
19.6319811
20
61.2045616
40
1.497842
50
241.5777617
51
270.1184315
0
ARC
8
DEFAULT_255_2_778
10
19.631797
20
61.2031073
40
1.4964755
50
188.4395422
51
241.5574586
0
ARC
8
DEFAULT_255_2_778
10
19.6587157
20
61.206075
40
1.5235387
50
179.9793954
51
188.4013619
0
LINE
8
DEFAULT_255_2_778
10
18.1351771
20
61.2066229
11
18.1351771
21
61.2066229
0
ARC
8
DEFAULT_255_2_778
10
19.6365614
20
54.2096955
40
1.2468396
50
50.1666931
51
74.0965879
0
ARC
8
DEFAULT_255_2_778
10
19.6353484
20
54.2042139
40
1.2524439
50
74.1119349
51
89.9878634
0
LINE
8
DEFAULT_255_2_778
10
19.6356137
20
55.4566577
11
19.6352073
21
55.4566578
0
ARC
8
DEFAULT_255_2_778
10
19.6344001
20
54.2091127
40
1.2475453
50
89.9629253
51
122.7691644
0
ARC
8
DEFAULT_255_2_778
10
19.6393275
20
54.2024611
40
1.2558056
50
122.7939392
51
129.8084191
0
ARC
8
DEFAULT_255_2_778
10
19.6340032
20
54.20372
40
1.2468396
50
230.1666931
51
254.0965879
0
ARC
8
DEFAULT_255_2_778
10
19.6352162
20
54.2092017
40
1.2524439
50
254.1119349
51
269.9878634
0
LINE
8
DEFAULT_255_2_778
10
19.6349509
20
52.9567578
11
19.6353573
21
52.9567578
0
ARC
8
DEFAULT_255_2_778
10
19.6361646
20
54.2043028
40
1.2475453
50
269.9629253
51
302.7691644
0
ARC
8
DEFAULT_255_2_778
10
19.6312372
20
54.2109544
40
1.2558056
50
302.7939392
51
309.8084191
0
LINE
8
DEFAULT_255_2_778
10
18.8353323
20
55.1671578
11
18.8353323
21
53.2462578
0
LINE
8
DEFAULT_255_2_778
10
20.4352323
20
53.2462578
11
20.4352323
21
55.1671578
0
ARC
8
DEFAULT_255_2_778
10
19.6365614
20
57.7034266
40
1.2468396
50
285.9034121
51
309.8333069
0
ARC
8
DEFAULT_255_2_778
10
19.6353484
20
57.7089083
40
1.2524439
50
270.0121366
51
285.8880651
0
LINE
8
DEFAULT_255_2_778
10
19.6356137
20
56.4564645
11
19.6352073
21
56.4564644
0
ARC
8
DEFAULT_255_2_778
10
19.6344001
20
57.7040094
40
1.2475453
50
237.2308356
51
270.0370747
0
ARC
8
DEFAULT_255_2_778
10
19.6393275
20
57.7106611
40
1.2558056
50
230.1915809
51
237.2060608
0
ARC
8
DEFAULT_255_2_778
10
19.6340032
20
57.7094022
40
1.2468396
50
105.9034121
51
129.8333069
0
ARC
8
DEFAULT_255_2_778
10
19.6352162
20
57.7039205
40
1.2524439
50
90.0121366
51
105.8880651
0
LINE
8
DEFAULT_255_2_778
10
19.6349509
20
58.9563643
11
19.6353573
21
58.9563644
0
ARC
8
DEFAULT_255_2_778
10
19.6361646
20
57.7088194
40
1.2475453
50
57.2308356
51
90.0370747
0
ARC
8
DEFAULT_255_2_778
10
19.6312372
20
57.7021677
40
1.2558056
50
50.1915809
51
57.2060608
0
LINE
8
DEFAULT_255_2_778
10
18.8353323
20
56.7459644
11
18.8353323
21
58.6668644
0
LINE
8
DEFAULT_255_2_778
10
20.4352323
20
58.6668644
11
20.4352323
21
56.7459644
0
ARC
8
DEFAULT_255_2_778
10
20.1012899
20
40.189151
40
1.0341682
50
1.0396104
51
71.146047
0
ARC
8
DEFAULT_255_2_778
10
20.1062347
20
40.2066314
40
1.0290538
50
359.9999904
51
0.0714426
0
ARC
8
DEFAULT_255_2_778
10
20.1014546
20
40.2239283
40
1.0339786
50
288.9887411
51
359.0414721
0
ARC
8
DEFAULT_255_2_778
10
20.0802016
20
40.2142964
40
1.0320477
50
290.1362893
51
290.2785313
0
ARC
8
DEFAULT_255_2_778
10
20.1012899
20
43.689051
40
1.0341682
50
1.0396104
51
71.146047
0
ARC
8
DEFAULT_255_2_778
10
20.1062347
20
43.7065314
40
1.0290538
50
359.9999904
51
0.0714426
0
ARC
8
DEFAULT_255_2_778
10
20.1014546
20
43.7238283
40
1.0339786
50
288.9887411
51
359.0414721
0
ARC
8
DEFAULT_255_2_778
10
20.0802016
20
43.7141964
40
1.0320477
50
290.1362893
51
290.2785313
0
ARC
8
DEFAULT_255_2_778
10
20.1012899
20
36.688951
40
1.0341682
50
1.0396104
51
71.146047
0
ARC
8
DEFAULT_255_2_778
10
20.1062347
20
36.7064314
40
1.0290538
50
359.9999904
51
0.0714426
0
ARC
8
DEFAULT_255_2_778
10
20.1014546
20
36.7237283
40
1.0339786
50
288.9887411
51
359.0414721
0
ARC
8
DEFAULT_255_2_778
10
20.0802016
20
36.7140964
40
1.0320477
50
290.1362893
51
290.2785313
0
ARC
8
DEFAULT_255_2_778
10
19.1693849
20
33.2240768
40
1.0343885
50
181.1141133
51
251.1386426
0
ARC
8
DEFAULT_255_2_778
10
19.164328
20
33.2065308
40
1.0291393
50
179.9999781
51
180.1428824
0
ARC
8
DEFAULT_255_2_778
10
19.1690068
20
33.1891749
40
1.033964
50
108.9176855
51
179.0381763
0
ARC
8
DEFAULT_255_2_778
10
19.152622
20
33.3008684
40
0.9232238
50
110.1237043
51
110.2032091
0
ARC
8
DEFAULT_255_2_778
10
19.6331903
20
33.2096633
40
1.4980165
50
151.5794485
51
180.1201144
0
ARC
8
DEFAULT_255_2_778
10
19.6314083
20
33.2099486
40
1.4963136
50
98.4345278
51
151.556579
0
ARC
8
DEFAULT_255_2_778
10
19.634528
20
33.182477
40
1.523946
50
89.9793545
51
98.3990533
0
ARC
8
DEFAULT_255_2_778
10
19.6381732
20
33.2085841
40
1.497842
50
61.5777617
51
90.1184315
0
ARC
8
DEFAULT_255_2_778
10
19.6383573
20
33.2100384
40
1.4964755
50
8.4395422
51
61.5574586
0
ARC
8
DEFAULT_255_2_778
10
19.6114386
20
33.2070708
40
1.5235387
50
359.9793954
51
8.4013619
0
ARC
8
DEFAULT_255_2_778
10
19.6371384
20
33.2034268
40
1.497842
50
331.5777617
51
0.1184315
0
ARC
8
DEFAULT_255_2_778
10
19.6385927
20
33.2032427
40
1.4964755
50
278.4395422
51
331.5574586
0
ARC
8
DEFAULT_255_2_778
10
19.635625
20
33.2301614
40
1.5235387
50
269.9793954
51
278.4013619
0
ARC
8
DEFAULT_255_2_778
10
19.6319811
20
33.2044616
40
1.497842
50
241.5777617
51
270.1184315
0
ARC
8
DEFAULT_255_2_778
10
19.631797
20
33.2030073
40
1.4964755
50
188.4395422
51
241.5574586
0
ARC
8
DEFAULT_255_2_778
10
19.6587157
20
33.205975
40
1.5235387
50
179.9793954
51
188.4013619
0
LINE
8
DEFAULT_255_2_778
10
18.1351771
20
33.2065229
11
18.1351771
21
33.2065229
0
ARC
8
DEFAULT_255_2_778
10
19.1693849
20
40.2241768
40
1.0343885
50
181.1141133
51
251.1386426
0
ARC
8
DEFAULT_255_2_778
10
19.164328
20
40.2066308
40
1.0291393
50
179.9999781
51
180.1428824
0
ARC
8
DEFAULT_255_2_778
10
19.1690068
20
40.1892749
40
1.033964
50
108.9176855
51
179.0381763
0
ARC
8
DEFAULT_255_2_778
10
19.152622
20
40.3009684
40
0.9232238
50
110.1237043
51
110.2032091
0
ARC
8
DEFAULT_255_2_778
10
19.6331903
20
40.2097633
40
1.4980165
50
151.5794485
51
180.1201144
0
ARC
8
DEFAULT_255_2_778
10
19.6314083
20
40.2100486
40
1.4963136
50
98.4345278
51
151.556579
0
ARC
8
DEFAULT_255_2_778
10
19.634528
20
40.182577
40
1.523946
50
89.9793545
51
98.3990533
0
ARC
8
DEFAULT_255_2_778
10
19.6381732
20
40.2086841
40
1.497842
50
61.5777617
51
90.1184315
0
ARC
8
DEFAULT_255_2_778
10
19.6383573
20
40.2101384
40
1.4964755
50
8.4395422
51
61.5574586
0
ARC
8
DEFAULT_255_2_778
10
19.6114386
20
40.2071708
40
1.5235387
50
359.9793954
51
8.4013619
0
ARC
8
DEFAULT_255_2_778
10
19.6371384
20
40.2035268
40
1.497842
50
331.5777617
51
0.1184315
0
ARC
8
DEFAULT_255_2_778
10
19.6385927
20
40.2033427
40
1.4964755
50
278.4395422
51
331.5574586
0
ARC
8
DEFAULT_255_2_778
10
19.635625
20
40.2302614
40
1.5235387
50
269.9793954
51
278.4013619
0
ARC
8
DEFAULT_255_2_778
10
19.6319811
20
40.2045616
40
1.497842
50
241.5777617
51
270.1184315
0
ARC
8
DEFAULT_255_2_778
10
19.631797
20
40.2031073
40
1.4964755
50
188.4395422
51
241.5574586
0
ARC
8
DEFAULT_255_2_778
10
19.6587157
20
40.206075
40
1.5235387
50
179.9793954
51
188.4013619
0
LINE
8
DEFAULT_255_2_778
10
18.1351771
20
40.2066229
11
18.1351771
21
40.2066229
0
ARC
8
DEFAULT_255_2_778
10
19.1693849
20
36.7239768
40
1.0343885
50
181.1141133
51
251.1386426
0
ARC
8
DEFAULT_255_2_778
10
19.164328
20
36.7064308
40
1.0291393
50
179.9999781
51
180.1428824
0
ARC
8
DEFAULT_255_2_778
10
19.1690068
20
36.6890749
40
1.033964
50
108.9176855
51
179.0381763
0
ARC
8
DEFAULT_255_2_778
10
19.152622
20
36.8007684
40
0.9232238
50
110.1237043
51
110.2032091
0
ARC
8
DEFAULT_255_2_778
10
19.6331903
20
36.7098633
40
1.4980165
50
151.5794485
51
180.1201144
0
ARC
8
DEFAULT_255_2_778
10
19.6314083
20
36.7101486
40
1.4963136
50
98.4345278
51
151.556579
0
ARC
8
DEFAULT_255_2_778
10
19.634528
20
36.682677
40
1.523946
50
89.9793545
51
98.3990533
0
ARC
8
DEFAULT_255_2_778
10
19.6381732
20
36.7087841
40
1.497842
50
61.5777617
51
90.1184315
0
ARC
8
DEFAULT_255_2_778
10
19.6383573
20
36.7102384
40
1.4964755
50
8.4395422
51
61.5574586
0
ARC
8
DEFAULT_255_2_778
10
19.6114386
20
36.7072708
40
1.5235387
50
359.9793954
51
8.4013619
0
ARC
8
DEFAULT_255_2_778
10
19.6371384
20
36.7036268
40
1.497842
50
331.5777617
51
0.1184315
0
ARC
8
DEFAULT_255_2_778
10
19.6385927
20
36.7034427
40
1.4964755
50
278.4395422
51
331.5574586
0
ARC
8
DEFAULT_255_2_778
10
19.635625
20
36.7303614
40
1.5235387
50
269.9793954
51
278.4013619
0
ARC
8
DEFAULT_255_2_778
10
19.6319811
20
36.7046616
40
1.497842
50
241.5777617
51
270.1184315
0
ARC
8
DEFAULT_255_2_778
10
19.631797
20
36.7032073
40
1.4964755
50
188.4395422
51
241.5574586
0
ARC
8
DEFAULT_255_2_778
10
19.6587157
20
36.706175
40
1.5235387
50
179.9793954
51
188.4013619
0
LINE
8
DEFAULT_255_2_778
10
18.1351771
20
36.7067229
11
18.1351771
21
36.7067229
0
ARC
8
DEFAULT_255_2_778
10
19.6365614
20
33.2097955
40
1.2468396
50
50.1666931
51
74.0965879
0
ARC
8
DEFAULT_255_2_778
10
19.6353484
20
33.2043139
40
1.2524439
50
74.1119349
51
89.9878634
0
LINE
8
DEFAULT_255_2_778
10
19.6356137
20
34.4567577
11
19.6352073
21
34.4567578
0
ARC
8
DEFAULT_255_2_778
10
19.6344001
20
33.2092127
40
1.2475453
50
89.9629253
51
122.7691644
0
ARC
8
DEFAULT_255_2_778
10
19.6393275
20
33.2025611
40
1.2558056
50
122.7939392
51
129.8084191
0
ARC
8
DEFAULT_255_2_778
10
19.6340032
20
33.20382
40
1.2468396
50
230.1666931
51
254.0965879
0
ARC
8
DEFAULT_255_2_778
10
19.6352162
20
33.2093017
40
1.2524439
50
254.1119349
51
269.9878634
0
LINE
8
DEFAULT_255_2_778
10
19.6349509
20
31.9568578
11
19.6353573
21
31.9568578
0
ARC
8
DEFAULT_255_2_778
10
19.6361646
20
33.2044028
40
1.2475453
50
269.9629253
51
302.7691644
0
ARC
8
DEFAULT_255_2_778
10
19.6312372
20
33.2110544
40
1.2558056
50
302.7939392
51
309.8084191
0
LINE
8
DEFAULT_255_2_778
10
18.8353323
20
34.1672578
11
18.8353323
21
32.2463578
0
LINE
8
DEFAULT_255_2_778
10
20.4352323
20
32.2463578
11
20.4352323
21
34.1672578
0
ARC
8
DEFAULT_255_2_778
10
19.6365614
20
40.20332
40
1.2468396
50
285.9034121
51
309.8333069
0
ARC
8
DEFAULT_255_2_778
10
19.6353484
20
40.2088017
40
1.2524439
50
270.0121366
51
285.8880651
0
LINE
8
DEFAULT_255_2_778
10
19.6356137
20
38.9563578
11
19.6352073
21
38.9563578
0
ARC
8
DEFAULT_255_2_778
10
19.6344001
20
40.2039028
40
1.2475453
50
237.2308356
51
270.0370747
0
ARC
8
DEFAULT_255_2_778
10
19.6393275
20
40.2105544
40
1.2558056
50
230.1915809
51
237.2060608
0
ARC
8
DEFAULT_255_2_778
10
19.6340032
20
40.2092955
40
1.2468396
50
105.9034121
51
129.8333069
0
ARC
8
DEFAULT_255_2_778
10
19.6352162
20
40.2038139
40
1.2524439
50
90.0121366
51
105.8880651
0
LINE
8
DEFAULT_255_2_778
10
19.6349509
20
41.4562577
11
19.6353573
21
41.4562578
0
ARC
8
DEFAULT_255_2_778
10
19.6361646
20
40.2087127
40
1.2475453
50
57.2308356
51
90.0370747
0
ARC
8
DEFAULT_255_2_778
10
19.6312372
20
40.2020611
40
1.2558056
50
50.1915809
51
57.2060608
0
LINE
8
DEFAULT_255_2_778
10
18.8353323
20
39.2458578
11
18.8353323
21
41.1667578
0
LINE
8
DEFAULT_255_2_778
10
20.4352323
20
41.1667578
11
20.4352323
21
39.2458578
0
ARC
8
DEFAULT_255_2_778
10
19.6365614
20
36.70342
40
1.2468396
50
285.9034121
51
309.8333069
0
ARC
8
DEFAULT_255_2_778
10
19.6353484
20
36.7089017
40
1.2524439
50
270.0121366
51
285.8880651
0
LINE
8
DEFAULT_255_2_778
10
19.6356137
20
35.4564578
11
19.6352073
21
35.4564578
0
ARC
8
DEFAULT_255_2_778
10
19.6344001
20
36.7040028
40
1.2475453
50
237.2308356
51
270.0370747
0
ARC
8
DEFAULT_255_2_778
10
19.6393275
20
36.7106544
40
1.2558056
50
230.1915809
51
237.2060608
0
ARC
8
DEFAULT_255_2_778
10
19.6340032
20
36.7093955
40
1.2468396
50
105.9034121
51
129.8333069
0
ARC
8
DEFAULT_255_2_778
10
19.6352162
20
36.7039139
40
1.2524439
50
90.0121366
51
105.8880651
0
LINE
8
DEFAULT_255_2_778
10
19.6349509
20
37.9563577
11
19.6353573
21
37.9563578
0
ARC
8
DEFAULT_255_2_778
10
19.6361646
20
36.7088127
40
1.2475453
50
57.2308356
51
90.0370747
0
ARC
8
DEFAULT_255_2_778
10
19.6312372
20
36.7021611
40
1.2558056
50
50.1915809
51
57.2060608
0
LINE
8
DEFAULT_255_2_778
10
18.8353323
20
35.7459578
11
18.8353323
21
37.6668578
0
LINE
8
DEFAULT_255_2_778
10
20.4352323
20
37.6668578
11
20.4352323
21
35.7459578
0
ARC
8
DEFAULT_255_2_778
10
19.1693849
20
29.7241768
40
1.0343885
50
181.1141133
51
251.1386426
0
ARC
8
DEFAULT_255_2_778
10
19.164328
20
29.7066308
40
1.0291393
50
179.9999781
51
180.1428824
0
ARC
8
DEFAULT_255_2_778
10
19.1690068
20
29.6892749
40
1.033964
50
108.9176855
51
179.0381763
0
ARC
8
DEFAULT_255_2_778
10
19.152622
20
29.8009684
40
0.9232238
50
110.1237043
51
110.2032091
0
ARC
8
DEFAULT_255_2_778
10
19.6331903
20
29.7097633
40
1.4980165
50
151.5794485
51
180.1201144
0
ARC
8
DEFAULT_255_2_778
10
19.6314083
20
29.7100486
40
1.4963136
50
98.4345278
51
151.556579
0
ARC
8
DEFAULT_255_2_778
10
19.634528
20
29.682577
40
1.523946
50
89.9793545
51
98.3990533
0
ARC
8
DEFAULT_255_2_778
10
19.6381732
20
29.7086841
40
1.497842
50
61.5777617
51
90.1184315
0
ARC
8
DEFAULT_255_2_778
10
19.6383573
20
29.7101384
40
1.4964755
50
8.4395422
51
61.5574586
0
ARC
8
DEFAULT_255_2_778
10
19.6114386
20
29.7071708
40
1.5235387
50
359.9793954
51
8.4013619
0
ARC
8
DEFAULT_255_2_778
10
19.6371384
20
29.7035268
40
1.497842
50
331.5777617
51
0.1184315
0
ARC
8
DEFAULT_255_2_778
10
19.6385927
20
29.7033427
40
1.4964755
50
278.4395422
51
331.5574586
0
ARC
8
DEFAULT_255_2_778
10
19.635625
20
29.7302614
40
1.5235387
50
269.9793954
51
278.4013619
0
ARC
8
DEFAULT_255_2_778
10
19.6319811
20
29.7045616
40
1.497842
50
241.5777617
51
270.1184315
0
ARC
8
DEFAULT_255_2_778
10
19.631797
20
29.7031073
40
1.4964755
50
188.4395422
51
241.5574586
0
ARC
8
DEFAULT_255_2_778
10
19.6587157
20
29.706075
40
1.5235387
50
179.9793954
51
188.4013619
0
LINE
8
DEFAULT_255_2_778
10
18.1351771
20
29.7066229
11
18.1351771
21
29.7066229
0
ARC
8
DEFAULT_255_2_778
10
19.1693849
20
26.2239768
40
1.0343885
50
181.1141133
51
251.1386426
0
ARC
8
DEFAULT_255_2_778
10
19.164328
20
26.2064308
40
1.0291393
50
179.9999781
51
180.1428824
0
ARC
8
DEFAULT_255_2_778
10
19.1690068
20
26.1890749
40
1.033964
50
108.9176855
51
179.0381763
0
ARC
8
DEFAULT_255_2_778
10
19.152622
20
26.3007684
40
0.9232238
50
110.1237043
51
110.2032091
0
ARC
8
DEFAULT_255_2_778
10
19.6331903
20
26.2098633
40
1.4980165
50
151.5794485
51
180.1201144
0
ARC
8
DEFAULT_255_2_778
10
19.6314083
20
26.2101486
40
1.4963136
50
98.4345278
51
151.556579
0
ARC
8
DEFAULT_255_2_778
10
19.634528
20
26.182677
40
1.523946
50
89.9793545
51
98.3990533
0
ARC
8
DEFAULT_255_2_778
10
19.6381732
20
26.2087841
40
1.497842
50
61.5777617
51
90.1184315
0
ARC
8
DEFAULT_255_2_778
10
19.6383573
20
26.2102384
40
1.4964755
50
8.4395422
51
61.5574586
0
ARC
8
DEFAULT_255_2_778
10
19.6114386
20
26.2072708
40
1.5235387
50
359.9793954
51
8.4013619
0
ARC
8
DEFAULT_255_2_778
10
19.6371384
20
26.2036268
40
1.497842
50
331.5777617
51
0.1184315
0
ARC
8
DEFAULT_255_2_778
10
19.6385927
20
26.2034427
40
1.4964755
50
278.4395422
51
331.5574586
0
ARC
8
DEFAULT_255_2_778
10
19.635625
20
26.2303614
40
1.5235387
50
269.9793954
51
278.4013619
0
ARC
8
DEFAULT_255_2_778
10
19.6319811
20
26.2046616
40
1.497842
50
241.5777617
51
270.1184315
0
ARC
8
DEFAULT_255_2_778
10
19.631797
20
26.2032073
40
1.4964755
50
188.4395422
51
241.5574586
0
ARC
8
DEFAULT_255_2_778
10
19.6587157
20
26.206175
40
1.5235387
50
179.9793954
51
188.4013619
0
LINE
8
DEFAULT_255_2_778
10
18.1351771
20
26.2067229
11
18.1351771
21
26.2067229
0
ARC
8
DEFAULT_255_2_778
10
19.6365614
20
29.7095955
40
1.2468396
50
50.1666931
51
74.0965879
0
ARC
8
DEFAULT_255_2_778
10
19.6353484
20
29.7041139
40
1.2524439
50
74.1119349
51
89.9878634
0
LINE
8
DEFAULT_255_2_778
10
19.6356137
20
30.9565577
11
19.6352073
21
30.9565578
0
ARC
8
DEFAULT_255_2_778
10
19.6344001
20
29.7090127
40
1.2475453
50
89.9629253
51
122.7691644
0
ARC
8
DEFAULT_255_2_778
10
19.6393275
20
29.7023611
40
1.2558056
50
122.7939392
51
129.8084191
0
ARC
8
DEFAULT_255_2_778
10
19.6340032
20
29.70362
40
1.2468396
50
230.1666931
51
254.0965879
0
ARC
8
DEFAULT_255_2_778
10
19.6352162
20
29.7091017
40
1.2524439
50
254.1119349
51
269.9878634
0
LINE
8
DEFAULT_255_2_778
10
19.6349509
20
28.4566578
11
19.6353573
21
28.4566578
0
ARC
8
DEFAULT_255_2_778
10
19.6361646
20
29.7042028
40
1.2475453
50
269.9629253
51
302.7691644
0
ARC
8
DEFAULT_255_2_778
10
19.6312372
20
29.7108544
40
1.2558056
50
302.7939392
51
309.8084191
0
LINE
8
DEFAULT_255_2_778
10
18.8353323
20
30.6670578
11
18.8353323
21
28.7461578
0
LINE
8
DEFAULT_255_2_778
10
20.4352323
20
28.7461578
11
20.4352323
21
30.6670578
0
ARC
8
DEFAULT_255_2_778
10
19.6365614
20
26.20342
40
1.2468396
50
285.9034121
51
309.8333069
0
ARC
8
DEFAULT_255_2_778
10
19.6353484
20
26.2089017
40
1.2524439
50
270.0121366
51
285.8880651
0
LINE
8
DEFAULT_255_2_778
10
19.6356137
20
24.9564578
11
19.6352073
21
24.9564578
0
ARC
8
DEFAULT_255_2_778
10
19.6344001
20
26.2040028
40
1.2475453
50
237.2308356
51
270.0370747
0
ARC
8
DEFAULT_255_2_778
10
19.6393275
20
26.2106544
40
1.2558056
50
230.1915809
51
237.2060608
0
ARC
8
DEFAULT_255_2_778
10
19.6340032
20
26.2093955
40
1.2468396
50
105.9034121
51
129.8333069
0
ARC
8
DEFAULT_255_2_778
10
19.6352162
20
26.2039139
40
1.2524439
50
90.0121366
51
105.8880651
0
LINE
8
DEFAULT_255_2_778
10
19.6349509
20
27.4563577
11
19.6353573
21
27.4563578
0
ARC
8
DEFAULT_255_2_778
10
19.6361646
20
26.2088127
40
1.2475453
50
57.2308356
51
90.0370747
0
ARC
8
DEFAULT_255_2_778
10
19.6312372
20
26.2021611
40
1.2558056
50
50.1915809
51
57.2060608
0
LINE
8
DEFAULT_255_2_778
10
18.8353323
20
25.2459578
11
18.8353323
21
27.1668578
0
LINE
8
DEFAULT_255_2_778
10
20.4352323
20
27.1668578
11
20.4352323
21
25.2459578
0
ARC
8
DEFAULT_255_2_778
10
20.1012899
20
29.689151
40
1.0341682
50
1.0396104
51
71.146047
0
ARC
8
DEFAULT_255_2_778
10
20.1062347
20
29.7066314
40
1.0290538
50
359.9999904
51
0.0714426
0
ARC
8
DEFAULT_255_2_778
10
20.1014546
20
29.7239283
40
1.0339786
50
288.9887411
51
359.0414721
0
ARC
8
DEFAULT_255_2_778
10
20.0802016
20
29.7142964
40
1.0320477
50
290.1362893
51
290.2785313
0
ARC
8
DEFAULT_255_2_778
10
20.1012899
20
33.189051
40
1.0341682
50
1.0396104
51
71.146047
0
ARC
8
DEFAULT_255_2_778
10
20.1062347
20
33.2065314
40
1.0290538
50
359.9999904
51
0.0714426
0
ARC
8
DEFAULT_255_2_778
10
20.1014546
20
33.2238283
40
1.0339786
50
288.9887411
51
359.0414721
0
ARC
8
DEFAULT_255_2_778
10
20.0802016
20
33.2141964
40
1.0320477
50
290.1362893
51
290.2785313
0
ARC
8
DEFAULT_255_2_778
10
23.7014899
20
29.689151
40
1.0341682
50
1.0396104
51
71.146047
0
ARC
8
DEFAULT_255_2_778
10
23.7064347
20
29.7066314
40
1.0290538
50
359.9999904
51
0.0714426
0
ARC
8
DEFAULT_255_2_778
10
23.7016546
20
29.7239283
40
1.0339786
50
288.9887411
51
359.0414721
0
ARC
8
DEFAULT_255_2_778
10
23.6804016
20
29.7142964
40
1.0320477
50
290.1362893
51
290.2785313
0
ARC
8
DEFAULT_255_2_778
10
23.7014899
20
22.689051
40
1.0341682
50
1.0396104
51
71.146047
0
ARC
8
DEFAULT_255_2_778
10
23.7064347
20
22.7065314
40
1.0290538
50
359.9999904
51
0.0714426
0
ARC
8
DEFAULT_255_2_778
10
23.7016546
20
22.7238283
40
1.0339786
50
288.9887411
51
359.0414721
0
ARC
8
DEFAULT_255_2_778
10
23.6804016
20
22.7141964
40
1.0320477
50
290.1362893
51
290.2785313
0
ARC
8
DEFAULT_255_2_778
10
23.7014899
20
26.188951
40
1.0341682
50
1.0396104
51
71.146047
0
ARC
8
DEFAULT_255_2_778
10
23.7064347
20
26.2064314
40
1.0290538
50
359.9999904
51
0.0714426
0
ARC
8
DEFAULT_255_2_778
10
23.7016546
20
26.2237283
40
1.0339786
50
288.9887411
51
359.0414721
0
ARC
8
DEFAULT_255_2_778
10
23.6804016
20
26.2140964
40
1.0320477
50
290.1362893
51
290.2785313
0
ARC
8
DEFAULT_255_2_778
10
22.7695849
20
29.7241768
40
1.0343885
50
181.1141133
51
251.1386426
0
ARC
8
DEFAULT_255_2_778
10
22.764528
20
29.7066308
40
1.0291393
50
179.9999781
51
180.1428824
0
ARC
8
DEFAULT_255_2_778
10
22.7692068
20
29.6892749
40
1.033964
50
108.9176855
51
179.0381763
0
ARC
8
DEFAULT_255_2_778
10
22.752822
20
29.8009684
40
0.9232238
50
110.1237043
51
110.2032091
0
ARC
8
DEFAULT_255_2_778
10
23.2333903
20
29.7097633
40
1.4980165
50
151.5794485
51
180.1201144
0
ARC
8
DEFAULT_255_2_778
10
23.2316083
20
29.7100486
40
1.4963136
50
98.4345278
51
151.556579
0
ARC
8
DEFAULT_255_2_778
10
23.234728
20
29.682577
40
1.523946
50
89.9793545
51
98.3990533
0
ARC
8
DEFAULT_255_2_778
10
23.2383732
20
29.7086841
40
1.497842
50
61.5777617
51
90.1184315
0
ARC
8
DEFAULT_255_2_778
10
23.2385573
20
29.7101384
40
1.4964755
50
8.4395422
51
61.5574586
0
ARC
8
DEFAULT_255_2_778
10
23.2116386
20
29.7071708
40
1.5235387
50
359.9793954
51
8.4013619
0
ARC
8
DEFAULT_255_2_778
10
23.2373384
20
29.7035268
40
1.497842
50
331.5777617
51
0.1184315
0
ARC
8
DEFAULT_255_2_778
10
23.2387927
20
29.7033427
40
1.4964755
50
278.4395422
51
331.5574586
0
ARC
8
DEFAULT_255_2_778
10
23.235825
20
29.7302614
40
1.5235387
50
269.9793954
51
278.4013619
0
ARC
8
DEFAULT_255_2_778
10
23.2321811
20
29.7045616
40
1.497842
50
241.5777617
51
270.1184315
0
ARC
8
DEFAULT_255_2_778
10
23.231997
20
29.7031073
40
1.4964755
50
188.4395422
51
241.5574586
0
ARC
8
DEFAULT_255_2_778
10
23.2589157
20
29.706075
40
1.5235387
50
179.9793954
51
188.4013619
0
LINE
8
DEFAULT_255_2_778
10
21.7353771
20
29.7066229
11
21.7353771
21
29.7066229
0
ARC
8
DEFAULT_255_2_778
10
22.7695849
20
33.2240768
40
1.0343885
50
181.1141133
51
251.1386426
0
ARC
8
DEFAULT_255_2_778
10
22.764528
20
33.2065308
40
1.0291393
50
179.9999781
51
180.1428824
0
ARC
8
DEFAULT_255_2_778
10
22.7692068
20
33.1891749
40
1.033964
50
108.9176855
51
179.0381763
0
ARC
8
DEFAULT_255_2_778
10
22.752822
20
33.3008684
40
0.9232238
50
110.1237043
51
110.2032091
0
ARC
8
DEFAULT_255_2_778
10
23.2333903
20
33.2096633
40
1.4980165
50
151.5794485
51
180.1201144
0
ARC
8
DEFAULT_255_2_778
10
23.2316083
20
33.2099486
40
1.4963136
50
98.4345278
51
151.556579
0
ARC
8
DEFAULT_255_2_778
10
23.234728
20
33.182477
40
1.523946
50
89.9793545
51
98.3990533
0
ARC
8
DEFAULT_255_2_778
10
23.2383732
20
33.2085841
40
1.497842
50
61.5777617
51
90.1184315
0
ARC
8
DEFAULT_255_2_778
10
23.2385573
20
33.2100384
40
1.4964755
50
8.4395422
51
61.5574586
0
ARC
8
DEFAULT_255_2_778
10
23.2116386
20
33.2070708
40
1.5235387
50
359.9793954
51
8.4013619
0
ARC
8
DEFAULT_255_2_778
10
23.2373384
20
33.2034268
40
1.497842
50
331.5777617
51
0.1184315
0
ARC
8
DEFAULT_255_2_778
10
23.2387927
20
33.2032427
40
1.4964755
50
278.4395422
51
331.5574586
0
ARC
8
DEFAULT_255_2_778
10
23.235825
20
33.2301614
40
1.5235387
50
269.9793954
51
278.4013619
0
ARC
8
DEFAULT_255_2_778
10
23.2321811
20
33.2044616
40
1.497842
50
241.5777617
51
270.1184315
0
ARC
8
DEFAULT_255_2_778
10
23.231997
20
33.2030073
40
1.4964755
50
188.4395422
51
241.5574586
0
ARC
8
DEFAULT_255_2_778
10
23.2589157
20
33.205975
40
1.5235387
50
179.9793954
51
188.4013619
0
LINE
8
DEFAULT_255_2_778
10
21.7353771
20
33.2065229
11
21.7353771
21
33.2065229
0
ARC
8
DEFAULT_255_2_778
10
22.7695849
20
26.2239768
40
1.0343885
50
181.1141133
51
251.1386426
0
ARC
8
DEFAULT_255_2_778
10
22.764528
20
26.2064308
40
1.0291393
50
179.9999781
51
180.1428824
0
ARC
8
DEFAULT_255_2_778
10
22.7692068
20
26.1890749
40
1.033964
50
108.9176855
51
179.0381763
0
ARC
8
DEFAULT_255_2_778
10
22.752822
20
26.3007684
40
0.9232238
50
110.1237043
51
110.2032091
0
ARC
8
DEFAULT_255_2_778
10
23.2333903
20
26.2098633
40
1.4980165
50
151.5794485
51
180.1201144
0
ARC
8
DEFAULT_255_2_778
10
23.2316083
20
26.2101486
40
1.4963136
50
98.4345278
51
151.556579
0
ARC
8
DEFAULT_255_2_778
10
23.234728
20
26.182677
40
1.523946
50
89.9793545
51
98.3990533
0
ARC
8
DEFAULT_255_2_778
10
23.2383732
20
26.2087841
40
1.497842
50
61.5777617
51
90.1184315
0
ARC
8
DEFAULT_255_2_778
10
23.2385573
20
26.2102384
40
1.4964755
50
8.4395422
51
61.5574586
0
ARC
8
DEFAULT_255_2_778
10
23.2116386
20
26.2072708
40
1.5235387
50
359.9793954
51
8.4013619
0
ARC
8
DEFAULT_255_2_778
10
23.2373384
20
26.2036268
40
1.497842
50
331.5777617
51
0.1184315
0
ARC
8
DEFAULT_255_2_778
10
23.2387927
20
26.2034427
40
1.4964755
50
278.4395422
51
331.5574586
0
ARC
8
DEFAULT_255_2_778
10
23.235825
20
26.2303614
40
1.5235387
50
269.9793954
51
278.4013619
0
ARC
8
DEFAULT_255_2_778
10
23.2321811
20
26.2046616
40
1.497842
50
241.5777617
51
270.1184315
0
ARC
8
DEFAULT_255_2_778
10
23.231997
20
26.2032073
40
1.4964755
50
188.4395422
51
241.5574586
0
ARC
8
DEFAULT_255_2_778
10
23.2589157
20
26.206175
40
1.5235387
50
179.9793954
51
188.4013619
0
LINE
8
DEFAULT_255_2_778
10
21.7353771
20
26.2067229
11
21.7353771
21
26.2067229
0
ARC
8
DEFAULT_255_2_778
10
23.2364614
20
33.2097955
40
1.2468396
50
50.1666931
51
74.0965879
0
ARC
8
DEFAULT_255_2_778
10
23.2352484
20
33.2043139
40
1.2524439
50
74.1119349
51
89.9878634
0
LINE
8
DEFAULT_255_2_778
10
23.2355137
20
34.4567577
11
23.2351073
21
34.4567578
0
ARC
8
DEFAULT_255_2_778
10
23.2343001
20
33.2092127
40
1.2475453
50
89.9629253
51
122.7691644
0
ARC
8
DEFAULT_255_2_778
10
23.2392275
20
33.2025611
40
1.2558056
50
122.7939392
51
129.8084191
0
ARC
8
DEFAULT_255_2_778
10
23.2339032
20
33.20382
40
1.2468396
50
230.1666931
51
254.0965879
0
ARC
8
DEFAULT_255_2_778
10
23.2351162
20
33.2093017
40
1.2524439
50
254.1119349
51
269.9878634
0
LINE
8
DEFAULT_255_2_778
10
23.2348509
20
31.9568578
11
23.2352573
21
31.9568578
0
ARC
8
DEFAULT_255_2_778
10
23.2360646
20
33.2044028
40
1.2475453
50
269.9629253
51
302.7691644
0
ARC
8
DEFAULT_255_2_778
10
23.2311372
20
33.2110544
40
1.2558056
50
302.7939392
51
309.8084191
0
LINE
8
DEFAULT_255_2_778
10
22.4352323
20
34.1672578
11
22.4352323
21
32.2463578
0
LINE
8
DEFAULT_255_2_778
10
24.0351323
20
32.2463578
11
24.0351323
21
34.1672578
0
ARC
8
DEFAULT_255_2_778
10
23.2364614
20
26.2096955
40
1.2468396
50
50.1666931
51
74.0965879
0
ARC
8
DEFAULT_255_2_778
10
23.2352484
20
26.2042139
40
1.2524439
50
74.1119349
51
89.9878634
0
LINE
8
DEFAULT_255_2_778
10
23.2355137
20
27.4566577
11
23.2351073
21
27.4566578
0
ARC
8
DEFAULT_255_2_778
10
23.2343001
20
26.2091127
40
1.2475453
50
89.9629253
51
122.7691644
0
ARC
8
DEFAULT_255_2_778
10
23.2392275
20
26.2024611
40
1.2558056
50
122.7939392
51
129.8084191
0
ARC
8
DEFAULT_255_2_778
10
23.2339032
20
26.20372
40
1.2468396
50
230.1666931
51
254.0965879
0
ARC
8
DEFAULT_255_2_778
10
23.2351162
20
26.2092017
40
1.2524439
50
254.1119349
51
269.9878634
0
LINE
8
DEFAULT_255_2_778
10
23.2348509
20
24.9567578
11
23.2352573
21
24.9567578
0
ARC
8
DEFAULT_255_2_778
10
23.2360646
20
26.2043028
40
1.2475453
50
269.9629253
51
302.7691644
0
ARC
8
DEFAULT_255_2_778
10
23.2311372
20
26.2109544
40
1.2558056
50
302.7939392
51
309.8084191
0
LINE
8
DEFAULT_255_2_778
10
22.4352323
20
27.1671578
11
22.4352323
21
25.2462578
0
LINE
8
DEFAULT_255_2_778
10
24.0351323
20
25.2462578
11
24.0351323
21
27.1671578
0
ARC
8
DEFAULT_255_2_778
10
23.2364614
20
29.70332
40
1.2468396
50
285.9034121
51
309.8333069
0
ARC
8
DEFAULT_255_2_778
10
23.2352484
20
29.7088017
40
1.2524439
50
270.0121366
51
285.8880651
0
LINE
8
DEFAULT_255_2_778
10
23.2355137
20
28.4563578
11
23.2351073
21
28.4563578
0
ARC
8
DEFAULT_255_2_778
10
23.2343001
20
29.7039028
40
1.2475453
50
237.2308356
51
270.0370747
0
ARC
8
DEFAULT_255_2_778
10
23.2392275
20
29.7105544
40
1.2558056
50
230.1915809
51
237.2060608
0
ARC
8
DEFAULT_255_2_778
10
23.2339032
20
29.7092955
40
1.2468396
50
105.9034121
51
129.8333069
0
ARC
8
DEFAULT_255_2_778
10
23.2351162
20
29.7038139
40
1.2524439
50
90.0121366
51
105.8880651
0
LINE
8
DEFAULT_255_2_778
10
23.2348509
20
30.9562577
11
23.2352573
21
30.9562578
0
ARC
8
DEFAULT_255_2_778
10
23.2360646
20
29.7087127
40
1.2475453
50
57.2308356
51
90.0370747
0
ARC
8
DEFAULT_255_2_778
10
23.2311372
20
29.7020611
40
1.2558056
50
50.1915809
51
57.2060608
0
LINE
8
DEFAULT_255_2_778
10
22.4352323
20
28.7458578
11
22.4352323
21
30.6667578
0
LINE
8
DEFAULT_255_2_778
10
24.0351323
20
30.6667578
11
24.0351323
21
28.7458578
0
ARC
8
DEFAULT_255_2_778
10
20.1012899
20
68.188951
40
1.0341682
50
1.0396104
51
71.146047
0
ARC
8
DEFAULT_255_2_778
10
20.1062347
20
68.2064314
40
1.0290538
50
359.9999904
51
0.0714426
0
ARC
8
DEFAULT_255_2_778
10
20.1014546
20
68.2237283
40
1.0339786
50
288.9887411
51
359.0414721
0
ARC
8
DEFAULT_255_2_778
10
20.0802016
20
68.2140964
40
1.0320477
50
290.1362893
51
290.2785313
0
ARC
8
DEFAULT_255_2_778
10
22.7695849
20
68.2239768
40
1.0343885
50
181.1141133
51
251.1386426
0
ARC
8
DEFAULT_255_2_778
10
22.764528
20
68.2064308
40
1.0291393
50
179.9999781
51
180.1428824
0
ARC
8
DEFAULT_255_2_778
10
22.7692068
20
68.1890749
40
1.033964
50
108.9176855
51
179.0381763
0
ARC
8
DEFAULT_255_2_778
10
22.752822
20
68.3007684
40
0.9232238
50
110.1237043
51
110.2032091
0
ARC
8
DEFAULT_255_2_778
10
23.2333903
20
68.2097633
40
1.4980165
50
151.5794485
51
180.1201144
0
ARC
8
DEFAULT_255_2_778
10
23.2316083
20
68.2100486
40
1.4963136
50
98.4345278
51
151.556579
0
ARC
8
DEFAULT_255_2_778
10
23.234728
20
68.182577
40
1.523946
50
89.9793545
51
98.3990533
0
ARC
8
DEFAULT_255_2_778
10
23.2383732
20
68.2086841
40
1.497842
50
61.5777617
51
90.1184315
0
ARC
8
DEFAULT_255_2_778
10
23.2385573
20
68.2101384
40
1.4964755
50
8.4395422
51
61.5574586
0
ARC
8
DEFAULT_255_2_778
10
23.2116386
20
68.2071708
40
1.5235387
50
359.9793954
51
8.4013619
0
ARC
8
DEFAULT_255_2_778
10
23.2373384
20
68.2035268
40
1.497842
50
331.5777617
51
0.1184315
0
ARC
8
DEFAULT_255_2_778
10
23.2387927
20
68.2033427
40
1.4964755
50
278.4395422
51
331.5574586
0
ARC
8
DEFAULT_255_2_778
10
23.235825
20
68.2302614
40
1.5235387
50
269.9793954
51
278.4013619
0
ARC
8
DEFAULT_255_2_778
10
23.2321811
20
68.2045616
40
1.497842
50
241.5777617
51
270.1184315
0
ARC
8
DEFAULT_255_2_778
10
23.231997
20
68.2031073
40
1.4964755
50
188.4395422
51
241.5574586
0
ARC
8
DEFAULT_255_2_778
10
23.2589157
20
68.206075
40
1.5235387
50
179.9793954
51
188.4013619
0
LINE
8
DEFAULT_255_2_778
10
21.7353771
20
68.2066229
11
21.7353771
21
68.2066229
0
ARC
8
DEFAULT_255_2_778
10
22.7695849
20
64.7240768
40
1.0343885
50
181.1141133
51
251.1386426
0
ARC
8
DEFAULT_255_2_778
10
22.764528
20
64.7065308
40
1.0291393
50
179.9999781
51
180.1428824
0
ARC
8
DEFAULT_255_2_778
10
22.7692068
20
64.6891749
40
1.033964
50
108.9176855
51
179.0381763
0
ARC
8
DEFAULT_255_2_778
10
22.752822
20
64.8008684
40
0.9232238
50
110.1237043
51
110.2032091
0
ARC
8
DEFAULT_255_2_778
10
23.2333903
20
64.7098633
40
1.4980165
50
151.5794485
51
180.1201144
0
ARC
8
DEFAULT_255_2_778
10
23.2316083
20
64.7101486
40
1.4963136
50
98.4345278
51
151.556579
0
ARC
8
DEFAULT_255_2_778
10
23.234728
20
64.682677
40
1.523946
50
89.9793545
51
98.3990533
0
ARC
8
DEFAULT_255_2_778
10
23.2383732
20
64.7087841
40
1.497842
50
61.5777617
51
90.1184315
0
ARC
8
DEFAULT_255_2_778
10
23.2385573
20
64.7102384
40
1.4964755
50
8.4395422
51
61.5574586
0
ARC
8
DEFAULT_255_2_778
10
23.2116386
20
64.7072708
40
1.5235387
50
359.9793954
51
8.4013619
0
ARC
8
DEFAULT_255_2_778
10
23.2373384
20
64.7036268
40
1.497842
50
331.5777617
51
0.1184315
0
ARC
8
DEFAULT_255_2_778
10
23.2387927
20
64.7034427
40
1.4964755
50
278.4395422
51
331.5574586
0
ARC
8
DEFAULT_255_2_778
10
23.235825
20
64.7303614
40
1.5235387
50
269.9793954
51
278.4013619
0
ARC
8
DEFAULT_255_2_778
10
23.2321811
20
64.7046616
40
1.497842
50
241.5777617
51
270.1184315
0
ARC
8
DEFAULT_255_2_778
10
23.231997
20
64.7032073
40
1.4964755
50
188.4395422
51
241.5574586
0
ARC
8
DEFAULT_255_2_778
10
23.2589157
20
64.706175
40
1.5235387
50
179.9793954
51
188.4013619
0
LINE
8
DEFAULT_255_2_778
10
21.7353771
20
64.7067229
11
21.7353771
21
64.7067229
0
ARC
8
DEFAULT_255_2_778
10
23.2364614
20
68.2095955
40
1.2468396
50
50.1666931
51
74.0965879
0
ARC
8
DEFAULT_255_2_778
10
23.2352484
20
68.2041139
40
1.2524439
50
74.1119349
51
89.9878634
0
LINE
8
DEFAULT_255_2_778
10
23.2355137
20
69.4565577
11
23.2351073
21
69.4565578
0
ARC
8
DEFAULT_255_2_778
10
23.2343001
20
68.2090127
40
1.2475453
50
89.9629253
51
122.7691644
0
ARC
8
DEFAULT_255_2_778
10
23.2392275
20
68.2023611
40
1.2558056
50
122.7939392
51
129.8084191
0
ARC
8
DEFAULT_255_2_778
10
23.2339032
20
68.20362
40
1.2468396
50
230.1666931
51
254.0965879
0
ARC
8
DEFAULT_255_2_778
10
23.2351162
20
68.2091017
40
1.2524439
50
254.1119349
51
269.9878634
0
LINE
8
DEFAULT_255_2_778
10
23.2348509
20
66.9566578
11
23.2352573
21
66.9566578
0
ARC
8
DEFAULT_255_2_778
10
23.2360646
20
68.2042028
40
1.2475453
50
269.9629253
51
302.7691644
0
ARC
8
DEFAULT_255_2_778
10
23.2311372
20
68.2108544
40
1.2558056
50
302.7939392
51
309.8084191
0
LINE
8
DEFAULT_255_2_778
10
22.4352323
20
69.1670578
11
22.4352323
21
67.2461578
0
LINE
8
DEFAULT_255_2_778
10
24.0351323
20
67.2461578
11
24.0351323
21
69.1670578
0
ARC
8
DEFAULT_255_2_778
10
23.2364614
20
64.7096955
40
1.2468396
50
50.1666931
51
74.0965879
0
ARC
8
DEFAULT_255_2_778
10
23.2352484
20
64.7042139
40
1.2524439
50
74.1119349
51
89.9878634
0
LINE
8
DEFAULT_255_2_778
10
23.2355137
20
65.9566577
11
23.2351073
21
65.9566578
0
ARC
8
DEFAULT_255_2_778
10
23.2343001
20
64.7091127
40
1.2475453
50
89.9629253
51
122.7691644
0
ARC
8
DEFAULT_255_2_778
10
23.2392275
20
64.7024611
40
1.2558056
50
122.7939392
51
129.8084191
0
ARC
8
DEFAULT_255_2_778
10
23.2339032
20
64.70372
40
1.2468396
50
230.1666931
51
254.0965879
0
ARC
8
DEFAULT_255_2_778
10
23.2351162
20
64.7092017
40
1.2524439
50
254.1119349
51
269.9878634
0
LINE
8
DEFAULT_255_2_778
10
23.2348509
20
63.4567578
11
23.2352573
21
63.4567578
0
ARC
8
DEFAULT_255_2_778
10
23.2360646
20
64.7043028
40
1.2475453
50
269.9629253
51
302.7691644
0
ARC
8
DEFAULT_255_2_778
10
23.2311372
20
64.7109544
40
1.2558056
50
302.7939392
51
309.8084191
0
LINE
8
DEFAULT_255_2_778
10
22.4352323
20
65.6671578
11
22.4352323
21
63.7462578
0
LINE
8
DEFAULT_255_2_778
10
24.0351323
20
63.7462578
11
24.0351323
21
65.6671578
0
ARC
8
DEFAULT_255_2_778
10
19.1693849
20
68.2239768
40
1.0343885
50
181.1141133
51
251.1386426
0
ARC
8
DEFAULT_255_2_778
10
19.164328
20
68.2064308
40
1.0291393
50
179.9999781
51
180.1428824
0
ARC
8
DEFAULT_255_2_778
10
19.1690068
20
68.1890749
40
1.033964
50
108.9176855
51
179.0381763
0
ARC
8
DEFAULT_255_2_778
10
19.152622
20
68.3007684
40
0.9232238
50
110.1237043
51
110.2032091
0
ARC
8
DEFAULT_255_2_778
10
19.6331903
20
68.2097633
40
1.4980165
50
151.5794485
51
180.1201144
0
ARC
8
DEFAULT_255_2_778
10
19.6314083
20
68.2100486
40
1.4963136
50
98.4345278
51
151.556579
0
ARC
8
DEFAULT_255_2_778
10
19.634528
20
68.182577
40
1.523946
50
89.9793545
51
98.3990533
0
ARC
8
DEFAULT_255_2_778
10
19.6381732
20
68.2086841
40
1.497842
50
61.5777617
51
90.1184315
0
ARC
8
DEFAULT_255_2_778
10
19.6383573
20
68.2101384
40
1.4964755
50
8.4395422
51
61.5574586
0
ARC
8
DEFAULT_255_2_778
10
19.6114386
20
68.2071708
40
1.5235387
50
359.9793954
51
8.4013619
0
ARC
8
DEFAULT_255_2_778
10
19.6371384
20
68.2035268
40
1.497842
50
331.5777617
51
0.1184315
0
ARC
8
DEFAULT_255_2_778
10
19.6385927
20
68.2033427
40
1.4964755
50
278.4395422
51
331.5574586
0
ARC
8
DEFAULT_255_2_778
10
19.635625
20
68.2302614
40
1.5235387
50
269.9793954
51
278.4013619
0
ARC
8
DEFAULT_255_2_778
10
19.6319811
20
68.2045616
40
1.497842
50
241.5777617
51
270.1184315
0
ARC
8
DEFAULT_255_2_778
10
19.631797
20
68.2031073
40
1.4964755
50
188.4395422
51
241.5574586
0
ARC
8
DEFAULT_255_2_778
10
19.6587157
20
68.206075
40
1.5235387
50
179.9793954
51
188.4013619
0
LINE
8
DEFAULT_255_2_778
10
18.1351771
20
68.2066229
11
18.1351771
21
68.2066229
0
ARC
8
DEFAULT_255_2_778
10
19.1693849
20
64.7240768
40
1.0343885
50
181.1141133
51
251.1386426
0
ARC
8
DEFAULT_255_2_778
10
19.164328
20
64.7065308
40
1.0291393
50
179.9999781
51
180.1428824
0
ARC
8
DEFAULT_255_2_778
10
19.1690068
20
64.6891749
40
1.033964
50
108.9176855
51
179.0381763
0
ARC
8
DEFAULT_255_2_778
10
19.152622
20
64.8008684
40
0.9232238
50
110.1237043
51
110.2032091
0
ARC
8
DEFAULT_255_2_778
10
19.6331903
20
64.7098633
40
1.4980165
50
151.5794485
51
180.1201144
0
ARC
8
DEFAULT_255_2_778
10
19.6314083
20
64.7101486
40
1.4963136
50
98.4345278
51
151.556579
0
ARC
8
DEFAULT_255_2_778
10
19.634528
20
64.682677
40
1.523946
50
89.9793545
51
98.3990533
0
ARC
8
DEFAULT_255_2_778
10
19.6381732
20
64.7087841
40
1.497842
50
61.5777617
51
90.1184315
0
ARC
8
DEFAULT_255_2_778
10
19.6383573
20
64.7102384
40
1.4964755
50
8.4395422
51
61.5574586
0
ARC
8
DEFAULT_255_2_778
10
19.6114386
20
64.7072708
40
1.5235387
50
359.9793954
51
8.4013619
0
ARC
8
DEFAULT_255_2_778
10
19.6371384
20
64.7036268
40
1.497842
50
331.5777617
51
0.1184315
0
ARC
8
DEFAULT_255_2_778
10
19.6385927
20
64.7034427
40
1.4964755
50
278.4395422
51
331.5574586
0
ARC
8
DEFAULT_255_2_778
10
19.635625
20
64.7303614
40
1.5235387
50
269.9793954
51
278.4013619
0
ARC
8
DEFAULT_255_2_778
10
19.6319811
20
64.7046616
40
1.497842
50
241.5777617
51
270.1184315
0
ARC
8
DEFAULT_255_2_778
10
19.631797
20
64.7032073
40
1.4964755
50
188.4395422
51
241.5574586
0
ARC
8
DEFAULT_255_2_778
10
19.6587157
20
64.706175
40
1.5235387
50
179.9793954
51
188.4013619
0
LINE
8
DEFAULT_255_2_778
10
18.1351771
20
64.7067229
11
18.1351771
21
64.7067229
0
ARC
8
DEFAULT_255_2_778
10
19.6365614
20
61.2096022
40
1.2468396
50
50.1666931
51
74.0965879
0
ARC
8
DEFAULT_255_2_778
10
19.6353484
20
61.2041205
40
1.2524439
50
74.1119349
51
89.9878634
0
LINE
8
DEFAULT_255_2_778
10
19.6356137
20
62.4565643
11
19.6352073
21
62.4565644
0
ARC
8
DEFAULT_255_2_778
10
19.6344001
20
61.2090194
40
1.2475453
50
89.9629253
51
122.7691644
0
ARC
8
DEFAULT_255_2_778
10
19.6393275
20
61.2023677
40
1.2558056
50
122.7939392
51
129.8084191
0
ARC
8
DEFAULT_255_2_778
10
19.6340032
20
61.2036266
40
1.2468396
50
230.1666931
51
254.0965879
0
ARC
8
DEFAULT_255_2_778
10
19.6352162
20
61.2091083
40
1.2524439
50
254.1119349
51
269.9878634
0
LINE
8
DEFAULT_255_2_778
10
19.6349509
20
59.9566645
11
19.6353573
21
59.9566644
0
ARC
8
DEFAULT_255_2_778
10
19.6361646
20
61.2042094
40
1.2475453
50
269.9629253
51
302.7691644
0
ARC
8
DEFAULT_255_2_778
10
19.6312372
20
61.2108611
40
1.2558056
50
302.7939392
51
309.8084191
0
LINE
8
DEFAULT_255_2_778
10
18.8353323
20
62.1670644
11
18.8353323
21
60.2461644
0
LINE
8
DEFAULT_255_2_778
10
20.4352323
20
60.2461644
11
20.4352323
21
62.1670644
0
ARC
8
DEFAULT_255_2_778
10
19.6365614
20
68.20342
40
1.2468396
50
285.9034121
51
309.8333069
0
ARC
8
DEFAULT_255_2_778
10
19.6353484
20
68.2089017
40
1.2524439
50
270.0121366
51
285.8880651
0
LINE
8
DEFAULT_255_2_778
10
19.6356137
20
66.9564578
11
19.6352073
21
66.9564578
0
ARC
8
DEFAULT_255_2_778
10
19.6344001
20
68.2040028
40
1.2475453
50
237.2308356
51
270.0370747
0
ARC
8
DEFAULT_255_2_778
10
19.6393275
20
68.2106544
40
1.2558056
50
230.1915809
51
237.2060608
0
ARC
8
DEFAULT_255_2_778
10
19.6340032
20
68.2093955
40
1.2468396
50
105.9034121
51
129.8333069
0
ARC
8
DEFAULT_255_2_778
10
19.6352162
20
68.2039139
40
1.2524439
50
90.0121366
51
105.8880651
0
LINE
8
DEFAULT_255_2_778
10
19.6349509
20
69.4563577
11
19.6353573
21
69.4563578
0
ARC
8
DEFAULT_255_2_778
10
19.6361646
20
68.2088127
40
1.2475453
50
57.2308356
51
90.0370747
0
ARC
8
DEFAULT_255_2_778
10
19.6312372
20
68.2021611
40
1.2558056
50
50.1915809
51
57.2060608
0
LINE
8
DEFAULT_255_2_778
10
18.8353323
20
67.2459578
11
18.8353323
21
69.1668578
0
LINE
8
DEFAULT_255_2_778
10
20.4352323
20
69.1668578
11
20.4352323
21
67.2459578
0
ARC
8
DEFAULT_255_2_778
10
19.6365614
20
64.70352
40
1.2468396
50
285.9034121
51
309.8333069
0
ARC
8
DEFAULT_255_2_778
10
19.6353484
20
64.7090017
40
1.2524439
50
270.0121366
51
285.8880651
0
LINE
8
DEFAULT_255_2_778
10
19.6356137
20
63.4565578
11
19.6352073
21
63.4565578
0
ARC
8
DEFAULT_255_2_778
10
19.6344001
20
64.7041028
40
1.2475453
50
237.2308356
51
270.0370747
0
ARC
8
DEFAULT_255_2_778
10
19.6393275
20
64.7107544
40
1.2558056
50
230.1915809
51
237.2060608
0
ARC
8
DEFAULT_255_2_778
10
19.6340032
20
64.7094955
40
1.2468396
50
105.9034121
51
129.8333069
0
ARC
8
DEFAULT_255_2_778
10
19.6352162
20
64.7040139
40
1.2524439
50
90.0121366
51
105.8880651
0
LINE
8
DEFAULT_255_2_778
10
19.6349509
20
65.9564577
11
19.6353573
21
65.9564578
0
ARC
8
DEFAULT_255_2_778
10
19.6361646
20
64.7089127
40
1.2475453
50
57.2308356
51
90.0370747
0
ARC
8
DEFAULT_255_2_778
10
19.6312372
20
64.7022611
40
1.2558056
50
50.1915809
51
57.2060608
0
LINE
8
DEFAULT_255_2_778
10
18.8353323
20
63.7460578
11
18.8353323
21
65.6669578
0
LINE
8
DEFAULT_255_2_778
10
20.4352323
20
65.6669578
11
20.4352323
21
63.7460578
0
ARC
8
DEFAULT_255_2_778
10
23.7014899
20
57.6889642
40
1.0341682
50
1.0396104
51
71.146047
0
ARC
8
DEFAULT_255_2_778
10
23.7064347
20
57.7064446
40
1.0290538
50
359.9999904
51
0.0714426
0
ARC
8
DEFAULT_255_2_778
10
23.7016546
20
57.7237416
40
1.0339786
50
288.9887411
51
359.0414721
0
ARC
8
DEFAULT_255_2_778
10
23.6804016
20
57.7141096
40
1.0320477
50
290.1362893
51
290.2785313
0
ARC
8
DEFAULT_255_2_778
10
23.7014899
20
61.1891642
40
1.0341682
50
1.0396104
51
71.146047
0
ARC
8
DEFAULT_255_2_778
10
23.7064347
20
61.2066446
40
1.0290538
50
359.9999904
51
0.0714426
0
ARC
8
DEFAULT_255_2_778
10
23.7016546
20
61.2239416
40
1.0339786
50
288.9887411
51
359.0414721
0
ARC
8
DEFAULT_255_2_778
10
23.6804016
20
61.2143096
40
1.0320477
50
290.1362893
51
290.2785313
0
ARC
8
DEFAULT_255_2_778
10
22.7695849
20
57.7239768
40
1.0343885
50
181.1141133
51
251.1386426
0
ARC
8
DEFAULT_255_2_778
10
22.764528
20
57.7064308
40
1.0291393
50
179.9999781
51
180.1428824
0
ARC
8
DEFAULT_255_2_778
10
22.7692068
20
57.6890749
40
1.033964
50
108.9176855
51
179.0381763
0
ARC
8
DEFAULT_255_2_778
10
22.752822
20
57.8007684
40
0.9232238
50
110.1237043
51
110.2032091
0
ARC
8
DEFAULT_255_2_778
10
23.2333903
20
57.7097633
40
1.4980165
50
151.5794485
51
180.1201144
0
ARC
8
DEFAULT_255_2_778
10
23.2316083
20
57.7100486
40
1.4963136
50
98.4345278
51
151.556579
0
ARC
8
DEFAULT_255_2_778
10
23.234728
20
57.682577
40
1.523946
50
89.9793545
51
98.3990533
0
ARC
8
DEFAULT_255_2_778
10
23.2383732
20
57.7086841
40
1.497842
50
61.5777617
51
90.1184315
0
ARC
8
DEFAULT_255_2_778
10
23.2385573
20
57.7101384
40
1.4964755
50
8.4395422
51
61.5574586
0
ARC
8
DEFAULT_255_2_778
10
23.2116386
20
57.7071708
40
1.5235387
50
359.9793954
51
8.4013619
0
ARC
8
DEFAULT_255_2_778
10
23.2373384
20
57.7035268
40
1.497842
50
331.5777617
51
0.1184315
0
ARC
8
DEFAULT_255_2_778
10
23.2387927
20
57.7033427
40
1.4964755
50
278.4395422
51
331.5574586
0
ARC
8
DEFAULT_255_2_778
10
23.235825
20
57.7302614
40
1.5235387
50
269.9793954
51
278.4013619
0
ARC
8
DEFAULT_255_2_778
10
23.2321811
20
57.7045616
40
1.497842
50
241.5777617
51
270.1184315
0
ARC
8
DEFAULT_255_2_778
10
23.231997
20
57.7031073
40
1.4964755
50
188.4395422
51
241.5574586
0
ARC
8
DEFAULT_255_2_778
10
23.2589157
20
57.706075
40
1.5235387
50
179.9793954
51
188.4013619
0
LINE
8
DEFAULT_255_2_778
10
21.7353771
20
57.7066229
11
21.7353771
21
57.7066229
0
ARC
8
DEFAULT_255_2_778
10
22.7695849
20
61.2241768
40
1.0343885
50
181.1141133
51
251.1386426
0
ARC
8
DEFAULT_255_2_778
10
22.764528
20
61.2066308
40
1.0291393
50
179.9999781
51
180.1428824
0
ARC
8
DEFAULT_255_2_778
10
22.7692068
20
61.1892749
40
1.033964
50
108.9176855
51
179.0381763
0
ARC
8
DEFAULT_255_2_778
10
22.752822
20
61.3009684
40
0.9232238
50
110.1237043
51
110.2032091
0
ARC
8
DEFAULT_255_2_778
10
23.2333903
20
61.2097633
40
1.4980165
50
151.5794485
51
180.1201144
0
ARC
8
DEFAULT_255_2_778
10
23.2316083
20
61.2100486
40
1.4963136
50
98.4345278
51
151.556579
0
ARC
8
DEFAULT_255_2_778
10
23.234728
20
61.182577
40
1.523946
50
89.9793545
51
98.3990533
0
ARC
8
DEFAULT_255_2_778
10
23.2383732
20
61.2086841
40
1.497842
50
61.5777617
51
90.1184315
0
ARC
8
DEFAULT_255_2_778
10
23.2385573
20
61.2101384
40
1.4964755
50
8.4395422
51
61.5574586
0
ARC
8
DEFAULT_255_2_778
10
23.2116386
20
61.2071708
40
1.5235387
50
359.9793954
51
8.4013619
0
ARC
8
DEFAULT_255_2_778
10
23.2373384
20
61.2035268
40
1.497842
50
331.5777617
51
0.1184315
0
ARC
8
DEFAULT_255_2_778
10
23.2387927
20
61.2033427
40
1.4964755
50
278.4395422
51
331.5574586
0
ARC
8
DEFAULT_255_2_778
10
23.235825
20
61.2302614
40
1.5235387
50
269.9793954
51
278.4013619
0
ARC
8
DEFAULT_255_2_778
10
23.2321811
20
61.2045616
40
1.497842
50
241.5777617
51
270.1184315
0
ARC
8
DEFAULT_255_2_778
10
23.231997
20
61.2031073
40
1.4964755
50
188.4395422
51
241.5574586
0
ARC
8
DEFAULT_255_2_778
10
23.2589157
20
61.206075
40
1.5235387
50
179.9793954
51
188.4013619
0
LINE
8
DEFAULT_255_2_778
10
21.7353771
20
61.2066229
11
21.7353771
21
61.2066229
0
ARC
8
DEFAULT_255_2_778
10
23.2364614
20
54.2096955
40
1.2468396
50
50.1666931
51
74.0965879
0
ARC
8
DEFAULT_255_2_778
10
23.2352484
20
54.2042139
40
1.2524439
50
74.1119349
51
89.9878634
0
LINE
8
DEFAULT_255_2_778
10
23.2355137
20
55.4566577
11
23.2351073
21
55.4566578
0
ARC
8
DEFAULT_255_2_778
10
23.2343001
20
54.2091127
40
1.2475453
50
89.9629253
51
122.7691644
0
ARC
8
DEFAULT_255_2_778
10
23.2392275
20
54.2024611
40
1.2558056
50
122.7939392
51
129.8084191
0
ARC
8
DEFAULT_255_2_778
10
23.2339032
20
54.20372
40
1.2468396
50
230.1666931
51
254.0965879
0
ARC
8
DEFAULT_255_2_778
10
23.2351162
20
54.2092017
40
1.2524439
50
254.1119349
51
269.9878634
0
LINE
8
DEFAULT_255_2_778
10
23.2348509
20
52.9567578
11
23.2352573
21
52.9567578
0
ARC
8
DEFAULT_255_2_778
10
23.2360646
20
54.2043028
40
1.2475453
50
269.9629253
51
302.7691644
0
ARC
8
DEFAULT_255_2_778
10
23.2311372
20
54.2109544
40
1.2558056
50
302.7939392
51
309.8084191
0
LINE
8
DEFAULT_255_2_778
10
22.4352323
20
55.1671578
11
22.4352323
21
53.2462578
0
LINE
8
DEFAULT_255_2_778
10
24.0351323
20
53.2462578
11
24.0351323
21
55.1671578
0
ARC
8
DEFAULT_255_2_778
10
23.2364614
20
61.2033101
40
1.2468396
50
285.9034121
51
309.8333069
0
ARC
8
DEFAULT_255_2_778
10
23.2352484
20
61.2087917
40
1.2524439
50
270.0121366
51
285.8880651
0
LINE
8
DEFAULT_255_2_778
10
23.2355137
20
59.9563479
11
23.2351073
21
59.9563479
0
ARC
8
DEFAULT_255_2_778
10
23.2343001
20
61.2038929
40
1.2475453
50
237.2308356
51
270.0370747
0
ARC
8
DEFAULT_255_2_778
10
23.2392275
20
61.2105445
40
1.2558056
50
230.1915809
51
237.2060608
0
ARC
8
DEFAULT_255_2_778
10
23.2339032
20
61.2092856
40
1.2468396
50
105.9034121
51
129.8333069
0
ARC
8
DEFAULT_255_2_778
10
23.2351162
20
61.203804
40
1.2524439
50
90.0121366
51
105.8880651
0
LINE
8
DEFAULT_255_2_778
10
23.2348509
20
62.4562478
11
23.2352573
21
62.4562479
0
ARC
8
DEFAULT_255_2_778
10
23.2360646
20
61.2087028
40
1.2475453
50
57.2308356
51
90.0370747
0
ARC
8
DEFAULT_255_2_778
10
23.2311372
20
61.2020512
40
1.2558056
50
50.1915809
51
57.2060608
0
LINE
8
DEFAULT_255_2_778
10
22.4352323
20
60.2458479
11
22.4352323
21
62.1667479
0
LINE
8
DEFAULT_255_2_778
10
24.0351323
20
62.1667479
11
24.0351323
21
60.2458479
0
ARC
8
DEFAULT_255_2_778
10
23.2364614
20
57.7034266
40
1.2468396
50
285.9034121
51
309.8333069
0
ARC
8
DEFAULT_255_2_778
10
23.2352484
20
57.7089083
40
1.2524439
50
270.0121366
51
285.8880651
0
LINE
8
DEFAULT_255_2_778
10
23.2355137
20
56.4564645
11
23.2351073
21
56.4564644
0
ARC
8
DEFAULT_255_2_778
10
23.2343001
20
57.7040094
40
1.2475453
50
237.2308356
51
270.0370747
0
ARC
8
DEFAULT_255_2_778
10
23.2392275
20
57.7106611
40
1.2558056
50
230.1915809
51
237.2060608
0
ARC
8
DEFAULT_255_2_778
10
23.2339032
20
57.7094022
40
1.2468396
50
105.9034121
51
129.8333069
0
ARC
8
DEFAULT_255_2_778
10
23.2351162
20
57.7039205
40
1.2524439
50
90.0121366
51
105.8880651
0
LINE
8
DEFAULT_255_2_778
10
23.2348509
20
58.9563643
11
23.2352573
21
58.9563644
0
ARC
8
DEFAULT_255_2_778
10
23.2360646
20
57.7088194
40
1.2475453
50
57.2308356
51
90.0370747
0
ARC
8
DEFAULT_255_2_778
10
23.2311372
20
57.7021677
40
1.2558056
50
50.1915809
51
57.2060608
0
LINE
8
DEFAULT_255_2_778
10
22.4352323
20
56.7459644
11
22.4352323
21
58.6668644
0
LINE
8
DEFAULT_255_2_778
10
24.0351323
20
58.6668644
11
24.0351323
21
56.7459644
0
LINE
8
DEFAULT_255_2_778
10
26.9852261
20
59.1314458
11
25.2853261
21
59.1314458
0
LINE
8
DEFAULT_255_2_778
10
25.2853261
20
59.1314458
11
25.2853261
21
56.2813458
0
LINE
8
DEFAULT_255_2_778
10
25.2853261
20
56.2813458
11
26.9852261
21
56.2813458
0
LINE
8
DEFAULT_255_2_778
10
26.9852261
20
56.2813458
11
26.9852261
21
59.1314458
0
ARC
8
DEFAULT_255_2_778
10
20.1012899
20
57.6889642
40
1.0341682
50
1.0396104
51
71.146047
0
ARC
8
DEFAULT_255_2_778
10
20.1062347
20
57.7064446
40
1.0290538
50
359.9999904
51
0.0714426
0
ARC
8
DEFAULT_255_2_778
10
20.1014546
20
57.7237416
40
1.0339786
50
288.9887411
51
359.0414721
0
ARC
8
DEFAULT_255_2_778
10
20.0802016
20
57.7141096
40
1.0320477
50
290.1362893
51
290.2785313
0
ARC
8
DEFAULT_255_2_778
10
20.1012899
20
61.1891642
40
1.0341682
50
1.0396104
51
71.146047
0
ARC
8
DEFAULT_255_2_778
10
20.1062347
20
61.2066446
40
1.0290538
50
359.9999904
51
0.0714426
0
ARC
8
DEFAULT_255_2_778
10
20.1014546
20
61.2239416
40
1.0339786
50
288.9887411
51
359.0414721
0
ARC
8
DEFAULT_255_2_778
10
20.0802016
20
61.2143096
40
1.0320477
50
290.1362893
51
290.2785313
0
ARC
8
DEFAULT_255_2_778
10
20.1012899
20
64.689051
40
1.0341682
50
1.0396104
51
71.146047
0
ARC
8
DEFAULT_255_2_778
10
20.1062347
20
64.7065314
40
1.0290538
50
359.9999904
51
0.0714426
0
ARC
8
DEFAULT_255_2_778
10
20.1014546
20
64.7238283
40
1.0339786
50
288.9887411
51
359.0414721
0
ARC
8
DEFAULT_255_2_778
10
20.0802016
20
64.7141964
40
1.0320477
50
290.1362893
51
290.2785313
0
ARC
8
DEFAULT_255_2_778
10
22.7695849
20
47.2239768
40
1.0343885
50
181.1141133
51
251.1386426
0
ARC
8
DEFAULT_255_2_778
10
22.764528
20
47.2064308
40
1.0291393
50
179.9999781
51
180.1428824
0
ARC
8
DEFAULT_255_2_778
10
22.7692068
20
47.1890749
40
1.033964
50
108.9176855
51
179.0381763
0
ARC
8
DEFAULT_255_2_778
10
22.752822
20
47.3007684
40
0.9232238
50
110.1237043
51
110.2032091
0
ARC
8
DEFAULT_255_2_778
10
23.2333903
20
47.2098633
40
1.4980165
50
151.5794485
51
180.1201144
0
ARC
8
DEFAULT_255_2_778
10
23.2316083
20
47.2101486
40
1.4963136
50
98.4345278
51
151.556579
0
ARC
8
DEFAULT_255_2_778
10
23.234728
20
47.182677
40
1.523946
50
89.9793545
51
98.3990533
0
ARC
8
DEFAULT_255_2_778
10
23.2383732
20
47.2087841
40
1.497842
50
61.5777617
51
90.1184315
0
ARC
8
DEFAULT_255_2_778
10
23.2385573
20
47.2102384
40
1.4964755
50
8.4395422
51
61.5574586
0
ARC
8
DEFAULT_255_2_778
10
23.2116386
20
47.2072708
40
1.5235387
50
359.9793954
51
8.4013619
0
ARC
8
DEFAULT_255_2_778
10
23.2373384
20
47.2036268
40
1.497842
50
331.5777617
51
0.1184315
0
ARC
8
DEFAULT_255_2_778
10
23.2387927
20
47.2034427
40
1.4964755
50
278.4395422
51
331.5574586
0
ARC
8
DEFAULT_255_2_778
10
23.235825
20
47.2303614
40
1.5235387
50
269.9793954
51
278.4013619
0
ARC
8
DEFAULT_255_2_778
10
23.2321811
20
47.2046616
40
1.497842
50
241.5777617
51
270.1184315
0
ARC
8
DEFAULT_255_2_778
10
23.231997
20
47.2032073
40
1.4964755
50
188.4395422
51
241.5574586
0
ARC
8
DEFAULT_255_2_778
10
23.2589157
20
47.206175
40
1.5235387
50
179.9793954
51
188.4013619
0
LINE
8
DEFAULT_255_2_778
10
21.7353771
20
47.2067229
11
21.7353771
21
47.2067229
0
ARC
8
DEFAULT_255_2_778
10
22.7695849
20
50.7241768
40
1.0343885
50
181.1141133
51
251.1386426
0
ARC
8
DEFAULT_255_2_778
10
22.764528
20
50.7066308
40
1.0291393
50
179.9999781
51
180.1428824
0
ARC
8
DEFAULT_255_2_778
10
22.7692068
20
50.6892749
40
1.033964
50
108.9176855
51
179.0381763
0
ARC
8
DEFAULT_255_2_778
10
22.752822
20
50.8009684
40
0.9232238
50
110.1237043
51
110.2032091
0
ARC
8
DEFAULT_255_2_778
10
23.2333903
20
50.7097633
40
1.4980165
50
151.5794485
51
180.1201144
0
ARC
8
DEFAULT_255_2_778
10
23.2316083
20
50.7100486
40
1.4963136
50
98.4345278
51
151.556579
0
ARC
8
DEFAULT_255_2_778
10
23.234728
20
50.682577
40
1.523946
50
89.9793545
51
98.3990533
0
ARC
8
DEFAULT_255_2_778
10
23.2383732
20
50.7086841
40
1.497842
50
61.5777617
51
90.1184315
0
ARC
8
DEFAULT_255_2_778
10
23.2385573
20
50.7101384
40
1.4964755
50
8.4395422
51
61.5574586
0
ARC
8
DEFAULT_255_2_778
10
23.2116386
20
50.7071708
40
1.5235387
50
359.9793954
51
8.4013619
0
ARC
8
DEFAULT_255_2_778
10
23.2373384
20
50.7035268
40
1.497842
50
331.5777617
51
0.1184315
0
ARC
8
DEFAULT_255_2_778
10
23.2387927
20
50.7033427
40
1.4964755
50
278.4395422
51
331.5574586
0
ARC
8
DEFAULT_255_2_778
10
23.235825
20
50.7302614
40
1.5235387
50
269.9793954
51
278.4013619
0
ARC
8
DEFAULT_255_2_778
10
23.2321811
20
50.7045616
40
1.497842
50
241.5777617
51
270.1184315
0
ARC
8
DEFAULT_255_2_778
10
23.231997
20
50.7031073
40
1.4964755
50
188.4395422
51
241.5574586
0
ARC
8
DEFAULT_255_2_778
10
23.2589157
20
50.706075
40
1.5235387
50
179.9793954
51
188.4013619
0
LINE
8
DEFAULT_255_2_778
10
21.7353771
20
50.7066229
11
21.7353771
21
50.7066229
0
ARC
8
DEFAULT_255_2_778
10
22.7695849
20
54.2240768
40
1.0343885
50
181.1141133
51
251.1386426
0
ARC
8
DEFAULT_255_2_778
10
22.764528
20
54.2065308
40
1.0291393
50
179.9999781
51
180.1428824
0
ARC
8
DEFAULT_255_2_778
10
22.7692068
20
54.1891749
40
1.033964
50
108.9176855
51
179.0381763
0
ARC
8
DEFAULT_255_2_778
10
22.752822
20
54.3008684
40
0.9232238
50
110.1237043
51
110.2032091
0
ARC
8
DEFAULT_255_2_778
10
23.2333903
20
54.2098633
40
1.4980165
50
151.5794485
51
180.1201144
0
ARC
8
DEFAULT_255_2_778
10
23.2316083
20
54.2101486
40
1.4963136
50
98.4345278
51
151.556579
0
ARC
8
DEFAULT_255_2_778
10
23.234728
20
54.182677
40
1.523946
50
89.9793545
51
98.3990533
0
ARC
8
DEFAULT_255_2_778
10
23.2383732
20
54.2087841
40
1.497842
50
61.5777617
51
90.1184315
0
ARC
8
DEFAULT_255_2_778
10
23.2385573
20
54.2102384
40
1.4964755
50
8.4395422
51
61.5574586
0
ARC
8
DEFAULT_255_2_778
10
23.2116386
20
54.2072708
40
1.5235387
50
359.9793954
51
8.4013619
0
ARC
8
DEFAULT_255_2_778
10
23.2373384
20
54.2036268
40
1.497842
50
331.5777617
51
0.1184315
0
ARC
8
DEFAULT_255_2_778
10
23.2387927
20
54.2034427
40
1.4964755
50
278.4395422
51
331.5574586
0
ARC
8
DEFAULT_255_2_778
10
23.235825
20
54.2303614
40
1.5235387
50
269.9793954
51
278.4013619
0
ARC
8
DEFAULT_255_2_778
10
23.2321811
20
54.2046616
40
1.497842
50
241.5777617
51
270.1184315
0
ARC
8
DEFAULT_255_2_778
10
23.231997
20
54.2032073
40
1.4964755
50
188.4395422
51
241.5574586
0
ARC
8
DEFAULT_255_2_778
10
23.2589157
20
54.206175
40
1.5235387
50
179.9793954
51
188.4013619
0
LINE
8
DEFAULT_255_2_778
10
21.7353771
20
54.2067229
11
21.7353771
21
54.2067229
0
ARC
8
DEFAULT_255_2_778
10
23.2364614
20
50.7096078
40
1.2468396
50
50.1666931
51
74.0965879
0
ARC
8
DEFAULT_255_2_778
10
23.2352484
20
50.7041262
40
1.2524439
50
74.1119349
51
89.9878634
0
LINE
8
DEFAULT_255_2_778
10
23.2355137
20
51.95657
11
23.2351073
21
51.9565701
0
ARC
8
DEFAULT_255_2_778
10
23.2343001
20
50.709025
40
1.2475453
50
89.9629253
51
122.7691644
0
ARC
8
DEFAULT_255_2_778
10
23.2392275
20
50.7023734
40
1.2558056
50
122.7939392
51
129.8084191
0
ARC
8
DEFAULT_255_2_778
10
23.2339032
20
50.7035599
40
1.2468396
50
230.1666931
51
254.0965879
0
ARC
8
DEFAULT_255_2_778
10
23.2351162
20
50.7090415
40
1.2524439
50
254.1119349
51
269.9878634
0
LINE
8
DEFAULT_255_2_778
10
23.2348509
20
49.4565977
11
23.2352573
21
49.4565976
0
ARC
8
DEFAULT_255_2_778
10
23.2360646
20
50.7041427
40
1.2475453
50
269.9629253
51
302.7691644
0
ARC
8
DEFAULT_255_2_778
10
23.2311372
20
50.7107943
40
1.2558056
50
302.7939392
51
309.8084191
0
LINE
8
DEFAULT_255_2_778
10
22.4352323
20
51.6669976
11
22.4352323
21
49.7460976
0
LINE
8
DEFAULT_255_2_778
10
24.0351323
20
49.7460976
11
24.0351323
21
51.6669976
0
ARC
8
DEFAULT_255_2_778
10
23.2364614
20
47.2096955
40
1.2468396
50
50.1666931
51
74.0965879
0
ARC
8
DEFAULT_255_2_778
10
23.2352484
20
47.2042139
40
1.2524439
50
74.1119349
51
89.9878634
0
LINE
8
DEFAULT_255_2_778
10
23.2355137
20
48.4566577
11
23.2351073
21
48.4566578
0
ARC
8
DEFAULT_255_2_778
10
23.2343001
20
47.2091127
40
1.2475453
50
89.9629253
51
122.7691644
0
ARC
8
DEFAULT_255_2_778
10
23.2392275
20
47.2024611
40
1.2558056
50
122.7939392
51
129.8084191
0
ARC
8
DEFAULT_255_2_778
10
23.2339032
20
47.20372
40
1.2468396
50
230.1666931
51
254.0965879
0
ARC
8
DEFAULT_255_2_778
10
23.2351162
20
47.2092017
40
1.2524439
50
254.1119349
51
269.9878634
0
LINE
8
DEFAULT_255_2_778
10
23.2348509
20
45.9567578
11
23.2352573
21
45.9567578
0
ARC
8
DEFAULT_255_2_778
10
23.2360646
20
47.2043028
40
1.2475453
50
269.9629253
51
302.7691644
0
ARC
8
DEFAULT_255_2_778
10
23.2311372
20
47.2109544
40
1.2558056
50
302.7939392
51
309.8084191
0
LINE
8
DEFAULT_255_2_778
10
22.4352323
20
48.1671578
11
22.4352323
21
46.2462578
0
LINE
8
DEFAULT_255_2_778
10
24.0351323
20
46.2462578
11
24.0351323
21
48.1671578
0
ARC
8
DEFAULT_255_2_778
10
20.1012899
20
47.188951
40
1.0341682
50
1.0396104
51
71.146047
0
ARC
8
DEFAULT_255_2_778
10
20.1062347
20
47.2064314
40
1.0290538
50
359.9999904
51
0.0714426
0
ARC
8
DEFAULT_255_2_778
10
20.1014546
20
47.2237283
40
1.0339786
50
288.9887411
51
359.0414721
0
ARC
8
DEFAULT_255_2_778
10
20.0802016
20
47.2140964
40
1.0320477
50
290.1362893
51
290.2785313
0
ARC
8
DEFAULT_255_2_778
10
20.1012899
20
50.689151
40
1.0341682
50
1.0396104
51
71.146047
0
ARC
8
DEFAULT_255_2_778
10
20.1062347
20
50.7066314
40
1.0290538
50
359.9999904
51
0.0714426
0
ARC
8
DEFAULT_255_2_778
10
20.1014546
20
50.7239283
40
1.0339786
50
288.9887411
51
359.0414721
0
ARC
8
DEFAULT_255_2_778
10
20.0802016
20
50.7142964
40
1.0320477
50
290.1362893
51
290.2785313
0
ARC
8
DEFAULT_255_2_778
10
20.1012899
20
54.189051
40
1.0341682
50
1.0396104
51
71.146047
0
ARC
8
DEFAULT_255_2_778
10
20.1062347
20
54.2065314
40
1.0290538
50
359.9999904
51
0.0714426
0
ARC
8
DEFAULT_255_2_778
10
20.1014546
20
54.2238283
40
1.0339786
50
288.9887411
51
359.0414721
0
ARC
8
DEFAULT_255_2_778
10
20.0802016
20
54.2141964
40
1.0320477
50
290.1362893
51
290.2785313
0
ARC
8
DEFAULT_255_2_778
10
19.1693849
20
47.2239768
40
1.0343885
50
181.1141133
51
251.1386426
0
ARC
8
DEFAULT_255_2_778
10
19.164328
20
47.2064308
40
1.0291393
50
179.9999781
51
180.1428824
0
ARC
8
DEFAULT_255_2_778
10
19.1690068
20
47.1890749
40
1.033964
50
108.9176855
51
179.0381763
0
ARC
8
DEFAULT_255_2_778
10
19.152622
20
47.3007684
40
0.9232238
50
110.1237043
51
110.2032091
0
ARC
8
DEFAULT_255_2_778
10
19.6331903
20
47.2098633
40
1.4980165
50
151.5794485
51
180.1201144
0
ARC
8
DEFAULT_255_2_778
10
19.6314083
20
47.2101486
40
1.4963136
50
98.4345278
51
151.556579
0
ARC
8
DEFAULT_255_2_778
10
19.634528
20
47.182677
40
1.523946
50
89.9793545
51
98.3990533
0
ARC
8
DEFAULT_255_2_778
10
19.6381732
20
47.2087841
40
1.497842
50
61.5777617
51
90.1184315
0
ARC
8
DEFAULT_255_2_778
10
19.6383573
20
47.2102384
40
1.4964755
50
8.4395422
51
61.5574586
0
ARC
8
DEFAULT_255_2_778
10
19.6114386
20
47.2072708
40
1.5235387
50
359.9793954
51
8.4013619
0
ARC
8
DEFAULT_255_2_778
10
19.6371384
20
47.2036268
40
1.497842
50
331.5777617
51
0.1184315
0
ARC
8
DEFAULT_255_2_778
10
19.6385927
20
47.2034427
40
1.4964755
50
278.4395422
51
331.5574586
0
ARC
8
DEFAULT_255_2_778
10
19.635625
20
47.2303614
40
1.5235387
50
269.9793954
51
278.4013619
0
ARC
8
DEFAULT_255_2_778
10
19.6319811
20
47.2046616
40
1.497842
50
241.5777617
51
270.1184315
0
ARC
8
DEFAULT_255_2_778
10
19.631797
20
47.2032073
40
1.4964755
50
188.4395422
51
241.5574586
0
ARC
8
DEFAULT_255_2_778
10
19.6587157
20
47.206175
40
1.5235387
50
179.9793954
51
188.4013619
0
LINE
8
DEFAULT_255_2_778
10
18.1351771
20
47.2067229
11
18.1351771
21
47.2067229
0
ARC
8
DEFAULT_255_2_778
10
19.1693849
20
50.7241768
40
1.0343885
50
181.1141133
51
251.1386426
0
ARC
8
DEFAULT_255_2_778
10
19.164328
20
50.7066308
40
1.0291393
50
179.9999781
51
180.1428824
0
ARC
8
DEFAULT_255_2_778
10
19.1690068
20
50.6892749
40
1.033964
50
108.9176855
51
179.0381763
0
ARC
8
DEFAULT_255_2_778
10
19.152622
20
50.8009684
40
0.9232238
50
110.1237043
51
110.2032091
0
ARC
8
DEFAULT_255_2_778
10
19.6331903
20
50.7097633
40
1.4980165
50
151.5794485
51
180.1201144
0
ARC
8
DEFAULT_255_2_778
10
19.6314083
20
50.7100486
40
1.4963136
50
98.4345278
51
151.556579
0
ARC
8
DEFAULT_255_2_778
10
19.634528
20
50.682577
40
1.523946
50
89.9793545
51
98.3990533
0
ARC
8
DEFAULT_255_2_778
10
19.6381732
20
50.7086841
40
1.497842
50
61.5777617
51
90.1184315
0
ARC
8
DEFAULT_255_2_778
10
19.6383573
20
50.7101384
40
1.4964755
50
8.4395422
51
61.5574586
0
ARC
8
DEFAULT_255_2_778
10
19.6114386
20
50.7071708
40
1.5235387
50
359.9793954
51
8.4013619
0
ARC
8
DEFAULT_255_2_778
10
19.6371384
20
50.7035268
40
1.497842
50
331.5777617
51
0.1184315
0
ARC
8
DEFAULT_255_2_778
10
19.6385927
20
50.7033427
40
1.4964755
50
278.4395422
51
331.5574586
0
ARC
8
DEFAULT_255_2_778
10
19.635625
20
50.7302614
40
1.5235387
50
269.9793954
51
278.4013619
0
ARC
8
DEFAULT_255_2_778
10
19.6319811
20
50.7045616
40
1.497842
50
241.5777617
51
270.1184315
0
ARC
8
DEFAULT_255_2_778
10
19.631797
20
50.7031073
40
1.4964755
50
188.4395422
51
241.5574586
0
ARC
8
DEFAULT_255_2_778
10
19.6587157
20
50.706075
40
1.5235387
50
179.9793954
51
188.4013619
0
LINE
8
DEFAULT_255_2_778
10
18.1351771
20
50.7066229
11
18.1351771
21
50.7066229
0
ARC
8
DEFAULT_255_2_778
10
19.1693849
20
43.7240768
40
1.0343885
50
181.1141133
51
251.1386426
0
ARC
8
DEFAULT_255_2_778
10
19.164328
20
43.7065308
40
1.0291393
50
179.9999781
51
180.1428824
0
ARC
8
DEFAULT_255_2_778
10
19.1690068
20
43.6891749
40
1.033964
50
108.9176855
51
179.0381763
0
ARC
8
DEFAULT_255_2_778
10
19.152622
20
43.8008684
40
0.9232238
50
110.1237043
51
110.2032091
0
ARC
8
DEFAULT_255_2_778
10
19.6331903
20
43.7098633
40
1.4980165
50
151.5794485
51
180.1201144
0
ARC
8
DEFAULT_255_2_778
10
19.6314083
20
43.7101486
40
1.4963136
50
98.4345278
51
151.556579
0
ARC
8
DEFAULT_255_2_778
10
19.634528
20
43.682677
40
1.523946
50
89.9793545
51
98.3990533
0
ARC
8
DEFAULT_255_2_778
10
19.6381732
20
43.7087841
40
1.497842
50
61.5777617
51
90.1184315
0
ARC
8
DEFAULT_255_2_778
10
19.6383573
20
43.7102384
40
1.4964755
50
8.4395422
51
61.5574586
0
ARC
8
DEFAULT_255_2_778
10
19.6114386
20
43.7072708
40
1.5235387
50
359.9793954
51
8.4013619
0
ARC
8
DEFAULT_255_2_778
10
19.6371384
20
43.7036268
40
1.497842
50
331.5777617
51
0.1184315
0
ARC
8
DEFAULT_255_2_778
10
19.6385927
20
43.7034427
40
1.4964755
50
278.4395422
51
331.5574586
0
ARC
8
DEFAULT_255_2_778
10
19.635625
20
43.7303614
40
1.5235387
50
269.9793954
51
278.4013619
0
ARC
8
DEFAULT_255_2_778
10
19.6319811
20
43.7046616
40
1.497842
50
241.5777617
51
270.1184315
0
ARC
8
DEFAULT_255_2_778
10
19.631797
20
43.7032073
40
1.4964755
50
188.4395422
51
241.5574586
0
ARC
8
DEFAULT_255_2_778
10
19.6587157
20
43.706175
40
1.5235387
50
179.9793954
51
188.4013619
0
LINE
8
DEFAULT_255_2_778
10
18.1351771
20
43.7067229
11
18.1351771
21
43.7067229
0
ARC
8
DEFAULT_255_2_778
10
19.6365614
20
50.7096078
40
1.2468396
50
50.1666931
51
74.0965879
0
ARC
8
DEFAULT_255_2_778
10
19.6353484
20
50.7041262
40
1.2524439
50
74.1119349
51
89.9878634
0
LINE
8
DEFAULT_255_2_778
10
19.6356137
20
51.95657
11
19.6352073
21
51.9565701
0
ARC
8
DEFAULT_255_2_778
10
19.6344001
20
50.709025
40
1.2475453
50
89.9629253
51
122.7691644
0
ARC
8
DEFAULT_255_2_778
10
19.6393275
20
50.7023734
40
1.2558056
50
122.7939392
51
129.8084191
0
ARC
8
DEFAULT_255_2_778
10
19.6340032
20
50.7035599
40
1.2468396
50
230.1666931
51
254.0965879
0
ARC
8
DEFAULT_255_2_778
10
19.6352162
20
50.7090415
40
1.2524439
50
254.1119349
51
269.9878634
0
LINE
8
DEFAULT_255_2_778
10
19.6349509
20
49.4565977
11
19.6353573
21
49.4565976
0
ARC
8
DEFAULT_255_2_778
10
19.6361646
20
50.7041427
40
1.2475453
50
269.9629253
51
302.7691644
0
ARC
8
DEFAULT_255_2_778
10
19.6312372
20
50.7107943
40
1.2558056
50
302.7939392
51
309.8084191
0
LINE
8
DEFAULT_255_2_778
10
18.8353323
20
51.6669976
11
18.8353323
21
49.7460976
0
LINE
8
DEFAULT_255_2_778
10
20.4352323
20
49.7460976
11
20.4352323
21
51.6669976
0
ARC
8
DEFAULT_255_2_778
10
19.6365614
20
43.7096955
40
1.2468396
50
50.1666931
51
74.0965879
0
ARC
8
DEFAULT_255_2_778
10
19.6353484
20
43.7042139
40
1.2524439
50
74.1119349
51
89.9878634
0
LINE
8
DEFAULT_255_2_778
10
19.6356137
20
44.9566577
11
19.6352073
21
44.9566578
0
ARC
8
DEFAULT_255_2_778
10
19.6344001
20
43.7091127
40
1.2475453
50
89.9629253
51
122.7691644
0
ARC
8
DEFAULT_255_2_778
10
19.6393275
20
43.7024611
40
1.2558056
50
122.7939392
51
129.8084191
0
ARC
8
DEFAULT_255_2_778
10
19.6340032
20
43.70372
40
1.2468396
50
230.1666931
51
254.0965879
0
ARC
8
DEFAULT_255_2_778
10
19.6352162
20
43.7092017
40
1.2524439
50
254.1119349
51
269.9878634
0
LINE
8
DEFAULT_255_2_778
10
19.6349509
20
42.4567578
11
19.6353573
21
42.4567578
0
ARC
8
DEFAULT_255_2_778
10
19.6361646
20
43.7043028
40
1.2475453
50
269.9629253
51
302.7691644
0
ARC
8
DEFAULT_255_2_778
10
19.6312372
20
43.7109544
40
1.2558056
50
302.7939392
51
309.8084191
0
LINE
8
DEFAULT_255_2_778
10
18.8353323
20
44.6671578
11
18.8353323
21
42.7462578
0
LINE
8
DEFAULT_255_2_778
10
20.4352323
20
42.7462578
11
20.4352323
21
44.6671578
0
ARC
8
DEFAULT_255_2_778
10
19.6365614
20
47.20342
40
1.2468396
50
285.9034121
51
309.8333069
0
ARC
8
DEFAULT_255_2_778
10
19.6353484
20
47.2089017
40
1.2524439
50
270.0121366
51
285.8880651
0
LINE
8
DEFAULT_255_2_778
10
19.6356137
20
45.9564578
11
19.6352073
21
45.9564578
0
ARC
8
DEFAULT_255_2_778
10
19.6344001
20
47.2040028
40
1.2475453
50
237.2308356
51
270.0370747
0
ARC
8
DEFAULT_255_2_778
10
19.6393275
20
47.2106544
40
1.2558056
50
230.1915809
51
237.2060608
0
ARC
8
DEFAULT_255_2_778
10
19.6340032
20
47.2093955
40
1.2468396
50
105.9034121
51
129.8333069
0
ARC
8
DEFAULT_255_2_778
10
19.6352162
20
47.2039139
40
1.2524439
50
90.0121366
51
105.8880651
0
LINE
8
DEFAULT_255_2_778
10
19.6349509
20
48.4563577
11
19.6353573
21
48.4563578
0
ARC
8
DEFAULT_255_2_778
10
19.6361646
20
47.2088127
40
1.2475453
50
57.2308356
51
90.0370747
0
ARC
8
DEFAULT_255_2_778
10
19.6312372
20
47.2021611
40
1.2558056
50
50.1915809
51
57.2060608
0
LINE
8
DEFAULT_255_2_778
10
18.8353323
20
46.2459578
11
18.8353323
21
48.1668578
0
LINE
8
DEFAULT_255_2_778
10
20.4352323
20
48.1668578
11
20.4352323
21
46.2459578
0
LINE
8
DEFAULT_255_2_778
10
17.5851261
20
48.6314458
11
15.8852261
21
48.6314458
0
LINE
8
DEFAULT_255_2_778
10
15.8852261
20
48.6314458
11
15.8852261
21
45.7813458
0
LINE
8
DEFAULT_255_2_778
10
15.8852261
20
45.7813458
11
17.5851261
21
45.7813458
0
LINE
8
DEFAULT_255_2_778
10
17.5851261
20
45.7813458
11
17.5851261
21
48.6314458
0
ARC
8
DEFAULT_255_2_778
10
23.7014899
20
47.188951
40
1.0341682
50
1.0396104
51
71.146047
0
ARC
8
DEFAULT_255_2_778
10
23.7064347
20
47.2064314
40
1.0290538
50
359.9999904
51
0.0714426
0
ARC
8
DEFAULT_255_2_778
10
23.7016546
20
47.2237283
40
1.0339786
50
288.9887411
51
359.0414721
0
ARC
8
DEFAULT_255_2_778
10
23.6804016
20
47.2140964
40
1.0320477
50
290.1362893
51
290.2785313
0
ARC
8
DEFAULT_255_2_778
10
23.7014899
20
50.689151
40
1.0341682
50
1.0396104
51
71.146047
0
ARC
8
DEFAULT_255_2_778
10
23.7064347
20
50.7066314
40
1.0290538
50
359.9999904
51
0.0714426
0
ARC
8
DEFAULT_255_2_778
10
23.7016546
20
50.7239283
40
1.0339786
50
288.9887411
51
359.0414721
0
ARC
8
DEFAULT_255_2_778
10
23.6804016
20
50.7142964
40
1.0320477
50
290.1362893
51
290.2785313
0
ARC
8
DEFAULT_255_2_778
10
23.7014899
20
54.189051
40
1.0341682
50
1.0396104
51
71.146047
0
ARC
8
DEFAULT_255_2_778
10
23.7064347
20
54.2065314
40
1.0290538
50
359.9999904
51
0.0714426
0
ARC
8
DEFAULT_255_2_778
10
23.7016546
20
54.2238283
40
1.0339786
50
288.9887411
51
359.0414721
0
ARC
8
DEFAULT_255_2_778
10
23.6804016
20
54.2141964
40
1.0320477
50
290.1362893
51
290.2785313
0
ARC
8
DEFAULT_255_2_778
10
23.7014899
20
64.689051
40
1.0341682
50
1.0396104
51
71.146047
0
ARC
8
DEFAULT_255_2_778
10
23.7064347
20
64.7065314
40
1.0290538
50
359.9999904
51
0.0714426
0
ARC
8
DEFAULT_255_2_778
10
23.7016546
20
64.7238283
40
1.0339786
50
288.9887411
51
359.0414721
0
ARC
8
DEFAULT_255_2_778
10
23.6804016
20
64.7141964
40
1.0320477
50
290.1362893
51
290.2785313
0
ARC
8
DEFAULT_255_2_778
10
23.7014899
20
68.188951
40
1.0341682
50
1.0396104
51
71.146047
0
ARC
8
DEFAULT_255_2_778
10
23.7064347
20
68.2064314
40
1.0290538
50
359.9999904
51
0.0714426
0
ARC
8
DEFAULT_255_2_778
10
23.7016546
20
68.2237283
40
1.0339786
50
288.9887411
51
359.0414721
0
ARC
8
DEFAULT_255_2_778
10
23.6804016
20
68.2140964
40
1.0320477
50
290.1362893
51
290.2785313
0
ARC
8
DEFAULT_255_2_778
10
5.7096752
20
85.8236528
40
2.2622924
50
90.384851
51
94.4218325
0
ARC
8
DEFAULT_255_2_778
10
5.704675
20
86.1022835
40
1.983637
50
90.0015625
51
90.2944866
0
ARC
8
DEFAULT_255_2_778
10
5.7139387
20
86.5421258
40
1.5438229
50
81.1373856
51
90.3458128
0
ARC
8
DEFAULT_255_2_778
10
5.7836862
20
87.0150658
40
1.0657911
50
73.7371591
51
80.9250874
0
ARC
8
DEFAULT_255_2_778
10
5.9436873
20
87.3967848
40
0.6562022
50
41.6183047
51
77.8182457
0
ARC
8
DEFAULT_255_2_778
10
6.0157835
20
87.4603701
40
0.560073
50
359.1771777
51
41.6539385
0
ARC
8
DEFAULT_255_2_778
10
5.8721563
20
87.452721
40
0.7036427
50
355.8509382
51
359.9679334
0
ARC
8
DEFAULT_255_2_778
10
5.9104762
20
87.5013901
40
0.6709096
50
312.05293
51
351.4644322
0
ARC
8
DEFAULT_255_2_778
10
5.5887117
20
87.827632
40
1.1288605
50
300.0711107
51
313.0882104
0
ARC
8
DEFAULT_255_2_778
10
5.6746908
20
87.8931858
40
1.1475323
50
276.6805346
51
294.7081369
0
ARC
8
DEFAULT_255_2_778
10
5.5997857
20
88.4120778
40
1.671674
50
269.8275668
51
277.1614811
0
ARC
8
DEFAULT_255_2_778
10
5.7441967
20
90.6292739
40
3.8917328
50
263.3617701
51
267.7993104
0
ARC
8
DEFAULT_255_2_778
10
5.5429586
20
88.9387206
40
2.1892547
50
256.8039936
51
263.4785234
0
ARC
8
DEFAULT_255_2_778
10
5.3839688
20
88.2225733
40
1.4557487
50
254.2309903
51
256.4618677
0
ARC
8
DEFAULT_255_2_778
10
5.4561402
20
88.3404943
40
1.1839603
50
247.2166736
51
264.7014212
0
ARC
8
DEFAULT_255_2_778
10
5.4242371
20
88.1021949
40
0.9437835
50
265.2940014
51
269.9767938
0
ARC
8
DEFAULT_255_2_778
10
5.4812339
20
88.7637618
40
1.6063754
50
267.9529808
51
269.9788979
0
ARC
8
DEFAULT_255_2_778
10
5.4913376
20
88.2874199
40
1.1300841
50
269.4577369
51
281.2413092
0
ARC
8
DEFAULT_255_2_778
10
5.5628694
20
87.9007913
40
0.736947
50
281.6464174
51
289.8457417
0
ARC
8
DEFAULT_255_2_778
10
5.6322899
20
87.5182593
40
0.3594135
50
300.1949763
51
340.1998485
0
ARC
8
DEFAULT_255_2_778
10
5.6740848
20
87.4561774
40
0.3023164
50
348.6172291
51
359.7282497
0
ARC
8
DEFAULT_255_2_778
10
5.7386156
20
87.4529339
40
0.2377891
50
0.43604
51
61.3975091
0
ARC
8
DEFAULT_255_2_778
10
5.6085917
20
87.2787841
40
0.4539774
50
57.5091549
51
63.231823
0
ARC
8
DEFAULT_255_2_778
10
5.5005698
20
86.831818
40
0.9077726
50
69.8650337
51
83.5671248
0
ARC
8
DEFAULT_255_2_778
10
5.4211177
20
86.2182841
40
1.5263794
50
83.1837935
51
90.2460992
0
ARC
8
DEFAULT_255_2_778
10
5.4166711
20
85.6269438
40
2.1177068
50
90.0570735
51
93.0700113
0
LINE
8
DEFAULT_255_2_778
10
5.0071548
20
87.7090114
11
5.0351548
21
88.7610114
0
LINE
8
DEFAULT_255_2_778
10
5.0351548
20
88.7610114
11
6.4808548
21
88.7610114
0
LINE
8
DEFAULT_255_2_778
10
6.4808548
20
88.7610114
11
6.4808548
21
88.4014114
0
LINE
8
DEFAULT_255_2_778
10
6.4808548
20
88.4014114
11
5.5445548
21
88.4078114
0
LINE
8
DEFAULT_255_2_778
10
5.5445548
20
88.4078114
11
5.5352548
21
88.0792114
0
LINE
8
DEFAULT_255_2_778
10
4.9883548
20
86.8216114
11
4.9976548
21
87.2489114
0
LINE
8
DEFAULT_255_2_778
10
5.3032548
20
87.7416114
11
5.0066548
21
87.7088114
0
LINE
8
DEFAULT_255_2_778
10
5.0066548
20
87.7088114
11
5.0071548
21
87.7090114
0
ARC
8
DEFAULT_255_2_778
10
12.4184481
20
87.7636443
40
0.8697393
50
1.0059673
51
15.599677
0
ARC
8
DEFAULT_255_2_778
10
12.8020932
20
87.8790241
40
0.4692663
50
14.6274997
51
74.8711548
0
ARC
8
DEFAULT_255_2_778
10
12.6558363
20
87.4286229
40
0.9425253
50
73.4340957
51
87.8376391
0
ARC
8
DEFAULT_255_2_778
10
12.6171661
20
86.900451
40
1.471899
50
87.1091504
51
90.0473017
0
ARC
8
DEFAULT_255_2_778
10
12.6172319
20
86.5833298
40
1.78902
50
90.0410228
51
92.5568506
0
ARC
8
DEFAULT_255_2_778
10
12.629524
20
86.2863638
40
2.0862388
50
92.5302652
51
93.88278
0
ARC
8
DEFAULT_255_2_778
10
12.6435817
20
88.8897058
40
1.7252982
50
264.8346753
51
267.1347109
0
ARC
8
DEFAULT_255_2_778
10
12.6325311
20
88.6681429
40
1.5034599
50
267.1332382
51
269.60285
0
ARC
8
DEFAULT_255_2_778
10
12.6310521
20
88.5434164
40
1.3787263
50
269.6283826
51
270.0005092
0
ARC
8
DEFAULT_255_2_778
10
12.639879
20
88.2311518
40
1.0664981
50
269.5264443
51
281.0440152
0
ARC
8
DEFAULT_255_2_778
10
12.7240476
20
87.8152951
40
0.6422261
50
280.7810901
51
299.4706976
0
ARC
8
DEFAULT_255_2_778
10
12.7692283
20
87.697258
40
0.5175735
50
301.5453609
51
0.5382207
0
ARC
8
DEFAULT_255_2_778
10
12.3879089
20
87.7528732
40
0.9003017
50
356.768312
51
0.0290953
0
ARC
8
DEFAULT_255_2_778
10
12.3207438
20
87.7532852
40
0.9674666
50
0.0026751
51
1.0322297
0
ARC
8
DEFAULT_255_2_778
10
12.6977939
20
88.5064194
40
1.7303559
50
268.5548175
51
289.1925614
0
ARC
8
DEFAULT_255_2_778
10
13.0025417
20
87.6304304
40
0.802871
50
289.2044437
51
335.0979653
0
ARC
8
DEFAULT_255_2_778
10
12.8148678
20
87.7033902
40
1.0038999
50
335.8311897
51
352.0614835
0
ARC
8
DEFAULT_255_2_778
10
12.3709518
20
87.7731218
40
1.4532132
50
351.7557697
51
0.2283676
0
ARC
8
DEFAULT_255_2_778
10
12.1839295
20
87.7995494
40
1.6403537
50
359.279205
51
359.9981762
0
ARC
8
DEFAULT_255_2_778
10
12.5292389
20
87.8093146
40
1.2950814
50
359.5656651
51
11.7944535
0
ARC
8
DEFAULT_255_2_778
10
12.9502404
20
87.8996599
40
0.864505
50
11.636414
51
31.0833566
0
ARC
8
DEFAULT_255_2_778
10
12.9704289
20
87.8692215
40
0.8637011
50
33.504799
51
80.692196
0
ARC
8
DEFAULT_255_2_778
10
12.7256953
20
86.876291
40
1.8848787
50
78.2317698
51
90.5510372
0
ARC
8
DEFAULT_255_2_778
10
12.707756
20
86.1820116
40
2.579071
50
90.0041787
51
90.9687071
0
LINE
8
DEFAULT_255_2_778
10
6.7507534
20
87.7214139
11
7.5267534
21
87.7214139
0
LINE
8
DEFAULT_255_2_778
10
7.5267534
20
87.7214139
11
7.5267534
21
87.3436139
0
LINE
8
DEFAULT_255_2_778
10
7.5267534
20
87.3436139
11
6.7507534
21
87.3436139
0
LINE
8
DEFAULT_255_2_778
10
6.7507534
20
87.3436139
11
6.7507534
21
87.7214139
0
LINE
8
DEFAULT_255_2_778
10
1.1955534
20
88.7610139
11
2.5330534
21
88.7610139
0
LINE
8
DEFAULT_255_2_778
10
2.5330534
20
88.7610139
11
2.5330534
21
88.3914139
0
LINE
8
DEFAULT_255_2_778
10
2.5330534
20
88.3914139
11
1.7284534
21
88.3914139
0
LINE
8
DEFAULT_255_2_778
10
1.7284534
20
88.3914139
11
1.7284534
21
87.9627139
0
LINE
8
DEFAULT_255_2_778
10
1.7284534
20
87.9627139
11
2.4986534
21
87.9627139
0
LINE
8
DEFAULT_255_2_778
10
2.4986534
20
87.9627139
11
2.4986534
21
87.5931139
0
LINE
8
DEFAULT_255_2_778
10
2.4986534
20
87.5931139
11
1.7284534
21
87.5931139
0
LINE
8
DEFAULT_255_2_778
10
1.7284534
20
87.5931139
11
1.7284534
21
86.8063139
0
LINE
8
DEFAULT_255_2_778
10
1.7284534
20
86.8063139
11
1.1955534
21
86.8063139
0
LINE
8
DEFAULT_255_2_778
10
1.1955534
20
86.8063139
11
1.1955534
21
88.7610139
0
LINE
8
DEFAULT_255_2_778
10
4.0773534
20
88.7610139
11
4.6615534
21
88.7610139
0
LINE
8
DEFAULT_255_2_778
10
4.6615534
20
88.7610139
11
4.0773534
21
87.8339139
0
LINE
8
DEFAULT_255_2_778
10
4.0773534
20
87.8339139
11
4.7187534
21
86.8063139
0
LINE
8
DEFAULT_255_2_778
10
4.7187534
20
86.8063139
11
4.0829534
21
86.8063139
0
LINE
8
DEFAULT_255_2_778
10
4.0829534
20
86.8063139
11
3.6963534
21
87.5259139
0
LINE
8
DEFAULT_255_2_778
10
3.6963534
20
87.5259139
11
3.3124534
21
86.8063139
0
LINE
8
DEFAULT_255_2_778
10
3.3124534
20
86.8063139
11
2.7084534
21
86.8063139
0
LINE
8
DEFAULT_255_2_778
10
2.7084534
20
86.8063139
11
3.3556534
21
87.8339139
0
LINE
8
DEFAULT_255_2_778
10
3.3556534
20
87.8339139
11
2.7772534
21
88.7610139
0
LINE
8
DEFAULT_255_2_778
10
2.7772534
20
88.7610139
11
3.3987534
21
88.7610139
0
LINE
8
DEFAULT_255_2_778
10
3.3987534
20
88.7610139
11
3.7336534
21
88.1170139
0
LINE
8
DEFAULT_255_2_778
10
3.7336534
20
88.1170139
11
4.0773534
21
88.7610139
0
LINE
8
DEFAULT_255_2_778
10
10.2863534
20
88.7610139
11
10.9393534
21
88.7610139
0
LINE
8
DEFAULT_255_2_778
10
10.9393534
20
88.7610139
11
11.7095534
21
86.7621139
0
LINE
8
DEFAULT_255_2_778
10
11.7095534
20
86.7621139
11
11.1253534
21
86.7621139
0
LINE
8
DEFAULT_255_2_778
10
11.1253534
20
86.7621139
11
10.9766534
21
87.1888139
0
LINE
8
DEFAULT_255_2_778
10
10.9766534
20
87.1888139
11
10.2263534
21
87.1888139
0
LINE
8
DEFAULT_255_2_778
10
10.2263534
20
87.1888139
11
10.0688534
21
86.7621139
0
LINE
8
DEFAULT_255_2_778
10
10.0688534
20
86.7621139
11
9.5275534
21
86.7621139
0
LINE
8
DEFAULT_255_2_778
10
9.5275534
20
86.7621139
11
10.2863534
21
88.7610139
0
LINE
8
DEFAULT_255_2_778
10
10.6128534
20
88.3485139
11
10.6073534
21
88.3485139
0
LINE
8
DEFAULT_255_2_778
10
10.6073534
20
88.3485139
11
10.3496534
21
87.5669139
0
LINE
8
DEFAULT_255_2_778
10
10.3496534
20
87.5669139
11
10.8507534
21
87.5669139
0
LINE
8
DEFAULT_255_2_778
10
10.8507534
20
87.5669139
11
10.6128534
21
88.3485139
0
LINE
8
DEFAULT_255_2_778
10
12.4882534
20
88.3678139
11
12.4882534
21
87.1714139
0
LINE
8
DEFAULT_255_2_778
10
12.6641534
20
88.7607139
11
11.9722534
21
88.7607139
0
LINE
8
DEFAULT_255_2_778
10
11.9722534
20
88.7607139
11
11.9722534
21
86.7766139
0
LINE
8
DEFAULT_255_2_778
10
11.9722534
20
86.7766139
11
12.6541534
21
86.7766139
0
ARC
8
DEFAULT_255_2_778
10
8.5967583
20
87.3562812
40
0.2811893
50
271.4947955
51
312.1281433
0
ARC
8
DEFAULT_255_2_778
10
8.574728
20
87.3481925
40
0.2907838
50
316.4206205
51
354.4720158
0
ARC
8
DEFAULT_255_2_778
10
8.34627
20
87.3945581
40
0.5232032
50
351.8272802
51
355.9919089
0
ARC
8
DEFAULT_255_2_778
10
8.6117628
20
87.329086
40
0.2580542
50
6.4304981
51
61.5509536
0
ARC
8
DEFAULT_255_2_778
10
8.4045366
20
87.0117296
40
0.6365612
50
58.7577478
51
73.503399
0
ARC
8
DEFAULT_255_2_778
10
8.6352358
20
87.329943
40
0.2963827
50
99.7009893
51
174.2464299
0
ARC
8
DEFAULT_255_2_778
10
8.7814979
20
87.2919868
40
0.4463113
50
171.279327
51
171.4958802
0
ARC
8
DEFAULT_255_2_778
10
8.8630584
20
87.3554002
40
0.5229714
50
179.7165357
51
179.9996714
0
ARC
8
DEFAULT_255_2_778
10
8.6581381
20
87.342585
40
0.3183091
50
177.6920946
51
208.6405418
0
ARC
8
DEFAULT_255_2_778
10
8.5808415
20
87.3193719
40
0.239924
50
212.6262039
51
263.9680312
0
ARC
8
DEFAULT_255_2_778
10
8.6331813
20
87.540335
40
0.4660562
50
260.4214219
51
266.4216904
0
ARC
8
DEFAULT_255_2_778
10
8.5846946
20
88.2078275
40
0.2238709
50
89.4372217
51
171.4293153
0
ARC
8
DEFAULT_255_2_778
10
8.7810049
20
88.1543906
40
0.426605
50
168.2601906
51
176.0890476
0
ARC
8
DEFAULT_255_2_778
10
8.5472316
20
88.1903549
40
0.191961
50
182.0501819
51
239.5067977
0
ARC
8
DEFAULT_255_2_778
10
8.769037
20
88.5008831
40
0.5730751
50
236.1501518
51
251.9606686
0
ARC
8
DEFAULT_255_2_778
10
8.8996522
20
88.8416156
40
0.9376922
50
250.8191819
51
251.5757153
0
ARC
8
DEFAULT_255_2_778
10
8.4436869
20
88.3675217
40
0.4451325
50
291.0117712
51
313.3799951
0
ARC
8
DEFAULT_255_2_778
10
8.5902267
20
88.2095072
40
0.2296457
50
313.8846051
51
353.4942327
0
ARC
8
DEFAULT_255_2_778
10
8.3687915
20
88.2142781
40
0.4506551
50
356.0822721
51
359.9339861
0
ARC
8
DEFAULT_255_2_778
10
8.5870236
20
88.2260342
40
0.2327466
50
356.9767481
51
33.8477312
0
ARC
8
DEFAULT_255_2_778
10
8.6263139
20
88.2302569
40
0.1986151
50
39.15672
51
87.0777099
0
ARC
8
DEFAULT_255_2_778
10
8.5882595
20
88.0119003
40
0.4194893
50
83.4047921
51
90.1865834
0
ARC
8
DEFAULT_255_2_778
10
8.6579206
20
87.414012
40
1.3816433
50
90.8927494
51
101.8526035
0
ARC
8
DEFAULT_255_2_778
10
8.5196622
20
88.0451433
40
0.7355926
50
101.4102093
51
121.2149342
0
ARC
8
DEFAULT_255_2_778
10
8.401307
20
88.2569914
40
0.4931508
50
122.2106141
51
176.8587775
0
ARC
8
DEFAULT_255_2_778
10
8.5427685
20
88.2193064
40
0.6371654
50
174.1711937
51
174.2640245
0
ARC
8
DEFAULT_255_2_778
10
8.4559913
20
88.276954
40
0.5472311
50
179.3682669
51
238.5466514
0
ARC
8
DEFAULT_255_2_778
10
8.656264
20
88.5240722
40
0.8635591
50
235.7656686
51
238.6118298
0
ARC
8
DEFAULT_255_2_778
10
8.3410394
20
87.2408176
40
0.5624011
50
103.8413864
51
128.8730314
0
ARC
8
DEFAULT_255_2_778
10
8.2900796
20
87.3279367
40
0.4628364
50
130.73043
51
172.1694885
0
ARC
8
DEFAULT_255_2_778
10
8.5933107
20
87.2644223
40
0.7721956
50
170.5659249
51
180.2833894
0
ARC
8
DEFAULT_255_2_778
10
8.8434517
20
87.2618746
40
1.0223279
50
180.0712628
51
184.3227163
0
ARC
8
DEFAULT_255_2_778
10
8.9896379
20
87.2716656
40
1.1688368
50
184.2611745
51
185.5566353
0
ARC
8
DEFAULT_255_2_778
10
8.392437
20
87.3233201
40
0.5896509
50
196.232903
51
254.54363
0
ARC
8
DEFAULT_255_2_778
10
8.5295509
20
87.7457946
40
1.0335728
50
253.4590571
51
267.9835311
0
ARC
8
DEFAULT_255_2_778
10
8.5601387
20
88.1720152
40
1.4606889
50
267.3727244
51
270.0290934
0
ARC
8
DEFAULT_255_2_778
10
8.5606021
20
88.3359191
40
1.6245926
50
270.0098141
51
271.5058017
0
ARC
8
DEFAULT_255_2_778
10
8.5814114
20
88.3040288
40
1.5922916
50
270.7874132
51
280.5174608
0
ARC
8
DEFAULT_255_2_778
10
8.7201215
20
87.5847782
40
0.8598205
50
280.1782004
51
296.7294694
0
ARC
8
DEFAULT_255_2_778
10
8.8893535
20
87.2561856
40
0.4902356
50
296.3374667
51
359.210847
0
ARC
8
DEFAULT_255_2_778
10
8.6204372
20
87.297221
40
0.7606081
50
356.3978573
51
358.2571172
0
ARC
8
DEFAULT_255_2_778
10
8.597642
20
87.3059515
40
0.7836995
50
357.6698054
51
359.9830782
0
ARC
8
DEFAULT_255_2_778
10
8.8498815
20
87.3190603
40
0.5316275
50
358.5621153
51
26.5523166
0
ARC
8
DEFAULT_255_2_778
10
8.9163952
20
87.3322336
40
0.4665858
50
28.7569262
51
67.4885175
0
ARC
8
DEFAULT_255_2_778
10
8.7773544
20
87.0548439
40
0.7763924
50
65.8468525
51
74.5798419
0
ARC
8
DEFAULT_255_2_778
10
8.6504774
20
88.4965217
40
0.7692029
50
295.678858
51
312.8547228
0
ARC
8
DEFAULT_255_2_778
10
8.877449
20
88.2577674
40
0.4398222
50
312.3334146
51
0.5077309
0
ARC
8
DEFAULT_255_2_778
10
8.7739299
20
88.2610836
40
0.5433243
50
0.0612952
51
5.778548
0
ARC
8
DEFAULT_255_2_778
10
8.7748138
20
88.2351472
40
0.5456712
50
8.4984121
51
42.6464952
0
ARC
8
DEFAULT_255_2_778
10
8.7703254
20
88.2023429
40
0.5715858
50
44.7608757
51
74.7375515
0
ARC
8
DEFAULT_255_2_778
10
8.6285055
20
87.7319561
40
1.0627945
50
74.0370787
51
87.9510414
0
ARC
8
DEFAULT_255_2_778
10
8.5957299
20
87.3030604
40
1.4926894
50
87.2823656
51
88.4274461
0
ARC
8
DEFAULT_255_2_778
10
49.6354179
20
69.7563119
40
0.5000756
50
359.9972098
51
89.9913379
0
ARC
8
DEFAULT_255_2_778
10
49.6354179
20
18.7563119
40
0.5000757
50
359.9972098
51
89.9913379
0
LINE
8
DEFAULT_255_2_778
10
8.6040935
20
87.0751876
11
8.6040935
21
87.0751876
0
LINE
8
DEFAULT_255_2_778
10
8.5868935
20
88.4313876
11
8.5868935
21
88.4316876
0
LINE
8
DEFAULT_255_2_778
10
8.6366935
20
88.7951876
11
8.6363935
21
88.7954876
0
LINE
8
DEFAULT_255_2_778
10
49.6354935
20
70.2563876
11
30.4353935
21
70.2563876
0
LINE
8
DEFAULT_255_2_778
10
30.4353935
20
70.2563876
11
30.4353935
21
19.2563876
0
LINE
8
DEFAULT_255_2_778
10
30.4353935
20
19.2563876
11
49.6354935
21
19.2563876
0
ARC
8
DEFAULT_255_2_778
10
33.6355795
20
19.8063865
40
0.5000969
50
179.9996485
51
270.0003515
0
ARC
8
DEFAULT_255_2_778
10
49.6305267
20
19.8088184
40
0.5057859
50
323.6863656
51
337.6993503
0
LINE
8
DEFAULT_255_2_778
10
33.6355825
20
19.3062896
11
49.6354825
21
19.3062896
0
LINE
8
DEFAULT_255_2_778
10
49.6354825
20
19.3062896
11
49.7041825
21
19.3110896
0
LINE
8
DEFAULT_255_2_778
10
49.7041825
20
19.3110896
11
49.7719825
21
19.3250896
0
LINE
8
DEFAULT_255_2_778
10
49.7719825
20
19.3250896
11
49.8362825
21
19.3480896
0
LINE
8
DEFAULT_255_2_778
10
49.8362825
20
19.3480896
11
49.8957825
21
19.3790896
0
LINE
8
DEFAULT_255_2_778
10
49.8957825
20
19.3790896
11
49.9497825
21
19.4168896
0
LINE
8
DEFAULT_255_2_778
10
49.9497825
20
19.4168896
11
49.9973825
21
19.4605896
0
LINE
8
DEFAULT_255_2_778
10
49.9973825
20
19.4605896
11
50.0380825
21
19.5092896
0
LINE
8
DEFAULT_255_2_778
10
50.0984825
20
19.6168896
11
50.1150825
21
19.6645896
0
LINE
8
DEFAULT_255_2_778
10
46.1352825
20
21.2562896
11
45.8769825
21
21.2562896
0
LINE
8
DEFAULT_255_2_778
10
37.3925961
20
21.2563191
11
37.1354961
21
21.2563191
0
LINE
8
DEFAULT_255_2_778
10
33.1354961
20
70.2563191
11
33.1354961
21
58.7062191
0
LINE
8
DEFAULT_255_2_778
10
33.1354961
20
58.7062191
11
50.1354961
21
58.7062191
0
LINE
8
DEFAULT_255_2_778
10
50.1354961
20
58.7062191
11
50.1354961
21
22.2061191
0
ARC
8
DEFAULT_255_2_778
10
49.6354295
20
59.256366
40
0.5000542
50
270.0061976
51
359.9937909
0
LINE
8
DEFAULT_255_2_778
10
32.9354836
20
58.7563118
11
49.6354836
21
58.7563118
0
LINE
8
DEFAULT_255_2_778
10
32.9354836
20
70.2564118
11
32.9354836
21
19.2564118
0
LINE
8
DEFAULT_255_2_778
10
33.1354836
20
22.2062118
11
33.1354836
21
58.7063118
0
ARC
8
DEFAULT_255_2_778
10
36.6349782
20
21.9065738
40
1.000573
50
325.1552047
51
359.9895335
0
ARC
8
DEFAULT_255_2_778
10
46.6357418
20
21.9064526
40
1.0002906
50
180.0035306
51
229.0727545
0
LINE
8
DEFAULT_255_2_778
10
32.9354512
20
58.956191
11
33.1354512
21
58.956191
0
LINE
8
DEFAULT_255_2_778
10
36.3353512
20
58.706191
11
36.3353512
21
57.406291
0
LINE
8
DEFAULT_255_2_778
10
36.6353512
20
58.706191
11
36.6353512
21
57.706091
0
LINE
8
DEFAULT_255_2_778
10
37.6355512
20
21.906391
11
37.6355512
21
22.206391
0
LINE
8
DEFAULT_255_2_778
10
32.9354512
20
70.056291
11
33.1354512
21
70.056291
0
LINE
8
DEFAULT_255_2_778
10
45.6354512
20
22.206391
11
45.6354512
21
21.906391
0
LINE
8
DEFAULT_255_2_778
10
46.9353512
20
57.406291
11
46.6353512
21
57.706291
0
ARC
8
DEFAULT_255_2_778
10
36.5387335
20
21.9501275
40
1.1005658
50
323.2118433
51
337.1493735
0
ARC
8
DEFAULT_255_2_778
10
36.5702769
20
21.9421385
40
1.0681829
50
339.8884456
51
349.7544998
0
ARC
8
DEFAULT_255_2_778
10
49.6285663
20
19.8072781
40
0.5071208
50
343.6291955
51
350.9883129
0
ARC
8
DEFAULT_255_2_778
10
49.6355757
20
19.8061655
40
0.4998516
50
277.2812911
51
359.9976173
0
ARC
8
DEFAULT_255_2_778
10
46.7465586
20
21.9453442
40
1.1118003
50
198.2078865
51
208.189319
0
ARC
8
DEFAULT_255_2_778
10
46.6618562
20
21.8999916
40
1.0157203
50
208.1915126
51
217.6291906
0
LINE
8
DEFAULT_255_2_778
10
37.5529273
20
21.5227448
11
37.5733273
21
21.5748448
0
LINE
8
DEFAULT_255_2_778
10
37.6214273
20
21.7521448
11
37.6257273
21
21.7773448
0
LINE
8
DEFAULT_255_2_778
10
50.1294273
20
19.7278448
11
50.1299273
21
19.7312448
0
LINE
8
DEFAULT_255_2_778
10
50.1299273
20
19.7312448
11
50.1302273
21
19.7331448
0
LINE
8
DEFAULT_255_2_778
10
49.6354273
20
19.3063448
11
49.6989273
21
19.3103448
0
LINE
8
DEFAULT_255_2_778
10
45.6439273
20
21.7926448
11
45.6523273
21
21.7437448
0
LINE
8
DEFAULT_255_2_778
10
45.6523273
20
21.7437448
11
45.6695273
21
21.6685448
0
LINE
8
DEFAULT_255_2_778
10
45.6695273
20
21.6685448
11
45.6904273
21
21.5979448
0
LINE
8
DEFAULT_255_2_778
10
45.8574273
20
21.2798448
11
45.8690273
21
21.2650448
0
LINE
8
DEFAULT_255_2_778
10
45.8690273
20
21.2650448
11
45.9294273
21
21.1968448
0
ARC
8
DEFAULT_255_2_778
10
49.6566372
20
19.7710607
40
0.4605634
50
295.2633297
51
309.5329861
0
ARC
8
DEFAULT_255_2_778
10
49.6462064
20
19.7882426
40
0.4805583
50
280.7686925
51
295.5137357
0
ARC
8
DEFAULT_255_2_778
10
33.1571898
20
20.7581838
40
0.0285345
50
220.5126427
51
271.4306582
0
ARC
8
DEFAULT_255_2_778
10
33.2901092
20
21.4356719
40
0.7182855
50
259.3937252
51
265.9291849
0
ARC
8
DEFAULT_255_2_778
10
33.4959212
20
23.8651195
40
3.1563849
50
265.3332721
51
268.0046587
0
ARC
8
DEFAULT_255_2_778
10
33.6280198
20
27.3550253
40
6.6487823
50
267.9141223
51
270.0652886
0
ARC
8
DEFAULT_255_2_778
10
49.6421546
20
27.4333429
40
6.7270988
50
269.9432884
51
271.9768095
0
ARC
8
DEFAULT_255_2_778
10
49.7642259
20
24.0540062
40
3.3455669
50
271.8838423
51
274.4771369
0
ARC
8
DEFAULT_255_2_778
10
49.9692244
20
21.5281602
40
0.8114577
50
273.9685926
51
279.9716203
0
ARC
8
DEFAULT_255_2_778
10
50.1109117
20
20.7625172
40
0.0335771
50
267.9946159
51
317.0691516
0
LINE
8
DEFAULT_255_2_778
10
33.1354961
20
19.2563473
11
33.1354961
21
20.9062473
0
LINE
8
DEFAULT_255_2_778
10
33.1354961
20
20.9062473
11
50.1354961
21
20.9062473
0
LINE
8
DEFAULT_255_2_778
10
50.1354961
20
20.9062473
11
50.1354961
21
22.2061473
0
LINE
8
DEFAULT_255_2_778
10
50.1354961
20
22.2061473
11
33.1354961
21
22.2061473
0
LINE
8
DEFAULT_255_2_778
10
33.1354961
20
22.2061473
11
33.1354961
21
20.9062473
0
LINE
8
DEFAULT_255_2_778
10
33.6355961
20
20.7062473
11
33.6355961
21
20.7062473
0
LINE
8
DEFAULT_255_2_778
10
33.6355961
20
20.7062473
11
49.6354961
21
20.7062473
0
LINE
8
DEFAULT_255_2_778
10
50.1354961
20
20.7396473
11
50.1354961
21
20.7396473
0
LINE
8
DEFAULT_255_2_778
10
36.3353961
20
58.7562473
11
36.3353961
21
60.7562473
0
LINE
8
DEFAULT_255_2_778
10
36.3353961
20
60.7562473
11
46.9353961
21
60.7562473
0
LINE
8
DEFAULT_255_2_778
10
46.9353961
20
60.7562473
11
46.9353961
21
58.7562473
0
ARC
8
DEFAULT_255_2_778
10
36.5890611
20
21.9049902
40
1.0463746
50
351.5863457
51
357.9623969
0
ARC
8
DEFAULT_255_2_778
10
36.6980671
20
21.890889
40
0.936592
50
343.0083079
51
349.8405894
0
ARC
8
DEFAULT_255_2_778
10
36.6394942
20
21.912249
40
0.9990783
50
325.7654839
51
331.8229137
0
ARC
8
DEFAULT_255_2_778
10
36.6206963
20
21.9260683
40
1.0223254
50
307.1564455
51
324.7601424
0
ARC
8
DEFAULT_255_2_778
10
36.6221032
20
21.9261868
40
1.0215708
50
293.8687226
51
307.0895398
0
ARC
8
DEFAULT_255_2_778
10
36.6308003
20
21.9037283
40
0.9975144
50
278.5831661
51
293.9338843
0
ARC
8
DEFAULT_255_2_778
10
36.6335423
20
21.9337577
40
1.0272736
50
270.1077487
51
271.0933041
0
ARC
8
DEFAULT_255_2_778
10
36.6342754
20
21.9163862
40
1.0098913
50
271.0705214
51
279.0928901
0
LINE
8
DEFAULT_255_2_778
10
36.3353741
20
59.2562859
11
46.9353741
21
59.2562859
0
LINE
8
DEFAULT_255_2_778
10
46.9353741
20
58.9562859
11
36.3353741
21
58.9562859
0
LINE
8
DEFAULT_255_2_778
10
46.6353741
20
58.7061859
11
46.6353741
21
57.7060859
0
LINE
8
DEFAULT_255_2_778
10
46.6353741
20
57.7060859
11
36.6354741
21
57.7060859
0
LINE
8
DEFAULT_255_2_778
10
36.6354741
20
57.7060859
11
36.3353741
21
57.4060859
0
LINE
8
DEFAULT_255_2_778
10
36.3353741
20
57.4060859
11
46.9353741
21
57.4060859
0
LINE
8
DEFAULT_255_2_778
10
46.9353741
20
57.4060859
11
46.9353741
21
58.7059859
0
LINE
8
DEFAULT_255_2_778
10
36.1353741
20
20.9064859
11
36.1353741
21
22.2063859
0
LINE
8
DEFAULT_255_2_778
10
36.1353741
20
19.2562859
11
36.1353741
21
19.3062859
0
LINE
8
DEFAULT_255_2_778
10
38.3353741
20
19.3062859
11
38.3353741
21
19.2562859
0
LINE
8
DEFAULT_255_2_778
10
38.1353741
20
19.3062859
11
38.1353741
21
19.2562859
0
LINE
8
DEFAULT_255_2_778
10
37.2854741
20
19.3062859
11
37.2854741
21
19.2562859
0
LINE
8
DEFAULT_255_2_778
10
38.5435741
20
19.2562859
11
38.5353741
21
19.3062859
0
LINE
8
DEFAULT_255_2_778
10
37.1354741
20
19.3062859
11
37.1354741
21
19.2874859
0
LINE
8
DEFAULT_255_2_778
10
37.1354741
20
19.2874859
11
36.8854741
21
19.2562859
0
LINE
8
DEFAULT_255_2_778
10
42.7353741
20
58.7561859
11
42.7353741
21
58.7061859
0
LINE
8
DEFAULT_255_2_778
10
37.5455741
20
58.7561859
11
37.5355741
21
58.7061859
0
LINE
8
DEFAULT_255_2_778
10
45.2354741
20
19.3062859
11
45.1854741
21
19.2562859
0
LINE
8
DEFAULT_255_2_778
10
47.1354741
20
19.3062859
11
47.1354741
21
19.2562859
0
LINE
8
DEFAULT_255_2_778
10
47.1354741
20
22.2063859
11
47.1354741
21
20.9064859
0
LINE
8
DEFAULT_255_2_778
10
46.3855741
20
19.2562859
11
46.1355741
21
19.2874859
0
LINE
8
DEFAULT_255_2_778
10
46.1355741
20
19.2874859
11
46.1355741
21
19.3062859
0
LINE
8
DEFAULT_255_2_778
10
37.6355741
20
21.9063859
11
37.6347741
21
21.8677859
0
LINE
8
DEFAULT_255_2_778
10
37.6241741
20
21.7518859
11
37.6231741
21
21.7446859
0
LINE
8
DEFAULT_255_2_778
10
37.6231741
20
21.7446859
11
37.6199741
21
21.7256859
0
LINE
8
DEFAULT_255_2_778
10
37.5937741
20
21.6171859
11
37.5839741
21
21.5872859
0
LINE
8
DEFAULT_255_2_778
10
37.5839741
20
21.5872859
11
37.5590741
21
21.5216859
0
LINE
8
DEFAULT_255_2_778
10
37.5590741
20
21.5216859
11
37.5201741
21
21.4404859
0
LINE
8
DEFAULT_255_2_778
10
37.4654741
20
21.3501859
11
37.4556741
21
21.3361859
0
LINE
8
DEFAULT_255_2_778
10
36.7796741
20
20.9173859
11
36.7198741
21
20.9101859
0
LINE
8
DEFAULT_255_2_778
10
36.7198741
20
20.9101859
11
36.6354741
21
20.9064859
0
ARC
8
DEFAULT_255_2_778
10
46.6159803
20
21.893716
40
0.9796452
50
197.7686929
51
212.7291567
0
ARC
8
DEFAULT_255_2_778
10
46.5868861
20
21.8766422
40
0.9459397
50
212.8119706
51
221.1283053
0
ARC
8
DEFAULT_255_2_778
10
46.6133101
20
21.9025629
40
0.9828949
50
221.2532939
51
229.7980845
0
ARC
8
DEFAULT_255_2_778
10
46.6582665
20
21.967208
40
1.0616789
50
235.0168231
51
245.3143751
0
ARC
8
DEFAULT_255_2_778
10
46.633317
20
21.8168002
40
0.9102594
50
258.2382753
51
269.8737714
0
ARC
8
DEFAULT_255_2_778
10
46.6313115
20
21.7635526
40
0.8570095
50
270.0000108
51
270.2711916
0
ARC
8
DEFAULT_255_2_778
10
46.6354414
20
21.9097065
40
1.0031537
50
249.4230513
51
269.9958008
0
LINE
8
DEFAULT_255_2_778
10
37.1354678
20
21.0433528
11
37.1354678
21
22.2064528
0
LINE
8
DEFAULT_255_2_778
10
45.6354678
20
21.9064528
11
45.6415678
21
21.7944528
0
LINE
8
DEFAULT_255_2_778
10
45.6415678
20
21.7944528
11
45.6460678
21
21.7571528
0
LINE
8
DEFAULT_255_2_778
10
45.6460678
20
21.7571528
11
45.6518678
21
21.7204528
0
LINE
8
DEFAULT_255_2_778
10
45.6518678
20
21.7204528
11
45.6695678
21
21.6407528
0
LINE
8
DEFAULT_255_2_778
10
45.6695678
20
21.6407528
11
45.6825678
21
21.5960528
0
LINE
8
DEFAULT_255_2_778
10
45.6825678
20
21.5960528
11
45.6830678
21
21.5947528
0
LINE
8
DEFAULT_255_2_778
10
45.9788678
20
21.1518528
11
46.0257678
21
21.1145528
0
LINE
8
DEFAULT_255_2_778
10
46.0257678
20
21.1145528
11
46.0495678
21
21.0973528
0
LINE
8
DEFAULT_255_2_778
10
46.2148678
20
21.0025528
11
46.2773678
21
20.9761528
0
LINE
8
DEFAULT_255_2_778
10
46.2773678
20
20.9761528
11
46.3598678
21
20.9478528
0
LINE
8
DEFAULT_255_2_778
10
46.3598678
20
20.9478528
11
46.4477678
21
20.9256528
0
LINE
8
DEFAULT_255_2_778
10
46.1355
20
22.2064219
11
46.1355
21
21.0436219
0
ARC
8
DEFAULT_255_2_778
10
46.3343696
20
67.7575304
40
0.5488398
50
89.8682888
51
180.1317112
0
ARC
8
DEFAULT_255_2_778
10
46.3368782
20
67.7576154
40
0.5487547
50
359.8593896
51
90.1301939
0
ARC
8
DEFAULT_255_2_778
10
46.3369632
20
67.7549368
40
0.5486696
50
269.8609058
51
0.1390942
0
ARC
8
DEFAULT_255_2_778
10
46.3342846
20
67.7550218
40
0.5487547
50
179.8698061
51
270.1406104
0
LINE
8
DEFAULT_255_2_778
10
45.7855313
20
67.7562687
11
45.7855313
21
67.7562687
0
ARC
8
DEFAULT_255_2_778
10
46.3343696
20
65.2575304
40
0.5488398
50
89.8682888
51
180.1317112
0
ARC
8
DEFAULT_255_2_778
10
46.3368782
20
65.2576154
40
0.5487547
50
359.8593896
51
90.1301939
0
ARC
8
DEFAULT_255_2_778
10
46.3369632
20
65.2549368
40
0.5486696
50
269.8609058
51
0.1390942
0
ARC
8
DEFAULT_255_2_778
10
46.3342846
20
65.2550218
40
0.5487547
50
179.8698061
51
270.1406104
0
LINE
8
DEFAULT_255_2_778
10
45.7855313
20
65.2562687
11
45.7855313
21
65.2562687
0
ARC
8
DEFAULT_255_2_778
10
46.3343696
20
62.7574304
40
0.5488398
50
89.8682888
51
180.1317112
0
ARC
8
DEFAULT_255_2_778
10
46.3368782
20
62.7575154
40
0.5487547
50
359.8593896
51
90.1301939
0
ARC
8
DEFAULT_255_2_778
10
46.3369632
20
62.7548368
40
0.5486696
50
269.8609058
51
0.1390942
0
ARC
8
DEFAULT_255_2_778
10
46.3342846
20
62.7549218
40
0.5487547
50
179.8698061
51
270.1406104
0
LINE
8
DEFAULT_255_2_778
10
45.7855313
20
62.7561687
11
45.7855313
21
62.7561687
0
ARC
8
DEFAULT_255_2_778
10
36.9674145
20
68.0286786
40
0.2314045
50
358.0767573
51
78.983895
0
ARC
8
DEFAULT_255_2_778
10
36.8202407
20
67.5866961
40
0.6959571
50
74.0376905
51
88.5892562
0
ARC
8
DEFAULT_255_2_778
10
36.7898164
20
67.1175553
40
1.1658575
50
87.6621
51
90.0357671
0
LINE
8
DEFAULT_255_2_778
10
36.7890886
20
68.2834125
11
36.7890886
21
67.7878125
0
ARC
8
DEFAULT_255_2_778
10
36.801295
20
68.7407318
40
0.9529975
50
269.2661126
51
280.5285787
0
ARC
8
DEFAULT_255_2_778
10
36.9149763
20
68.1658646
40
0.3670979
50
279.4790213
51
303.948663
0
ARC
8
DEFAULT_255_2_778
10
37.0124752
20
68.0135654
40
0.1863584
50
305.2315799
51
2.2594361
0
ARC
8
DEFAULT_255_2_778
10
36.9325223
20
69.6620708
40
2.2288782
50
266.3103292
51
268.0679105
0
ARC
8
DEFAULT_255_2_778
10
36.9236104
20
69.396368
40
1.9630261
50
268.0664137
51
269.9793107
0
ARC
8
DEFAULT_255_2_778
10
36.9340264
20
68.8258731
40
1.3925755
50
269.5422777
51
279.8119433
0
ARC
8
DEFAULT_255_2_778
10
37.0445471
20
68.214746
40
0.7715681
50
279.4585515
51
297.2011842
0
ARC
8
DEFAULT_255_2_778
10
37.1675775
20
67.9672195
40
0.4951911
50
297.6321091
51
355.3224008
0
ARC
8
DEFAULT_255_2_778
10
36.8195213
20
68.0338594
40
0.8483755
50
352.7528545
51
0.1685276
0
ARC
8
DEFAULT_255_2_778
10
36.6388286
20
68.0359718
40
1.0290647
50
0.0213249
51
2.4026698
0
ARC
8
DEFAULT_255_2_778
10
37.174543
20
68.0926795
40
0.4926324
50
358.4218846
51
29.1600074
0
ARC
8
DEFAULT_255_2_778
10
37.209466
20
68.0902623
40
0.463708
50
31.5240222
51
67.2284369
0
ARC
8
DEFAULT_255_2_778
10
37.0254749
20
67.6908805
40
0.9033009
50
66.2727593
51
81.0708938
0
ARC
8
DEFAULT_255_2_778
10
36.8967439
20
66.9338715
40
1.6711444
50
80.7392211
51
89.3886573
0
ARC
8
DEFAULT_255_2_778
10
36.8748221
20
66.3096282
40
2.2956371
50
89.0077845
51
90.0066626
0
ARC
8
DEFAULT_255_2_778
10
36.8751754
20
66.0740332
40
2.5312321
50
90.0140394
51
91.4558442
0
ARC
8
DEFAULT_255_2_778
10
36.8797424
20
65.8703675
40
2.734948
50
91.4430879
51
91.8994977
0
LINE
8
DEFAULT_255_2_778
10
36.7890886
20
68.6038125
11
36.3210886
21
68.6038125
0
LINE
8
DEFAULT_255_2_778
10
42.5316886
20
66.8057125
11
42.5316886
21
68.6054125
0
LINE
8
DEFAULT_255_2_778
10
42.5316886
20
68.6054125
11
43.5941886
21
68.6054125
0
LINE
8
DEFAULT_255_2_778
10
43.5941886
20
68.6054125
11
43.5941886
21
68.3218125
0
LINE
8
DEFAULT_255_2_778
10
43.5941886
20
68.3218125
11
42.8927886
21
68.3218125
0
LINE
8
DEFAULT_255_2_778
10
42.8927886
20
68.3218125
11
42.8927886
21
67.8783125
0
LINE
8
DEFAULT_255_2_778
10
42.8927886
20
67.8783125
11
43.5349886
21
67.8783125
0
LINE
8
DEFAULT_255_2_778
10
43.5349886
20
67.8783125
11
43.5349886
21
67.5947125
0
LINE
8
DEFAULT_255_2_778
10
43.5349886
20
67.5947125
11
42.8927886
21
67.5947125
0
LINE
8
DEFAULT_255_2_778
10
42.8927886
20
67.5947125
11
42.8927886
21
67.0896125
0
LINE
8
DEFAULT_255_2_778
10
42.8927886
20
67.0896125
11
43.5994886
21
67.0896125
0
LINE
8
DEFAULT_255_2_778
10
43.5994886
20
67.0896125
11
43.5994886
21
66.8060125
0
LINE
8
DEFAULT_255_2_778
10
43.5994886
20
66.8060125
11
42.5318886
21
66.8060125
0
LINE
8
DEFAULT_255_2_778
10
40.1868886
20
66.8057125
11
39.7100886
21
68.6054125
0
LINE
8
DEFAULT_255_2_778
10
39.7100886
20
68.6054125
11
40.0889886
21
68.6054125
0
LINE
8
DEFAULT_255_2_778
10
40.0889886
20
68.6054125
11
40.4242886
21
67.1666125
0
LINE
8
DEFAULT_255_2_778
10
40.4242886
20
67.1666125
11
40.4294886
21
67.1666125
0
LINE
8
DEFAULT_255_2_778
10
40.4294886
20
67.1666125
11
40.7361886
21
68.6051125
0
LINE
8
DEFAULT_255_2_778
10
40.7361886
20
68.6051125
11
41.2261886
21
68.6051125
0
LINE
8
DEFAULT_255_2_778
10
41.2261886
20
68.6051125
11
41.5433886
21
67.1663125
0
LINE
8
DEFAULT_255_2_778
10
41.5433886
20
67.1663125
11
41.5484886
21
67.1663125
0
LINE
8
DEFAULT_255_2_778
10
41.5484886
20
67.1663125
11
41.8860886
21
68.6049125
0
LINE
8
DEFAULT_255_2_778
10
41.8860886
20
68.6049125
11
42.2368886
21
68.6049125
0
LINE
8
DEFAULT_255_2_778
10
42.2368886
20
68.6049125
11
41.7677886
21
66.8052125
0
LINE
8
DEFAULT_255_2_778
10
41.7677886
20
66.8052125
11
41.3036886
21
66.8052125
0
LINE
8
DEFAULT_255_2_778
10
41.3036886
20
66.8052125
11
40.9787886
21
68.2440125
0
LINE
8
DEFAULT_255_2_778
10
40.9787886
20
68.2440125
11
40.9734886
21
68.2440125
0
LINE
8
DEFAULT_255_2_778
10
40.9734886
20
68.2440125
11
40.6538886
21
66.8052125
0
LINE
8
DEFAULT_255_2_778
10
40.6538886
20
66.8052125
11
40.1871886
21
66.8052125
0
LINE
8
DEFAULT_255_2_778
10
37.1986886
20
68.0209125
11
37.1986886
21
68.0209125
0
LINE
8
DEFAULT_255_2_778
10
36.3210886
20
68.6038125
11
36.3210886
21
66.8549125
0
LINE
8
DEFAULT_255_2_778
10
36.3210886
20
66.8549125
11
36.7890886
21
66.8549125
0
LINE
8
DEFAULT_255_2_778
10
36.7890886
20
66.8549125
11
36.7890886
21
67.4378125
0
LINE
8
DEFAULT_255_2_778
10
36.3210886
20
68.6038125
11
36.3210886
21
68.6038125
0
ARC
8
DEFAULT_255_2_778
10
38.7735854
20
67.5741092
40
0.4801891
50
268.9572866
51
295.0230067
0
ARC
8
DEFAULT_255_2_778
10
38.725922
20
67.5915264
40
0.517374
50
298.9932773
51
350.7220832
0
ARC
8
DEFAULT_255_2_778
10
38.2378029
20
67.7365498
40
1.0245166
50
347.1164787
51
357.1891526
0
ARC
8
DEFAULT_255_2_778
10
38.0623228
20
67.7494175
40
1.2004241
50
356.9864483
51
0.0134623
0
ARC
8
DEFAULT_255_2_778
10
38.7611185
20
67.8742687
40
0.4803102
50
88.9587343
51
115.0127598
0
ARC
8
DEFAULT_255_2_778
10
38.8105292
20
67.8551421
40
0.5198312
50
119.0600438
51
171.1056503
0
ARC
8
DEFAULT_255_2_778
10
39.300221
20
67.7115655
40
1.027963
50
167.4167872
51
177.159023
0
ARC
8
DEFAULT_255_2_778
10
39.4705752
20
67.6991786
40
1.1987284
50
176.971263
51
180.0133338
0
ARC
8
DEFAULT_255_2_778
10
38.7598136
20
67.5741884
40
0.4802682
50
244.9791245
51
271.0419446
0
ARC
8
DEFAULT_255_2_778
10
38.8093491
20
67.5934469
40
0.5199701
50
188.8763128
51
240.927192
0
ARC
8
DEFAULT_255_2_778
10
39.2996554
20
67.7370653
40
1.0287001
50
182.8281531
51
192.5684304
0
ARC
8
DEFAULT_255_2_778
10
39.470117
20
67.7494216
40
1.19957
50
179.9867234
51
183.0158949
0
ARC
8
DEFAULT_255_2_778
10
38.7735948
20
67.8768688
40
0.4801105
50
64.9609694
51
91.0440126
0
ARC
8
DEFAULT_255_2_778
10
38.7256867
20
67.8591955
40
0.5176473
50
9.2418139
51
60.9813276
0
ARC
8
DEFAULT_255_2_778
10
38.2363205
20
67.7140862
40
1.0260038
50
2.7850941
51
12.8535359
0
ARC
8
DEFAULT_255_2_778
10
38.0605181
20
67.7012718
40
1.2022289
50
359.9870256
51
2.9879721
0
LINE
8
DEFAULT_255_2_778
10
38.769547
20
68.6335996
11
38.7689637
21
68.633632
0
ARC
8
DEFAULT_255_2_778
10
38.7189749
20
67.7285377
40
0.9064737
50
86.8387388
51
89.9972306
0
ARC
8
DEFAULT_255_2_778
10
38.7002558
20
67.8521663
40
0.7830698
50
88.6270157
51
148.4437345
0
ARC
8
DEFAULT_255_2_778
10
38.7839491
20
67.8195393
40
0.8716087
50
149.4953883
51
169.8094401
0
ARC
8
DEFAULT_255_2_778
10
39.0559468
20
67.7651314
40
1.1489543
50
169.5388028
51
180.2268213
0
ARC
8
DEFAULT_255_2_778
10
39.2368542
20
67.7606464
40
1.3298526
50
180.0027343
51
181.1007332
0
ARC
8
DEFAULT_255_2_778
10
38.7706042
20
67.9611444
40
1.1465608
50
269.6973096
51
269.9999191
0
ARC
8
DEFAULT_255_2_778
10
38.8117187
20
67.6231986
40
0.8096597
50
267.0891501
51
325.3042255
0
ARC
8
DEFAULT_255_2_778
10
38.73845
20
67.6358561
40
0.8776633
50
327.3479372
51
347.2588753
0
ARC
8
DEFAULT_255_2_778
10
38.3484069
20
67.7280922
40
1.2784505
50
347.0821919
51
359.7672857
0
ARC
8
DEFAULT_255_2_778
10
38.7382449
20
67.7579231
40
0.9438427
50
270.0004776
51
271.9005332
0
ARC
8
DEFAULT_255_2_778
10
38.7160847
20
67.6177147
40
0.8039399
50
211.7127203
51
271.5800912
0
ARC
8
DEFAULT_255_2_778
10
38.7874934
20
67.6377598
40
0.8754637
50
189.6612079
51
210.371966
0
ARC
8
DEFAULT_255_2_778
10
39.0621529
20
67.6908772
40
1.1551591
50
179.790821
51
189.9722098
0
ARC
8
DEFAULT_255_2_778
10
39.2370445
20
67.6950407
40
1.3300431
50
178.8989019
51
179.9976821
0
ARC
8
DEFAULT_255_2_778
10
38.7706825
20
67.474463
40
1.1618528
50
89.9982301
51
90.3025703
0
ARC
8
DEFAULT_255_2_778
10
38.8118229
20
67.8208512
40
0.8165
50
37.46514
51
92.8856197
0
ARC
8
DEFAULT_255_2_778
10
38.7704897
20
67.8316498
40
0.8434125
50
14.1695373
51
35.1742784
0
ARC
8
DEFAULT_255_2_778
10
38.3930956
20
67.7327008
40
1.2335516
50
0.981477
51
14.3346873
0
ARC
8
DEFAULT_255_2_778
10
38.0895982
20
67.7155801
40
1.5373441
50
0.6380439
51
1.425711
0
ARC
8
DEFAULT_255_2_778
10
44.6661475
20
68.0864083
40
0.178254
50
358.5827678
51
80.2641633
0
ARC
8
DEFAULT_255_2_778
10
44.544351
20
67.7032678
40
0.5791148
50
74.7894718
51
89.5387627
0
ARC
8
DEFAULT_255_2_778
10
44.5241143
20
67.3187886
40
0.963897
50
88.5198215
51
90.014947
0
ARC
8
DEFAULT_255_2_778
10
44.5254682
20
67.1007392
40
1.1819476
50
90.0778213
51
93.2574592
0
ARC
8
DEFAULT_255_2_778
10
44.5408846
20
66.8073095
40
1.4757797
50
93.2076866
51
94.8525051
0
LINE
8
DEFAULT_255_2_778
10
44.416047
20
68.2777996
11
44.416047
21
67.8861996
0
ARC
8
DEFAULT_255_2_778
10
44.5525785
20
69.2141111
40
1.3349119
50
264.1296633
51
267.4787608
0
ARC
8
DEFAULT_255_2_778
10
44.5382489
20
68.9095673
40
1.0300329
50
267.5298768
51
269.9581778
0
ARC
8
DEFAULT_255_2_778
10
44.5477959
20
68.4790667
40
0.5996207
50
269.0158634
51
283.3087789
0
ARC
8
DEFAULT_255_2_778
10
44.641333
20
68.1128184
40
0.2217779
50
281.5736776
51
318.3328045
0
ARC
8
DEFAULT_255_2_778
10
44.6654532
20
68.0749933
40
0.1790309
50
322.2469322
51
2.2428163
0
ARC
8
DEFAULT_255_2_778
10
44.4533727
20
66.6344648
40
0.9151341
50
90.026247
51
91.8927507
0
ARC
8
DEFAULT_255_2_778
10
44.4641238
20
67.043849
40
0.505873
50
75.3100131
51
91.2652674
0
ARC
8
DEFAULT_255_2_778
10
44.5580727
20
67.376029
40
0.1608641
50
32.4317734
51
77.6759686
0
ARC
8
DEFAULT_255_2_778
10
44.8789955
20
67.4994266
40
0.2364382
50
27.0087911
51
70.5702093
0
ARC
8
DEFAULT_255_2_778
10
44.8583508
20
68.13713
40
0.4264517
50
283.4644884
51
316.3864279
0
ARC
8
DEFAULT_255_2_778
10
44.8607005
20
68.1075099
40
0.4048045
50
319.1934892
51
356.0104624
0
ARC
8
DEFAULT_255_2_778
10
44.5985993
20
68.148208
40
0.6694757
50
354.0961311
51
0.1164404
0
ARC
8
DEFAULT_255_2_778
10
44.4968853
20
68.1495264
40
0.7711885
50
0.0031315
51
1.0382029
0
ARC
8
DEFAULT_255_2_778
10
44.8288832
20
68.1564383
40
0.4391206
50
0.9213812
51
34.5356289
0
ARC
8
DEFAULT_255_2_778
10
44.8471116
20
68.1445285
40
0.4313273
50
37.2125929
51
72.136135
0
ARC
8
DEFAULT_255_2_778
10
44.6961269
20
67.7262358
40
0.8759041
50
71.1292737
51
85.8415012
0
ARC
8
DEFAULT_255_2_778
10
44.6378959
20
67.1556063
40
1.4493502
50
85.1813785
51
90.1271074
0
ARC
8
DEFAULT_255_2_778
10
44.6349983
20
66.8270154
40
1.7779375
50
90.010241
51
91.2940267
0
LINE
8
DEFAULT_255_2_778
10
44.594847
20
68.6044996
11
43.994247
21
68.6044996
0
LINE
8
DEFAULT_255_2_778
10
41.873647
20
66.1615996
11
42.321347
21
66.1615996
0
LINE
8
DEFAULT_255_2_778
10
42.321347
20
66.1615996
11
42.321347
21
65.0048996
0
ARC
8
DEFAULT_255_2_778
10
42.9753443
20
64.9925714
40
0.6541135
50
178.9200688
51
194.9291698
0
ARC
8
DEFAULT_255_2_778
10
42.5817129
20
64.873268
40
0.2434288
50
191.6634942
51
271.4195242
0
ARC
8
DEFAULT_255_2_778
10
42.600869
20
65.0315694
40
0.4018699
50
268.1283011
51
270.0111138
0
ARC
8
DEFAULT_255_2_778
10
42.6192067
20
64.872317
40
0.2433036
50
265.6959684
51
345.4257697
0
ARC
8
DEFAULT_255_2_778
10
42.2715897
20
64.9866056
40
0.6089336
50
343.2480774
51
0.2248965
0
ARC
8
DEFAULT_255_2_778
10
41.9061723
20
65.0048024
40
0.9744745
50
359.070582
51
0.0057163
0
LINE
8
DEFAULT_255_2_778
10
42.880647
20
65.0048996
11
42.880647
21
66.1615996
0
LINE
8
DEFAULT_255_2_778
10
42.880647
20
66.1615996
11
43.356147
21
66.1615996
0
LINE
8
DEFAULT_255_2_778
10
43.356147
20
66.1615996
11
43.356147
21
64.9109996
0
ARC
8
DEFAULT_255_2_778
10
42.4594993
20
64.8981466
40
0.8967398
50
344.3470745
51
0.8212484
0
ARC
8
DEFAULT_255_2_778
10
42.8250286
20
64.7920054
40
0.5161413
50
282.9430827
51
344.7446683
0
ARC
8
DEFAULT_255_2_778
10
42.6779667
20
65.2802424
40
1.0254759
50
270.4808285
51
284.8413421
0
ARC
8
DEFAULT_255_2_778
10
42.6569963
20
65.6980859
40
1.4435863
50
269.9940726
51
271.1739536
0
ARC
8
DEFAULT_255_2_778
10
42.6442932
20
65.5572504
40
1.3028112
50
258.5085243
51
270.5521059
0
ARC
8
DEFAULT_255_2_778
10
42.5221444
20
64.9860703
40
0.7187704
50
236.4385554
51
258.9795193
0
ARC
8
DEFAULT_255_2_778
10
42.4484623
20
64.8481791
40
0.563328
50
190.8211518
51
234.9298585
0
ARC
8
DEFAULT_255_2_778
10
42.8175381
20
64.9457403
40
0.9445302
50
182.107866
51
192.4309696
0
LINE
8
DEFAULT_255_2_778
10
41.873647
20
64.9109996
11
41.873647
21
66.1615996
0
ARC
8
DEFAULT_255_2_778
10
41.0390953
20
65.5970029
40
0.1933329
50
358.3391927
51
79.4969107
0
ARC
8
DEFAULT_255_2_778
10
40.9127158
20
65.2140056
40
0.5954451
50
74.2506028
51
88.6119444
0
ARC
8
DEFAULT_255_2_778
10
40.8869753
20
64.8119112
40
0.9981733
50
87.6939121
51
90.0358022
0
ARC
8
DEFAULT_255_2_778
10
40.8880975
20
64.5450962
40
1.2649893
50
90.0790783
51
93.3055195
0
ARC
8
DEFAULT_255_2_778
10
40.904912
20
64.2293887
40
1.5811417
50
93.2541652
51
94.9221417
0
LINE
8
DEFAULT_255_2_778
10
40.769247
20
65.8046996
11
40.769247
21
65.3778996
0
ARC
8
DEFAULT_255_2_778
10
40.9176484
20
66.8116524
40
1.4414126
50
264.0906093
51
267.3030573
0
ARC
8
DEFAULT_255_2_778
10
40.9014605
20
66.4832621
40
1.1126244
50
267.3400442
51
269.9517732
0
ARC
8
DEFAULT_255_2_778
10
40.9108195
20
66.0260767
40
0.6555195
50
269.1000809
51
282.732113
0
ARC
8
DEFAULT_255_2_778
10
41.0052934
20
65.6365498
40
0.2548271
50
281.3150362
51
314.0206519
0
ARC
8
DEFAULT_255_2_778
10
41.0406989
20
65.582661
40
0.1918472
50
317.6033977
51
2.6107288
0
ARC
8
DEFAULT_255_2_778
10
40.8105305
20
64.0325126
40
0.979053
50
90.0272649
51
91.9481822
0
ARC
8
DEFAULT_255_2_778
10
40.8211581
20
64.4586949
40
0.5529818
50
76.0067026
51
91.1494959
0
ARC
8
DEFAULT_255_2_778
10
40.9200382
20
64.821435
40
0.1772878
50
33.0923386
51
78.668145
0
ARC
8
DEFAULT_255_2_778
10
40.9547268
20
64.8528107
40
0.1313009
50
29.0164359
51
29.8847836
0
ARC
8
DEFAULT_255_2_778
10
41.268231
20
64.9579524
40
0.2570515
50
26.8120973
51
70.260887
0
ARC
8
DEFAULT_255_2_778
10
41.2441913
20
65.6533485
40
0.4668028
50
283.7377727
51
314.636829
0
ARC
8
DEFAULT_255_2_778
10
41.2568583
20
65.6132715
40
0.4298117
50
317.1897844
51
354.565631
0
ARC
8
DEFAULT_255_2_778
10
40.9751027
20
65.6623737
40
0.7152956
50
352.7872888
51
0.1722339
0
ARC
8
DEFAULT_255_2_778
10
40.8451427
20
65.664472
40
0.8452526
50
0.0035182
51
1.0729402
0
ARC
8
DEFAULT_255_2_778
10
41.199452
20
65.6708036
40
0.4908869
50
1.1084308
51
31.5407294
0
ARC
8
DEFAULT_255_2_778
10
41.2417371
20
65.6741396
40
0.4535134
50
33.9767946
51
70.8745029
0
ARC
8
DEFAULT_255_2_778
10
41.0828279
20
65.2660787
40
0.891267
50
69.8174853
51
84.5282001
0
ARC
8
DEFAULT_255_2_778
10
41.0100215
20
64.657325
40
1.5042585
50
83.978702
51
90.1942597
0
ARC
8
DEFAULT_255_2_778
10
41.0052429
20
64.2523353
40
1.9092396
50
90.0096514
51
91.2783991
0
LINE
8
DEFAULT_255_2_778
10
40.962647
20
66.1610996
11
40.313647
21
66.1610996
0
LINE
8
DEFAULT_255_2_778
10
44.844347
20
68.0819996
11
44.844347
21
68.0819996
0
LINE
8
DEFAULT_255_2_778
10
43.994247
20
68.6047996
11
43.994247
21
66.8547996
0
LINE
8
DEFAULT_255_2_778
10
43.994247
20
66.8547996
11
44.423147
21
66.8547996
0
LINE
8
DEFAULT_255_2_778
10
44.423147
20
66.8547996
11
44.423147
21
67.5490996
0
LINE
8
DEFAULT_255_2_778
10
44.693847
20
67.4622996
11
44.898347
21
66.8619996
0
LINE
8
DEFAULT_255_2_778
10
44.898347
20
66.8619996
11
45.340447
21
66.8547996
0
LINE
8
DEFAULT_255_2_778
10
45.340447
20
66.8547996
11
45.089647
21
67.6067996
0
LINE
8
DEFAULT_255_2_778
10
43.994247
20
68.6044996
11
43.994247
21
68.6047996
0
LINE
8
DEFAULT_255_2_778
10
41.873647
20
66.1615996
11
41.873647
21
66.1615996
0
LINE
8
DEFAULT_255_2_778
10
41.232347
20
65.5913996
11
41.232347
21
65.5913996
0
LINE
8
DEFAULT_255_2_778
10
40.313647
20
66.1610996
11
40.313647
21
64.2544996
0
LINE
8
DEFAULT_255_2_778
10
40.313647
20
64.2544996
11
40.777247
21
64.2544996
0
LINE
8
DEFAULT_255_2_778
10
40.777247
20
64.2544996
11
40.777247
21
65.0109996
0
LINE
8
DEFAULT_255_2_778
10
41.069547
20
64.9164996
11
41.290747
21
64.2623996
0
LINE
8
DEFAULT_255_2_778
10
41.290747
20
64.2623996
11
41.768647
21
64.2544996
0
LINE
8
DEFAULT_255_2_778
10
41.768647
20
64.2544996
11
41.497647
21
65.0738996
0
LINE
8
DEFAULT_255_2_778
10
40.313647
20
66.1610996
11
40.313647
21
66.1610996
0
LINE
8
DEFAULT_255_2_778
10
44.932247
20
64.7325996
11
44.932247
21
66.1615996
0
LINE
8
DEFAULT_255_2_778
10
44.932247
20
66.1615996
11
45.340747
21
66.1615996
0
LINE
8
DEFAULT_255_2_778
10
45.340747
20
66.1615996
11
45.340747
21
64.2505996
0
LINE
8
DEFAULT_255_2_778
10
45.340747
20
64.2505996
11
44.819547
21
64.2505996
0
LINE
8
DEFAULT_255_2_778
10
44.819547
20
64.2505996
11
44.005147
21
65.6800996
0
LINE
8
DEFAULT_255_2_778
10
44.005147
20
65.6800996
11
43.999047
21
65.6800996
0
LINE
8
DEFAULT_255_2_778
10
43.999047
20
65.6800996
11
43.999047
21
64.2505996
0
LINE
8
DEFAULT_255_2_778
10
43.999047
20
64.2505996
11
43.590547
21
64.2505996
0
LINE
8
DEFAULT_255_2_778
10
43.590547
20
64.2505996
11
43.590547
21
66.1615996
0
LINE
8
DEFAULT_255_2_778
10
43.590547
20
66.1615996
11
44.114947
21
66.1615996
0
LINE
8
DEFAULT_255_2_778
10
44.114947
20
66.1615996
11
44.926447
21
64.7325996
0
LINE
8
DEFAULT_255_2_778
10
44.926447
20
64.7325996
11
44.932247
21
64.7325996
0
LINE
8
DEFAULT_255_2_778
10
38.341447
20
62.1383996
11
38.341447
21
61.8438996
0
LINE
8
DEFAULT_255_2_778
10
38.341447
20
61.8438996
11
37.150047
21
61.8438996
0
LINE
8
DEFAULT_255_2_778
10
37.150047
20
61.8438996
11
37.150047
21
63.7136996
0
LINE
8
DEFAULT_255_2_778
10
37.150047
20
63.7136996
11
38.335947
21
63.7136996
0
LINE
8
DEFAULT_255_2_778
10
38.335947
20
63.7136996
11
38.335947
21
63.4191996
0
LINE
8
DEFAULT_255_2_778
10
38.335947
20
63.4191996
11
37.553047
21
63.4191996
0
LINE
8
DEFAULT_255_2_778
10
37.553047
20
63.4191996
11
37.553047
21
62.9582996
0
LINE
8
DEFAULT_255_2_778
10
37.553047
20
62.9582996
11
38.269247
21
62.9582996
0
LINE
8
DEFAULT_255_2_778
10
38.269247
20
62.9582996
11
38.269247
21
62.6637996
0
LINE
8
DEFAULT_255_2_778
10
38.269247
20
62.6637996
11
37.553047
21
62.6637996
0
LINE
8
DEFAULT_255_2_778
10
37.553047
20
62.6637996
11
37.553047
21
62.1385996
0
LINE
8
DEFAULT_255_2_778
10
37.553047
20
62.1385996
11
38.341447
21
62.1385996
0
ARC
8
DEFAULT_255_2_778
10
39.3812074
20
63.1639893
40
0.1894251
50
357.161101
51
79.4347228
0
ARC
8
DEFAULT_255_2_778
10
39.2723295
20
62.8122332
40
0.5568083
50
75.053522
51
90.2955868
0
ARC
8
DEFAULT_255_2_778
10
39.2580389
20
62.485822
40
0.883286
50
89.2593307
51
90.0044421
0
ARC
8
DEFAULT_255_2_778
10
39.2595258
20
62.3183714
40
1.0507378
50
90.0848145
51
93.5643594
0
ARC
8
DEFAULT_255_2_778
10
39.2745665
20
62.0567032
40
1.3128354
50
93.5095345
51
95.308727
0
LINE
8
DEFAULT_255_2_778
10
39.1531
20
63.3639075
11
39.1531
21
62.9456075
0
ARC
8
DEFAULT_255_2_778
10
39.2865444
20
64.1228507
40
1.1847823
50
263.5329391
51
267.2445283
0
ARC
8
DEFAULT_255_2_778
10
39.2724902
20
63.8502311
40
0.9118027
50
267.3031058
51
269.9545416
0
ARC
8
DEFAULT_255_2_778
10
39.2821728
20
63.4655203
40
0.5271942
50
268.8689986
51
285.0887616
0
ARC
8
DEFAULT_255_2_778
10
39.3808009
20
63.1425352
40
0.1899974
50
281.7244567
51
3.7109335
0
ARC
8
DEFAULT_255_2_778
10
39.1901563
20
61.7741023
40
0.8119543
50
90.0293572
51
92.107293
0
ARC
8
DEFAULT_255_2_778
10
39.2006681
20
62.1379172
40
0.4482725
50
73.7253306
51
91.3968649
0
ARC
8
DEFAULT_255_2_778
10
39.2868136
20
62.416343
40
0.1569313
50
29.2016982
51
75.4294695
0
ARC
8
DEFAULT_255_2_778
10
39.5910785
20
62.5490594
40
0.2393595
50
24.2601478
51
68.0113936
0
ARC
8
DEFAULT_255_2_778
10
39.5846013
20
63.1497956
40
0.3907881
50
284.2356218
51
351.6764674
0
ARC
8
DEFAULT_255_2_778
10
39.275396
20
63.2218097
40
0.7076575
50
349.5308519
51
0.3787602
0
ARC
8
DEFAULT_255_2_778
10
39.0803999
20
63.2264127
40
0.9026382
50
0.0047617
51
1.00264
0
ARC
8
DEFAULT_255_2_778
10
39.4615645
20
63.2325363
40
0.5214252
50
1.0627568
51
27.4443697
0
ARC
8
DEFAULT_255_2_778
10
39.5561468
20
63.2634507
40
0.4235476
50
29.6304959
51
72.6585777
0
ARC
8
DEFAULT_255_2_778
10
39.4115894
20
62.86278
40
0.8492964
50
71.406322
51
86.8751492
0
ARC
8
DEFAULT_255_2_778
10
39.3671469
20
62.3703102
40
1.343571
50
86.1275307
51
90.0760114
0
ARC
8
DEFAULT_255_2_778
10
39.3656671
20
62.1319118
40
1.5819681
50
90.0109621
51
91.4005847
0
LINE
8
DEFAULT_255_2_778
10
39.327
20
63.7134075
11
38.7417
21
63.7134075
0
ARC
8
DEFAULT_255_2_778
10
41.0242893
20
63.1623423
40
0.1898684
50
357.6652587
51
79.7748344
0
ARC
8
DEFAULT_255_2_778
10
40.9076942
20
62.7884285
40
0.5805593
50
74.995898
51
90.1185639
0
ARC
8
DEFAULT_255_2_778
10
40.8914036
20
62.4328806
40
0.9362275
50
89.0765218
51
90.0055219
0
ARC
8
DEFAULT_255_2_778
10
40.8929183
20
62.2483592
40
1.12075
50
90.0820523
51
93.451192
0
ARC
8
DEFAULT_255_2_778
10
40.9084142
20
61.9698933
40
1.3996442
50
93.3981647
51
95.1408451
0
LINE
8
DEFAULT_255_2_778
10
40.783
20
63.3639075
11
40.783
21
62.9456075
0
ARC
8
DEFAULT_255_2_778
10
40.9210095
20
64.2036246
40
1.2655645
50
263.7394613
51
267.2849285
0
ARC
8
DEFAULT_255_2_778
10
40.9063413
20
63.9131547
40
0.9747263
50
267.3373871
51
269.9542297
0
ARC
8
DEFAULT_255_2_778
10
40.9158405
20
63.5066043
40
0.5682684
50
268.9636691
51
284.1396653
0
ARC
8
DEFAULT_255_2_778
10
41.0094697
20
63.1648678
40
0.214138
50
282.1831425
51
324.111025
0
ARC
8
DEFAULT_255_2_778
10
41.009301
20
63.1479402
40
0.2048176
50
327.9779758
51
1.9494157
0
ARC
8
DEFAULT_255_2_778
10
40.8212134
20
61.7212272
40
0.8648294
50
90.028381
51
92.0418481
0
ARC
8
DEFAULT_255_2_778
10
40.8320036
20
62.1080142
40
0.4781739
50
74.3167584
51
91.3443519
0
ARC
8
DEFAULT_255_2_778
10
40.9227871
20
62.4109621
40
0.1620576
50
30.3748716
51
76.265618
0
ARC
8
DEFAULT_255_2_778
10
41.2400603
20
62.5430573
40
0.2444331
50
25.2714197
51
68.8385267
0
ARC
8
DEFAULT_255_2_778
10
41.2377867
20
63.1560382
40
0.3955266
50
283.2289442
51
350.3763425
0
ARC
8
DEFAULT_255_2_778
10
40.9577373
20
63.2220486
40
0.6829145
50
348.8438333
51
0.4126584
0
ARC
8
DEFAULT_255_2_778
10
40.7671215
20
63.226919
40
0.8735124
50
0.0031512
51
1.0028572
0
ARC
8
DEFAULT_255_2_778
10
41.1360112
20
63.2327189
40
0.504578
50
1.0775077
51
29.0975375
0
ARC
8
DEFAULT_255_2_778
10
41.2083101
20
63.2526729
40
0.4320638
50
31.4484521
51
72.083459
0
ARC
8
DEFAULT_255_2_778
10
41.0581117
20
62.8463249
40
0.8650973
50
70.8972354
51
86.1447542
0
ARC
8
DEFAULT_255_2_778
10
41.0051553
20
62.3140915
40
1.3997909
50
85.4468009
51
90.1075485
0
ARC
8
DEFAULT_255_2_778
10
41.0028402
20
62.0260404
40
1.6878396
50
90.0106046
51
91.3559451
0
LINE
8
DEFAULT_255_2_778
10
40.9629
20
63.7134075
11
40.3583
21
63.7134075
0
LINE
8
DEFAULT_255_2_778
10
39.5704
20
63.1549075
11
39.5704
21
63.1546075
0
LINE
8
DEFAULT_255_2_778
10
38.7422
20
63.7132075
11
38.7422
21
61.8439075
0
LINE
8
DEFAULT_255_2_778
10
38.7422
20
61.8439075
11
39.1603
21
61.8439075
0
LINE
8
DEFAULT_255_2_778
10
39.1603
20
61.8439075
11
39.1603
21
62.5855075
0
LINE
8
DEFAULT_255_2_778
10
39.4238
20
62.4929075
11
39.623
21
61.8518075
0
LINE
8
DEFAULT_255_2_778
10
39.623
20
61.8518075
11
40.0538
21
61.8441075
0
LINE
8
DEFAULT_255_2_778
10
40.0538
20
61.8441075
11
39.8093
21
62.6474075
0
LINE
8
DEFAULT_255_2_778
10
38.7417
20
63.7134075
11
38.7422
21
63.7132075
0
LINE
8
DEFAULT_255_2_778
10
41.214
20
63.1549075
11
41.214
21
63.1546075
0
LINE
8
DEFAULT_255_2_778
10
40.3586
20
63.7132075
11
40.3586
21
61.8439075
0
LINE
8
DEFAULT_255_2_778
10
40.3586
20
61.8439075
11
40.7904
21
61.8439075
0
LINE
8
DEFAULT_255_2_778
10
40.7904
20
61.8439075
11
40.7904
21
62.5855075
0
LINE
8
DEFAULT_255_2_778
10
41.0626
20
62.4929075
11
41.2685
21
61.8518075
0
LINE
8
DEFAULT_255_2_778
10
41.2685
20
61.8518075
11
41.7135
21
61.8441075
0
LINE
8
DEFAULT_255_2_778
10
41.7135
20
61.8441075
11
41.4611
21
62.6474075
0
LINE
8
DEFAULT_255_2_778
10
40.3583
20
63.7134075
11
40.3586
21
63.7132075
0
ARC
8
DEFAULT_255_2_778
10
42.8389718
20
62.5819723
40
0.5365252
50
269.0730223
51
293.244655
0
ARC
8
DEFAULT_255_2_778
10
42.7983729
20
62.5858543
40
0.5572641
50
296.9250536
51
349.7861731
0
ARC
8
DEFAULT_255_2_778
10
42.2627634
20
62.7526228
40
1.1161018
50
346.234026
51
357.2426813
0
ARC
8
DEFAULT_255_2_778
10
42.055198
20
62.7683163
40
1.324194
50
356.9964725
51
0.0130217
0
ARC
8
DEFAULT_255_2_778
10
42.8269168
20
62.8990788
40
0.5363087
50
89.0731774
51
113.2493978
0
ARC
8
DEFAULT_255_2_778
10
42.8676284
20
62.8949963
40
0.5572806
50
116.9320434
51
169.7881537
0
ARC
8
DEFAULT_255_2_778
10
43.4033463
20
62.7282037
40
1.1162281
50
166.2351874
51
177.2425786
0
ARC
8
DEFAULT_255_2_778
10
43.6107857
20
62.7125183
40
1.324194
50
176.9964725
51
180.0130218
0
ARC
8
DEFAULT_255_2_778
10
42.8256168
20
62.5817558
40
0.5363087
50
246.7506022
51
270.9268226
0
ARC
8
DEFAULT_255_2_778
10
42.8663284
20
62.5858383
40
0.5572806
50
190.2118463
51
243.0679566
0
ARC
8
DEFAULT_255_2_778
10
43.4020463
20
62.7526309
40
1.1162281
50
182.7574214
51
193.7648126
0
ARC
8
DEFAULT_255_2_778
10
43.6094857
20
62.7683163
40
1.324194
50
179.9869782
51
183.0035275
0
ARC
8
DEFAULT_255_2_778
10
42.8389618
20
62.9016084
40
0.536479
50
66.7625346
51
90.9259904
0
ARC
8
DEFAULT_255_2_778
10
42.7984315
20
62.8977491
40
0.5571623
50
10.2405031
51
63.0867771
0
ARC
8
DEFAULT_255_2_778
10
42.2635549
20
62.7309777
40
1.115305
50
2.7791888
51
13.7886985
0
ARC
8
DEFAULT_255_2_778
10
42.0562755
20
62.7152284
40
1.3231164
50
359.986529
51
3.0251756
0
ARC
8
DEFAULT_255_2_778
10
42.7801529
20
62.743087
40
1.0017655
50
86.8275632
51
89.9970552
0
ARC
8
DEFAULT_255_2_778
10
42.759746
20
62.8803259
40
0.8647687
50
88.6443901
51
147.275056
0
ARC
8
DEFAULT_255_2_778
10
42.8366852
20
62.8519586
40
0.9449975
50
148.3500437
51
168.4210882
0
ARC
8
DEFAULT_255_2_778
10
43.1338263
20
62.7870452
40
1.2491269
50
168.2398632
51
180.2835942
0
ARC
8
DEFAULT_255_2_778
10
43.3532313
20
62.7809493
40
1.4685166
50
180.0033855
51
181.1132768
0
ARC
8
DEFAULT_255_2_778
10
42.8369083
20
63.0001176
40
1.2626187
50
269.6906758
51
269.9999169
0
ARC
8
DEFAULT_255_2_778
10
42.8685782
20
62.6795663
40
0.9425996
50
268.0744774
51
311.125516
0
ARC
8
DEFAULT_255_2_778
10
42.9139278
20
62.5834185
40
0.8408504
50
313.1072212
51
338.5190365
0
ARC
8
DEFAULT_255_2_778
10
42.6232052
20
62.6999077
40
1.1540383
50
338.4228456
51
353.7089383
0
ARC
8
DEFAULT_255_2_778
10
42.229217
20
62.7533508
40
1.5515421
50
353.3415593
51
359.4669868
0
ARC
8
DEFAULT_255_2_778
10
42.8012623
20
62.7776607
40
1.0410096
50
270.0008111
51
271.8897933
0
ARC
8
DEFAULT_255_2_778
10
42.7776201
20
62.6251248
40
0.8887886
50
213.140265
51
271.5252286
0
ARC
8
DEFAULT_255_2_778
10
42.8368587
20
62.6373202
40
0.9453184
50
191.3885803
51
211.7962008
0
ARC
8
DEFAULT_255_2_778
10
43.133935
20
62.7015455
40
1.2492348
50
179.7229693
51
191.5857776
0
ARC
8
DEFAULT_255_2_778
10
43.3518741
20
62.7074984
40
1.4671594
50
178.8862062
51
179.9965931
0
ARC
8
DEFAULT_255_2_778
10
42.8368156
20
62.4466846
40
1.2990501
50
90.0017887
51
90.2965586
0
ARC
8
DEFAULT_255_2_778
10
42.8655482
20
62.7792406
40
0.9669223
50
53.0570847
51
91.7052293
0
ARC
8
DEFAULT_255_2_778
10
42.9354014
20
62.9156737
40
0.8163166
50
23.2874846
51
51.2199627
0
ARC
8
DEFAULT_255_2_778
10
42.6701748
20
62.7997058
40
1.1057846
50
7.5992967
51
23.3737184
0
ARC
8
DEFAULT_255_2_778
10
42.2638094
20
62.7367132
40
1.5169364
50
0.4836245
51
7.9278981
0
ARC
8
DEFAULT_255_2_778
10
44.6863431
20
63.1656111
40
0.1891286
50
356.6039174
51
79.3242329
0
ARC
8
DEFAULT_255_2_778
10
44.5845013
20
62.8261168
40
0.5428882
50
75.3964427
51
91.083041
0
ARC
8
DEFAULT_255_2_778
10
44.5760713
20
62.3801703
40
0.9887395
50
90.1061303
51
94.0424537
0
ARC
8
DEFAULT_255_2_778
10
44.591649
20
62.1347386
40
1.2346601
50
93.9606412
51
95.503378
0
LINE
8
DEFAULT_255_2_778
10
44.4732396
20
63.3637075
11
44.4732396
21
62.9454075
0
ARC
8
DEFAULT_255_2_778
10
44.6018032
20
64.0376652
40
1.099798
50
263.2869209
51
267.1387819
0
ARC
8
DEFAULT_255_2_778
10
44.5882246
20
63.784047
40
0.8458186
50
267.1998723
51
269.9527511
0
ARC
8
DEFAULT_255_2_778
10
44.5979302
20
63.4229429
40
0.4848258
50
268.7704886
51
286.1213657
0
ARC
8
DEFAULT_255_2_778
10
44.6870937
20
63.140225
40
0.1886028
50
283.9474866
51
4.4039958
0
ARC
8
DEFAULT_255_2_778
10
44.5087854
20
61.8331558
40
0.7527008
50
90.0304502
51
92.1886729
0
ARC
8
DEFAULT_255_2_778
10
44.5195032
20
62.1764219
40
0.4095855
50
72.351902
51
91.5554303
0
ARC
8
DEFAULT_255_2_778
10
44.6005241
20
62.4218871
40
0.1511354
50
27.9427439
51
73.4097036
0
ARC
8
DEFAULT_255_2_778
10
44.8903747
20
62.5554946
40
0.2338957
50
23.0858736
51
67.006763
0
ARC
8
DEFAULT_255_2_778
10
44.8782565
20
63.1434317
40
0.3867267
50
285.5207467
51
353.1178871
0
ARC
8
DEFAULT_255_2_778
10
44.5319273
20
63.2224354
40
0.7409483
50
350.2606113
51
0.3444169
0
ARC
8
DEFAULT_255_2_778
10
44.3349958
20
63.2268433
40
0.9378666
50
0.0028119
51
0.9264426
0
ARC
8
DEFAULT_255_2_778
10
44.732574
20
63.23233
40
0.5402523
50
1.0263883
51
26.0223672
0
ARC
8
DEFAULT_255_2_778
10
44.8494668
20
63.2725441
40
0.4178417
50
28.0997068
51
74.3483513
0
ARC
8
DEFAULT_255_2_778
10
44.7108703
20
62.8598219
40
0.8529382
50
72.862966
51
88.1514537
0
ARC
8
DEFAULT_255_2_778
10
44.6789486
20
62.4180943
40
1.295586
50
87.3706154
51
90.0341024
0
ARC
8
DEFAULT_255_2_778
10
44.678469
20
62.2471401
40
1.4665399
50
90.0113899
51
91.4546607
0
LINE
8
DEFAULT_255_2_778
10
44.6412396
20
63.7132075
11
44.0776396
21
63.7132075
0
LINE
8
DEFAULT_255_2_778
10
44.8751396
20
63.1547075
11
44.8751396
21
63.1544075
0
LINE
8
DEFAULT_255_2_778
10
44.0776396
20
63.7130075
11
44.0776396
21
61.8437075
0
LINE
8
DEFAULT_255_2_778
10
44.0776396
20
61.8437075
11
44.4800396
21
61.8437075
0
LINE
8
DEFAULT_255_2_778
10
44.4800396
20
61.8437075
11
44.4800396
21
62.5853075
0
LINE
8
DEFAULT_255_2_778
10
44.7340396
20
62.4927075
11
44.9259396
21
61.8516075
0
LINE
8
DEFAULT_255_2_778
10
44.9259396
20
61.8516075
11
45.3407396
21
61.8439075
0
LINE
8
DEFAULT_255_2_778
10
45.3407396
20
61.8439075
11
45.1055396
21
62.6472075
0
LINE
8
DEFAULT_255_2_778
10
44.0776396
20
63.7132075
11
44.0776396
21
63.7130075
0
ARC
8
DEFAULT_255_2_778
10
16.1398674
20
4.7598978
40
2.2543868
50
158.2386051
51
180.0898428
0
ARC
8
DEFAULT_255_2_778
10
16.1305453
20
4.7608798
40
2.2453665
50
100.4545112
51
158.173688
0
ARC
8
DEFAULT_255_2_778
10
16.1342947
20
4.7268509
40
2.2795122
50
89.9701221
51
100.3919857
0
ARC
8
DEFAULT_255_2_778
10
16.139032
20
4.7518341
40
2.2545315
50
68.2393107
51
90.0901832
0
ARC
8
DEFAULT_255_2_778
10
16.1400889
20
4.7613894
40
2.2452669
50
10.452684
51
68.1739611
0
ARC
8
DEFAULT_255_2_778
10
16.1057552
20
4.7575503
40
2.2797285
50
359.9701533
51
10.3910176
0
ARC
8
DEFAULT_255_2_778
10
16.1308186
20
4.7528078
40
2.2546676
50
338.2408662
51
0.0903398
0
ARC
8
DEFAULT_255_2_778
10
16.1406067
20
4.7516511
40
2.2451496
50
280.4535565
51
338.1756829
0
ARC
8
DEFAULT_255_2_778
10
16.1366766
20
4.7863147
40
2.2799523
50
269.9700133
51
280.3926283
0
ARC
8
DEFAULT_255_2_778
10
16.131942
20
4.7608829
40
2.2545229
50
248.2401607
51
270.0899995
0
ARC
8
DEFAULT_255_2_778
10
16.1308608
20
4.751329
40
2.2452504
50
190.46182
51
248.1754031
0
ARC
8
DEFAULT_255_2_778
10
16.1652498
20
4.7551713
40
2.2797667
50
179.9700565
51
190.3998477
0
ARC
8
DEFAULT_255_2_778
10
16.1450297
20
84.7795274
40
2.2583799
50
180.0002361
51
180.6232241
0
ARC
8
DEFAULT_255_2_778
10
16.1351877
20
84.7793924
40
2.2485379
50
120.2042715
51
179.9967974
0
ARC
8
DEFAULT_255_2_778
10
16.1346773
20
84.7818864
40
2.2461259
50
98.8706524
51
120.2250243
0
ARC
8
DEFAULT_255_2_778
10
16.1353168
20
84.7778411
40
2.2502215
50
89.9992603
51
98.8708586
0
LINE
8
DEFAULT_255_2_778
10
16.1353459
20
87.0280628
11
16.1357017
21
87.0280628
0
ARC
8
DEFAULT_255_2_778
10
16.1356923
20
84.7808718
40
2.2471909
50
63.6294643
51
89.9997607
0
ARC
8
DEFAULT_255_2_778
10
16.1323255
20
84.7742483
40
2.2546205
50
59.7900381
51
63.6275732
0
ARC
8
DEFAULT_255_2_778
10
16.1355764
20
84.7795067
40
2.2484405
50
0.0004327
51
59.7942041
0
ARC
8
DEFAULT_255_2_778
10
16.1245912
20
84.7795331
40
2.2594257
50
359.3769191
51
359.9997602
0
ARC
8
DEFAULT_255_2_778
10
16.1251775
20
84.7303956
40
2.2588395
50
0.0002358
51
0.6231631
0
ARC
8
DEFAULT_255_2_778
10
16.1354561
20
84.7304881
40
2.2485608
50
300.207556
51
359.9978788
0
ARC
8
DEFAULT_255_2_778
10
16.1359415
20
84.7285415
40
2.2466345
50
278.8770803
51
300.2218371
0
ARC
8
DEFAULT_255_2_778
10
16.1353694
20
84.7322128
40
2.2503502
50
270.0084601
51
278.8770474
0
LINE
8
DEFAULT_255_2_778
10
16.1357017
20
82.4818628
11
16.1353459
21
82.4818628
0
ARC
8
DEFAULT_255_2_778
10
16.1349728
20
84.728694
40
2.2468312
50
243.6284751
51
270.0095143
0
ARC
8
DEFAULT_255_2_778
10
16.1382527
20
84.7350845
40
2.2540135
50
239.7865977
51
243.6259331
0
ARC
8
DEFAULT_255_2_778
10
16.1353085
20
84.7306025
40
2.2486587
50
180.0048946
51
239.7939588
0
ARC
8
DEFAULT_255_2_778
10
16.1445171
20
84.730401
40
2.2578673
50
179.3767063
51
179.9997603
0
LINE
8
DEFAULT_255_2_778
10
13.8854834
20
4.7563628
11
13.8854834
21
4.7563628
0
LINE
8
DEFAULT_255_2_778
10
13.8867834
20
84.7549628
11
13.8867834
21
84.7549628
0
ENDSEC
0
EOF