0
SECTION
2
HEADER
9
$MEASUREMENT
70
1
0
ENDSEC
0
SECTION
2
TABLES
0
TABLE
2
LTYPE
0
LTYPE
72
65
70
64
2
CONTINUOUS
3
______
73
0
40
0
0
ENDTAB
0
TABLE
2
LAYER
0
LAYER
2
DEFAULT_255_2_778
70
0
62
255
6
CONTINUOUS
0
LAYER
2
DEFAULT_255_1_234
70
0
62
255
6
CONTINUOUS
0
LAYER
2
DEFAULT_255_2_778_1
70
0
62
255
6
CONTINUOUS
0
ENDTAB
0
ENDSEC
0
SECTION
2
ENTITIES
0
ARC
8
DEFAULT_255_2_778
10
3.5700693
20
107.5552026
40
0.7914215
50
129.1312896
51
180.1450914
0
ARC
8
DEFAULT_255_2_778
10
3.5703345
20
107.5556897
40
0.7912112
50
89.854026
51
129.1684493
0
ARC
8
DEFAULT_255_2_778
10
25.7993937
20
107.5553762
40
0.7915249
50
39.4792447
51
90.147911
0
ARC
8
DEFAULT_255_2_778
10
25.7999935
20
107.5552229
40
0.7911595
50
359.8533901
51
39.5154338
0
ARC
8
DEFAULT_255_2_778
10
25.7996693
20
-1.9863497
40
0.7914836
50
309.4761667
51
0.1482649
0
ARC
8
DEFAULT_255_2_778
10
25.799398
20
-1.9867808
40
0.7913235
50
269.8517415
51
309.511178
0
ARC
8
DEFAULT_255_2_778
10
3.570342
20
-1.9867226
40
0.7913815
50
219.1282118
51
270.1454017
0
ARC
8
DEFAULT_255_2_778
10
3.5700247
20
-1.9863401
40
0.7913769
50
179.8524075
51
219.1641908
0
LINE
8
DEFAULT_255_2_778
10
3.5723503
20
108.3468985
11
25.7973503
21
108.3468985
0
LINE
8
DEFAULT_255_2_778
10
26.5911503
20
107.5531985
11
26.5911503
21
-1.9843015
0
LINE
8
DEFAULT_255_2_778
10
25.7973503
20
-2.7781015
11
3.5723503
21
-2.7781015
0
LINE
8
DEFAULT_255_2_778
10
2.7786503
20
-1.9843015
11
2.7786503
21
107.5531985
0
LINE
8
DEFAULT_255_1_234
10
11.217785
20
-0.0087609
11
11.217785
21
-0.1348592
0
LINE
8
DEFAULT_255_1_234
10
11.217785
20
-0.1348592
11
10.7270458
21
-0.1348592
0
LINE
8
DEFAULT_255_1_234
10
10.7270458
20
-0.1348592
11
10.7270458
21
-0.6513
0
LINE
8
DEFAULT_255_1_234
10
10.7270458
20
-0.6513
11
10.5728364
21
-0.6513
0
LINE
8
DEFAULT_255_1_234
10
10.5728364
20
-0.6513
11
10.5728364
21
0.5181211
0
LINE
8
DEFAULT_255_1_234
10
10.5728364
20
0.5181211
11
11.2972992
21
0.5181211
0
LINE
8
DEFAULT_255_1_234
10
11.2972992
20
0.5181211
11
11.2972992
21
0.3912196
0
LINE
8
DEFAULT_255_1_234
10
11.2972992
20
0.3912196
11
10.7270458
21
0.3912196
0
LINE
8
DEFAULT_255_1_234
10
10.7270458
20
0.3912196
11
10.7270458
21
-0.0087609
0
LINE
8
DEFAULT_255_1_234
10
10.7270458
20
-0.0087609
11
11.217785
21
-0.0087609
0
LINE
8
DEFAULT_255_1_234
10
11.5816227
20
0.5181211
11
11.8635367
21
0.0699501
0
LINE
8
DEFAULT_255_1_234
10
11.8635367
20
0.0699501
11
12.1438444
21
0.5181211
0
LINE
8
DEFAULT_255_1_234
10
12.1438444
20
0.5181211
11
12.3253617
21
0.5181211
0
LINE
8
DEFAULT_255_1_234
10
12.3253617
20
0.5181211
11
11.9559017
21
-0.0617704
0
LINE
8
DEFAULT_255_1_234
10
11.9559017
20
-0.0617704
11
12.3341966
21
-0.6513
0
LINE
8
DEFAULT_255_1_234
10
12.3341966
20
-0.6513
11
12.1510729
21
-0.6513
0
LINE
8
DEFAULT_255_1_234
10
12.1510729
20
-0.6513
11
11.8635367
21
-0.1950973
0
LINE
8
DEFAULT_255_1_234
10
11.8635367
20
-0.1950973
11
11.5743941
21
-0.6513
0
LINE
8
DEFAULT_255_1_234
10
11.5743941
20
-0.6513
11
11.3920737
21
-0.6513
0
LINE
8
DEFAULT_255_1_234
10
11.3920737
20
-0.6513
11
11.7711717
21
-0.0617704
0
LINE
8
DEFAULT_255_1_234
10
11.7711717
20
-0.0617704
11
11.4009086
21
0.5181211
0
LINE
8
DEFAULT_255_1_234
10
11.4009086
20
0.5181211
11
11.5816227
21
0.5181211
0
LINE
8
DEFAULT_255_1_234
10
12.6908058
20
-0.1155831
11
12.6908058
21
0.0056962
0
LINE
8
DEFAULT_255_1_234
10
12.6908058
20
0.0056962
11
12.8024469
21
0.0056962
0
LINE
8
DEFAULT_255_1_234
10
12.6120947
20
0.2113087
11
12.4635076
21
0.2113087
0
LINE
8
DEFAULT_255_1_234
10
12.4530663
20
-0.3428813
11
12.6024566
21
-0.3428813
0
LINE
8
DEFAULT_255_1_234
10
12.8024469
20
-0.1155831
11
12.6908058
21
-0.1155831
0
ARC
8
DEFAULT_255_1_234
10
12.7995336
20
0.3449713
40
0.3392876
50
270.4919872
51
281.8951556
0
ARC
8
DEFAULT_255_1_234
10
12.8236597
20
0.2347702
40
0.2264817
50
281.6691735
51
301.2943132
0
ARC
8
DEFAULT_255_1_234
10
12.8406808
20
0.2036304
40
0.1910381
50
301.7833094
51
311.7545298
0
ARC
8
DEFAULT_255_1_234
10
12.8498383
20
0.1934748
40
0.1773635
50
311.7323931
51
354.2802411
0
ARC
8
DEFAULT_255_1_234
10
12.7772009
20
0.2059722
40
0.2509385
50
353.0937916
51
0.1181479
0
ARC
8
DEFAULT_255_1_234
10
12.7310793
20
0.2107386
40
0.2970898
50
359.1805295
51
15.0453146
0
ARC
8
DEFAULT_255_1_234
10
12.865663
20
0.2499992
40
0.1569564
50
13.9577229
51
77.6713066
0
ARC
8
DEFAULT_255_1_234
10
12.827016
20
0.1114949
40
0.3006298
50
76.1116566
51
90.7026153
0
ARC
8
DEFAULT_255_1_234
10
12.8210998
20
0.1388545
40
0.2732568
50
89.5324876
51
103.531937
0
ARC
8
DEFAULT_255_1_234
10
12.8010442
20
0.2187884
40
0.1908508
50
103.2931773
51
133.5619022
0
ARC
8
DEFAULT_255_1_234
10
12.796593
20
0.2247375
40
0.1834746
50
133.8349307
51
173.5344437
0
ARC
8
DEFAULT_255_1_234
10
12.8688973
20
0.2119213
40
0.2568033
50
172.5096846
51
180.1366907
0
ARC
8
DEFAULT_255_1_234
10
12.7737867
20
0.2153622
40
0.3103056
50
155.3484492
51
180.7484736
0
ARC
8
DEFAULT_255_1_234
10
12.7688956
20
0.2124846
40
0.3070957
50
131.5744599
51
154.4798489
0
ARC
8
DEFAULT_255_1_234
10
12.8002104
20
0.180831
40
0.3515643
50
96.9875458
51
131.9690667
0
ARC
8
DEFAULT_255_1_234
10
12.8221584
20
0.0562636
40
0.4779224
50
89.8596053
51
97.7825159
0
ARC
8
DEFAULT_255_1_234
10
12.8269647
20
0.0300616
40
0.5041361
50
78.3655447
51
90.4131539
0
ARC
8
DEFAULT_255_1_234
10
12.8627565
20
0.1959887
40
0.3344039
50
56.6229102
51
78.638727
0
ARC
8
DEFAULT_255_1_234
10
12.8842508
20
0.2335805
40
0.2912001
50
47.0253525
51
56.0854072
0
ARC
8
DEFAULT_255_1_234
10
12.8862288
20
0.2375223
40
0.2869704
50
10.9208013
51
46.7778124
0
ARC
8
DEFAULT_255_1_234
10
12.7498355
20
0.2059857
40
0.426899
50
359.6364486
51
11.6087304
0
ARC
8
DEFAULT_255_1_234
10
12.9333199
20
0.2044752
40
0.243409
50
332.3549906
51
359.7179418
0
ARC
8
DEFAULT_255_1_234
10
12.86828
20
0.2353142
40
0.3153459
50
325.2333722
51
332.8745602
0
ARC
8
DEFAULT_255_1_234
10
12.8835424
20
0.2246828
40
0.2967456
50
292.9802137
51
325.2392345
0
ARC
8
DEFAULT_255_1_234
10
12.8560798
20
0.2780863
40
0.3566604
50
292.5402179
51
293.6924929
0
ARC
8
DEFAULT_255_1_234
10
12.8953394
20
-0.3673909
40
0.3307468
50
57.6435486
51
72.8625112
0
ARC
8
DEFAULT_255_1_234
10
12.9307894
20
-0.3099451
40
0.2632492
50
36.7248896
51
57.4697979
0
ARC
8
DEFAULT_255_1_234
10
12.9296526
20
-0.308678
40
0.2634081
50
8.0545065
51
36.356114
0
ARC
8
DEFAULT_255_1_234
10
12.8433712
20
-0.3241826
40
0.3510261
50
359.8320645
51
8.5869982
0
ARC
8
DEFAULT_255_1_234
10
12.8058488
20
-0.3289899
40
0.3885653
50
343.9829931
51
0.5571613
0
ARC
8
DEFAULT_255_1_234
10
12.8944685
20
-0.3532562
40
0.2966924
50
311.6359546
51
343.7651759
0
ARC
8
DEFAULT_255_1_234
10
12.8566254
20
-0.3105898
40
0.3537231
50
279.7829875
51
311.6255694
0
ARC
8
DEFAULT_255_1_234
10
12.826503
20
-0.166872
40
0.5004971
50
269.7286406
51
280.3856417
0
ARC
8
DEFAULT_255_1_234
10
12.8203103
20
-0.1710004
40
0.4963778
50
256.6828919
51
270.4412052
0
ARC
8
DEFAULT_255_1_234
10
12.7864399
20
-0.3094606
40
0.3538406
50
229.4223008
51
256.8556159
0
ARC
8
DEFAULT_255_1_234
10
12.7449792
20
-0.3561264
40
0.2914296
50
181.818294
51
229.6455059
0
ARC
8
DEFAULT_255_1_234
10
12.8489748
20
-0.3430504
40
0.3959084
50
179.9755256
51
183.2323064
0
ARC
8
DEFAULT_255_1_234
10
12.8317494
20
-0.3450963
40
0.2293034
50
179.4465117
51
196.2869258
0
ARC
8
DEFAULT_255_1_234
10
12.7829902
20
-0.3584349
40
0.1787621
50
196.5661473
51
227.705904
0
ARC
8
DEFAULT_255_1_234
10
12.7993996
20
-0.3400845
40
0.2033784
50
227.7652068
51
257.8762805
0
ARC
8
DEFAULT_255_1_234
10
12.8218967
20
-0.2457844
40
0.3003081
50
257.4584385
51
270.426602
0
ARC
8
DEFAULT_255_1_234
10
12.8264533
20
-0.2168004
40
0.329292
50
269.5962073
51
280.8789248
0
ARC
8
DEFAULT_255_1_234
10
12.8494062
20
-0.3314315
40
0.2123908
50
280.6346389
51
299.8595945
0
ARC
8
DEFAULT_255_1_234
10
12.8684968
20
-0.3676788
40
0.171457
50
300.3576302
51
314.5517981
0
ARC
8
DEFAULT_255_1_234
10
12.8602028
20
-0.3616081
40
0.1816095
50
315.0728369
51
345.0431014
0
ARC
8
DEFAULT_255_1_234
10
12.7678843
20
-0.3347159
40
0.2777492
50
344.5986631
51
357.9269593
0
ARC
8
DEFAULT_255_1_234
10
12.6783169
20
-0.3285724
40
0.3674917
50
357.4748886
51
0.0231117
0
ARC
8
DEFAULT_255_1_234
10
12.7806278
20
-0.3261321
40
0.2651907
50
359.5047933
51
13.4239635
0
ARC
8
DEFAULT_255_1_234
10
12.8672922
20
-0.3039522
40
0.1757509
50
12.9498199
51
48.7551375
0
ARC
8
DEFAULT_255_1_234
10
12.8490656
20
-0.32886
40
0.2065134
50
49.5088623
51
72.1836453
0
ARC
8
DEFAULT_255_1_234
10
12.8132808
20
-0.4350709
40
0.3185836
50
71.9010081
51
84.3554254
0
ARC
8
DEFAULT_255_1_234
10
12.797144
20
-0.5711674
40
0.4556151
50
84.0193428
51
89.333121
0
LINE
8
DEFAULT_255_1_234
10
14.1051949
20
0.5181211
11
14.2602074
21
0.5181211
0
LINE
8
DEFAULT_255_1_234
10
14.2602074
20
0.5181211
11
14.2602074
21
-0.277021
0
LINE
8
DEFAULT_255_1_234
10
13.8762903
20
-0.6657571
11
13.8353285
21
-0.6673635
0
LINE
8
DEFAULT_255_1_234
10
13.4136622
20
-0.2786273
11
13.4136622
21
0.5181211
0
LINE
8
DEFAULT_255_1_234
10
13.4136622
20
0.5181211
11
13.5662652
21
0.5181211
0
LINE
8
DEFAULT_255_1_234
10
13.5662652
20
0.5181211
11
13.5662652
21
-0.2738083
0
LINE
8
DEFAULT_255_1_234
10
14.1051949
20
-0.2746115
11
14.1051949
21
0.5181211
0
ARC
8
DEFAULT_255_1_234
10
13.8248973
20
-0.2790072
40
0.4353147
50
343.0898354
51
0.2614217
0
ARC
8
DEFAULT_255_1_234
10
13.9077374
20
-0.3021163
40
0.3493402
50
315.3345598
51
342.7641223
0
ARC
8
DEFAULT_255_1_234
10
13.8853823
20
-0.2789318
40
0.3815385
50
284.6606969
51
315.2182466
0
ARC
8
DEFAULT_255_1_234
10
13.8398536
20
-0.1243245
40
0.5426573
50
273.8500273
51
285.1797701
0
ARC
8
DEFAULT_255_1_234
10
13.8310586
20
-0.0901525
40
0.5772268
50
257.6317484
51
270.4238298
0
ARC
8
DEFAULT_255_1_234
10
13.7885784
20
-0.2722802
40
0.3902347
50
230.6087562
51
257.9964012
0
ARC
8
DEFAULT_255_1_234
10
13.7753786
20
-0.2929198
40
0.3659186
50
227.7440991
51
230.1551448
0
ARC
8
DEFAULT_255_1_234
10
13.7619618
20
-0.3090529
40
0.3449568
50
189.2524587
51
227.5916061
0
ARC
8
DEFAULT_255_1_234
10
13.9141304
20
-0.2762987
40
0.5004737
50
180.2665968
51
190.1525252
0
ARC
8
DEFAULT_255_1_234
10
13.9363324
20
-0.2766082
40
0.3700778
50
179.5665184
51
191.9952995
0
ARC
8
DEFAULT_255_1_234
10
13.8135431
20
-0.3039957
40
0.2442808
50
191.6974072
51
215.1404042
0
ARC
8
DEFAULT_255_1_234
10
13.7897345
20
-0.3181892
40
0.2166522
50
215.6950207
51
224.8513522
0
ARC
8
DEFAULT_255_1_234
10
13.7953089
20
-0.3102303
40
0.2262237
50
225.2846858
51
255.0111758
0
ARC
8
DEFAULT_255_1_234
10
13.8277049
20
-0.1988545
40
0.3421979
50
254.5944985
51
267.9129803
0
ARC
8
DEFAULT_255_1_234
10
13.835153
20
-0.0904097
40
0.4508556
50
267.4689655
51
270.0223026
0
ARC
8
DEFAULT_255_1_234
10
13.8381675
20
-0.1493151
40
0.3919604
50
269.5849941
51
281.1843768
0
ARC
8
DEFAULT_255_1_234
10
13.866044
20
-0.2845941
40
0.2538457
50
280.9344262
51
300.9743589
0
ARC
8
DEFAULT_255_1_234
10
13.8873045
20
-0.3237312
40
0.2093566
50
301.4980046
51
315.1466847
0
ARC
8
DEFAULT_255_1_234
10
13.8728584
20
-0.3118764
40
0.2279656
50
315.5952539
51
345.6678731
0
ARC
8
DEFAULT_255_1_234
10
13.76091
20
-0.2806991
40
0.3441564
50
345.2524969
51
358.6304371
0
ARC
8
DEFAULT_255_1_234
10
13.6591454
20
-0.2747084
40
0.4460494
50
358.1735671
51
0.0124524
0
LINE
8
DEFAULT_255_1_234
10
14.789499
20
-0.0938974
11
14.789499
21
-0.2151766
0
LINE
8
DEFAULT_255_1_234
10
14.789499
20
-0.2151766
11
14.3975501
21
-0.2151766
0
LINE
8
DEFAULT_255_1_234
10
14.3975501
20
-0.2151766
11
14.3975501
21
-0.0938974
0
LINE
8
DEFAULT_255_1_234
10
14.3975501
20
-0.0938974
11
14.789499
21
-0.0938974
0
LINE
8
DEFAULT_255_1_234
10
15.5460887
20
0.5181211
11
15.5460887
21
-0.258548
0
LINE
8
DEFAULT_255_1_234
10
15.5460887
20
-0.258548
11
15.7083298
21
-0.258548
0
LINE
8
DEFAULT_255_1_234
10
15.7083298
20
-0.258548
11
15.7083298
21
-0.3798272
0
LINE
8
DEFAULT_255_1_234
10
15.7083298
20
-0.3798272
11
15.5460887
21
-0.3798272
0
LINE
8
DEFAULT_255_1_234
10
15.5460887
20
-0.3798272
11
15.5460887
21
-0.6513
0
LINE
8
DEFAULT_255_1_234
10
15.5460887
20
-0.6513
11
15.3966984
21
-0.6513
0
LINE
8
DEFAULT_255_1_234
10
15.3966984
20
-0.6513
11
15.3966984
21
-0.3798272
0
LINE
8
DEFAULT_255_1_234
10
15.3966984
20
-0.3798272
11
14.8641941
21
-0.3798272
0
LINE
8
DEFAULT_255_1_234
10
14.8641941
20
-0.3798272
11
14.8641941
21
-0.2922813
0
LINE
8
DEFAULT_255_1_234
10
14.8641941
20
-0.2922813
11
15.3878635
21
0.5181211
0
LINE
8
DEFAULT_255_1_234
10
15.3878635
20
0.5181211
11
15.5460887
21
0.5181211
0
LINE
8
DEFAULT_255_1_234
10
15.3790286
20
0.2827912
11
15.0328606
21
-0.258548
0
LINE
8
DEFAULT_255_1_234
10
15.0328606
20
-0.258548
11
15.3966984
21
-0.258548
0
LINE
8
DEFAULT_255_1_234
10
15.3966984
20
-0.258548
11
15.3966984
21
0.3149181
0
LINE
8
DEFAULT_255_1_234
10
15.3966984
20
0.3149181
11
15.3790286
21
0.2827912
0
LINE
8
DEFAULT_255_1_234
10
16.2046913
20
-0.6513
11
15.8810122
21
-0.6513
0
LINE
8
DEFAULT_255_1_234
10
15.8810122
20
-0.6513
11
15.8810122
21
0.5181211
0
LINE
8
DEFAULT_255_1_234
10
15.8810122
20
0.5181211
11
16.2111167
21
0.5181211
0
LINE
8
DEFAULT_255_1_234
10
16.7267542
20
-0.0272339
11
16.7267542
21
-0.1019291
0
LINE
8
DEFAULT_255_1_234
10
16.2151325
20
0.3912196
11
16.0352216
21
0.3912196
0
LINE
8
DEFAULT_255_1_234
10
16.0352216
20
0.3912196
11
16.0352216
21
-0.5252017
0
LINE
8
DEFAULT_255_1_234
10
16.0352216
20
-0.5252017
11
16.1974627
21
-0.5252017
0
LINE
8
DEFAULT_255_1_234
10
16.5741512
20
-0.0987164
11
16.5741512
21
-0.0304466
0
ARC
8
DEFAULT_255_1_234
10
16.2150109
20
-0.0684106
40
0.5865446
50
75.4101064
51
90.3804066
0
ARC
8
DEFAULT_255_1_234
10
16.2379623
20
0.0272492
40
0.4881916
50
60.145586
51
75.1888407
0
ARC
8
DEFAULT_255_1_234
10
16.2538398
20
0.0549199
40
0.4562893
50
26.5253612
51
60.1450928
0
ARC
8
DEFAULT_255_1_234
10
16.1418147
20
-0.0044842
40
0.5830602
50
7.4030428
51
26.8320788
0
ARC
8
DEFAULT_255_1_234
10
15.9823904
20
-0.0293196
40
0.7443669
50
0.1605367
51
7.7176192
0
ARC
8
DEFAULT_255_1_234
10
15.9987808
20
-0.1057566
40
0.7279835
50
348.7289388
51
0.3012466
0
ARC
8
DEFAULT_255_1_234
10
16.1644239
20
-0.1386614
40
0.559104
50
333.0706509
51
348.7181832
0
ARC
8
DEFAULT_255_1_234
10
16.2610997
20
-0.1911681
40
0.4491417
50
299.2531685
51
333.4571258
0
ARC
8
DEFAULT_255_1_234
10
16.2250136
20
-0.1226172
40
0.5265881
50
278.107187
51
299.0339503
0
ARC
8
DEFAULT_255_1_234
10
16.1994215
20
0.0281216
40
0.679442
50
270.4443897
51
278.4511052
0
ARC
8
DEFAULT_255_1_234
10
16.2015045
20
-0.0647787
40
0.4604407
50
269.4970433
51
284.0205042
0
ARC
8
DEFAULT_255_1_234
10
16.2370346
20
-0.2013022
40
0.3193797
50
283.7700273
51
318.1555492
0
ARC
8
DEFAULT_255_1_234
10
16.2033104
20
-0.1760633
40
0.3613588
50
318.7415601
51
343.6873628
0
ARC
8
DEFAULT_255_1_234
10
16.0229128
20
-0.1197168
40
0.5503313
50
343.3325091
51
355.8548958
0
ARC
8
DEFAULT_255_1_234
10
15.8130812
20
-0.0997681
40
0.7610708
50
355.4988528
51
0.0791727
0
ARC
8
DEFAULT_255_1_234
10
15.8913435
20
-0.026222
40
0.6828208
50
359.6455037
51
9.8607896
0
ARC
8
DEFAULT_255_1_234
10
16.1274132
20
0.0164099
40
0.4429406
50
9.6571907
51
26.1932807
0
ARC
8
DEFAULT_255_1_234
10
16.2202121
20
0.0595118
40
0.3406537
50
26.5777228
51
40.1532208
0
ARC
8
DEFAULT_255_1_234
10
16.2457847
20
0.0794619
40
0.308246
50
40.3840491
51
80.1431104
0
ARC
8
DEFAULT_255_1_234
10
16.2130965
20
-0.0654667
40
0.4566909
50
79.2152159
51
89.7445637
0
LINE
8
DEFAULT_255_1_234
10
17.7002009
20
-0.6513
11
17.5885598
21
-0.3460939
0
LINE
8
DEFAULT_255_1_234
10
17.5885598
20
-0.3460939
11
17.0986237
21
-0.3460939
0
LINE
8
DEFAULT_255_1_234
10
17.0986237
20
-0.3460939
11
16.9885889
21
-0.6513
0
LINE
8
DEFAULT_255_1_234
10
16.9885889
20
-0.6513
11
16.8295605
21
-0.6513
0
LINE
8
DEFAULT_255_1_234
10
16.8295605
20
-0.6513
11
17.2761251
21
0.5181211
0
LINE
8
DEFAULT_255_1_234
10
17.2761251
20
0.5181211
11
17.4110583
21
0.5181211
0
LINE
8
DEFAULT_255_1_234
10
17.4110583
20
0.5181211
11
17.8584262
21
-0.6513
0
LINE
8
DEFAULT_255_1_234
10
17.8584262
20
-0.6513
11
17.7002009
21
-0.6513
0
LINE
8
DEFAULT_255_1_234
10
17.3435917
20
0.3277689
11
17.1452078
21
-0.2191925
0
LINE
8
DEFAULT_255_1_234
10
17.1452078
20
-0.2191925
11
17.5427789
21
-0.2191925
0
LINE
8
DEFAULT_255_1_234
10
17.5427789
20
-0.2191925
11
17.3435917
21
0.3277689
0
LINE
8
DEFAULT_255_2_778
10
10.5738396
20
104.3993073
11
9.3932396
21
104.3993073
0
LINE
8
DEFAULT_255_2_778
10
9.3932396
20
104.3993073
11
9.9837396
21
105.4219073
0
LINE
8
DEFAULT_255_2_778
10
9.9837396
20
105.4219073
11
11.1643396
21
105.4219073
0
LINE
8
DEFAULT_255_2_778
10
11.1643396
20
105.4219073
11
10.5738396
21
104.3993073
0
LINE
8
DEFAULT_255_2_778
10
10.5738396
20
104.3993073
11
10.5738396
21
104.3993073
0
LINE
8
DEFAULT_255_2_778
10
11.7546396
20
104.3993073
11
12.9354396
21
104.3993073
0
LINE
8
DEFAULT_255_2_778
10
12.9354396
20
104.3993073
11
12.3451396
21
105.4219073
0
LINE
8
DEFAULT_255_2_778
10
12.3451396
20
105.4219073
11
11.1643396
21
105.4219073
0
LINE
8
DEFAULT_255_2_778
10
11.1643396
20
105.4219073
11
11.7546396
21
104.3993073
0
LINE
8
DEFAULT_255_2_778
10
11.7546396
20
104.3993073
11
11.7546396
21
104.3993073
0
LINE
8
DEFAULT_255_2_778
10
11.7545823
20
106.4445146
11
11.1642823
21
107.4671146
0
LINE
8
DEFAULT_255_2_778
10
11.1642823
20
107.4671146
11
10.5737823
21
106.4445146
0
LINE
8
DEFAULT_255_2_778
10
10.5737823
20
106.4445146
11
11.1642823
21
105.4219146
0
LINE
8
DEFAULT_255_2_778
10
11.1642823
20
105.4219146
11
11.7545823
21
106.4445146
0
LINE
8
DEFAULT_255_2_778
10
11.7545823
20
106.4445146
11
11.7545823
21
106.4445146
0
ARC
8
DEFAULT_255_2_778
10
16.5183731
20
106.0907426
40
0.5650491
50
268.7543645
51
289.1417717
0
ARC
8
DEFAULT_255_2_778
10
16.606208
20
105.8355531
40
0.2951681
50
289.2776255
51
3.7648372
0
ARC
8
DEFAULT_255_2_778
10
16.3901618
20
105.8621085
40
0.5106278
50
359.1949826
51
0.0020862
0
ARC
8
DEFAULT_255_2_778
10
16.547449
20
105.8480832
40
0.1541914
50
280.2616216
51
358.5297855
0
ARC
8
DEFAULT_255_2_778
10
16.5080075
20
105.960655
40
0.2726346
50
269.5969454
51
284.2065679
0
ARC
8
DEFAULT_255_2_778
10
16.4981967
20
105.9450316
40
0.2571258
50
246.5290903
51
271.7590909
0
ARC
8
DEFAULT_255_2_778
10
16.4527148
20
105.8370009
40
0.1399248
50
188.1071678
51
245.9934684
0
ARC
8
DEFAULT_255_2_778
10
16.4829007
20
105.8439617
40
0.1708111
50
179.9445314
51
188.990814
0
ARC
8
DEFAULT_255_2_778
10
16.4924507
20
105.8507849
40
0.3763411
50
178.2272621
51
205.8283807
0
ARC
8
DEFAULT_255_2_778
10
16.4132476
20
105.8330833
40
0.2979176
50
209.4028057
51
263.0375728
0
ARC
8
DEFAULT_255_2_778
10
16.5005111
20
106.2077629
40
0.6816586
50
259.5722942
51
270.4689037
0
ARC
8
DEFAULT_255_2_778
10
17.411252
20
106.2639767
40
0.1217154
50
2.0482843
51
87.015299
0
ARC
8
DEFAULT_255_2_778
10
17.4060617
20
106.2683852
40
0.126828
50
353.0600847
51
359.9737428
0
ARC
8
DEFAULT_255_2_778
10
17.4110442
20
106.2652555
40
0.1215295
50
270.5739762
51
354.2410513
0
ARC
8
DEFAULT_255_2_778
10
17.4065059
20
106.3014297
40
0.1578027
50
269.9941256
51
272.0902921
0
ARC
8
DEFAULT_255_2_778
10
17.414084
20
105.8505295
40
0.1400686
50
358.2807293
51
95.6106825
0
ARC
8
DEFAULT_255_2_778
10
17.4103233
20
105.8466963
40
0.1437669
50
266.9962473
51
359.8528392
0
ARC
8
DEFAULT_255_2_778
10
17.4725249
20
105.8869988
40
0.3335288
50
268.2414507
51
302.0223478
0
ARC
8
DEFAULT_255_2_778
10
17.5091261
20
105.811683
40
0.2504234
50
304.0600275
51
2.0468005
0
ARC
8
DEFAULT_255_2_778
10
17.4832788
20
105.8183521
40
0.2761203
50
0.4720601
51
65.8403529
0
ARC
8
DEFAULT_255_2_778
10
17.5191655
20
105.8831061
40
0.2024466
50
67.606893
51
75.8693222
0
ARC
8
DEFAULT_255_2_778
10
17.5042026
20
106.290722
40
0.2208874
50
286.9473417
51
358.0074963
0
ARC
8
DEFAULT_255_2_778
10
17.4710866
20
106.2995045
40
0.2544031
50
356.2897886
51
0.0050857
0
ARC
8
DEFAULT_255_2_778
10
17.497262
20
106.3045946
40
0.2282839
50
358.7280137
51
81.8073164
0
ARC
8
DEFAULT_255_2_778
10
17.4216369
20
106.0531283
40
0.4895182
50
77.2355086
51
90.5088275
0
ARC
8
DEFAULT_255_2_778
10
17.5842742
20
105.0886263
40
0.130243
50
89.9974494
51
92.6776592
0
ARC
8
DEFAULT_255_2_778
10
17.5843316
20
105.0891872
40
0.129682
50
45.0880141
51
90.022782
0
ARC
8
DEFAULT_255_2_778
10
17.5844118
20
105.089219
40
0.1296029
50
0.001866
51
45.1031959
0
ARC
8
DEFAULT_255_2_778
10
17.5845123
20
105.0892202
40
0.1295026
50
357.4803735
51
0.0013544
0
ARC
8
DEFAULT_255_2_778
10
17.5901979
20
105.0853512
40
0.1237052
50
339.8672523
51
359.1550732
0
ARC
8
DEFAULT_255_2_778
10
17.5794513
20
105.0825079
40
0.1329691
50
272.0853006
51
342.6124646
0
ARC
8
DEFAULT_255_2_778
10
17.6596145
20
105.1207661
40
0.2575135
50
286.787355
51
290.6121696
0
ARC
8
DEFAULT_255_2_778
10
17.6689461
20
105.1064533
40
0.24086
50
289.7330405
51
342.3216972
0
ARC
8
DEFAULT_255_2_778
10
17.641261
20
105.1112954
40
0.268735
50
343.130572
51
0.3905272
0
ARC
8
DEFAULT_255_2_778
10
17.6578783
20
105.1286767
40
0.2525904
50
356.4706028
51
80.1788963
0
ARC
8
DEFAULT_255_2_778
10
17.5921649
20
104.9017163
40
0.4881286
50
77.1212301
51
90.4900821
0
ARC
8
DEFAULT_255_2_778
10
17.5166337
20
104.604036
40
0.1865405
50
50.1507009
51
92.9634648
0
ARC
8
DEFAULT_255_2_778
10
17.5301354
20
104.6323678
40
0.1563319
50
12.621233
51
47.2950617
0
ARC
8
DEFAULT_255_2_778
10
16.8485884
20
104.4994726
40
0.8506657
50
2.8173892
51
11.3253986
0
ARC
8
DEFAULT_255_2_778
10
-29.2295733
20
101.0031175
40
47.060992
50
4.3048394
51
4.3117143
0
ARC
8
DEFAULT_255_2_778
10
18.5500859
20
104.575584
40
0.8523717
50
182.6850102
51
191.2954256
0
ARC
8
DEFAULT_255_2_778
10
17.9656837
20
104.4692399
40
0.2586603
50
193.5512904
51
195.3825538
0
ARC
8
DEFAULT_255_2_778
10
19.3415679
20
104.7268916
40
1.4608773
50
182.5958701
51
192.9049706
0
ARC
8
DEFAULT_255_2_778
10
17.6207606
20
104.6552215
40
0.261487
50
1.2064311
51
30.4123358
0
ARC
8
DEFAULT_255_2_778
10
17.6663626
20
104.670276
40
0.2147766
50
33.1081154
51
71.7312197
0
LINE
8
DEFAULT_255_2_778
10
13.4657897
20
104.8348271
11
13.9385897
21
104.8348271
0
LINE
8
DEFAULT_255_2_778
10
13.9385897
20
104.8348271
11
13.9385897
21
105.0062271
0
LINE
8
DEFAULT_255_2_778
10
13.9385897
20
105.0062271
11
13.4657897
21
105.0062271
0
LINE
8
DEFAULT_255_2_778
10
13.4657897
20
105.0062271
11
13.4657897
21
105.2171271
0
LINE
8
DEFAULT_255_2_778
10
13.4657897
20
105.2171271
11
13.9977897
21
105.2171271
0
LINE
8
DEFAULT_255_2_778
10
13.9977897
20
105.2171271
11
13.9977897
21
105.3885271
0
LINE
8
DEFAULT_255_2_778
10
13.9977897
20
105.3885271
11
13.4657897
21
105.3885271
0
LINE
8
DEFAULT_255_2_778
10
13.4657897
20
105.3885271
11
13.2651897
21
105.3885271
0
LINE
8
DEFAULT_255_2_778
10
13.2651897
20
105.3885271
11
13.2651897
21
105.2171271
0
LINE
8
DEFAULT_255_2_778
10
13.2651897
20
105.2171271
11
13.2651897
21
104.5707271
0
LINE
8
DEFAULT_255_2_778
10
13.2651897
20
104.5707271
11
13.2651897
21
104.3992271
0
LINE
8
DEFAULT_255_2_778
10
13.2651897
20
104.3992271
11
13.4657897
21
104.3992271
0
LINE
8
DEFAULT_255_2_778
10
13.4657897
20
104.3992271
11
14.0118897
21
104.3992271
0
LINE
8
DEFAULT_255_2_778
10
14.0118897
20
104.3992271
11
14.0118897
21
104.5707271
0
LINE
8
DEFAULT_255_2_778
10
14.0118897
20
104.5707271
11
13.4657897
21
104.5707271
0
LINE
8
DEFAULT_255_2_778
10
13.4657897
20
104.5707271
11
13.4657897
21
104.8345271
0
LINE
8
DEFAULT_255_2_778
10
13.4657897
20
104.8345271
11
13.4657897
21
104.8348271
0
LINE
8
DEFAULT_255_2_778
10
13.4519897
20
106.2889271
11
13.6620897
21
105.5536271
0
LINE
8
DEFAULT_255_2_778
10
13.6620897
20
105.5536271
11
13.6704897
21
105.5536271
0
LINE
8
DEFAULT_255_2_778
10
13.6704897
20
105.5536271
11
13.8464897
21
105.5536271
0
LINE
8
DEFAULT_255_2_778
10
13.8464897
20
105.5536271
11
13.8546897
21
105.5536271
0
LINE
8
DEFAULT_255_2_778
10
13.8546897
20
105.5536271
11
14.0647897
21
106.2889271
0
LINE
8
DEFAULT_255_2_778
10
14.0647897
20
106.2889271
11
14.0647897
21
105.5536271
0
LINE
8
DEFAULT_255_2_778
10
14.0647897
20
105.5536271
11
14.2515897
21
105.5536271
0
LINE
8
DEFAULT_255_2_778
10
14.2515897
20
105.5536271
11
14.2515897
21
106.5429271
0
LINE
8
DEFAULT_255_2_778
10
14.2515897
20
106.5429271
11
14.1496897
21
106.5429271
0
LINE
8
DEFAULT_255_2_778
10
14.1496897
20
106.5429271
11
14.0615897
21
106.5429271
0
LINE
8
DEFAULT_255_2_778
10
14.0615897
20
106.5429271
11
13.9655897
21
106.5429271
0
LINE
8
DEFAULT_255_2_778
10
13.9655897
20
106.5429271
11
13.7583897
21
105.8486271
0
LINE
8
DEFAULT_255_2_778
10
13.7583897
20
105.8486271
11
13.5511897
21
106.5429271
0
LINE
8
DEFAULT_255_2_778
10
13.5511897
20
106.5429271
11
13.4551897
21
106.5429271
0
LINE
8
DEFAULT_255_2_778
10
13.4551897
20
106.5429271
11
13.3669897
21
106.5429271
0
LINE
8
DEFAULT_255_2_778
10
13.3669897
20
106.5429271
11
13.2651897
21
106.5429271
0
LINE
8
DEFAULT_255_2_778
10
13.2651897
20
106.5429271
11
13.2651897
21
105.5536271
0
LINE
8
DEFAULT_255_2_778
10
13.2651897
20
105.5536271
11
13.4519897
21
105.5536271
0
LINE
8
DEFAULT_255_2_778
10
13.4519897
20
105.5536271
11
13.4519897
21
106.2889271
0
LINE
8
DEFAULT_255_2_778
10
13.4519897
20
106.2889271
11
13.4519897
21
106.2889271
0
LINE
8
DEFAULT_255_2_778
10
18.0056897
20
106.5429271
11
17.8064897
21
106.5429271
0
LINE
8
DEFAULT_255_2_778
10
17.8064897
20
106.5429271
11
17.8064897
21
105.5536271
0
LINE
8
DEFAULT_255_2_778
10
17.8064897
20
105.5536271
11
18.0056897
21
105.5536271
0
LINE
8
DEFAULT_255_2_778
10
18.0056897
20
105.5536271
11
18.0056897
21
106.5429271
0
LINE
8
DEFAULT_255_2_778
10
18.0056897
20
106.5429271
11
18.0056897
21
106.5429271
0
LINE
8
DEFAULT_255_2_778
10
18.1681897
20
105.3888271
11
17.9689897
21
105.3888271
0
LINE
8
DEFAULT_255_2_778
10
17.9689897
20
105.3888271
11
17.9689897
21
104.3995271
0
LINE
8
DEFAULT_255_2_778
10
17.9689897
20
104.3995271
11
18.1681897
21
104.3995271
0
LINE
8
DEFAULT_255_2_778
10
18.1681897
20
104.3995271
11
18.1681897
21
105.3888271
0
LINE
8
DEFAULT_255_2_778
10
18.1681897
20
105.3888271
11
18.1681897
21
105.3888271
0
LINE
8
DEFAULT_255_2_778
10
19.9765897
20
106.5429271
11
19.7773897
21
106.5429271
0
LINE
8
DEFAULT_255_2_778
10
19.7773897
20
106.5429271
11
19.7773897
21
105.5536271
0
LINE
8
DEFAULT_255_2_778
10
19.7773897
20
105.5536271
11
19.9765897
21
105.5536271
0
LINE
8
DEFAULT_255_2_778
10
19.9765897
20
105.5536271
11
19.9765897
21
106.5429271
0
LINE
8
DEFAULT_255_2_778
10
19.9765897
20
106.5429271
11
19.9765897
21
106.5429271
0
LINE
8
DEFAULT_255_2_778
10
14.5298897
20
106.5429271
11
14.3306897
21
106.5429271
0
LINE
8
DEFAULT_255_2_778
10
14.3306897
20
106.5429271
11
14.3306897
21
105.5536271
0
LINE
8
DEFAULT_255_2_778
10
14.3306897
20
105.5536271
11
14.5298897
21
105.5536271
0
LINE
8
DEFAULT_255_2_778
10
14.5298897
20
105.5536271
11
14.5298897
21
106.5429271
0
LINE
8
DEFAULT_255_2_778
10
14.5298897
20
106.5429271
11
14.5298897
21
106.5429271
0
LINE
8
DEFAULT_255_2_778
10
19.4989897
20
106.1569271
11
19.1029897
21
106.1569271
0
LINE
8
DEFAULT_255_2_778
10
19.1029897
20
106.1569271
11
19.1029897
21
106.5426271
0
LINE
8
DEFAULT_255_2_778
10
19.1029897
20
106.5426271
11
18.9068897
21
106.5426271
0
LINE
8
DEFAULT_255_2_778
10
18.9068897
20
106.5426271
11
18.9068897
21
105.5536271
0
LINE
8
DEFAULT_255_2_778
10
18.9068897
20
105.5536271
11
19.1029897
21
105.5536271
0
LINE
8
DEFAULT_255_2_778
10
19.1029897
20
105.5536271
11
19.1029897
21
105.9854271
0
LINE
8
DEFAULT_255_2_778
10
19.1029897
20
105.9854271
11
19.4989897
21
105.9854271
0
LINE
8
DEFAULT_255_2_778
10
19.4989897
20
105.9854271
11
19.4989897
21
105.5536271
0
LINE
8
DEFAULT_255_2_778
10
19.4989897
20
105.5536271
11
19.6950897
21
105.5536271
0
LINE
8
DEFAULT_255_2_778
10
19.6950897
20
105.5536271
11
19.6950897
21
106.5426271
0
LINE
8
DEFAULT_255_2_778
10
19.6950897
20
106.5426271
11
19.4989897
21
106.5426271
0
LINE
8
DEFAULT_255_2_778
10
19.4989897
20
106.5426271
11
19.4989897
21
106.1569271
0
LINE
8
DEFAULT_255_2_778
10
19.4989897
20
106.1569271
11
19.4989897
21
106.1569271
0
LINE
8
DEFAULT_255_2_778
10
14.8246897
20
105.5536271
11
15.0280897
21
105.5536271
0
LINE
8
DEFAULT_255_2_778
10
15.0280897
20
105.5536271
11
15.0280897
21
106.3715271
0
LINE
8
DEFAULT_255_2_778
10
15.0280897
20
106.3715271
11
15.2696897
21
106.3715271
0
LINE
8
DEFAULT_255_2_778
10
15.2696897
20
106.3715271
11
15.2696897
21
106.5429271
0
LINE
8
DEFAULT_255_2_778
10
15.2696897
20
106.5429271
11
15.0280897
21
106.5429271
0
LINE
8
DEFAULT_255_2_778
10
15.0280897
20
106.5429271
11
14.8246897
21
106.5429271
0
LINE
8
DEFAULT_255_2_778
10
14.8246897
20
106.5429271
11
14.5830897
21
106.5429271
0
LINE
8
DEFAULT_255_2_778
10
14.5830897
20
106.5429271
11
14.5830897
21
106.3715271
0
LINE
8
DEFAULT_255_2_778
10
14.5830897
20
106.3715271
11
14.8246897
21
106.3715271
0
LINE
8
DEFAULT_255_2_778
10
14.8246897
20
106.3715271
11
14.8246897
21
105.5536271
0
LINE
8
DEFAULT_255_2_778
10
14.8246897
20
105.5536271
11
14.8246897
21
105.5536271
0
LINE
8
DEFAULT_255_2_778
10
16.6422897
20
104.3995271
11
16.8454897
21
104.3995271
0
LINE
8
DEFAULT_255_2_778
10
16.8454897
20
104.3995271
11
16.8454897
21
105.2173271
0
LINE
8
DEFAULT_255_2_778
10
16.8454897
20
105.2173271
11
17.0873897
21
105.2173271
0
LINE
8
DEFAULT_255_2_778
10
17.0873897
20
105.2173271
11
17.0873897
21
105.3891271
0
LINE
8
DEFAULT_255_2_778
10
17.0873897
20
105.3891271
11
16.8454897
21
105.3891271
0
LINE
8
DEFAULT_255_2_778
10
16.8454897
20
105.3891271
11
16.6422897
21
105.3891271
0
LINE
8
DEFAULT_255_2_778
10
16.6422897
20
105.3891271
11
16.4004897
21
105.3891271
0
LINE
8
DEFAULT_255_2_778
10
16.4004897
20
105.3891271
11
16.4004897
21
105.2173271
0
LINE
8
DEFAULT_255_2_778
10
16.4004897
20
105.2173271
11
16.6422897
21
105.2173271
0
LINE
8
DEFAULT_255_2_778
10
16.6422897
20
105.2173271
11
16.6422897
21
104.3995271
0
LINE
8
DEFAULT_255_2_778
10
16.6422897
20
104.3995271
11
16.6422897
21
104.3995271
0
LINE
8
DEFAULT_255_2_778
10
16.9007897
20
105.8621271
11
16.9007897
21
106.5426271
0
LINE
8
DEFAULT_255_2_778
10
16.9007897
20
106.5426271
11
16.7015897
21
106.5426271
0
LINE
8
DEFAULT_255_2_778
10
16.7015897
20
106.5426271
11
16.7015897
21
105.8441271
0
LINE
8
DEFAULT_255_2_778
10
16.3120897
20
105.8441271
11
16.3120897
21
106.5426271
0
LINE
8
DEFAULT_255_2_778
10
16.3120897
20
106.5426271
11
16.1162897
21
106.5426271
0
LINE
8
DEFAULT_255_2_778
10
16.1162897
20
106.5426271
11
16.1162897
21
105.8624271
0
LINE
8
DEFAULT_255_2_778
10
15.0000897
20
104.8348271
11
15.4730897
21
104.8348271
0
LINE
8
DEFAULT_255_2_778
10
15.4730897
20
104.8348271
11
15.4730897
21
105.0062271
0
LINE
8
DEFAULT_255_2_778
10
15.4730897
20
105.0062271
11
15.0000897
21
105.0062271
0
LINE
8
DEFAULT_255_2_778
10
15.0000897
20
105.0062271
11
15.0000897
21
105.2171271
0
LINE
8
DEFAULT_255_2_778
10
15.0000897
20
105.2171271
11
15.5320897
21
105.2171271
0
LINE
8
DEFAULT_255_2_778
10
15.5320897
20
105.2171271
11
15.5320897
21
105.3885271
0
LINE
8
DEFAULT_255_2_778
10
15.5320897
20
105.3885271
11
15.0000897
21
105.3885271
0
LINE
8
DEFAULT_255_2_778
10
15.0000897
20
105.3885271
11
14.7997897
21
105.3885271
0
LINE
8
DEFAULT_255_2_778
10
14.7997897
20
105.3885271
11
14.7997897
21
105.2171271
0
LINE
8
DEFAULT_255_2_778
10
14.7997897
20
105.2171271
11
14.7997897
21
104.5707271
0
LINE
8
DEFAULT_255_2_778
10
14.7997897
20
104.5707271
11
14.7997897
21
104.3992271
0
LINE
8
DEFAULT_255_2_778
10
14.7997897
20
104.3992271
11
15.0000897
21
104.3992271
0
LINE
8
DEFAULT_255_2_778
10
15.0000897
20
104.3992271
11
15.5461897
21
104.3992271
0
LINE
8
DEFAULT_255_2_778
10
15.5461897
20
104.3992271
11
15.5461897
21
104.5707271
0
LINE
8
DEFAULT_255_2_778
10
15.5461897
20
104.5707271
11
15.0000897
21
104.5707271
0
LINE
8
DEFAULT_255_2_778
10
15.0000897
20
104.5707271
11
15.0000897
21
104.8345271
0
LINE
8
DEFAULT_255_2_778
10
15.0000897
20
104.8345271
11
15.0000897
21
104.8348271
0
LINE
8
DEFAULT_255_2_778
10
17.4064897
20
106.1436271
11
17.1690897
21
106.1436271
0
LINE
8
DEFAULT_255_2_778
10
17.1690897
20
106.1436271
11
17.1690897
21
106.3852271
0
LINE
8
DEFAULT_255_2_778
10
17.1690897
20
106.3852271
11
17.4175897
21
106.3852271
0
LINE
8
DEFAULT_255_2_778
10
17.4175897
20
106.3852271
11
17.4175897
21
106.3855271
0
LINE
8
DEFAULT_255_2_778
10
17.4027897
20
105.7028271
11
17.1690897
21
105.7028271
0
LINE
8
DEFAULT_255_2_778
10
17.1690897
20
105.7028271
11
17.1690897
21
105.9899271
0
LINE
8
DEFAULT_255_2_778
10
17.1690897
20
105.9899271
11
17.4003897
21
105.9899271
0
LINE
8
DEFAULT_255_2_778
10
17.1767897
20
105.5536271
11
17.4622897
21
105.5536271
0
LINE
8
DEFAULT_255_2_778
10
17.4172897
20
106.5426271
11
17.1770897
21
106.5426271
0
LINE
8
DEFAULT_255_2_778
10
17.1770897
20
106.5426271
11
16.9722897
21
106.5426271
0
LINE
8
DEFAULT_255_2_778
10
16.9722897
20
106.5426271
11
16.9711897
21
106.5426271
0
LINE
8
DEFAULT_255_2_778
10
16.9711897
20
106.5426271
11
16.9711897
21
105.5536271
0
LINE
8
DEFAULT_255_2_778
10
16.9711897
20
105.5536271
11
16.9722897
21
105.5536271
0
LINE
8
DEFAULT_255_2_778
10
16.9722897
20
105.5536271
11
17.1770897
21
105.5536271
0
LINE
8
DEFAULT_255_2_778
10
17.1770897
20
105.5536271
11
17.1767897
21
105.5536271
0
LINE
8
DEFAULT_255_2_778
10
17.3368897
20
104.9493271
11
17.3368897
21
105.2187271
0
LINE
8
DEFAULT_255_2_778
10
17.3368897
20
105.2187271
11
17.5781897
21
105.2187271
0
LINE
8
DEFAULT_255_2_778
10
17.5842897
20
104.9496271
11
17.3370897
21
104.9496271
0
LINE
8
DEFAULT_255_2_778
10
17.3370897
20
104.9496271
11
17.3368897
21
104.9493271
0
LINE
8
DEFAULT_255_2_778
10
17.5879897
20
105.3898271
11
17.3368897
21
105.3898271
0
LINE
8
DEFAULT_255_2_778
10
17.3368897
20
105.3898271
11
17.1383897
21
105.3898271
0
LINE
8
DEFAULT_255_2_778
10
17.1383897
20
105.3898271
11
17.1362897
21
105.3898271
0
LINE
8
DEFAULT_255_2_778
10
17.1362897
20
105.3898271
11
17.1362897
21
104.4006271
0
LINE
8
DEFAULT_255_2_778
10
17.1362897
20
104.4006271
11
17.3368897
21
104.4006271
0
LINE
8
DEFAULT_255_2_778
10
17.3368897
20
104.4006271
11
17.3368897
21
104.7903271
0
LINE
8
DEFAULT_255_2_778
10
17.3368897
20
104.7903271
11
17.5069897
21
104.7903271
0
LINE
8
DEFAULT_255_2_778
10
17.7162897
20
104.4006271
11
17.9175897
21
104.4006271
0
LINE
8
DEFAULT_255_2_778
10
14.2763897
20
105.3888271
11
14.0760897
21
105.3888271
0
LINE
8
DEFAULT_255_2_778
10
14.0760897
20
105.3888271
11
14.0760897
21
104.5710271
0
LINE
8
DEFAULT_255_2_778
10
14.0760897
20
104.5710271
11
14.0760897
21
104.3995271
0
LINE
8
DEFAULT_255_2_778
10
14.0760897
20
104.3995271
11
14.2763897
21
104.3995271
0
LINE
8
DEFAULT_255_2_778
10
14.2763897
20
104.3995271
11
14.7428897
21
104.3995271
0
LINE
8
DEFAULT_255_2_778
10
14.7428897
20
104.3995271
11
14.7428897
21
104.5710271
0
LINE
8
DEFAULT_255_2_778
10
14.7428897
20
104.5710271
11
14.2763897
21
104.5710271
0
LINE
8
DEFAULT_255_2_778
10
14.2763897
20
104.5710271
11
14.2763897
21
105.3888271
0
LINE
8
DEFAULT_255_2_778
10
14.2763897
20
105.3888271
11
14.2763897
21
105.3888271
0
ARC
8
DEFAULT_255_2_778
10
15.4584271
20
105.0146969
40
0.9681224
50
72.4822103
51
81.3184214
0
ARC
8
DEFAULT_255_2_778
10
15.7160297
20
105.7913918
40
0.1503783
50
28.8883513
51
77.0092434
0
ARC
8
DEFAULT_255_2_778
10
15.7432379
20
105.8203196
40
0.113238
50
358.9917455
51
22.7117017
0
ARC
8
DEFAULT_255_2_778
10
15.7394861
20
105.8244918
40
0.1171346
50
289.2958104
51
356.9831562
0
ARC
8
DEFAULT_255_2_778
10
15.6668261
20
105.9819882
40
0.2902651
50
268.4665462
51
292.5613311
0
ARC
8
DEFAULT_255_2_778
10
15.6496856
20
105.9229179
40
0.2312808
50
236.4956947
51
272.3225735
0
ARC
8
DEFAULT_255_2_778
10
15.6106646
20
105.8546839
40
0.1529307
50
178.9722202
51
234.5742435
0
ARC
8
DEFAULT_255_2_778
10
15.5656113
20
105.8451079
40
0.3002058
50
177.6481608
51
245.5596397
0
ARC
8
DEFAULT_255_2_778
10
15.6409971
20
106.0173561
40
0.488217
50
245.8690375
51
267.169035
0
ARC
8
DEFAULT_255_2_778
10
15.6671503
20
106.2683916
40
0.7403648
50
266.1069867
51
270.0547972
0
ARC
8
DEFAULT_255_2_778
10
15.6772894
20
106.0996135
40
0.5716642
50
269.0547216
51
287.7147747
0
ARC
8
DEFAULT_255_2_778
10
15.7598889
20
105.8539091
40
0.3125017
50
286.995984
51
325.1221533
0
ARC
8
DEFAULT_255_2_778
10
15.7678294
20
105.837361
40
0.2966627
50
326.8673922
51
0.8625726
0
ARC
8
DEFAULT_255_2_778
10
15.7898286
20
105.8459409
40
0.2746606
50
359.1417932
51
76.9739731
0
ARC
8
DEFAULT_255_2_778
10
15.6705461
20
105.5650719
40
0.577616
50
71.7185727
51
79.1315439
0
ARC
8
DEFAULT_255_2_778
10
14.2492968
20
98.211467
40
8.0673056
50
79.0662148
51
79.6216572
0
ARC
8
DEFAULT_255_2_778
10
16.4356585
20
110.0891581
40
4.0099443
50
259.1227669
51
259.4665204
0
ARC
8
DEFAULT_255_2_778
10
15.7836732
20
106.7941142
40
0.6513291
50
249.9945768
51
260.7485895
0
ARC
8
DEFAULT_255_2_778
10
15.5880401
20
106.2830999
40
0.1046098
50
178.6705173
51
254.9333545
0
ARC
8
DEFAULT_255_2_778
10
15.6049957
20
106.2796688
40
0.1216785
50
93.288632
51
177.2403935
0
ARC
8
DEFAULT_255_2_778
10
15.6585677
20
106.0926752
40
0.3143588
50
89.6189463
51
101.1057977
0
ARC
8
DEFAULT_255_2_778
10
15.6722733
20
106.204516
40
0.2028439
50
53.5634072
51
93.2825843
0
ARC
8
DEFAULT_255_2_778
10
15.7018505
20
106.2627144
40
0.1388739
50
357.1985816
51
49.1152298
0
ARC
8
DEFAULT_255_2_778
10
15.7254907
20
106.2559274
40
0.3087677
50
359.9999335
51
2.3703878
0
ARC
8
DEFAULT_255_2_778
10
15.7353555
20
106.2574337
40
0.298851
50
2.1600756
51
60.1092229
0
ARC
8
DEFAULT_255_2_778
10
15.6766212
20
106.1508133
40
0.4205645
50
60.4106856
51
86.1444419
0
ARC
8
DEFAULT_255_2_778
10
15.6536151
20
105.9741228
40
0.5985046
50
85.0843314
51
90.0628677
0
ARC
8
DEFAULT_255_2_778
10
15.6529718
20
106.0975466
40
0.4750804
50
90.001616
51
92.2300394
0
ARC
8
DEFAULT_255_2_778
10
15.6281193
20
106.202687
40
0.3696351
50
89.0131319
51
149.6364996
0
ARC
8
DEFAULT_255_2_778
10
15.5505461
20
106.2749055
40
0.2671974
50
154.5962367
51
180.4885883
0
ARC
8
DEFAULT_255_2_778
10
15.5651524
20
106.273384
40
0.281795
50
180.1539064
51
255.1120325
0
ARC
8
DEFAULT_255_2_778
10
15.7094242
20
106.596232
40
0.6333958
50
249.9962237
51
260.4976723
0
ARC
8
DEFAULT_255_2_778
10
18.2470963
20
105.0158351
40
0.967002
50
72.4685023
51
81.3064395
0
ARC
8
DEFAULT_255_2_778
10
18.5045397
20
105.791427
40
0.1503535
50
28.8782248
51
76.9904304
0
ARC
8
DEFAULT_255_2_778
10
18.5317197
20
105.8203189
40
0.1132561
50
358.9922779
51
22.7082666
0
ARC
8
DEFAULT_255_2_778
10
18.5280402
20
105.8244088
40
0.1170763
50
289.2761556
51
357.0223042
0
ARC
8
DEFAULT_255_2_778
10
18.4553612
20
105.9822836
40
0.2905613
50
268.4611814
51
292.5289055
0
ARC
8
DEFAULT_255_2_778
10
18.4381801
20
105.9238175
40
0.2321799
50
236.6698634
51
272.3149402
0
ARC
8
DEFAULT_255_2_778
10
18.39878
20
105.8546762
40
0.1528464
50
178.9687581
51
234.7686008
0
ARC
8
DEFAULT_255_2_778
10
18.3540113
20
105.8451079
40
0.3002058
50
177.6481608
51
245.5596397
0
ARC
8
DEFAULT_255_2_778
10
18.4293971
20
106.0173561
40
0.488217
50
245.8690375
51
267.169035
0
ARC
8
DEFAULT_255_2_778
10
18.4555503
20
106.2683916
40
0.7403648
50
266.1069867
51
270.0547972
0
ARC
8
DEFAULT_255_2_778
10
18.4656836
20
106.1002451
40
0.5722957
50
269.0563423
51
287.7048702
0
ARC
8
DEFAULT_255_2_778
10
18.548344
20
105.8542682
40
0.312856
50
286.9832601
51
325.0871916
0
ARC
8
DEFAULT_255_2_778
10
18.5567708
20
105.8373856
40
0.2964208
50
326.8311942
51
0.8585267
0
ARC
8
DEFAULT_255_2_778
10
18.5785756
20
105.8460282
40
0.2746149
50
359.1234265
51
76.9343785
0
ARC
8
DEFAULT_255_2_778
10
18.4596421
20
105.5661965
40
0.5764934
50
71.6999697
51
79.1198353
0
ARC
8
DEFAULT_255_2_778
10
17.0173657
20
98.0894392
40
8.1910887
50
79.0843627
51
79.6321368
0
ARC
8
DEFAULT_255_2_778
10
19.2200266
20
110.0689177
40
3.9892176
50
259.1314419
51
259.4772924
0
ARC
8
DEFAULT_255_2_778
10
18.5723251
20
106.7935131
40
0.6507003
50
249.9919323
51
260.7592458
0
ARC
8
DEFAULT_255_2_778
10
18.376901
20
106.2830546
40
0.1045718
50
178.6452075
51
254.9151907
0
ARC
8
DEFAULT_255_2_778
10
18.3939581
20
106.2796016
40
0.121744
50
93.2745253
51
177.21023
0
ARC
8
DEFAULT_255_2_778
10
18.4475726
20
106.0925052
40
0.3145287
50
89.6200387
51
101.1027534
0
ARC
8
DEFAULT_255_2_778
10
18.4613489
20
106.2058453
40
0.2015212
50
53.1490002
51
93.3256649
0
ARC
8
DEFAULT_255_2_778
10
18.4902753
20
106.2626519
40
0.1391457
50
357.2298288
51
48.6469881
0
ARC
8
DEFAULT_255_2_778
10
18.5137232
20
106.2559226
40
0.3092351
50
0.0008291
51
2.3676985
0
ARC
8
DEFAULT_255_2_778
10
18.5240744
20
106.2574868
40
0.2988304
50
2.1500394
51
60.0956838
0
ARC
8
DEFAULT_255_2_778
10
18.4654399
20
106.1509909
40
0.4203859
50
60.40452
51
86.1455285
0
ARC
8
DEFAULT_255_2_778
10
18.4424157
20
105.9741686
40
0.5984588
50
85.0841409
51
90.0629301
0
ARC
8
DEFAULT_255_2_778
10
18.4417778
20
106.0971392
40
0.4754878
50
90.0023409
51
92.3231329
0
ARC
8
DEFAULT_255_2_778
10
18.4167555
20
106.2024604
40
0.3698206
50
89.1093915
51
149.6400816
0
ARC
8
DEFAULT_255_2_778
10
18.338761
20
106.2748917
40
0.2669122
50
154.6001925
51
180.486137
0
ARC
8
DEFAULT_255_2_778
10
18.3537607
20
106.2735152
40
0.2819037
50
180.1805176
51
255.132702
0
ARC
8
DEFAULT_255_2_778
10
18.4982264
20
106.5967784
40
0.6339516
50
250.0026216
51
260.4967164
0
ARC
8
DEFAULT_255_2_778
10
16.008917
20
104.8039283
40
0.2519711
50
190.2626864
51
267.3480013
0
ARC
8
DEFAULT_255_2_778
10
16.2443543
20
104.8952548
40
0.5022041
50
179.6723028
51
195.7380858
0
ARC
8
DEFAULT_255_2_778
10
16.1790511
20
104.9107671
40
0.4370755
50
148.7005643
51
181.6572045
0
ARC
8
DEFAULT_255_2_778
10
15.9957576
20
105.0208723
40
0.2232598
50
89.6148479
51
148.4074796
0
ARC
8
DEFAULT_255_2_778
10
16.0060936
20
105.042949
40
0.201372
50
41.9769772
51
92.5146611
0
ARC
8
DEFAULT_255_2_778
10
15.9522078
20
105.0052523
40
0.2667646
50
15.1848537
51
40.2549591
0
ARC
8
DEFAULT_255_2_778
10
16.028123
20
105.0155326
40
0.3935735
50
8.7091682
51
82.0550801
0
ARC
8
DEFAULT_255_2_778
10
15.9931241
20
104.8690871
40
0.543642
50
80.5350289
51
90.1544743
0
ARC
8
DEFAULT_255_2_778
10
15.9818804
20
104.9577192
40
0.4551129
50
88.7689246
51
119.6437418
0
ARC
8
DEFAULT_255_2_778
10
16.0077717
20
104.9614647
40
0.4653013
50
122.644121
51
173.3997839
0
ARC
8
DEFAULT_255_2_778
10
16.2711934
20
104.8971568
40
0.7351371
50
170.7798304
51
180.1348114
0
ARC
8
DEFAULT_255_2_778
10
16.1377257
20
104.8817615
40
0.6018225
50
178.6988735
51
210.5289552
0
ARC
8
DEFAULT_255_2_778
10
15.970325
20
104.7909953
40
0.4115783
50
211.4828222
51
265.8686737
0
ARC
8
DEFAULT_255_2_778
10
15.9909864
20
104.9157011
40
0.5375742
50
264.6297133
51
270.0503073
0
ARC
8
DEFAULT_255_2_778
10
16.0020995
20
104.8475749
40
0.4695684
50
268.7014824
51
300.1403067
0
ARC
8
DEFAULT_255_2_778
10
16.0350333
20
104.7691852
40
0.385394
50
301.7580058
51
353.77968
0
ARC
8
DEFAULT_255_2_778
10
16.0012256
20
104.7635219
40
0.2113379
50
268.8430278
51
350.1661143
0
ARC
8
DEFAULT_255_2_778
10
18.6896799
20
104.8038824
40
0.2519281
50
190.2538303
51
267.3332171
0
ARC
8
DEFAULT_255_2_778
10
18.9252249
20
104.8952581
40
0.5022746
50
179.672724
51
195.7362088
0
ARC
8
DEFAULT_255_2_778
10
18.8600432
20
104.9107917
40
0.4372682
50
148.7196987
51
181.6596982
0
ARC
8
DEFAULT_255_2_778
10
18.676443
20
105.0209906
40
0.2231415
50
89.6108896
51
148.4244661
0
ARC
8
DEFAULT_255_2_778
10
18.686876
20
105.042967
40
0.2013576
50
42.5913083
51
92.5383066
0
ARC
8
DEFAULT_255_2_778
10
18.6345542
20
105.0065973
40
0.2646316
50
15.0085433
51
40.7215892
0
ARC
8
DEFAULT_255_2_778
10
18.708623
20
105.0155326
40
0.3935735
50
8.7091682
51
82.0550801
0
ARC
8
DEFAULT_255_2_778
10
18.6736241
20
104.8690871
40
0.543642
50
80.5350289
51
90.1544743
0
ARC
8
DEFAULT_255_2_778
10
18.6623804
20
104.9577192
40
0.4551129
50
88.7689246
51
119.6437418
0
ARC
8
DEFAULT_255_2_778
10
18.6882717
20
104.9614647
40
0.4653013
50
122.644121
51
173.3997839
0
ARC
8
DEFAULT_255_2_778
10
18.9516934
20
104.8971568
40
0.7351371
50
170.7798304
51
180.1348114
0
ARC
8
DEFAULT_255_2_778
10
18.8177822
20
104.88182
40
0.6013778
50
178.7034849
51
210.5604279
0
ARC
8
DEFAULT_255_2_778
10
18.6511312
20
104.7913377
40
0.4119265
50
211.5090145
51
265.8592607
0
ARC
8
DEFAULT_255_2_778
10
18.6716883
20
104.9154521
40
0.5373252
50
264.628472
51
270.0501277
0
ARC
8
DEFAULT_255_2_778
10
18.682837
20
104.8473685
40
0.4693629
50
268.6963312
51
300.2191972
0
ARC
8
DEFAULT_255_2_778
10
18.7155684
20
104.7694124
40
0.3856821
50
301.8465101
51
353.7503927
0
ARC
8
DEFAULT_255_2_778
10
18.6820648
20
104.7633604
40
0.2111733
50
268.8857714
51
350.2028431
0
LINE
8
DEFAULT_255_2_778
10
15.4577584
20
105.8574271
11
15.2656584
21
105.8574271
0
LINE
8
DEFAULT_255_2_778
10
15.8405584
20
106.2559271
11
16.0342584
21
106.2559271
0
LINE
8
DEFAULT_255_2_778
10
18.2459584
20
105.8574271
11
18.0540584
21
105.8574271
0
LINE
8
DEFAULT_255_2_778
10
18.6292584
20
106.2559271
11
18.8229584
21
106.2559271
0
LINE
8
DEFAULT_255_2_778
10
16.2096584
20
105.0751271
11
16.4171584
21
105.0751271
0
LINE
8
DEFAULT_255_2_778
10
16.4181584
20
104.7274271
11
16.2094584
21
104.7274271
0
LINE
8
DEFAULT_255_2_778
10
18.8901584
20
105.0751271
11
19.0976584
21
105.0751271
0
LINE
8
DEFAULT_255_2_778
10
19.0989584
20
104.7274271
11
18.8901584
21
104.7274271
0
LINE
8
DEFAULT_255_1_234
10
10.5207823
20
102.7437341
11
10.5207823
21
101.8747
0
LINE
8
DEFAULT_255_1_234
10
10.5207823
20
101.8747
11
10.3721951
21
101.8747
0
LINE
8
DEFAULT_255_1_234
10
10.3721951
20
101.8747
11
10.3721951
21
102.7437341
0
LINE
8
DEFAULT_255_1_234
10
10.3721951
20
102.7437341
11
10.5207823
21
102.7437341
0
ARC
8
DEFAULT_255_1_234
10
10.45801
20
102.9751889
40
0.097867
50
161.415052
51
180.5526306
0
ARC
8
DEFAULT_255_1_234
10
10.4455878
20
102.9786077
40
0.0850062
50
138.1827368
51
160.9307106
0
ARC
8
DEFAULT_255_1_234
10
10.4345824
20
102.9881588
40
0.0704362
50
104.6368899
51
138.0039868
0
ARC
8
DEFAULT_255_1_234
10
10.4452978
20
102.9514963
40
0.1086221
50
92.0600725
51
105.2189128
0
ARC
8
DEFAULT_255_1_234
10
10.4476327
20
102.9172117
40
0.1429728
50
89.9756393
51
92.5012496
0
ARC
8
DEFAULT_255_1_234
10
10.4486346
20
102.9397731
40
0.1204151
50
78.0235316
51
90.4478182
0
ARC
8
DEFAULT_255_1_234
10
10.4578438
20
102.9811295
40
0.0780493
50
55.051506
51
78.3369085
0
ARC
8
DEFAULT_255_1_234
10
10.4628712
20
102.9895711
40
0.0682538
50
42.0501187
51
54.4513741
0
ARC
8
DEFAULT_255_1_234
10
10.449358
20
102.9771798
40
0.0865878
50
1.7497075
51
42.1496013
0
ARC
8
DEFAULT_255_1_234
10
10.4238912
20
102.9742738
40
0.1121515
50
359.9852656
51
2.8364544
0
ARC
8
DEFAULT_255_1_234
10
10.4404905
20
102.9733229
40
0.0955566
50
342.1070653
51
0.552888
0
ARC
8
DEFAULT_255_1_234
10
10.4547602
20
102.9693904
40
0.0807713
50
316.7107116
51
341.6516965
0
ARC
8
DEFAULT_255_1_234
10
10.4614639
20
102.9633823
40
0.0717724
50
285.4397031
51
316.5324284
0
ARC
8
DEFAULT_255_1_234
10
10.4504556
20
102.9999554
40
0.1099597
50
272.3547054
51
285.8953117
0
ARC
8
DEFAULT_255_1_234
10
10.4477714
20
103.0365048
40
0.1465932
50
269.9695369
51
272.8160237
0
ARC
8
DEFAULT_255_1_234
10
10.4467896
20
103.0145863
40
0.1246779
50
258.8431134
51
270.4153935
0
ARC
8
DEFAULT_255_1_234
10
10.4377938
20
102.9710414
40
0.0802162
50
238.5431189
51
259.1288175
0
ARC
8
DEFAULT_255_1_234
10
10.4309823
20
102.9586856
40
0.0661247
50
222.5062634
51
237.9906969
0
ARC
8
DEFAULT_255_1_234
10
10.443741
20
102.9702889
40
0.0833707
50
184.1069131
51
222.460413
0
ARC
8
DEFAULT_255_1_234
10
10.4706651
20
102.9741349
40
0.1105176
50
179.9429482
51
185.0960898
0
LINE
8
DEFAULT_255_1_234
10
11.6749431
20
102.4963565
11
11.6749431
21
102.4216614
0
LINE
8
DEFAULT_255_1_234
10
11.4701337
20
101.9381507
11
11.6789589
21
101.7743033
0
LINE
8
DEFAULT_255_1_234
10
11.6789589
20
101.7743033
11
11.5737432
21
101.6771192
0
LINE
8
DEFAULT_255_1_234
10
11.5737432
20
101.6771192
11
11.3271688
21
101.8730937
0
LINE
8
DEFAULT_255_1_234
10
10.7336233
20
102.4112201
11
10.7336233
21
102.4955534
0
LINE
8
DEFAULT_255_1_234
10
11.5207337
20
102.4104169
11
11.5207337
21
102.4971597
0
LINE
8
DEFAULT_255_1_234
10
10.8878327
20
102.507601
11
10.8878327
21
102.4216614
0
ARC
8
DEFAULT_255_1_234
10
10.7795682
20
102.4177707
40
0.8953833
50
351.453011
51
0.2489685
0
ARC
8
DEFAULT_255_1_234
10
11.0380483
20
102.3777933
40
0.6338333
50
338.6861641
51
351.5540711
0
ARC
8
DEFAULT_255_1_234
10
11.1314367
20
102.3447828
40
0.5348431
50
336.2887631
51
338.3442418
0
ARC
8
DEFAULT_255_1_234
10
11.1653989
20
102.3261698
40
0.4962747
50
321.1170344
51
336.6795229
0
ARC
8
DEFAULT_255_1_234
10
11.2285818
20
102.2775206
40
0.4165565
50
305.4419708
51
320.8705636
0
ARC
8
DEFAULT_255_1_234
10
11.2089288
20
102.3522707
40
0.4935497
50
271.6373023
51
283.8611969
0
ARC
8
DEFAULT_255_1_234
10
11.2051541
20
102.4178572
40
0.5592206
50
269.9930596
51
271.8318864
0
ARC
8
DEFAULT_255_1_234
10
11.2013984
20
102.3370681
40
0.4784458
50
252.5219675
51
270.4416499
0
ARC
8
DEFAULT_255_1_234
10
11.1870243
20
102.2831592
40
0.422716
50
237.5352116
51
252.1857531
0
ARC
8
DEFAULT_255_1_234
10
11.1959439
20
102.2945363
40
0.4371052
50
209.063312
51
237.3492538
0
ARC
8
DEFAULT_255_1_234
10
11.2829287
20
102.3491685
40
0.5397041
50
205.1183774
51
209.6470015
0
ARC
8
DEFAULT_255_1_234
10
11.3626324
20
102.382983
40
0.6262326
50
188.7215458
51
204.8240747
0
ARC
8
DEFAULT_255_1_234
10
11.5623852
20
102.4166067
40
0.8287794
50
180.3723947
51
188.9252049
0
ARC
8
DEFAULT_255_1_234
10
11.5596604
20
102.4995402
40
0.8260467
50
169.5253763
51
180.2765336
0
ARC
8
DEFAULT_255_1_234
10
11.3694053
20
102.5345309
40
0.6326007
50
155.8315255
51
169.5089989
0
ARC
8
DEFAULT_255_1_234
10
11.2413554
20
102.5939348
40
0.4914567
50
139.6258461
51
156.0379525
0
ARC
8
DEFAULT_255_1_234
10
11.1823887
20
102.6413799
40
0.4158054
50
122.6416387
51
139.3430715
0
ARC
8
DEFAULT_255_1_234
10
11.1924507
20
102.6230451
40
0.4366739
50
93.0223692
51
122.455762
0
ARC
8
DEFAULT_255_1_234
10
11.2032504
20
102.5265709
40
0.5336137
50
89.975342
51
93.6341897
0
ARC
8
DEFAULT_255_1_234
10
11.207139
20
102.5645375
40
0.4956606
50
73.9665422
51
90.4229648
0
ARC
8
DEFAULT_255_1_234
10
11.2255037
20
102.6360451
40
0.4218674
50
57.5178019
51
73.6813337
0
ARC
8
DEFAULT_255_1_234
10
11.221082
20
102.6324462
40
0.4272816
50
28.7261108
51
57.2767933
0
ARC
8
DEFAULT_255_1_234
10
11.1300152
20
102.5761688
40
0.534218
50
24.2448911
51
29.3248482
0
ARC
8
DEFAULT_255_1_234
10
11.0374253
20
102.5378819
40
0.6343711
50
9.064382
51
23.9639114
0
ARC
8
DEFAULT_255_1_234
10
10.8118581
20
102.4999925
40
0.8630926
50
359.7586264
51
9.1891435
0
ARC
8
DEFAULT_255_1_234
10
10.6864061
20
102.5013343
40
0.834338
50
359.7133237
51
7.96545
0
ARC
8
DEFAULT_255_1_234
10
10.9826278
20
102.5440681
40
0.5350538
50
7.8291991
51
20.0421623
0
ARC
8
DEFAULT_255_1_234
10
11.1450841
20
102.6031606
40
0.3621841
50
20.0677553
51
35.9161685
0
ARC
8
DEFAULT_255_1_234
10
11.2225879
20
102.660767
40
0.2656263
50
35.6594382
51
85.1578074
0
ARC
8
DEFAULT_255_1_234
10
11.2041135
20
102.5492378
40
0.3784238
50
83.7959068
51
90.095906
0
ARC
8
DEFAULT_255_1_234
10
11.1998069
20
102.6225601
40
0.3051229
50
89.3102392
51
109.9889877
0
ARC
8
DEFAULT_255_1_234
10
11.1915552
20
102.6581433
40
0.2688988
50
110.9285147
51
143.9411762
0
ARC
8
DEFAULT_255_1_234
10
11.2846498
20
102.5869236
40
0.3860887
50
143.5289163
51
163.2980757
0
ARC
8
DEFAULT_255_1_234
10
11.4754319
20
102.5269433
40
0.5860659
50
163.0418846
51
174.3140048
0
ARC
8
DEFAULT_255_1_234
10
11.7158431
20
102.4991854
40
0.8280531
50
174.0509143
51
179.4176892
0
ARC
8
DEFAULT_255_1_234
10
11.6644766
20
102.4173634
40
0.7766558
50
179.6829237
51
188.9631324
0
ARC
8
DEFAULT_255_1_234
10
11.3974327
20
102.3738752
40
0.5060992
50
188.8100743
51
202.9300012
0
ARC
8
DEFAULT_255_1_234
10
11.2757956
20
102.3243855
40
0.3747967
50
203.2069261
51
215.7876482
0
ARC
8
DEFAULT_255_1_234
10
11.1909353
20
102.2572671
40
0.2667526
50
214.7521006
51
264.2834488
0
ARC
8
DEFAULT_255_1_234
10
11.2045008
20
102.342778
40
0.3532247
50
263.4755397
51
270.0949833
0
ARC
8
DEFAULT_255_1_234
10
11.2087119
20
102.3166374
40
0.3271036
50
269.3649385
51
287.5152008
0
ARC
8
DEFAULT_255_1_234
10
11.2265277
20
102.2519238
40
0.2600406
50
288.0630309
51
323.8113348
0
ARC
8
DEFAULT_255_1_234
10
11.1394119
20
102.3169049
40
0.3687189
50
323.6547608
51
342.6590488
0
ARC
8
DEFAULT_255_1_234
10
10.9362734
20
102.3829952
40
0.5823286
50
342.4091907
51
353.6451149
0
ARC
8
DEFAULT_255_1_234
10
10.6531244
20
102.418219
40
0.8676442
50
353.4029884
51
359.4847795
0
LINE
8
DEFAULT_255_1_234
10
12.1986124
20
102.4321026
11
12.1986124
21
102.3108234
0
LINE
8
DEFAULT_255_1_234
10
12.1986124
20
102.3108234
11
11.8066636
21
102.3108234
0
LINE
8
DEFAULT_255_1_234
10
11.8066636
20
102.3108234
11
11.8066636
21
102.4321026
0
LINE
8
DEFAULT_255_1_234
10
11.8066636
20
102.4321026
11
12.1986124
21
102.4321026
0
LINE
8
DEFAULT_255_1_234
10
13.0114243
20
102.5172391
11
13.0114243
21
102.3911408
0
LINE
8
DEFAULT_255_1_234
10
13.0114243
20
102.3911408
11
12.5206851
21
102.3911408
0
LINE
8
DEFAULT_255_1_234
10
12.5206851
20
102.3911408
11
12.5206851
21
101.8747
0
LINE
8
DEFAULT_255_1_234
10
12.5206851
20
101.8747
11
12.3664757
21
101.8747
0
LINE
8
DEFAULT_255_1_234
10
12.3664757
20
101.8747
11
12.3664757
21
103.0441211
0
LINE
8
DEFAULT_255_1_234
10
12.3664757
20
103.0441211
11
13.0909385
21
103.0441211
0
LINE
8
DEFAULT_255_1_234
10
13.0909385
20
103.0441211
11
13.0909385
21
102.9172196
0
LINE
8
DEFAULT_255_1_234
10
13.0909385
20
102.9172196
11
12.5206851
21
102.9172196
0
LINE
8
DEFAULT_255_1_234
10
12.5206851
20
102.9172196
11
12.5206851
21
102.5172391
0
LINE
8
DEFAULT_255_1_234
10
12.5206851
20
102.5172391
11
13.0114243
21
102.5172391
0
LINE
8
DEFAULT_255_1_234
10
14.4587436
20
102.7059849
11
14.303731
21
102.7059849
0
LINE
8
DEFAULT_255_1_234
10
13.6113952
20
102.2136394
11
13.7664077
21
102.2136394
0
ARC
8
DEFAULT_255_1_234
10
14.3696123
20
103.6006768
40
1.252368
50
248.9199003
51
254.1439814
0
ARC
8
DEFAULT_255_1_234
10
14.2015618
20
103.1680234
40
0.788226
50
241.633709
51
249.0064503
0
ARC
8
DEFAULT_255_1_234
10
14.0487012
20
102.8879317
40
0.4691427
50
230.498225
51
241.8087113
0
ARC
8
DEFAULT_255_1_234
10
13.9702586
20
102.7879906
40
0.3421437
50
227.4064532
51
229.9881192
0
ARC
8
DEFAULT_255_1_234
10
13.9215107
20
102.7404088
40
0.2741476
50
200.6781896
51
228.1763934
0
ARC
8
DEFAULT_255_1_234
10
13.9287418
20
102.7389077
40
0.2804109
50
179.5061581
51
199.8694617
0
ARC
8
DEFAULT_255_1_234
10
13.9278169
20
102.746321
40
0.2795204
50
132.4834203
51
181.0242172
0
ARC
8
DEFAULT_255_1_234
10
13.9873752
20
102.6900704
40
0.3612768
50
129.2532479
51
133.4242687
0
ARC
8
DEFAULT_255_1_234
10
14.0020201
20
102.6680965
40
0.3875675
50
101.98776
51
128.8742646
0
ARC
8
DEFAULT_255_1_234
10
14.0418812
20
102.4959741
40
0.5642249
50
89.5906553
51
102.3169264
0
ARC
8
DEFAULT_255_1_234
10
14.0489304
20
102.5278148
40
0.5323783
50
77.2360837
51
90.3248275
0
ARC
8
DEFAULT_255_1_234
10
14.0696383
20
102.62454
40
0.4334697
50
63.837784
51
77.0809408
0
ARC
8
DEFAULT_255_1_234
10
14.0974145
20
102.6762911
40
0.3747796
50
45.9864267
51
64.1607727
0
ARC
8
DEFAULT_255_1_234
10
14.1235026
20
102.7060866
40
0.3352302
50
32.2747395
51
45.6547121
0
ARC
8
DEFAULT_255_1_234
10
14.1301467
20
102.707988
40
0.328603
50
359.6507365
51
32.6130309
0
ARC
8
DEFAULT_255_1_234
10
14.0358562
20
102.708466
40
0.2678863
50
359.469343
51
14.9832209
0
ARC
8
DEFAULT_255_1_234
10
14.1063625
20
102.7273539
40
0.1948938
50
14.9781179
51
48.2004265
0
ARC
8
DEFAULT_255_1_234
10
14.0899269
20
102.7066983
40
0.2212521
50
48.5927837
51
74.1241538
0
ARC
8
DEFAULT_255_1_234
10
14.0565758
20
102.5966248
40
0.3362561
50
73.7888341
51
86.6652678
0
ARC
8
DEFAULT_255_1_234
10
14.0463324
20
102.4758881
40
0.4573953
50
86.2640471
51
90.0526343
0
ARC
8
DEFAULT_255_1_234
10
14.0435037
20
102.5154192
40
0.4178709
50
89.6697524
51
99.2309573
0
ARC
8
DEFAULT_255_1_234
10
14.0192487
20
102.6598964
40
0.2713749
50
99.069534
51
113.7658566
0
ARC
8
DEFAULT_255_1_234
10
13.9918679
20
102.7244677
40
0.2012469
50
114.0401004
51
127.9850673
0
ARC
8
DEFAULT_255_1_234
10
13.9678242
20
102.754073
40
0.1631167
50
127.7287463
51
176.7105154
0
ARC
8
DEFAULT_255_1_234
10
14.035696
20
102.7439693
40
0.2315392
50
175.1779447
51
180.0581938
0
ARC
8
DEFAULT_255_1_234
10
13.9513807
20
102.7427428
40
0.1472271
50
179.6142195
51
228.1246017
0
ARC
8
DEFAULT_255_1_234
10
13.9955475
20
102.7836308
40
0.2072299
50
226.5779593
51
230.8800004
0
ARC
8
DEFAULT_255_1_234
10
14.0426554
20
102.8461636
40
0.2854818
50
231.4635071
51
241.9260842
0
ARC
8
DEFAULT_255_1_234
10
14.1623732
20
103.06648
40
0.53622
50
241.7178533
51
248.3259551
0
ARC
8
DEFAULT_255_1_234
10
14.3009104
20
103.4097064
40
0.9063478
50
248.2007737
51
252.4528373
0
ARC
8
DEFAULT_255_1_234
10
14.4212829
20
103.7818441
40
1.2974635
50
252.3391078
51
254.3469452
0
ARC
8
DEFAULT_255_1_234
10
13.6670531
20
101.0841148
40
1.5037162
50
71.0197183
51
74.4087047
0
ARC
8
DEFAULT_255_1_234
10
13.8365217
20
101.5733111
40
0.9859993
50
66.1847285
51
71.086374
0
ARC
8
DEFAULT_255_1_234
10
13.9921529
20
101.92372
40
0.6025855
50
59.3536294
51
66.2691831
0
ARC
8
DEFAULT_255_1_234
10
14.0810181
20
102.0740609
40
0.4279449
50
49.1020879
51
59.3293958
0
ARC
8
DEFAULT_255_1_234
10
14.1628921
20
102.1673834
40
0.3038015
50
32.7919921
51
49.2505539
0
ARC
8
DEFAULT_255_1_234
10
14.1950011
20
102.1902191
40
0.264448
50
31.1181161
51
32.4005348
0
ARC
8
DEFAULT_255_1_234
10
14.1861549
20
102.1866779
40
0.2738556
50
8.1116974
51
30.7958831
0
ARC
8
DEFAULT_255_1_234
10
14.1051217
20
102.1728753
40
0.3560327
50
359.8389159
51
8.4706516
0
ARC
8
DEFAULT_255_1_234
10
14.1677008
20
102.1680137
40
0.2934776
50
337.4731098
51
0.7537279
0
ARC
8
DEFAULT_255_1_234
10
14.1855703
20
102.1660387
40
0.2762607
50
307.5917067
51
336.4315538
0
ARC
8
DEFAULT_255_1_234
10
14.1395531
20
102.2173102
40
0.3449979
50
307.6551545
51
308.4529766
0
ARC
8
DEFAULT_255_1_234
10
14.116525
20
102.252825
40
0.3871988
50
284.3734338
51
307.1424381
0
ARC
8
DEFAULT_255_1_234
10
14.067008
20
102.4349932
40
0.5759636
50
272.4382747
51
284.646547
0
ARC
8
DEFAULT_255_1_234
10
14.0543289
20
102.6149893
40
0.7563528
50
269.9708387
51
272.8178037
0
ARC
8
DEFAULT_255_1_234
10
14.0500329
20
102.4111716
40
0.5525489
50
248.2707594
51
270.4055579
0
ARC
8
DEFAULT_255_1_234
10
14.044607
20
102.3921192
40
0.5328452
50
246.1383403
51
248.0542782
0
ARC
8
DEFAULT_255_1_234
10
14.0027449
20
102.3041843
40
0.4355005
50
233.1670131
51
246.4950969
0
ARC
8
DEFAULT_255_1_234
10
13.9473354
20
102.2293812
40
0.3424126
50
215.3403242
51
233.0843104
0
ARC
8
DEFAULT_255_1_234
10
13.9200785
20
102.2095549
40
0.3087104
50
179.2419209
51
215.2648451
0
ARC
8
DEFAULT_255_1_234
10
13.9968379
20
102.2109666
40
0.2304457
50
179.335461
51
199.1045811
0
ARC
8
DEFAULT_255_1_234
10
13.9636055
20
102.2022766
40
0.1962176
50
199.8828939
51
232.7063202
0
ARC
8
DEFAULT_255_1_234
10
14.0108324
20
102.2616788
40
0.2720938
50
232.3738199
51
255.5136649
0
ARC
8
DEFAULT_255_1_234
10
14.044919
20
102.3860835
40
0.4010747
50
255.2446292
51
267.5320849
0
ARC
8
DEFAULT_255_1_234
10
14.0536814
20
102.5093702
40
0.5246356
50
267.1557994
51
270.0286766
0
ARC
8
DEFAULT_255_1_234
10
14.0564586
20
102.464995
40
0.4802668
50
269.7000017
51
278.1660162
0
ARC
8
DEFAULT_255_1_234
10
14.0820591
20
102.2919515
40
0.3053425
50
278.0231263
51
290.625471
0
ARC
8
DEFAULT_255_1_234
10
14.1168278
20
102.1992025
40
0.206291
50
290.6619762
51
307.0370976
0
ARC
8
DEFAULT_255_1_234
10
14.1468667
20
102.1623504
40
0.1587906
50
306.3943566
51
355.3030547
0
ARC
8
DEFAULT_255_1_234
10
14.0956599
20
102.1700113
40
0.2104809
50
354.3660432
51
0.0698737
0
ARC
8
DEFAULT_255_1_234
10
14.1098944
20
102.1722617
40
0.1962563
50
359.417946
51
16.1971788
0
ARC
8
DEFAULT_255_1_234
10
14.1554254
20
102.1847418
40
0.149053
50
16.4723299
51
52.6262157
0
ARC
8
DEFAULT_255_1_234
10
14.0733308
20
102.0763433
40
0.2850296
50
52.7386432
51
62.4979148
0
ARC
8
DEFAULT_255_1_234
10
13.9348385
20
101.8157283
40
0.5801521
50
62.2515216
51
68.1220564
0
ARC
8
DEFAULT_255_1_234
10
13.7628296
20
101.3929872
40
1.0365451
50
68.0062803
51
71.8053402
0
ARC
8
DEFAULT_255_1_234
10
13.5832667
20
100.8544758
40
1.6042013
50
71.7183119
51
73.9258742
0
LINE
8
DEFAULT_255_1_234
10
14.5976926
20
102.2851218
11
14.5976926
21
102.3124297
0
LINE
8
DEFAULT_255_1_234
10
15.3350062
20
102.3284932
11
15.3350062
21
102.2666488
0
LINE
8
DEFAULT_255_1_234
10
15.3350062
20
102.2666488
11
14.7462798
21
102.2666488
0
LINE
8
DEFAULT_255_1_234
10
15.2330031
20
102.0971792
11
15.3237618
21
102.0264999
0
LINE
8
DEFAULT_255_1_234
10
14.7510988
20
102.3887313
11
15.186419
21
102.3887313
0
LINE
8
DEFAULT_255_1_234
10
15.186419
20
102.3887313
11
15.186419
21
102.3999757
0
ARC
8
DEFAULT_255_1_234
10
14.9916291
20
102.2962332
40
0.4376191
50
252.3266134
51
270.5810217
0
ARC
8
DEFAULT_255_1_234
10
14.9711381
20
102.2221644
40
0.3608374
50
223.3000567
51
251.8561855
0
ARC
8
DEFAULT_255_1_234
10
14.9922741
20
102.2426937
40
0.3902993
50
190.9374509
51
223.3654032
0
ARC
8
DEFAULT_255_1_234
10
15.1647713
20
102.2816885
40
0.5670891
50
179.6531105
51
191.4989439
0
ARC
8
DEFAULT_255_1_234
10
15.1769726
20
102.3156417
40
0.5792888
50
167.4007466
51
180.3176909
0
ARC
8
DEFAULT_255_1_234
10
15.0717787
20
102.3378885
40
0.471777
50
154.1835823
51
167.250763
0
ARC
8
DEFAULT_255_1_234
10
15.0086255
20
102.3711417
40
0.4004528
50
134.3149965
51
154.5315275
0
ARC
8
DEFAULT_255_1_234
10
14.986875
20
102.3902228
40
0.371612
50
122.8616532
51
133.9707695
0
ARC
8
DEFAULT_255_1_234
10
14.9765324
20
102.4124703
40
0.3473289
50
89.8249009
51
123.4199222
0
ARC
8
DEFAULT_255_1_234
10
14.9815365
20
102.3477967
40
0.4120197
50
74.7876118
51
90.5482747
0
ARC
8
DEFAULT_255_1_234
10
15.0109108
20
102.456303
40
0.2996077
50
39.8178249
51
74.7633718
0
ARC
8
DEFAULT_255_1_234
10
14.9596428
20
102.4163351
40
0.3645855
50
16.8990863
51
39.4829761
0
ARC
8
DEFAULT_255_1_234
10
14.7701725
20
102.3556526
40
0.5635218
50
4.9636328
51
17.2026414
0
ARC
8
DEFAULT_255_1_234
10
14.5283795
20
102.330134
40
0.8066286
50
359.8834553
51
5.2834307
0
ARC
8
DEFAULT_255_1_234
10
15.1321319
20
102.2732803
40
0.3859091
50
180.9846213
51
194.9401313
0
ARC
8
DEFAULT_255_1_234
10
15.0271597
20
102.2445849
40
0.2770883
50
194.80314
51
222.0412631
0
ARC
8
DEFAULT_255_1_234
10
14.9967479
20
102.2144116
40
0.2343055
50
221.5417084
51
268.8614402
0
ARC
8
DEFAULT_255_1_234
10
15.0040474
20
102.2820686
40
0.3021528
50
267.732405
51
270.0097136
0
ARC
8
DEFAULT_255_1_234
10
15.0058284
20
102.3022105
40
0.3222994
50
269.6924892
51
280.4117579
0
ARC
8
DEFAULT_255_1_234
10
15.0234691
20
102.2103193
40
0.2287344
50
280.2255091
51
298.6338936
0
ARC
8
DEFAULT_255_1_234
10
15.0351483
20
102.1859223
40
0.2017294
50
299.0430333
51
300.4643464
0
ARC
8
DEFAULT_255_1_234
10
14.9671488
20
102.2993038
40
0.3339357
50
300.6577328
51
322.0378878
0
ARC
8
DEFAULT_255_1_234
10
14.9321027
20
102.3297021
40
0.3802736
50
321.6750233
51
322.3046845
0
ARC
8
DEFAULT_255_1_234
10
15.0251988
20
102.213037
40
0.3520454
50
276.9728461
51
328.0035423
0
ARC
8
DEFAULT_255_1_234
10
14.9975041
20
102.3610841
40
0.5024498
50
269.8361028
51
278.0581756
0
ARC
8
DEFAULT_255_1_234
10
14.9747779
20
102.4355757
40
0.202159
50
89.2018686
51
117.2851756
0
ARC
8
DEFAULT_255_1_234
10
14.9800948
20
102.4313752
40
0.2083484
50
118.0551165
51
137.4540413
0
ARC
8
DEFAULT_255_1_234
10
15.0175688
20
102.3973304
40
0.2589774
50
137.5109581
51
158.8516286
0
ARC
8
DEFAULT_255_1_234
10
15.1313523
20
102.3514074
40
0.38167
50
158.5845963
51
170.1721436
0
ARC
8
DEFAULT_255_1_234
10
15.2482912
20
102.3281823
40
0.5008657
50
169.8376422
51
173.0566086
0
ARC
8
DEFAULT_255_1_234
10
14.7785986
20
102.3792509
40
0.4083467
50
2.9091802
51
12.8847116
0
ARC
8
DEFAULT_255_1_234
10
14.9156663
20
102.4115101
40
0.2675383
50
12.6957781
51
28.6404489
0
ARC
8
DEFAULT_255_1_234
10
14.9698334
20
102.4395458
40
0.2065654
50
29.0169854
51
41.1487595
0
ARC
8
DEFAULT_255_1_234
10
14.9901119
20
102.4572003
40
0.1796786
50
41.1646065
51
85.0013516
0
ARC
8
DEFAULT_255_1_234
10
14.9780216
20
102.3837431
40
0.2539726
50
83.7280015
51
90.0964893
0
LINE
8
DEFAULT_255_1_234
10
15.9269453
20
102.7485531
11
15.9269453
21
102.6104072
0
LINE
8
DEFAULT_255_1_234
10
15.6554726
20
102.4915375
11
15.6554726
21
101.8747
0
LINE
8
DEFAULT_255_1_234
10
15.6554726
20
101.8747
11
15.5068854
21
101.8747
0
LINE
8
DEFAULT_255_1_234
10
15.5068854
20
101.8747
11
15.5068854
21
102.7437341
0
LINE
8
DEFAULT_255_1_234
10
15.5068854
20
102.7437341
11
15.6514567
21
102.7437341
0
LINE
8
DEFAULT_255_1_234
10
15.6514567
20
102.7437341
11
15.6538662
21
102.6433374
0
ARC
8
DEFAULT_255_1_234
10
15.8602859
20
102.2044342
40
0.4114092
50
80.6754243
51
86.8932892
0
ARC
8
DEFAULT_255_1_234
10
15.8542393
20
102.10767
40
0.5083596
50
86.8038578
51
90.0431435
0
ARC
8
DEFAULT_255_1_234
10
15.8505374
20
102.3533866
40
0.2626638
50
89.2759698
51
106.6213787
0
ARC
8
DEFAULT_255_1_234
10
15.8300938
20
102.427683
40
0.1856317
50
107.1346045
51
157.6458115
0
ARC
8
DEFAULT_255_1_234
10
15.8992539
20
102.3893311
40
0.2643398
50
155.6586782
51
157.2539184
0
ARC
8
DEFAULT_255_1_234
10
15.8787741
20
102.5062157
40
0.2634121
50
127.8165941
51
148.6302098
0
ARC
8
DEFAULT_255_1_234
10
15.853421
20
102.5322218
40
0.2273596
50
91.3329982
51
126.7875809
0
ARC
8
DEFAULT_255_1_234
10
15.8610151
20
102.4607195
40
0.299078
50
89.986594
51
92.4688449
0
ARC
8
DEFAULT_255_1_234
10
15.8618546
20
102.4882078
40
0.2715908
50
85.3589899
51
90.1623399
0
ARC
8
DEFAULT_255_1_234
10
15.8703062
20
102.5886164
40
0.1708278
50
78.401942
51
85.4594656
0
ARC
8
DEFAULT_255_1_234
10
15.8847945
20
102.6577236
40
0.1002194
50
67.7858312
51
78.5728455
0
ARC
8
DEFAULT_255_1_234
10
15.8955798
20
102.6856887
40
0.0702548
50
63.4835954
51
67.3062642
0
LINE
8
DEFAULT_255_1_234
10
16.2249228
20
102.7437341
11
16.2249228
21
101.8747
0
LINE
8
DEFAULT_255_1_234
10
16.2249228
20
101.8747
11
16.0763356
21
101.8747
0
LINE
8
DEFAULT_255_1_234
10
16.0763356
20
101.8747
11
16.0763356
21
102.7437341
0
LINE
8
DEFAULT_255_1_234
10
16.0763356
20
102.7437341
11
16.2249228
21
102.7437341
0
ARC
8
DEFAULT_255_1_234
10
16.1621505
20
102.9751889
40
0.097867
50
161.415052
51
180.5526306
0
ARC
8
DEFAULT_255_1_234
10
16.1497283
20
102.9786077
40
0.0850062
50
138.1827368
51
160.9307106
0
ARC
8
DEFAULT_255_1_234
10
16.1387229
20
102.9881588
40
0.0704362
50
104.6368899
51
138.0039868
0
ARC
8
DEFAULT_255_1_234
10
16.1494384
20
102.9514963
40
0.1086221
50
92.0600725
51
105.2189128
0
ARC
8
DEFAULT_255_1_234
10
16.1517732
20
102.9172117
40
0.1429728
50
89.9756393
51
92.5012496
0
ARC
8
DEFAULT_255_1_234
10
16.1527751
20
102.9397731
40
0.1204151
50
78.0235316
51
90.4478182
0
ARC
8
DEFAULT_255_1_234
10
16.1619843
20
102.9811295
40
0.0780493
50
55.051506
51
78.3369085
0
ARC
8
DEFAULT_255_1_234
10
16.1670118
20
102.9895711
40
0.0682538
50
42.0501187
51
54.4513741
0
ARC
8
DEFAULT_255_1_234
10
16.1534985
20
102.9771798
40
0.0865878
50
1.7497075
51
42.1496013
0
ARC
8
DEFAULT_255_1_234
10
16.1280318
20
102.9742738
40
0.1121515
50
359.9852656
51
2.8364544
0
ARC
8
DEFAULT_255_1_234
10
16.144631
20
102.9733229
40
0.0955566
50
342.1070653
51
0.552888
0
ARC
8
DEFAULT_255_1_234
10
16.1589007
20
102.9693904
40
0.0807713
50
316.7107116
51
341.6516965
0
ARC
8
DEFAULT_255_1_234
10
16.1656044
20
102.9633823
40
0.0717724
50
285.4397031
51
316.5324284
0
ARC
8
DEFAULT_255_1_234
10
16.1545961
20
102.9999554
40
0.1099597
50
272.3547054
51
285.8953117
0
ARC
8
DEFAULT_255_1_234
10
16.1519119
20
103.0365048
40
0.1465932
50
269.9695369
51
272.8160237
0
ARC
8
DEFAULT_255_1_234
10
16.1509301
20
103.0145863
40
0.1246779
50
258.8431134
51
270.4153935
0
ARC
8
DEFAULT_255_1_234
10
16.1419343
20
102.9710414
40
0.0802162
50
238.5431189
51
259.1288175
0
ARC
8
DEFAULT_255_1_234
10
16.1351228
20
102.9586856
40
0.0661247
50
222.5062634
51
237.9906969
0
ARC
8
DEFAULT_255_1_234
10
16.1478815
20
102.9702889
40
0.0833707
50
184.1069131
51
222.460413
0
ARC
8
DEFAULT_255_1_234
10
16.1748056
20
102.9741349
40
0.1105176
50
179.9429482
51
185.0960898
0
LINE
8
DEFAULT_255_1_234
10
16.4249131
20
102.2851218
11
16.4249131
21
102.3124297
0
LINE
8
DEFAULT_255_1_234
10
17.1622267
20
102.3284932
11
17.1622267
21
102.2666488
0
LINE
8
DEFAULT_255_1_234
10
17.1622267
20
102.2666488
11
16.5735002
21
102.2666488
0
LINE
8
DEFAULT_255_1_234
10
17.0602236
20
102.0971792
11
17.1509822
21
102.0264999
0
LINE
8
DEFAULT_255_1_234
10
16.5783193
20
102.3887313
11
17.0136395
21
102.3887313
0
LINE
8
DEFAULT_255_1_234
10
17.0136395
20
102.3887313
11
17.0136395
21
102.3999757
0
ARC
8
DEFAULT_255_1_234
10
16.8188496
20
102.2962332
40
0.4376191
50
252.3266134
51
270.5810217
0
ARC
8
DEFAULT_255_1_234
10
16.7983585
20
102.2221644
40
0.3608374
50
223.3000567
51
251.8561855
0
ARC
8
DEFAULT_255_1_234
10
16.8194946
20
102.2426937
40
0.3902993
50
190.9374509
51
223.3654032
0
ARC
8
DEFAULT_255_1_234
10
16.9919918
20
102.2816885
40
0.5670891
50
179.6531105
51
191.4989439
0
ARC
8
DEFAULT_255_1_234
10
17.004193
20
102.3156417
40
0.5792888
50
167.4007466
51
180.3176909
0
ARC
8
DEFAULT_255_1_234
10
16.8989992
20
102.3378885
40
0.471777
50
154.1835823
51
167.250763
0
ARC
8
DEFAULT_255_1_234
10
16.8358459
20
102.3711417
40
0.4004528
50
134.3149965
51
154.5315275
0
ARC
8
DEFAULT_255_1_234
10
16.8140954
20
102.3902228
40
0.371612
50
122.8616532
51
133.9707695
0
ARC
8
DEFAULT_255_1_234
10
16.8037529
20
102.4124703
40
0.3473289
50
89.8249009
51
123.4199222
0
ARC
8
DEFAULT_255_1_234
10
16.8087569
20
102.3477967
40
0.4120197
50
74.7876118
51
90.5482747
0
ARC
8
DEFAULT_255_1_234
10
16.8381313
20
102.456303
40
0.2996077
50
39.8178249
51
74.7633718
0
ARC
8
DEFAULT_255_1_234
10
16.7868633
20
102.4163351
40
0.3645855
50
16.8990863
51
39.4829761
0
ARC
8
DEFAULT_255_1_234
10
16.5973929
20
102.3556526
40
0.5635218
50
4.9636328
51
17.2026414
0
ARC
8
DEFAULT_255_1_234
10
16.3555999
20
102.330134
40
0.8066286
50
359.8834553
51
5.2834307
0
ARC
8
DEFAULT_255_1_234
10
16.9593524
20
102.2732803
40
0.3859091
50
180.9846213
51
194.9401313
0
ARC
8
DEFAULT_255_1_234
10
16.8543802
20
102.2445849
40
0.2770883
50
194.80314
51
222.0412631
0
ARC
8
DEFAULT_255_1_234
10
16.8239684
20
102.2144116
40
0.2343055
50
221.5417084
51
268.8614402
0
ARC
8
DEFAULT_255_1_234
10
16.8312678
20
102.2820686
40
0.3021528
50
267.732405
51
270.0097136
0
ARC
8
DEFAULT_255_1_234
10
16.8330488
20
102.3022105
40
0.3222994
50
269.6924892
51
280.4117579
0
ARC
8
DEFAULT_255_1_234
10
16.8506895
20
102.2103193
40
0.2287344
50
280.2255091
51
298.6338936
0
ARC
8
DEFAULT_255_1_234
10
16.8623687
20
102.1859223
40
0.2017294
50
299.0430333
51
300.4643464
0
ARC
8
DEFAULT_255_1_234
10
16.7943693
20
102.2993038
40
0.3339357
50
300.6577328
51
322.0378878
0
ARC
8
DEFAULT_255_1_234
10
16.7593232
20
102.3297021
40
0.3802736
50
321.6750233
51
322.3046845
0
ARC
8
DEFAULT_255_1_234
10
16.8524193
20
102.213037
40
0.3520454
50
276.9728461
51
328.0035423
0
ARC
8
DEFAULT_255_1_234
10
16.8247246
20
102.3610841
40
0.5024498
50
269.8361028
51
278.0581756
0
ARC
8
DEFAULT_255_1_234
10
16.8019983
20
102.4355757
40
0.202159
50
89.2018686
51
117.2851756
0
ARC
8
DEFAULT_255_1_234
10
16.8073152
20
102.4313752
40
0.2083484
50
118.0551165
51
137.4540413
0
ARC
8
DEFAULT_255_1_234
10
16.8447892
20
102.3973304
40
0.2589774
50
137.5109581
51
158.8516286
0
ARC
8
DEFAULT_255_1_234
10
16.9585728
20
102.3514074
40
0.38167
50
158.5845963
51
170.1721436
0
ARC
8
DEFAULT_255_1_234
10
17.0755117
20
102.3281823
40
0.5008657
50
169.8376422
51
173.0566086
0
ARC
8
DEFAULT_255_1_234
10
16.6058191
20
102.3792509
40
0.4083467
50
2.9091802
51
12.8847116
0
ARC
8
DEFAULT_255_1_234
10
16.7428867
20
102.4115101
40
0.2675383
50
12.6957781
51
28.6404489
0
ARC
8
DEFAULT_255_1_234
10
16.7970538
20
102.4395458
40
0.2065654
50
29.0169854
51
41.1487595
0
ARC
8
DEFAULT_255_1_234
10
16.8173323
20
102.4572003
40
0.1796786
50
41.1646065
51
85.0013516
0
ARC
8
DEFAULT_255_1_234
10
16.805242
20
102.3837431
40
0.2539726
50
83.7280015
51
90.0964893
0
LINE
8
DEFAULT_255_1_234
10
17.9806608
20
102.4883248
11
17.8312705
21
102.4883248
0
LINE
8
DEFAULT_255_1_234
10
17.297963
20
102.1421569
11
17.4465502
21
102.1421569
0
ARC
8
DEFAULT_255_1_234
10
17.7124523
20
102.1066959
40
0.1276617
50
359.3334982
51
18.5871358
0
ARC
8
DEFAULT_255_1_234
10
17.7333161
20
102.1122133
40
0.1061371
50
19.3540742
51
54.6485071
0
ARC
8
DEFAULT_255_1_234
10
17.6829062
20
102.0426919
40
0.1920087
50
54.3827097
51
65.0622807
0
ARC
8
DEFAULT_255_1_234
10
17.6060459
20
101.88099
40
0.3710447
50
64.8282493
51
71.4200025
0
ARC
8
DEFAULT_255_1_234
10
17.5158334
20
101.6163107
40
0.6506741
50
71.3164301
51
75.8006402
0
ARC
8
DEFAULT_255_1_234
10
17.4317154
20
101.2922561
40
0.9854641
50
75.6809531
51
78.0061883
0
ARC
8
DEFAULT_255_1_234
10
17.8765687
20
103.390177
40
1.1591028
50
254.6901892
51
258.0466452
0
ARC
8
DEFAULT_255_1_234
10
17.7727596
20
103.0142781
40
0.7691345
50
249.9010773
51
254.755261
0
ARC
8
DEFAULT_255_1_234
10
17.6723938
20
102.7416982
40
0.478665
50
243.3097214
51
249.9709442
0
ARC
8
DEFAULT_255_1_234
10
17.6094959
20
102.6162778
40
0.3383568
50
234.4047477
51
243.2862168
0
ARC
8
DEFAULT_255_1_234
10
17.5472483
20
102.5303232
40
0.2322322
50
220.8667099
51
234.5493881
0
ARC
8
DEFAULT_255_1_234
10
17.5130423
20
102.4991817
40
0.1859923
50
214.3062465
51
220.5065136
0
ARC
8
DEFAULT_255_1_234
10
17.5104503
20
102.496088
40
0.1821108
50
186.912965
51
213.9618616
0
ARC
8
DEFAULT_255_1_234
10
17.5636597
20
102.5047009
40
0.2359799
50
179.8808832
51
187.4339886
0
ARC
8
DEFAULT_255_1_234
10
17.5481731
20
102.5067088
40
0.2204978
50
132.005434
51
180.3942919
0
ARC
8
DEFAULT_255_1_234
10
17.6138344
20
102.4461083
40
0.3095791
50
129.2319861
51
133.5302299
0
ARC
8
DEFAULT_255_1_234
10
17.6191852
20
102.4366928
40
0.3202615
50
100.4410011
51
128.9081242
0
ARC
8
DEFAULT_255_1_234
10
17.6465736
20
102.3081455
40
0.4516583
50
89.6985377
51
100.9026564
0
ARC
8
DEFAULT_255_1_234
10
17.6522778
20
102.2921166
40
0.4676928
50
77.6965325
51
90.4076836
0
ARC
8
DEFAULT_255_1_234
10
17.6853762
20
102.4348413
40
0.3211988
50
50.7276602
51
78.0399361
0
ARC
8
DEFAULT_255_1_234
10
17.7298221
20
102.4866296
40
0.2529778
50
25.7545084
51
51.0957453
0
ARC
8
DEFAULT_255_1_234
10
17.7299445
20
102.4916206
40
0.250738
50
359.2468627
51
24.7394243
0
ARC
8
DEFAULT_255_1_234
10
17.7014897
20
102.4887664
40
0.1297815
50
359.8050318
51
45.1544908
0
ARC
8
DEFAULT_255_1_234
10
17.6608039
20
102.4539794
40
0.1831883
50
43.8047702
51
49.6271585
0
ARC
8
DEFAULT_255_1_234
10
17.6615941
20
102.4540678
40
0.18261
50
49.7980766
51
82.1218353
0
ARC
8
DEFAULT_255_1_234
10
17.6496912
20
102.3893998
40
0.2483163
50
81.4465357
51
90.1710293
0
ARC
8
DEFAULT_255_1_234
10
17.6472515
20
102.336788
40
0.300932
50
89.6766211
51
99.1264602
0
ARC
8
DEFAULT_255_1_234
10
17.6300977
20
102.4401537
40
0.1961547
50
98.968313
51
113.4570237
0
ARC
8
DEFAULT_255_1_234
10
17.6105062
20
102.4869965
40
0.1453859
50
113.722589
51
127.4763106
0
ARC
8
DEFAULT_255_1_234
10
17.5936709
20
102.5070124
40
0.1192639
50
126.9083309
51
150.3165862
0
ARC
8
DEFAULT_255_1_234
10
17.5889041
20
102.5120981
40
0.112623
50
151.3635175
51
180.0701457
0
ARC
8
DEFAULT_255_1_234
10
17.6197826
20
102.509999
40
0.1435149
50
179.2169974
51
179.9954013
0
ARC
8
DEFAULT_255_1_234
10
17.5836883
20
102.5087056
40
0.1074286
50
179.3040112
51
198.4225446
0
ARC
8
DEFAULT_255_1_234
10
17.5645017
20
102.5037127
40
0.0876573
50
199.2895851
51
238.6034594
0
ARC
8
DEFAULT_255_1_234
10
17.6247863
20
102.598345
40
0.1998512
50
237.9846301
51
246.8744712
0
ARC
8
DEFAULT_255_1_234
10
17.7105808
20
102.7946205
40
0.4140547
50
246.6234531
51
251.8168941
0
ARC
8
DEFAULT_255_1_234
10
17.8136352
20
103.1040905
40
0.7402308
50
251.713434
51
255.0778414
0
ARC
8
DEFAULT_255_1_234
10
17.9335614
20
103.5507563
40
1.2027155
50
255.0367487
51
257.4705983
0
ARC
8
DEFAULT_255_1_234
10
17.4227624
20
101.2493863
40
1.1546601
50
73.6837552
51
77.5016755
0
ARC
8
DEFAULT_255_1_234
10
17.5316399
20
101.6193581
40
0.7690009
50
68.7044154
51
73.7249639
0
ARC
8
DEFAULT_255_1_234
10
17.621942
20
101.8520654
40
0.5193873
50
63.590599
51
68.6626804
0
ARC
8
DEFAULT_255_1_234
10
17.6990439
20
102.0058123
40
0.3473927
50
54.7106439
51
63.7013633
0
ARC
8
DEFAULT_255_1_234
10
17.7614893
20
102.09304
40
0.2401192
50
41.0622434
51
54.8487496
0
ARC
8
DEFAULT_255_1_234
10
17.795628
20
102.1243592
40
0.1938094
50
34.4950568
51
40.7105546
0
ARC
8
DEFAULT_255_1_234
10
17.8003087
20
102.1292078
40
0.1872106
50
9.3763373
51
34.0833615
0
ARC
8
DEFAULT_255_1_234
10
17.7349957
20
102.1166728
40
0.2536988
50
359.7694872
51
9.7663171
0
ARC
8
DEFAULT_255_1_234
10
17.7547458
20
102.1123764
40
0.2339696
50
335.8654732
51
0.8022045
0
ARC
8
DEFAULT_255_1_234
10
17.7622503
20
102.1137197
40
0.2277108
50
307.7357725
51
334.7849066
0
ARC
8
DEFAULT_255_1_234
10
17.7221678
20
102.1587645
40
0.2878951
50
307.0241536
51
308.5578354
0
ARC
8
DEFAULT_255_1_234
10
17.696401
20
102.1973801
40
0.3342515
50
282.9362969
51
306.5646424
0
ARC
8
DEFAULT_255_1_234
10
17.6602307
20
102.3441108
40
0.4853615
50
271.1026298
51
283.2200835
0
ARC
8
DEFAULT_255_1_234
10
17.6538551
20
102.4682418
40
0.6096052
50
269.9919117
51
271.4772449
0
ARC
8
DEFAULT_255_1_234
10
17.6512306
20
102.3604436
40
0.5018135
50
259.0723564
51
270.289833
0
ARC
8
DEFAULT_255_1_234
10
17.6300038
20
102.2487271
40
0.388099
50
245.4963068
51
259.0227342
0
ARC
8
DEFAULT_255_1_234
10
17.6021995
20
102.1905615
40
0.3236422
50
228.9684658
51
245.7044727
0
ARC
8
DEFAULT_255_1_234
10
17.5756438
20
102.1578575
40
0.2815426
50
214.4011705
51
228.6759915
0
ARC
8
DEFAULT_255_1_234
10
17.5467179
20
102.142029
40
0.2487548
50
179.9705531
51
215.1572795
0
ARC
8
DEFAULT_255_1_234
10
17.6167779
20
102.1493806
40
0.1703809
50
182.4299387
51
203.0329699
0
ARC
8
DEFAULT_255_1_234
10
17.5983437
20
102.1437396
40
0.1512226
50
203.798802
51
232.548466
0
ARC
8
DEFAULT_255_1_234
10
17.6259958
20
102.1788826
40
0.1959374
50
232.3782728
51
256.3934612
0
ARC
8
DEFAULT_255_1_234
10
17.6490319
20
102.2678842
40
0.2878639
50
256.104506
51
268.4626716
0
ARC
8
DEFAULT_255_1_234
10
17.6536804
20
102.3475487
40
0.3676329
50
268.0715632
51
270.0138206
0
ARC
8
DEFAULT_255_1_234
10
17.6555328
20
102.3203083
40
0.3403971
50
269.7031147
51
278.8341955
0
ARC
8
DEFAULT_255_1_234
10
17.6737422
20
102.2072876
40
0.2259217
50
278.6728789
51
292.8232582
0
ARC
8
DEFAULT_255_1_234
10
17.693796
20
102.1571449
40
0.171929
50
293.1452328
51
303.6655899
0
ARC
8
DEFAULT_255_1_234
10
17.7202839
20
102.1195204
40
0.1259367
50
303.1248165
51
321.742847
0
ARC
8
DEFAULT_255_1_234
10
17.7388719
20
102.1032156
40
0.1012531
50
322.4748573
51
1.1291126
0
LINE
8
DEFAULT_255_2_778
10
18.6536417
20
46.1698078
11
18.6536417
21
5.1594078
0
LINE
8
DEFAULT_255_2_778
10
18.6536417
20
5.1594078
11
19.9765417
21
5.1594078
0
LINE
8
DEFAULT_255_2_778
10
17.3307834
20
51.4614333
11
19.9765834
21
51.4614333
0
LINE
8
DEFAULT_255_2_778
10
19.9765834
20
51.4614333
11
19.9765834
21
46.1697333
0
LINE
8
DEFAULT_255_2_778
10
19.9765834
20
46.1697333
11
17.3307834
21
46.1697333
0
LINE
8
DEFAULT_255_2_778
10
17.3307834
20
46.1697333
11
17.3307834
21
51.4614333
0
ARC
8
DEFAULT_255_2_778_1
10
21.1303591
20
46.272177
40
4.816461
50
120.9442904
51
122.351755
0
ARC
8
DEFAULT_255_2_778_1
10
20.6837523
20
46.9758039
40
3.9830657
50
122.3407904
51
124.1946752
0
ARC
8
DEFAULT_255_2_778_1
10
20.2438464
20
47.6223306
40
3.2010724
50
124.1855758
51
126.4338849
0
ARC
8
DEFAULT_255_2_778_1
10
19.8579129
20
48.1450611
40
2.5513094
50
126.4326926
51
128.8877368
0
ARC
8
DEFAULT_255_2_778_1
10
19.5230968
20
48.5594658
40
2.0185498
50
128.8749205
51
131.8726567
0
ARC
8
DEFAULT_255_2_778_1
10
19.2259677
20
48.8904854
40
1.5737356
50
131.8616166
51
135.4168838
0
ARC
8
DEFAULT_255_2_778_1
10
18.963168
20
49.1486765
40
1.2053256
50
135.3893975
51
139.9687014
0
ARC
8
DEFAULT_255_2_778_1
10
18.7302889
20
49.3435102
40
0.9016937
50
139.9301659
51
145.9260426
0
ARC
8
DEFAULT_255_2_778_1
10
18.534154
20
49.4755104
40
0.6652776
50
145.8787362
51
153.8146208
0
ARC
8
DEFAULT_255_2_778_1
10
18.3820553
20
49.5498797
40
0.4959714
50
153.770634
51
164.3484794
0
ARC
8
DEFAULT_255_2_778_1
10
18.2807387
20
49.5780786
40
0.3908039
50
164.3220276
51
179.8083066
0
ARC
8
DEFAULT_255_2_778_1
10
18.3017789
20
49.586215
40
0.4118985
50
180.9499449
51
213.8111542
0
ARC
8
DEFAULT_255_2_778_1
10
18.5776828
20
49.7557896
40
0.73561
50
212.8271214
51
224.258472
0
ARC
8
DEFAULT_255_2_778_1
10
18.9605335
20
50.1251236
40
1.267567
50
224.1376218
51
231.4508261
0
ARC
8
DEFAULT_255_2_778_1
10
19.6032195
20
50.9281168
40
2.2960809
50
231.3955893
51
236.1256478
0
ARC
8
DEFAULT_255_2_778_1
10
21.4355223
20
53.6746293
40
5.5976905
50
236.2233172
51
239.1314682
0
ARC
8
DEFAULT_255_2_778_1
10
33.385427
20
73.4023568
40
28.6623793
50
238.8606853
51
239.0711101
0
ARC
8
DEFAULT_255_2_778_1
10
14.2132281
20
41.3052653
40
8.7248518
50
57.2420924
51
59.4062964
0
ARC
8
DEFAULT_255_2_778_1
10
17.4409241
20
46.3362102
40
2.747542
50
52.8289294
51
57.079028
0
ARC
8
DEFAULT_255_2_778_1
10
18.2155783
20
47.3565488
40
1.466457
50
46.3041868
51
52.8596521
0
ARC
8
DEFAULT_255_2_778_1
10
18.6478073
20
47.8066842
40
0.8424061
50
36.2174211
51
46.4090895
0
ARC
8
DEFAULT_255_2_778_1
10
18.9323088
20
48.0115128
40
0.4918609
50
17.400375
51
36.5489745
0
ARC
8
DEFAULT_255_2_778_1
10
19.0463994
20
48.0513754
40
0.3710912
50
0.0676858
51
16.7951297
0
ARC
8
DEFAULT_255_2_778_1
10
19.0253613
20
48.0532428
40
0.3921317
50
343.8035191
51
359.7912046
0
ARC
8
DEFAULT_255_2_778_1
10
18.9190912
20
48.0837167
40
0.5026844
50
333.2506233
51
343.8465691
0
ARC
8
DEFAULT_255_2_778_1
10
18.7652757
20
48.1604313
40
0.6745679
50
325.6600948
51
333.3122657
0
ARC
8
DEFAULT_255_2_778_1
10
18.5698344
20
48.2932296
40
0.9108568
50
319.7560915
51
325.6976089
0
ARC
8
DEFAULT_255_2_778_1
10
18.341699
20
48.4850002
40
1.2088854
50
315.4577584
51
319.8037947
0
ARC
8
DEFAULT_255_2_778_1
10
18.0783127
20
48.7438507
40
1.5781764
50
311.7298824
51
315.4670864
0
ARC
8
DEFAULT_255_2_778_1
10
17.7692879
20
49.0894074
40
2.0417554
50
308.723055
51
311.7470879
0
ARC
8
DEFAULT_255_2_778_1
10
17.415089
20
49.5306492
40
2.6075745
50
306.1165163
51
308.7300151
0
ARC
8
DEFAULT_255_2_778_1
10
17.0121091
20
50.0819523
40
3.2904564
50
303.9559446
51
306.1266333
0
ARC
8
DEFAULT_255_2_778_1
10
16.6005432
20
50.691215
40
4.0257023
50
302.3733397
51
303.9712246
0
ARC
8
DEFAULT_255_2_778_1
10
16.1809347
20
51.3527058
40
4.8090549
50
300.9434827
51
302.3758078
0
LINE
8
DEFAULT_255_2_778
10
19.9765417
20
92.4719078
11
18.6536417
21
92.4719078
0
LINE
8
DEFAULT_255_2_778
10
18.6536417
20
92.4719078
11
18.6536417
21
51.4615078
0
LINE
8
DEFAULT_255_1_234
10
4.9274119
20
100.0116792
11
4.9274119
21
99.8904
0
LINE
8
DEFAULT_255_1_234
10
4.9274119
20
99.8904
11
4.161184
21
99.8904
0
LINE
8
DEFAULT_255_1_234
10
4.161184
20
99.8904
11
4.161184
21
99.9972221
0
LINE
8
DEFAULT_255_1_234
10
4.161184
20
99.9972221
11
4.5659836
21
100.4469995
0
LINE
8
DEFAULT_255_1_234
10
4.2872823
20
100.7152595
11
4.1386952
21
100.7152595
0
LINE
8
DEFAULT_255_1_234
10
4.6535296
20
100.3514218
11
4.3402918
21
100.0116792
0
LINE
8
DEFAULT_255_1_234
10
4.3402918
20
100.0116792
11
4.9274119
21
100.0116792
0
ARC
8
DEFAULT_255_1_234
10
3.216967
20
101.6399527
40
1.8008286
50
318.5132453
51
320.7828378
0
ARC
8
DEFAULT_255_1_234
10
3.7456644
20
101.2096426
40
1.1191493
50
320.7372736
51
323.9737074
0
ARC
8
DEFAULT_255_1_234
10
4.1376501
20
100.9256361
40
0.6350923
50
323.8961724
51
328.6421089
0
ARC
8
DEFAULT_255_1_234
10
4.3423096
20
100.7994031
40
0.3946393
50
328.8299013
51
331.789948
0
ARC
8
DEFAULT_255_1_234
10
4.4420274
20
100.7479509
40
0.2824501
50
331.4255242
51
352.9364833
0
ARC
8
DEFAULT_255_1_234
10
4.4556775
20
100.7448976
40
0.2685315
50
353.2248685
51
0.0169286
0
ARC
8
DEFAULT_255_1_234
10
4.4766652
20
100.747195
40
0.2475536
50
359.4866256
51
15.9339782
0
ARC
8
DEFAULT_255_1_234
10
4.5273637
20
100.7608286
40
0.1950618
50
16.1714718
51
43.5284424
0
ARC
8
DEFAULT_255_1_234
10
4.5350946
20
100.7685573
40
0.184134
50
43.4415429
51
83.1661404
0
ARC
8
DEFAULT_255_1_234
10
4.5216864
20
100.6948771
40
0.258926
50
82.160215
51
90.1505798
0
ARC
8
DEFAULT_255_1_234
10
4.5185291
20
100.6411865
40
0.3126255
50
89.5460705
51
102.5418777
0
ARC
8
DEFAULT_255_1_234
10
4.4942377
20
100.7442665
40
0.2067346
50
102.1739365
51
129.2061916
0
ARC
8
DEFAULT_255_1_234
10
4.4863449
20
100.7567094
40
0.1921118
50
129.7279328
51
135.7542026
0
ARC
8
DEFAULT_255_1_234
10
4.4984977
20
100.7470045
40
0.2075944
50
136.175737
51
166.3674722
0
ARC
8
DEFAULT_255_1_234
10
4.5991896
20
100.7200182
40
0.3118201
50
165.9092917
51
178.8683903
0
ARC
8
DEFAULT_255_1_234
10
4.6856757
20
100.7153179
40
0.3983935
50
178.438168
51
180.0083905
0
ARC
8
DEFAULT_255_1_234
10
4.5455359
20
100.7192231
40
0.4068601
50
163.2878735
51
180.5581814
0
ARC
8
DEFAULT_255_1_234
10
4.4653621
20
100.741284
40
0.3237344
50
133.454115
51
162.9470031
0
ARC
8
DEFAULT_255_1_234
10
4.4832162
20
100.7223
40
0.349795
50
100.7869394
51
133.4384016
0
ARC
8
DEFAULT_255_1_234
10
4.5179934
20
100.5674319
40
0.5084616
50
89.6605301
51
101.3704185
0
ARC
8
DEFAULT_255_1_234
10
4.5246273
20
100.5735496
40
0.502348
50
78.2171172
51
90.4130393
0
ARC
8
DEFAULT_255_1_234
10
4.5601351
20
100.7359637
40
0.3361092
50
55.9268222
51
78.4888551
0
ARC
8
DEFAULT_255_1_234
10
4.5797791
20
100.7698324
40
0.2970617
50
47.9292255
51
55.4054003
0
ARC
8
DEFAULT_255_1_234
10
4.5899352
20
100.7801502
40
0.2825983
50
4.3347696
51
48.0560701
0
ARC
8
DEFAULT_255_1_234
10
4.4803745
20
100.7631601
40
0.393225
50
359.925209
51
5.5967654
0
ARC
8
DEFAULT_255_1_234
10
4.5232637
20
100.7687816
40
0.3503892
50
337.8914096
51
358.9967724
0
ARC
8
DEFAULT_255_1_234
10
4.2519049
20
100.8734706
40
0.6412172
50
326.9135351
51
338.3505194
0
ARC
8
DEFAULT_255_1_234
10
3.8533353
20
101.1289284
40
1.1146189
50
319.6472867
51
327.095818
0
ARC
8
DEFAULT_255_1_234
10
3.4700356
20
101.4451
40
1.6114559
50
317.2586784
51
319.9046139
0
LINE
8
DEFAULT_255_1_234
10
5.7121127
20
101.0598211
11
5.7121127
21
100.283152
0
LINE
8
DEFAULT_255_1_234
10
5.7121127
20
100.283152
11
5.8743538
21
100.283152
0
LINE
8
DEFAULT_255_1_234
10
5.8743538
20
100.283152
11
5.8743538
21
100.1618728
0
LINE
8
DEFAULT_255_1_234
10
5.8743538
20
100.1618728
11
5.7121127
21
100.1618728
0
LINE
8
DEFAULT_255_1_234
10
5.7121127
20
100.1618728
11
5.7121127
21
99.8904
0
LINE
8
DEFAULT_255_1_234
10
5.7121127
20
99.8904
11
5.5627224
21
99.8904
0
LINE
8
DEFAULT_255_1_234
10
5.5627224
20
99.8904
11
5.5627224
21
100.1618728
0
LINE
8
DEFAULT_255_1_234
10
5.5627224
20
100.1618728
11
5.0302181
21
100.1618728
0
LINE
8
DEFAULT_255_1_234
10
5.0302181
20
100.1618728
11
5.0302181
21
100.2494187
0
LINE
8
DEFAULT_255_1_234
10
5.0302181
20
100.2494187
11
5.5538875
21
101.0598211
0
LINE
8
DEFAULT_255_1_234
10
5.5538875
20
101.0598211
11
5.7121127
21
101.0598211
0
LINE
8
DEFAULT_255_1_234
10
5.5450525
20
100.8244912
11
5.1988846
21
100.283152
0
LINE
8
DEFAULT_255_1_234
10
5.1988846
20
100.283152
11
5.5627224
21
100.283152
0
LINE
8
DEFAULT_255_1_234
10
5.5627224
20
100.283152
11
5.5627224
21
100.8566181
0
LINE
8
DEFAULT_255_1_234
10
5.5627224
20
100.8566181
11
5.5450525
21
100.8244912
0
LINE
8
DEFAULT_255_1_234
10
6.101652
20
101.0598211
11
6.434166
21
100.0952093
0
LINE
8
DEFAULT_255_1_234
10
6.434166
20
100.0952093
11
6.7682863
21
101.0598211
0
LINE
8
DEFAULT_255_1_234
10
6.7682863
20
101.0598211
11
6.9369528
21
101.0598211
0
LINE
8
DEFAULT_255_1_234
10
6.9369528
20
101.0598211
11
6.5032389
21
99.8904
0
LINE
8
DEFAULT_255_1_234
10
6.5032389
20
99.8904
11
6.3666994
21
99.8904
0
LINE
8
DEFAULT_255_1_234
10
6.3666994
20
99.8904
11
5.9337887
21
101.0598211
0
LINE
8
DEFAULT_255_1_234
10
5.9337887
20
101.0598211
11
6.101652
21
101.0598211
0
LINE
8
DEFAULT_255_1_234
10
23.1649817
20
100.5819327
11
23.1649817
21
100.3891709
0
LINE
8
DEFAULT_255_1_234
10
22.426865
20
100.3690916
11
22.426865
21
100.5674755
0
LINE
8
DEFAULT_255_1_234
10
23.0163946
20
100.3490123
11
23.0163946
21
100.5923739
0
LINE
8
DEFAULT_255_1_234
10
22.5754521
20
100.6036184
11
22.5754521
21
100.3658789
0
ARC
8
DEFAULT_255_1_234
10
21.9402707
20
100.3842805
40
1.2247208
50
353.8441951
51
0.2287902
0
ARC
8
DEFAULT_255_1_234
10
22.4042211
20
100.3324806
40
0.7578929
50
344.4934747
51
353.9765454
0
ARC
8
DEFAULT_255_1_234
10
22.7034801
20
100.2473981
40
0.4467846
50
329.2803592
51
344.7472793
0
ARC
8
DEFAULT_255_1_234
10
22.8027626
20
100.1929018
40
0.3336173
50
324.9352394
51
328.6160465
0
ARC
8
DEFAULT_255_1_234
10
22.8404734
20
100.1665427
40
0.2876076
50
280.580143
51
324.9173126
0
ARC
8
DEFAULT_255_1_234
10
22.8003527
20
100.3336099
40
0.4592847
50
269.5977311
51
281.6734359
0
ARC
8
DEFAULT_255_1_234
10
22.7931433
20
100.3216173
40
0.4472986
50
256.6228859
51
270.51044
0
ARC
8
DEFAULT_255_1_234
10
22.752941
20
100.1667877
40
0.2873874
50
215.8618325
51
257.2788573
0
ARC
8
DEFAULT_255_1_234
10
22.8550442
20
100.2352977
40
0.4102928
50
197.9693508
51
215.2623606
0
ARC
8
DEFAULT_255_1_234
10
23.1035558
20
100.3191709
40
0.6725652
50
187.8816417
51
198.2346507
0
ARC
8
DEFAULT_255_1_234
10
23.4993766
20
100.3763079
40
1.0724845
50
180.8976217
51
188.0055519
0
ARC
8
DEFAULT_255_1_234
10
23.7793954
20
100.3866777
40
1.3526448
50
180.7449369
51
181.1510016
0
ARC
8
DEFAULT_255_1_234
10
23.6216683
20
100.5723042
40
1.1948131
50
173.7675579
51
180.231553
0
ARC
8
DEFAULT_255_1_234
10
23.169883
20
100.6233666
40
0.7401564
50
164.3058563
51
173.9002247
0
ARC
8
DEFAULT_255_1_234
10
22.8786899
20
100.7072656
40
0.4371288
50
148.7922025
51
164.568378
0
ARC
8
DEFAULT_255_1_234
10
22.7835351
20
100.7603929
40
0.3282386
50
144.5883898
51
148.1176286
0
ARC
8
DEFAULT_255_1_234
10
22.7492249
20
100.7843315
40
0.2864044
50
101.6440918
51
144.514236
0
ARC
8
DEFAULT_255_1_234
10
22.7917315
20
100.6154069
40
0.4604934
50
89.5284041
51
102.5819763
0
ARC
8
DEFAULT_255_1_234
10
22.7996403
20
100.6115018
40
0.464401
50
77.0437873
51
90.5081339
0
ARC
8
DEFAULT_255_1_234
10
22.8398405
20
100.7757615
40
0.2953195
50
48.2778575
51
77.4994676
0
ARC
8
DEFAULT_255_1_234
10
22.8471036
20
100.7886746
40
0.2808655
50
36.3142134
51
47.6305865
0
ARC
8
DEFAULT_255_1_234
10
22.7602343
20
100.7301515
40
0.3855453
50
18.2931786
51
35.6769206
0
ARC
8
DEFAULT_255_1_234
10
22.5059102
20
100.6428593
40
0.654423
50
8.024666
51
18.5605216
0
ARC
8
DEFAULT_255_1_234
10
22.0896022
20
100.5813792
40
1.0752407
50
1.1274072
51
8.1718305
0
ARC
8
DEFAULT_255_1_234
10
21.7660213
20
100.5686885
40
1.3990231
50
0.5424119
51
1.3863029
0
ARC
8
DEFAULT_255_1_234
10
21.948159
20
100.5959342
40
1.0682415
50
359.8090433
51
4.9407866
0
ARC
8
DEFAULT_255_1_234
10
22.3691604
20
100.6335113
40
0.6455691
50
4.8362157
51
12.2904523
0
ARC
8
DEFAULT_255_1_234
10
22.6446719
20
100.6948965
40
0.3633074
50
12.0805627
51
23.8173984
0
ARC
8
DEFAULT_255_1_234
10
22.7620425
20
100.7445919
40
0.2358723
50
24.2871213
51
31.3935614
0
ARC
8
DEFAULT_255_1_234
10
22.8145122
20
100.7789233
40
0.1732111
50
30.7407893
51
82.4657128
0
ARC
8
DEFAULT_255_1_234
10
22.7965256
20
100.6905691
40
0.263235
50
81.1060089
51
90.2184952
0
ARC
8
DEFAULT_255_1_234
10
22.7929555
20
100.7163924
40
0.2374236
50
89.3806855
51
105.6762551
0
ARC
8
DEFAULT_255_1_234
10
22.7746186
20
100.7830567
40
0.1682847
50
105.7981136
51
149.7388061
0
ARC
8
DEFAULT_255_1_234
10
22.8810264
20
100.719095
40
0.2924306
50
149.4208916
51
163.6286378
0
ARC
8
DEFAULT_255_1_234
10
23.0901152
20
100.655325
40
0.5110213
50
163.3763315
51
172.1410975
0
ARC
8
DEFAULT_255_1_234
10
23.4201871
20
100.6080518
40
0.8444586
50
172.0259487
51
178.0703232
0
ARC
8
DEFAULT_255_1_234
10
23.723196
20
100.5936906
40
1.1477868
50
177.8631668
51
179.5044149
0
ARC
8
DEFAULT_255_1_234
10
23.6159365
20
100.3622389
40
1.0404907
50
179.7995573
51
185.2460446
0
ARC
8
DEFAULT_255_1_234
10
23.2116404
20
100.3239513
40
0.6343885
50
185.1411642
51
193.0079639
0
ARC
8
DEFAULT_255_1_234
10
22.9472877
20
100.2614641
40
0.3627568
50
192.7897626
51
205.2507664
0
ARC
8
DEFAULT_255_1_234
10
22.8426424
20
100.2147415
40
0.2481908
50
205.8005384
51
211.2537509
0
ARC
8
DEFAULT_255_1_234
10
22.7902864
20
100.179658
40
0.1852521
50
210.3789793
51
238.4008143
0
ARC
8
DEFAULT_255_1_234
10
22.7883386
20
100.1843376
40
0.1882621
50
239.6520629
51
265.9793761
0
ARC
8
DEFAULT_255_1_234
10
22.7968586
20
100.2515427
40
0.2559272
50
265.1315437
51
270.060332
0
ARC
8
DEFAULT_255_1_234
10
22.7997365
20
100.2191534
40
0.2235528
50
269.3314664
51
287.2178029
0
ARC
8
DEFAULT_255_1_234
10
22.8135217
20
100.1688279
40
0.1714108
50
287.7958004
51
329.080874
0
ARC
8
DEFAULT_255_1_234
10
22.7177674
20
100.228593
40
0.2842745
50
328.6634704
51
343.3325132
0
ARC
8
DEFAULT_255_1_234
10
22.5004694
20
100.2962863
40
0.5118644
50
343.0499468
51
351.9393422
0
ARC
8
DEFAULT_255_1_234
10
22.1537994
20
100.3473949
40
0.8622784
50
351.8069023
51
357.7959224
0
ARC
8
DEFAULT_255_1_234
10
21.830255
20
100.3641721
40
1.1862365
50
357.5871873
51
359.2677531
0
LINE
8
DEFAULT_255_1_234
10
23.4485021
20
101.0598211
11
23.7810161
21
100.0952093
0
LINE
8
DEFAULT_255_1_234
10
23.7810161
20
100.0952093
11
24.1151364
21
101.0598211
0
LINE
8
DEFAULT_255_1_234
10
24.1151364
20
101.0598211
11
24.2838029
21
101.0598211
0
LINE
8
DEFAULT_255_1_234
10
24.2838029
20
101.0598211
11
23.850089
21
99.8904
0
LINE
8
DEFAULT_255_1_234
10
23.850089
20
99.8904
11
23.7135495
21
99.8904
0
LINE
8
DEFAULT_255_1_234
10
23.7135495
20
99.8904
11
23.2806388
21
101.0598211
0
LINE
8
DEFAULT_255_1_234
10
23.2806388
20
101.0598211
11
23.4485021
21
101.0598211
0
LINE
8
DEFAULT_255_1_234
10
20.2081628
20
5.8098211
11
20.2081628
21
5.033152
0
LINE
8
DEFAULT_255_1_234
10
20.2081628
20
5.033152
11
20.3704039
21
5.033152
0
LINE
8
DEFAULT_255_1_234
10
20.3704039
20
5.033152
11
20.3704039
21
4.9118728
0
LINE
8
DEFAULT_255_1_234
10
20.3704039
20
4.9118728
11
20.2081628
21
4.9118728
0
LINE
8
DEFAULT_255_1_234
10
20.2081628
20
4.9118728
11
20.2081628
21
4.6404
0
LINE
8
DEFAULT_255_1_234
10
20.2081628
20
4.6404
11
20.0587725
21
4.6404
0
LINE
8
DEFAULT_255_1_234
10
20.0587725
20
4.6404
11
20.0587725
21
4.9118728
0
LINE
8
DEFAULT_255_1_234
10
20.0587725
20
4.9118728
11
19.5262682
21
4.9118728
0
LINE
8
DEFAULT_255_1_234
10
19.5262682
20
4.9118728
11
19.5262682
21
4.9994187
0
LINE
8
DEFAULT_255_1_234
10
19.5262682
20
4.9994187
11
20.0499375
21
5.8098211
0
LINE
8
DEFAULT_255_1_234
10
20.0499375
20
5.8098211
11
20.2081628
21
5.8098211
0
LINE
8
DEFAULT_255_1_234
10
20.0411026
20
5.5744912
11
19.6949347
21
5.033152
0
LINE
8
DEFAULT_255_1_234
10
19.6949347
20
5.033152
11
20.0587725
21
5.033152
0
LINE
8
DEFAULT_255_1_234
10
20.0587725
20
5.033152
11
20.0587725
21
5.6066181
0
LINE
8
DEFAULT_255_1_234
10
20.0587725
20
5.6066181
11
20.0411026
21
5.5744912
0
LINE
8
DEFAULT_255_1_234
10
21.2482729
20
5.0114663
11
21.4032854
21
5.0114663
0
LINE
8
DEFAULT_255_1_234
10
20.5029276
20
5.1704947
11
20.5029276
21
5.2829391
0
LINE
8
DEFAULT_255_1_234
10
21.4032854
20
5.4339357
11
21.2482729
21
5.4339357
0
LINE
8
DEFAULT_255_1_234
10
20.6579401
20
5.2789232
11
20.6579401
21
5.1656757
0
ARC
8
DEFAULT_255_1_234
10
20.8552241
20
5.0711846
40
0.5513052
50
340.1774281
51
353.7814284
0
ARC
8
DEFAULT_255_1_234
10
21.0123594
20
5.0126582
40
0.3836379
50
311.4558989
51
340.4421614
0
ARC
8
DEFAULT_255_1_234
10
21.0090262
20
5.0237528
40
0.3941894
50
282.4333181
51
310.7513653
0
ARC
8
DEFAULT_255_1_234
10
20.9651001
20
5.2052679
40
0.5809175
50
269.9358511
51
282.809604
0
ARC
8
DEFAULT_255_1_234
10
20.9599067
20
5.3510212
40
0.7266847
50
270.0021091
51
270.3581957
0
ARC
8
DEFAULT_255_1_234
10
20.9546484
20
5.0909585
40
0.4666519
50
250.7884749
51
270.6489167
0
ARC
8
DEFAULT_255_1_234
10
20.9378319
20
5.0272319
40
0.4009729
50
219.3627325
51
250.0611886
0
ARC
8
DEFAULT_255_1_234
10
21.020753
20
5.0977042
40
0.5097822
50
193.5479632
51
219.5756669
0
ARC
8
DEFAULT_255_1_234
10
21.2579151
20
5.1592919
40
0.7547848
50
181.1218675
51
193.87563
0
ARC
8
DEFAULT_255_1_234
10
21.4649332
20
5.170358
40
0.9620055
50
179.9918545
51
181.5394234
0
ARC
8
DEFAULT_255_1_234
10
21.2798434
20
5.2866788
40
0.7769248
50
169.5837241
51
180.2757934
0
ARC
8
DEFAULT_255_1_234
10
21.0961372
20
5.3206229
40
0.590109
50
155.0365899
51
169.6003176
0
ARC
8
DEFAULT_255_1_234
10
20.9825836
20
5.3753677
40
0.4640625
50
136.783148
51
155.2472683
0
ARC
8
DEFAULT_255_1_234
10
20.9436313
20
5.4084562
40
0.4130255
50
121.7633186
51
136.428115
0
ARC
8
DEFAULT_255_1_234
10
20.9571275
20
5.3835227
40
0.4413323
50
95.6459699
51
121.5490577
0
ARC
8
DEFAULT_255_1_234
10
20.9728557
20
5.2726949
40
0.55319
50
89.924208
51
96.1377933
0
ARC
8
DEFAULT_255_1_234
10
20.977899
20
5.2845542
40
0.5413475
50
76.6779277
51
90.4563316
0
ARC
8
DEFAULT_255_1_234
10
21.0172613
20
5.4436114
40
0.3775041
50
47.485847
51
76.9287264
0
ARC
8
DEFAULT_255_1_234
10
21.0025586
20
5.4336159
40
0.3948286
50
16.5424086
51
46.8933463
0
ARC
8
DEFAULT_255_1_234
10
20.8417743
20
5.3807861
40
0.564021
50
5.4072051
51
17.0365086
0
ARC
8
DEFAULT_255_1_234
10
20.697876
20
5.3576679
40
0.5556559
50
7.8891745
51
15.9239216
0
ARC
8
DEFAULT_255_1_234
10
20.8965773
20
5.4153631
40
0.3487515
50
15.7653144
51
27.9410532
0
ARC
8
DEFAULT_255_1_234
10
21.0069991
20
5.474479
40
0.2235026
50
27.8166557
51
46.4008329
0
ARC
8
DEFAULT_255_1_234
10
21.0119634
20
5.4739082
40
0.2205286
50
47.4371857
51
75.0698205
0
ARC
8
DEFAULT_255_1_234
10
20.9811029
20
5.3664765
40
0.3322915
50
74.7008593
51
87.8124495
0
ARC
8
DEFAULT_255_1_234
10
20.9737716
20
5.2608844
40
0.4380987
50
87.3814673
51
90.0240855
0
ARC
8
DEFAULT_255_1_234
10
20.9699259
20
5.3786291
40
0.3203749
50
89.3451631
51
108.5745436
0
ARC
8
DEFAULT_255_1_234
10
20.9562365
20
5.4299908
40
0.2673494
50
109.2998449
51
143.3037509
0
ARC
8
DEFAULT_255_1_234
10
21.0324437
20
5.3713881
40
0.3634757
50
143.0753173
51
163.1916937
0
ARC
8
DEFAULT_255_1_234
10
21.2276165
20
5.3097967
40
0.5681262
50
162.9373603
51
174.6208611
0
ARC
8
DEFAULT_255_1_234
10
21.4902207
20
5.281001
40
0.8322832
50
174.3419979
51
180.1430411
0
ARC
8
DEFAULT_255_1_234
10
21.3971363
20
5.1615698
40
0.7392076
50
179.6817502
51
189.150529
0
ARC
8
DEFAULT_255_1_234
10
21.1470611
20
5.119919
40
0.4856932
50
188.9910863
51
203.5773039
0
ARC
8
DEFAULT_255_1_234
10
21.0390944
20
5.0751211
40
0.3688271
50
203.9077269
51
215.1312379
0
ARC
8
DEFAULT_255_1_234
10
20.9468038
20
5.0035941
40
0.2522457
50
213.9071664
51
263.8849284
0
ARC
8
DEFAULT_255_1_234
10
20.9593367
20
5.0820518
40
0.3316174
50
263.1758525
51
270.1031083
0
ARC
8
DEFAULT_255_1_234
10
20.9625459
20
5.2067365
40
0.4563091
50
269.6719807
51
279.0609165
0
ARC
8
DEFAULT_255_1_234
10
20.9892227
20
5.0454907
40
0.2928759
50
278.8750225
51
293.6346586
0
ARC
8
DEFAULT_255_1_234
10
21.0212435
20
4.97029
40
0.2111472
50
293.8553404
51
310.0518804
0
ARC
8
DEFAULT_255_1_234
10
21.0217289
20
4.9640516
40
0.2060917
50
311.0646779
51
332.0108348
0
ARC
8
DEFAULT_255_1_234
10
20.9025016
20
5.0297978
40
0.3422352
50
331.6588543
51
343.2878891
0
ARC
8
DEFAULT_255_1_234
10
20.6962531
20
5.0931798
40
0.5580003
50
343.1446044
51
351.010618
0
ARC
8
DEFAULT_255_1_234
10
20.5421177
20
5.1212871
40
0.7146438
50
350.7157277
51
351.1602153
0
LINE
8
DEFAULT_255_1_234
10
22.5132717
20
5.2612534
11
22.5132717
21
5.1873614
0
LINE
8
DEFAULT_255_1_234
10
21.5727551
20
5.1769201
11
21.5727551
21
5.2612534
0
LINE
8
DEFAULT_255_1_234
10
22.3598655
20
5.1761169
11
22.3598655
21
5.2628597
0
LINE
8
DEFAULT_255_1_234
10
21.7261613
20
5.273301
11
21.7261613
21
5.1873614
0
ARC
8
DEFAULT_255_1_234
10
21.6490743
20
5.1834015
40
0.8642064
50
350.487711
51
0.2625388
0
ARC
8
DEFAULT_255_1_234
10
21.8783985
20
5.1439578
40
0.631518
50
336.0277639
51
350.5787438
0
ARC
8
DEFAULT_255_1_234
10
22.0128808
20
5.0831892
40
0.4839466
50
319.8877444
51
336.1328423
0
ARC
8
DEFAULT_255_1_234
10
22.0731449
20
5.034958
40
0.4067874
50
302.4806467
51
319.6143626
0
ARC
8
DEFAULT_255_1_234
10
22.0616459
20
5.0571202
40
0.4316636
50
275.8195682
51
302.1884709
0
ARC
8
DEFAULT_255_1_234
10
22.0450092
20
5.1713665
40
0.5470306
50
269.9171439
51
276.3397983
0
ARC
8
DEFAULT_255_1_234
10
22.0405302
20
5.1027681
40
0.4784458
50
252.5219675
51
270.4416499
0
ARC
8
DEFAULT_255_1_234
10
22.0261561
20
5.0488592
40
0.422716
50
237.5352116
51
252.1857531
0
ARC
8
DEFAULT_255_1_234
10
22.0350757
20
5.0602363
40
0.4371052
50
209.063312
51
237.3492538
0
ARC
8
DEFAULT_255_1_234
10
22.1220605
20
5.1148685
40
0.5397041
50
205.1183774
51
209.6470015
0
ARC
8
DEFAULT_255_1_234
10
22.2017642
20
5.148683
40
0.6262326
50
188.7215458
51
204.8240747
0
ARC
8
DEFAULT_255_1_234
10
22.401517
20
5.1823067
40
0.8287794
50
180.3723947
51
188.9252049
0
ARC
8
DEFAULT_255_1_234
10
22.3987922
20
5.2652402
40
0.8260467
50
169.5253763
51
180.2765336
0
ARC
8
DEFAULT_255_1_234
10
22.2085371
20
5.3002309
40
0.6326007
50
155.8315255
51
169.5089989
0
ARC
8
DEFAULT_255_1_234
10
22.0804872
20
5.3596348
40
0.4914567
50
139.6258461
51
156.0379525
0
ARC
8
DEFAULT_255_1_234
10
22.0215205
20
5.4070799
40
0.4158054
50
122.6416387
51
139.3430715
0
ARC
8
DEFAULT_255_1_234
10
22.0315825
20
5.3887451
40
0.4366739
50
93.0223692
51
122.455762
0
ARC
8
DEFAULT_255_1_234
10
22.0423822
20
5.2922709
40
0.5336137
50
89.975342
51
93.6341897
0
ARC
8
DEFAULT_255_1_234
10
22.0462601
20
5.3321242
40
0.4937738
50
73.746375
51
90.4233405
0
ARC
8
DEFAULT_255_1_234
10
22.063818
20
5.4001287
40
0.4235786
50
57.662753
51
73.4518111
0
ARC
8
DEFAULT_255_1_234
10
22.0630186
20
5.4022832
40
0.4221899
50
29.1440151
51
57.414694
0
ARC
8
DEFAULT_255_1_234
10
21.9695381
20
5.3439005
40
0.5322966
50
24.0982783
51
29.7323517
0
ARC
8
DEFAULT_255_1_234
10
21.8661656
20
5.3010399
40
0.6441673
50
8.6655297
51
23.8241346
0
ARC
8
DEFAULT_255_1_234
10
21.6427394
20
5.2645854
40
0.8705386
50
359.7806941
51
8.8218784
0
ARC
8
DEFAULT_255_1_234
10
21.5280392
20
5.2671345
40
0.8318373
50
359.7055579
51
8.036044
0
ARC
8
DEFAULT_255_1_234
10
21.8280398
20
5.3108239
40
0.5286768
50
7.8928306
51
20.2962107
0
ARC
8
DEFAULT_255_1_234
10
21.9907969
20
5.3708395
40
0.3552073
50
20.3231126
51
36.4992797
0
ARC
8
DEFAULT_255_1_234
10
22.0593515
20
5.4236402
40
0.2686974
50
36.1437156
51
85.6627023
0
ARC
8
DEFAULT_255_1_234
10
22.0431061
20
5.3196221
40
0.373739
50
84.3852322
51
90.0757696
0
ARC
8
DEFAULT_255_1_234
10
22.0388733
20
5.3856839
40
0.3076997
50
89.3038458
51
109.9045693
0
ARC
8
DEFAULT_255_1_234
10
22.0296124
20
5.4239062
40
0.2686424
50
110.8228367
51
143.9179474
0
ARC
8
DEFAULT_255_1_234
10
22.1229784
20
5.3526236
40
0.3860887
50
143.5289163
51
163.2980757
0
ARC
8
DEFAULT_255_1_234
10
22.3137605
20
5.2926433
40
0.5860659
50
163.0418846
51
174.3140048
0
ARC
8
DEFAULT_255_1_234
10
22.5541717
20
5.2648854
40
0.8280531
50
174.0509143
51
179.4176892
0
ARC
8
DEFAULT_255_1_234
10
22.5037456
20
5.1831954
40
0.7775954
50
179.6930361
51
188.7906598
0
ARC
8
DEFAULT_255_1_234
10
22.2373935
20
5.1405935
40
0.5078633
50
188.6331305
51
202.5629587
0
ARC
8
DEFAULT_255_1_234
10
22.1119527
20
5.0901996
40
0.3726913
50
202.8081362
51
216.1193925
0
ARC
8
DEFAULT_255_1_234
10
22.0310097
20
5.0250676
40
0.2689577
50
215.0755913
51
264.6379694
0
ARC
8
DEFAULT_255_1_234
10
22.0437047
20
5.1081513
40
0.3528978
50
263.846392
51
270.0833719
0
ARC
8
DEFAULT_255_1_234
10
22.0478437
20
5.0823374
40
0.3271036
50
269.3649385
51
287.5152008
0
ARC
8
DEFAULT_255_1_234
10
22.0656595
20
5.0176238
40
0.2600406
50
288.0630309
51
323.8113348
0
ARC
8
DEFAULT_255_1_234
10
21.9785436
20
5.0826049
40
0.3687189
50
323.6547608
51
342.6590488
0
ARC
8
DEFAULT_255_1_234
10
21.7754052
20
5.1486952
40
0.5823286
50
342.4091907
51
353.6451149
0
ARC
8
DEFAULT_255_1_234
10
21.4922562
20
5.183919
40
0.8676442
50
353.4029884
51
359.4847795
0
LINE
8
DEFAULT_255_1_234
10
22.7445857
20
5.8098211
11
22.9437729
21
5.8098211
0
LINE
8
DEFAULT_255_1_234
10
22.9437729
20
5.8098211
11
23.3260836
21
4.8556506
0
LINE
8
DEFAULT_255_1_234
10
23.3260836
20
4.8556506
11
23.7083943
21
5.8098211
0
LINE
8
DEFAULT_255_1_234
10
23.7083943
20
5.8098211
11
23.9083846
21
5.8098211
0
LINE
8
DEFAULT_255_1_234
10
23.9083846
20
5.8098211
11
23.9083846
21
4.6404
0
LINE
8
DEFAULT_255_1_234
10
23.9083846
20
4.6404
11
23.7541752
21
4.6404
0
LINE
8
DEFAULT_255_1_234
10
23.7541752
20
4.6404
11
23.7541752
21
5.0957996
0
LINE
8
DEFAULT_255_1_234
10
23.7541752
20
5.0957996
11
23.7686324
21
5.5873419
0
LINE
8
DEFAULT_255_1_234
10
23.7686324
20
5.5873419
11
23.3847153
21
4.6404
0
LINE
8
DEFAULT_255_1_234
10
23.3847153
20
4.6404
11
23.2666487
21
4.6404
0
LINE
8
DEFAULT_255_1_234
10
23.2666487
20
4.6404
11
22.8835348
21
5.5849324
0
LINE
8
DEFAULT_255_1_234
10
22.8835348
20
5.5849324
11
22.8987951
21
5.0957996
0
LINE
8
DEFAULT_255_1_234
10
22.8987951
20
5.0957996
11
22.8987951
21
4.6404
0
LINE
8
DEFAULT_255_1_234
10
22.8987951
20
4.6404
11
22.7445857
21
4.6404
0
LINE
8
DEFAULT_255_1_234
10
22.7445857
20
4.6404
11
22.7445857
21
5.8098211
0
LINE
8
DEFAULT_255_1_234
10
22.6417628
20
13.7473211
11
22.6417628
21
12.970652
0
LINE
8
DEFAULT_255_1_234
10
22.6417628
20
12.970652
11
22.8040039
21
12.970652
0
LINE
8
DEFAULT_255_1_234
10
22.8040039
20
12.970652
11
22.8040039
21
12.8493728
0
LINE
8
DEFAULT_255_1_234
10
22.8040039
20
12.8493728
11
22.6417628
21
12.8493728
0
LINE
8
DEFAULT_255_1_234
10
22.6417628
20
12.8493728
11
22.6417628
21
12.5779
0
LINE
8
DEFAULT_255_1_234
10
22.6417628
20
12.5779
11
22.4923725
21
12.5779
0
LINE
8
DEFAULT_255_1_234
10
22.4923725
20
12.5779
11
22.4923725
21
12.8493728
0
LINE
8
DEFAULT_255_1_234
10
22.4923725
20
12.8493728
11
21.9598682
21
12.8493728
0
LINE
8
DEFAULT_255_1_234
10
21.9598682
20
12.8493728
11
21.9598682
21
12.9369187
0
LINE
8
DEFAULT_255_1_234
10
21.9598682
20
12.9369187
11
22.4835375
21
13.7473211
0
LINE
8
DEFAULT_255_1_234
10
22.4835375
20
13.7473211
11
22.6417628
21
13.7473211
0
LINE
8
DEFAULT_255_1_234
10
22.4747026
20
13.5119912
11
22.1285347
21
12.970652
0
LINE
8
DEFAULT_255_1_234
10
22.1285347
20
12.970652
11
22.4923725
21
12.970652
0
LINE
8
DEFAULT_255_1_234
10
22.4923725
20
12.970652
11
22.4923725
21
13.5441181
0
LINE
8
DEFAULT_255_1_234
10
22.4923725
20
13.5441181
11
22.4747026
21
13.5119912
0
LINE
8
DEFAULT_255_1_234
10
23.1421401
20
13.7473211
11
23.1421401
21
12.5779
0
LINE
8
DEFAULT_255_1_234
10
23.1421401
20
12.5779
11
22.9879307
21
12.5779
0
LINE
8
DEFAULT_255_1_234
10
22.9879307
20
12.5779
11
22.9879307
21
13.7473211
0
LINE
8
DEFAULT_255_1_234
10
22.9879307
20
13.7473211
11
23.1421401
21
13.7473211
0
LINE
8
DEFAULT_255_1_234
10
23.8264442
20
13.5465276
11
23.8264442
21
13.2051788
0
LINE
8
DEFAULT_255_1_234
10
23.8264442
20
13.2051788
11
24.1525328
21
13.2051788
0
LINE
8
DEFAULT_255_1_234
10
24.1525328
20
13.2051788
11
24.1525328
21
13.0646233
0
LINE
8
DEFAULT_255_1_234
10
24.1525328
20
13.0646233
11
23.8264442
21
13.0646233
0
LINE
8
DEFAULT_255_1_234
10
23.8264442
20
13.0646233
11
23.8264442
21
12.6951634
0
LINE
8
DEFAULT_255_1_234
10
23.8264442
20
12.6951634
11
23.6770539
21
12.6951634
0
LINE
8
DEFAULT_255_1_234
10
23.6770539
20
12.6951634
11
23.6770539
21
13.0646233
0
LINE
8
DEFAULT_255_1_234
10
23.6770539
20
13.0646233
11
23.3509653
21
13.0646233
0
LINE
8
DEFAULT_255_1_234
10
23.3509653
20
13.0646233
11
23.3509653
21
13.2051788
0
LINE
8
DEFAULT_255_1_234
10
23.3509653
20
13.2051788
11
23.6770539
21
13.2051788
0
LINE
8
DEFAULT_255_1_234
10
23.6770539
20
13.2051788
11
23.6770539
21
13.5465276
0
LINE
8
DEFAULT_255_1_234
10
23.6770539
20
13.5465276
11
23.8264442
21
13.5465276
0
LINE
8
DEFAULT_255_1_234
10
22.0047628
20
21.6848211
11
22.0047628
21
20.908152
0
LINE
8
DEFAULT_255_1_234
10
22.0047628
20
20.908152
11
22.1670039
21
20.908152
0
LINE
8
DEFAULT_255_1_234
10
22.1670039
20
20.908152
11
22.1670039
21
20.7868728
0
LINE
8
DEFAULT_255_1_234
10
22.1670039
20
20.7868728
11
22.0047628
21
20.7868728
0
LINE
8
DEFAULT_255_1_234
10
22.0047628
20
20.7868728
11
22.0047628
21
20.5154
0
LINE
8
DEFAULT_255_1_234
10
22.0047628
20
20.5154
11
21.8553725
21
20.5154
0
LINE
8
DEFAULT_255_1_234
10
21.8553725
20
20.5154
11
21.8553725
21
20.7868728
0
LINE
8
DEFAULT_255_1_234
10
21.8553725
20
20.7868728
11
21.3228682
21
20.7868728
0
LINE
8
DEFAULT_255_1_234
10
21.3228682
20
20.7868728
11
21.3228682
21
20.8744187
0
LINE
8
DEFAULT_255_1_234
10
21.3228682
20
20.8744187
11
21.8465375
21
21.6848211
0
LINE
8
DEFAULT_255_1_234
10
21.8465375
20
21.6848211
11
22.0047628
21
21.6848211
0
LINE
8
DEFAULT_255_1_234
10
21.8377026
20
21.4494912
11
21.4915347
21
20.908152
0
LINE
8
DEFAULT_255_1_234
10
21.4915347
20
20.908152
11
21.8553725
21
20.908152
0
LINE
8
DEFAULT_255_1_234
10
21.8553725
20
20.908152
11
21.8553725
21
21.4816181
0
LINE
8
DEFAULT_255_1_234
10
21.8553725
20
21.4816181
11
21.8377026
21
21.4494912
0
LINE
8
DEFAULT_255_1_234
10
22.3943021
20
21.6848211
11
22.7268161
21
20.7202093
0
LINE
8
DEFAULT_255_1_234
10
22.7268161
20
20.7202093
11
23.0609364
21
21.6848211
0
LINE
8
DEFAULT_255_1_234
10
23.0609364
20
21.6848211
11
23.2296029
21
21.6848211
0
LINE
8
DEFAULT_255_1_234
10
23.2296029
20
21.6848211
11
22.795889
21
20.5154
0
LINE
8
DEFAULT_255_1_234
10
22.795889
20
20.5154
11
22.6593495
21
20.5154
0
LINE
8
DEFAULT_255_1_234
10
22.6593495
20
20.5154
11
22.2264388
21
21.6848211
0
LINE
8
DEFAULT_255_1_234
10
22.2264388
20
21.6848211
11
22.3943021
21
21.6848211
0
LINE
8
DEFAULT_255_1_234
10
23.7886119
20
21.4840276
11
23.7886119
21
21.1426788
0
LINE
8
DEFAULT_255_1_234
10
23.7886119
20
21.1426788
11
24.1147004
21
21.1426788
0
LINE
8
DEFAULT_255_1_234
10
24.1147004
20
21.1426788
11
24.1147004
21
21.0021233
0
LINE
8
DEFAULT_255_1_234
10
24.1147004
20
21.0021233
11
23.7886119
21
21.0021233
0
LINE
8
DEFAULT_255_1_234
10
23.7886119
20
21.0021233
11
23.7886119
21
20.6326634
0
LINE
8
DEFAULT_255_1_234
10
23.7886119
20
20.6326634
11
23.6392215
21
20.6326634
0
LINE
8
DEFAULT_255_1_234
10
23.6392215
20
20.6326634
11
23.6392215
21
21.0021233
0
LINE
8
DEFAULT_255_1_234
10
23.6392215
20
21.0021233
11
23.313133
21
21.0021233
0
LINE
8
DEFAULT_255_1_234
10
23.313133
20
21.0021233
11
23.313133
21
21.1426788
0
LINE
8
DEFAULT_255_1_234
10
23.313133
20
21.1426788
11
23.6392215
21
21.1426788
0
LINE
8
DEFAULT_255_1_234
10
23.6392215
20
21.1426788
11
23.6392215
21
21.4840276
0
LINE
8
DEFAULT_255_1_234
10
23.6392215
20
21.4840276
11
23.7886119
21
21.4840276
0
LINE
8
DEFAULT_255_1_234
10
19.9027378
20
28.9886169
11
19.9027378
21
29.1098962
0
LINE
8
DEFAULT_255_1_234
10
19.9027378
20
29.1098962
11
20.014379
21
29.1098962
0
LINE
8
DEFAULT_255_1_234
10
19.8240268
20
29.3155087
11
19.6754396
21
29.3155087
0
LINE
8
DEFAULT_255_1_234
10
19.6649983
20
28.7613188
11
19.8143887
21
28.7613188
0
LINE
8
DEFAULT_255_1_234
10
20.014379
20
28.9886169
11
19.9027378
21
28.9886169
0
ARC
8
DEFAULT_255_1_234
10
20.0114656
20
29.4491713
40
0.3392876
50
270.4919872
51
281.8951556
0
ARC
8
DEFAULT_255_1_234
10
20.0355918
20
29.3389702
40
0.2264817
50
281.6691735
51
301.2943132
0
ARC
8
DEFAULT_255_1_234
10
20.0526128
20
29.3078304
40
0.1910381
50
301.7833094
51
311.7545298
0
ARC
8
DEFAULT_255_1_234
10
20.0617704
20
29.2976748
40
0.1773635
50
311.7323931
51
354.2802411
0
ARC
8
DEFAULT_255_1_234
10
19.9891329
20
29.3101722
40
0.2509385
50
353.0937916
51
0.1181479
0
ARC
8
DEFAULT_255_1_234
10
19.9430114
20
29.3149386
40
0.2970898
50
359.1805295
51
15.0453146
0
ARC
8
DEFAULT_255_1_234
10
20.0775951
20
29.3541992
40
0.1569564
50
13.9577229
51
77.6713066
0
ARC
8
DEFAULT_255_1_234
10
20.038948
20
29.2156949
40
0.3006298
50
76.1116566
51
90.7026153
0
ARC
8
DEFAULT_255_1_234
10
20.0330318
20
29.2430545
40
0.2732568
50
89.5324876
51
103.531937
0
ARC
8
DEFAULT_255_1_234
10
20.0129762
20
29.3229884
40
0.1908508
50
103.2931773
51
133.5619022
0
ARC
8
DEFAULT_255_1_234
10
20.0085251
20
29.3289375
40
0.1834746
50
133.8349307
51
173.5344437
0
ARC
8
DEFAULT_255_1_234
10
20.0808294
20
29.3161213
40
0.2568033
50
172.5096846
51
180.1366907
0
ARC
8
DEFAULT_255_1_234
10
19.9857188
20
29.3195622
40
0.3103056
50
155.3484492
51
180.7484736
0
ARC
8
DEFAULT_255_1_234
10
19.9808277
20
29.3166846
40
0.3070957
50
131.5744599
51
154.4798489
0
ARC
8
DEFAULT_255_1_234
10
20.0121424
20
29.285031
40
0.3515643
50
96.9875458
51
131.9690667
0
ARC
8
DEFAULT_255_1_234
10
20.0340904
20
29.1604636
40
0.4779224
50
89.8596053
51
97.7825159
0
ARC
8
DEFAULT_255_1_234
10
20.0388967
20
29.1342616
40
0.5041361
50
78.3655447
51
90.4131539
0
ARC
8
DEFAULT_255_1_234
10
20.0746885
20
29.3001887
40
0.3344039
50
56.6229102
51
78.638727
0
ARC
8
DEFAULT_255_1_234
10
20.0961829
20
29.3377805
40
0.2912001
50
47.0253525
51
56.0854072
0
ARC
8
DEFAULT_255_1_234
10
20.0981609
20
29.3417223
40
0.2869704
50
10.9208013
51
46.7778124
0
ARC
8
DEFAULT_255_1_234
10
19.9617675
20
29.3101857
40
0.426899
50
359.6364486
51
11.6087304
0
ARC
8
DEFAULT_255_1_234
10
20.1452519
20
29.3086752
40
0.243409
50
332.3549906
51
359.7179418
0
ARC
8
DEFAULT_255_1_234
10
20.0802121
20
29.3395142
40
0.3153459
50
325.2333722
51
332.8745602
0
ARC
8
DEFAULT_255_1_234
10
20.0954744
20
29.3288828
40
0.2967456
50
292.9802137
51
325.2392345
0
ARC
8
DEFAULT_255_1_234
10
20.0680118
20
29.3822863
40
0.3566604
50
292.5402179
51
293.6924929
0
ARC
8
DEFAULT_255_1_234
10
20.1072714
20
28.7368091
40
0.3307468
50
57.6435486
51
72.8625112
0
ARC
8
DEFAULT_255_1_234
10
20.1427214
20
28.7942549
40
0.2632492
50
36.7248896
51
57.4697979
0
ARC
8
DEFAULT_255_1_234
10
20.1415847
20
28.795522
40
0.2634081
50
8.0545065
51
36.356114
0
ARC
8
DEFAULT_255_1_234
10
20.0553032
20
28.7800174
40
0.3510261
50
359.8320645
51
8.5869982
0
ARC
8
DEFAULT_255_1_234
10
20.0177808
20
28.7752101
40
0.3885653
50
343.9829931
51
0.5571613
0
ARC
8
DEFAULT_255_1_234
10
20.1064005
20
28.7509438
40
0.2966924
50
311.6359546
51
343.7651759
0
ARC
8
DEFAULT_255_1_234
10
20.0685574
20
28.7936102
40
0.3537231
50
279.7829875
51
311.6255694
0
ARC
8
DEFAULT_255_1_234
10
20.0384351
20
28.937328
40
0.5004971
50
269.7286406
51
280.3856417
0
ARC
8
DEFAULT_255_1_234
10
20.0322423
20
28.9331996
40
0.4963778
50
256.6828919
51
270.4412052
0
ARC
8
DEFAULT_255_1_234
10
19.9983719
20
28.7947394
40
0.3538406
50
229.4223008
51
256.8556159
0
ARC
8
DEFAULT_255_1_234
10
19.9569112
20
28.7480736
40
0.2914296
50
181.818294
51
229.6455059
0
ARC
8
DEFAULT_255_1_234
10
20.0609068
20
28.7611496
40
0.3959084
50
179.9755256
51
183.2323064
0
ARC
8
DEFAULT_255_1_234
10
20.0436814
20
28.7591037
40
0.2293034
50
179.4465117
51
196.2869258
0
ARC
8
DEFAULT_255_1_234
10
19.9949222
20
28.7457651
40
0.1787621
50
196.5661473
51
227.705904
0
ARC
8
DEFAULT_255_1_234
10
20.0113317
20
28.7641155
40
0.2033784
50
227.7652068
51
257.8762805
0
ARC
8
DEFAULT_255_1_234
10
20.0338287
20
28.8584156
40
0.3003081
50
257.4584385
51
270.426602
0
ARC
8
DEFAULT_255_1_234
10
20.0383853
20
28.8873996
40
0.329292
50
269.5962073
51
280.8789248
0
ARC
8
DEFAULT_255_1_234
10
20.0613382
20
28.7727685
40
0.2123908
50
280.6346389
51
299.8595945
0
ARC
8
DEFAULT_255_1_234
10
20.0804289
20
28.7365212
40
0.171457
50
300.3576302
51
314.5517981
0
ARC
8
DEFAULT_255_1_234
10
20.0721349
20
28.7425919
40
0.1816095
50
315.0728369
51
345.0431014
0
ARC
8
DEFAULT_255_1_234
10
19.9798163
20
28.7694841
40
0.2777492
50
344.5986631
51
357.9269593
0
ARC
8
DEFAULT_255_1_234
10
19.8902489
20
28.7756276
40
0.3674917
50
357.4748886
51
0.0231117
0
ARC
8
DEFAULT_255_1_234
10
19.9925599
20
28.7780679
40
0.2651907
50
359.5047933
51
13.4239635
0
ARC
8
DEFAULT_255_1_234
10
20.0792242
20
28.8002478
40
0.1757509
50
12.9498199
51
48.7551375
0
ARC
8
DEFAULT_255_1_234
10
20.0609976
20
28.77534
40
0.2065134
50
49.5088623
51
72.1836453
0
ARC
8
DEFAULT_255_1_234
10
20.0252129
20
28.6691291
40
0.3185836
50
71.9010081
51
84.3554254
0
ARC
8
DEFAULT_255_1_234
10
20.0090761
20
28.5330326
40
0.4556151
50
84.0193428
51
89.333121
0
LINE
8
DEFAULT_255_1_234
10
21.3540729
20
28.8239663
11
21.5090854
21
28.8239663
0
LINE
8
DEFAULT_255_1_234
10
20.6087276
20
28.9829947
11
20.6087276
21
29.0954391
0
LINE
8
DEFAULT_255_1_234
10
21.5090854
20
29.2464357
11
21.3540729
21
29.2464357
0
LINE
8
DEFAULT_255_1_234
10
20.7637401
20
29.0914232
11
20.7637401
21
28.9781757
0
ARC
8
DEFAULT_255_1_234
10
20.9610241
20
28.8836846
40
0.5513052
50
340.1774281
51
353.7814284
0
ARC
8
DEFAULT_255_1_234
10
21.1181594
20
28.8251582
40
0.3836379
50
311.4558989
51
340.4421614
0
ARC
8
DEFAULT_255_1_234
10
21.1148262
20
28.8362528
40
0.3941894
50
282.4333181
51
310.7513653
0
ARC
8
DEFAULT_255_1_234
10
21.0709001
20
29.0177679
40
0.5809175
50
269.9358511
51
282.809604
0
ARC
8
DEFAULT_255_1_234
10
21.0657067
20
29.1635212
40
0.7266847
50
270.0021091
51
270.3581957
0
ARC
8
DEFAULT_255_1_234
10
21.0604484
20
28.9034585
40
0.4666519
50
250.7884749
51
270.6489167
0
ARC
8
DEFAULT_255_1_234
10
21.0436319
20
28.8397319
40
0.4009729
50
219.3627325
51
250.0611886
0
ARC
8
DEFAULT_255_1_234
10
21.126553
20
28.9102042
40
0.5097822
50
193.5479632
51
219.5756669
0
ARC
8
DEFAULT_255_1_234
10
21.3637151
20
28.9717919
40
0.7547848
50
181.1218675
51
193.87563
0
ARC
8
DEFAULT_255_1_234
10
21.5707332
20
28.982858
40
0.9620055
50
179.9918545
51
181.5394234
0
ARC
8
DEFAULT_255_1_234
10
21.3856434
20
29.0991788
40
0.7769248
50
169.5837241
51
180.2757934
0
ARC
8
DEFAULT_255_1_234
10
21.2019372
20
29.1331229
40
0.590109
50
155.0365899
51
169.6003176
0
ARC
8
DEFAULT_255_1_234
10
21.0883836
20
29.1878677
40
0.4640625
50
136.783148
51
155.2472683
0
ARC
8
DEFAULT_255_1_234
10
21.0494313
20
29.2209562
40
0.4130255
50
121.7633186
51
136.428115
0
ARC
8
DEFAULT_255_1_234
10
21.0629275
20
29.1960227
40
0.4413323
50
95.6459699
51
121.5490577
0
ARC
8
DEFAULT_255_1_234
10
21.0786557
20
29.0851949
40
0.55319
50
89.924208
51
96.1377933
0
ARC
8
DEFAULT_255_1_234
10
21.083699
20
29.0970542
40
0.5413475
50
76.6779277
51
90.4563316
0
ARC
8
DEFAULT_255_1_234
10
21.1230613
20
29.2561114
40
0.3775041
50
47.485847
51
76.9287264
0
ARC
8
DEFAULT_255_1_234
10
21.1083586
20
29.2461159
40
0.3948286
50
16.5424086
51
46.8933463
0
ARC
8
DEFAULT_255_1_234
10
20.9475743
20
29.1932861
40
0.564021
50
5.4072051
51
17.0365086
0
ARC
8
DEFAULT_255_1_234
10
20.803676
20
29.1701679
40
0.5556559
50
7.8891745
51
15.9239216
0
ARC
8
DEFAULT_255_1_234
10
21.0023773
20
29.2278631
40
0.3487515
50
15.7653144
51
27.9410532
0
ARC
8
DEFAULT_255_1_234
10
21.1127991
20
29.286979
40
0.2235026
50
27.8166557
51
46.4008329
0
ARC
8
DEFAULT_255_1_234
10
21.1177634
20
29.2864082
40
0.2205286
50
47.4371857
51
75.0698205
0
ARC
8
DEFAULT_255_1_234
10
21.0869029
20
29.1789765
40
0.3322915
50
74.7008593
51
87.8124495
0
ARC
8
DEFAULT_255_1_234
10
21.0795716
20
29.0733844
40
0.4380987
50
87.3814673
51
90.0240855
0
ARC
8
DEFAULT_255_1_234
10
21.0757259
20
29.1911291
40
0.3203749
50
89.3451631
51
108.5745436
0
ARC
8
DEFAULT_255_1_234
10
21.0620365
20
29.2424908
40
0.2673494
50
109.2998449
51
143.3037509
0
ARC
8
DEFAULT_255_1_234
10
21.1382437
20
29.1838881
40
0.3634757
50
143.0753173
51
163.1916937
0
ARC
8
DEFAULT_255_1_234
10
21.3334165
20
29.1222967
40
0.5681262
50
162.9373603
51
174.6208611
0
ARC
8
DEFAULT_255_1_234
10
21.5960207
20
29.093501
40
0.8322832
50
174.3419979
51
180.1430411
0
ARC
8
DEFAULT_255_1_234
10
21.5029363
20
28.9740698
40
0.7392076
50
179.6817502
51
189.150529
0
ARC
8
DEFAULT_255_1_234
10
21.2528611
20
28.932419
40
0.4856932
50
188.9910863
51
203.5773039
0
ARC
8
DEFAULT_255_1_234
10
21.1448944
20
28.8876211
40
0.3688271
50
203.9077269
51
215.1312379
0
ARC
8
DEFAULT_255_1_234
10
21.0526038
20
28.8160941
40
0.2522457
50
213.9071664
51
263.8849284
0
ARC
8
DEFAULT_255_1_234
10
21.0651367
20
28.8945518
40
0.3316174
50
263.1758525
51
270.1031083
0
ARC
8
DEFAULT_255_1_234
10
21.0683459
20
29.0192365
40
0.4563091
50
269.6719807
51
279.0609165
0
ARC
8
DEFAULT_255_1_234
10
21.0950227
20
28.8579907
40
0.2928759
50
278.8750225
51
293.6346586
0
ARC
8
DEFAULT_255_1_234
10
21.1270435
20
28.78279
40
0.2111472
50
293.8553404
51
310.0518804
0
ARC
8
DEFAULT_255_1_234
10
21.1275289
20
28.7765516
40
0.2060917
50
311.0646779
51
332.0108348
0
ARC
8
DEFAULT_255_1_234
10
21.0083016
20
28.8422978
40
0.3422352
50
331.6588543
51
343.2878891
0
ARC
8
DEFAULT_255_1_234
10
20.8020531
20
28.9056798
40
0.5580003
50
343.1446044
51
351.010618
0
ARC
8
DEFAULT_255_1_234
10
20.6479177
20
28.9337871
40
0.7146438
50
350.7157277
51
351.1602153
0
LINE
8
DEFAULT_255_1_234
10
22.6190717
20
29.0737534
11
22.6190717
21
28.9998614
0
LINE
8
DEFAULT_255_1_234
10
21.6785551
20
28.9894201
11
21.6785551
21
29.0737534
0
LINE
8
DEFAULT_255_1_234
10
22.4656655
20
28.9886169
11
22.4656655
21
29.0753597
0
LINE
8
DEFAULT_255_1_234
10
21.8319613
20
29.085801
11
21.8319613
21
28.9998614
0
ARC
8
DEFAULT_255_1_234
10
21.7548743
20
28.9959015
40
0.8642064
50
350.487711
51
0.2625388
0
ARC
8
DEFAULT_255_1_234
10
21.9841985
20
28.9564578
40
0.631518
50
336.0277639
51
350.5787438
0
ARC
8
DEFAULT_255_1_234
10
22.1186808
20
28.8956892
40
0.4839466
50
319.8877444
51
336.1328423
0
ARC
8
DEFAULT_255_1_234
10
22.1789449
20
28.847458
40
0.4067874
50
302.4806467
51
319.6143626
0
ARC
8
DEFAULT_255_1_234
10
22.1674459
20
28.8696202
40
0.4316636
50
275.8195682
51
302.1884709
0
ARC
8
DEFAULT_255_1_234
10
22.1508092
20
28.9838665
40
0.5470306
50
269.9171439
51
276.3397983
0
ARC
8
DEFAULT_255_1_234
10
22.1463302
20
28.9152681
40
0.4784458
50
252.5219675
51
270.4416499
0
ARC
8
DEFAULT_255_1_234
10
22.1319561
20
28.8613592
40
0.422716
50
237.5352116
51
252.1857531
0
ARC
8
DEFAULT_255_1_234
10
22.1408757
20
28.8727363
40
0.4371052
50
209.063312
51
237.3492538
0
ARC
8
DEFAULT_255_1_234
10
22.2278605
20
28.9273685
40
0.5397041
50
205.1183774
51
209.6470015
0
ARC
8
DEFAULT_255_1_234
10
22.3075642
20
28.961183
40
0.6262326
50
188.7215458
51
204.8240747
0
ARC
8
DEFAULT_255_1_234
10
22.507317
20
28.9948067
40
0.8287794
50
180.3723947
51
188.9252049
0
ARC
8
DEFAULT_255_1_234
10
22.5045922
20
29.0777402
40
0.8260467
50
169.5253763
51
180.2765336
0
ARC
8
DEFAULT_255_1_234
10
22.3143371
20
29.1127309
40
0.6326007
50
155.8315255
51
169.5089989
0
ARC
8
DEFAULT_255_1_234
10
22.1862872
20
29.1721348
40
0.4914567
50
139.6258461
51
156.0379525
0
ARC
8
DEFAULT_255_1_234
10
22.1273205
20
29.2195799
40
0.4158054
50
122.6416387
51
139.3430715
0
ARC
8
DEFAULT_255_1_234
10
22.1373825
20
29.2012451
40
0.4366739
50
93.0223692
51
122.455762
0
ARC
8
DEFAULT_255_1_234
10
22.1481822
20
29.1047709
40
0.5336137
50
89.975342
51
93.6341897
0
ARC
8
DEFAULT_255_1_234
10
22.1520601
20
29.1446242
40
0.4937738
50
73.746375
51
90.4233405
0
ARC
8
DEFAULT_255_1_234
10
22.169618
20
29.2126287
40
0.4235786
50
57.662753
51
73.4518111
0
ARC
8
DEFAULT_255_1_234
10
22.1688186
20
29.2147832
40
0.4221899
50
29.1440151
51
57.414694
0
ARC
8
DEFAULT_255_1_234
10
22.0753381
20
29.1564005
40
0.5322966
50
24.0982783
51
29.7323517
0
ARC
8
DEFAULT_255_1_234
10
21.9719656
20
29.1135399
40
0.6441673
50
8.6655297
51
23.8241346
0
ARC
8
DEFAULT_255_1_234
10
21.7485394
20
29.0770854
40
0.8705386
50
359.7806941
51
8.8218784
0
ARC
8
DEFAULT_255_1_234
10
21.6338392
20
29.0796345
40
0.8318373
50
359.7055579
51
8.036044
0
ARC
8
DEFAULT_255_1_234
10
21.9338398
20
29.1233239
40
0.5286768
50
7.8928306
51
20.2962107
0
ARC
8
DEFAULT_255_1_234
10
22.0965969
20
29.1833395
40
0.3552073
50
20.3231126
51
36.4992797
0
ARC
8
DEFAULT_255_1_234
10
22.1651515
20
29.2361402
40
0.2686974
50
36.1437156
51
85.6627023
0
ARC
8
DEFAULT_255_1_234
10
22.1489061
20
29.1321221
40
0.373739
50
84.3852322
51
90.0757696
0
ARC
8
DEFAULT_255_1_234
10
22.1446733
20
29.1981839
40
0.3076997
50
89.3038458
51
109.9045693
0
ARC
8
DEFAULT_255_1_234
10
22.1354124
20
29.2364062
40
0.2686424
50
110.8228367
51
143.9179474
0
ARC
8
DEFAULT_255_1_234
10
22.2287784
20
29.1651236
40
0.3860887
50
143.5289163
51
163.2980757
0
ARC
8
DEFAULT_255_1_234
10
22.4195605
20
29.1051433
40
0.5860659
50
163.0418846
51
174.3140048
0
ARC
8
DEFAULT_255_1_234
10
22.6599717
20
29.0773854
40
0.8280531
50
174.0509143
51
179.4176892
0
ARC
8
DEFAULT_255_1_234
10
22.6095456
20
28.9956954
40
0.7775954
50
179.6930361
51
188.7906598
0
ARC
8
DEFAULT_255_1_234
10
22.3431935
20
28.9530935
40
0.5078633
50
188.6331305
51
202.5629587
0
ARC
8
DEFAULT_255_1_234
10
22.2177527
20
28.9026996
40
0.3726913
50
202.8081362
51
216.1193925
0
ARC
8
DEFAULT_255_1_234
10
22.1368097
20
28.8375676
40
0.2689577
50
215.0755913
51
264.6379694
0
ARC
8
DEFAULT_255_1_234
10
22.1495047
20
28.9206513
40
0.3528978
50
263.846392
51
270.0833719
0
ARC
8
DEFAULT_255_1_234
10
22.1536437
20
28.8948374
40
0.3271036
50
269.3649385
51
287.5152008
0
ARC
8
DEFAULT_255_1_234
10
22.1714595
20
28.8301238
40
0.2600406
50
288.0630309
51
323.8113348
0
ARC
8
DEFAULT_255_1_234
10
22.0843436
20
28.8951049
40
0.3687189
50
323.6547608
51
342.6590488
0
ARC
8
DEFAULT_255_1_234
10
21.8812052
20
28.9611952
40
0.5823286
50
342.4091907
51
353.6451149
0
ARC
8
DEFAULT_255_1_234
10
21.5980562
20
28.996419
40
0.8676442
50
353.4029884
51
359.4847795
0
LINE
8
DEFAULT_255_1_234
10
22.8503857
20
29.6223211
11
23.0495729
21
29.6223211
0
LINE
8
DEFAULT_255_1_234
10
23.0495729
20
29.6223211
11
23.4318836
21
28.6681506
0
LINE
8
DEFAULT_255_1_234
10
23.4318836
20
28.6681506
11
23.8141943
21
29.6223211
0
LINE
8
DEFAULT_255_1_234
10
23.8141943
20
29.6223211
11
24.0141846
21
29.6223211
0
LINE
8
DEFAULT_255_1_234
10
24.0141846
20
29.6223211
11
24.0141846
21
28.4529
0
LINE
8
DEFAULT_255_1_234
10
24.0141846
20
28.4529
11
23.8599752
21
28.4529
0
LINE
8
DEFAULT_255_1_234
10
23.8599752
20
28.4529
11
23.8599752
21
28.9082996
0
LINE
8
DEFAULT_255_1_234
10
23.8599752
20
28.9082996
11
23.8744324
21
29.3998419
0
LINE
8
DEFAULT_255_1_234
10
23.8744324
20
29.3998419
11
23.4905153
21
28.4529
0
LINE
8
DEFAULT_255_1_234
10
23.4905153
20
28.4529
11
23.3724487
21
28.4529
0
LINE
8
DEFAULT_255_1_234
10
23.3724487
20
28.4529
11
22.9893348
21
29.3974324
0
LINE
8
DEFAULT_255_1_234
10
22.9893348
20
29.3974324
11
23.0045951
21
28.9082996
0
LINE
8
DEFAULT_255_1_234
10
23.0045951
20
28.9082996
11
23.0045951
21
28.4529
0
LINE
8
DEFAULT_255_1_234
10
23.0045951
20
28.4529
11
22.8503857
21
28.4529
0
LINE
8
DEFAULT_255_1_234
10
22.8503857
20
28.4529
11
22.8503857
21
29.6223211
0
LINE
8
DEFAULT_255_1_234
10
22.3364378
20
36.9261169
11
22.3364378
21
37.0473962
0
LINE
8
DEFAULT_255_1_234
10
22.3364378
20
37.0473962
11
22.448079
21
37.0473962
0
LINE
8
DEFAULT_255_1_234
10
22.2577268
20
37.2530087
11
22.1091396
21
37.2530087
0
LINE
8
DEFAULT_255_1_234
10
22.0986983
20
36.6988188
11
22.2480887
21
36.6988188
0
LINE
8
DEFAULT_255_1_234
10
22.448079
20
36.9261169
11
22.3364378
21
36.9261169
0
ARC
8
DEFAULT_255_1_234
10
22.4451656
20
37.3866713
40
0.3392876
50
270.4919872
51
281.8951556
0
ARC
8
DEFAULT_255_1_234
10
22.4692918
20
37.2764702
40
0.2264817
50
281.6691735
51
301.2943132
0
ARC
8
DEFAULT_255_1_234
10
22.4863128
20
37.2453304
40
0.1910381
50
301.7833094
51
311.7545298
0
ARC
8
DEFAULT_255_1_234
10
22.4954704
20
37.2351748
40
0.1773635
50
311.7323931
51
354.2802411
0
ARC
8
DEFAULT_255_1_234
10
22.4228329
20
37.2476722
40
0.2509385
50
353.0937916
51
0.1181479
0
ARC
8
DEFAULT_255_1_234
10
22.3767114
20
37.2524386
40
0.2970898
50
359.1805295
51
15.0453146
0
ARC
8
DEFAULT_255_1_234
10
22.5112951
20
37.2916992
40
0.1569564
50
13.9577229
51
77.6713066
0
ARC
8
DEFAULT_255_1_234
10
22.472648
20
37.1531949
40
0.3006298
50
76.1116566
51
90.7026153
0
ARC
8
DEFAULT_255_1_234
10
22.4667318
20
37.1805545
40
0.2732568
50
89.5324876
51
103.531937
0
ARC
8
DEFAULT_255_1_234
10
22.4466762
20
37.2604884
40
0.1908508
50
103.2931773
51
133.5619022
0
ARC
8
DEFAULT_255_1_234
10
22.4422251
20
37.2664375
40
0.1834746
50
133.8349307
51
173.5344437
0
ARC
8
DEFAULT_255_1_234
10
22.5145294
20
37.2536213
40
0.2568033
50
172.5096846
51
180.1366907
0
ARC
8
DEFAULT_255_1_234
10
22.4194188
20
37.2570622
40
0.3103056
50
155.3484492
51
180.7484736
0
ARC
8
DEFAULT_255_1_234
10
22.4145277
20
37.2541846
40
0.3070957
50
131.5744599
51
154.4798489
0
ARC
8
DEFAULT_255_1_234
10
22.4458424
20
37.222531
40
0.3515643
50
96.9875458
51
131.9690667
0
ARC
8
DEFAULT_255_1_234
10
22.4677904
20
37.0979636
40
0.4779224
50
89.8596053
51
97.7825159
0
ARC
8
DEFAULT_255_1_234
10
22.4725967
20
37.0717616
40
0.5041361
50
78.3655447
51
90.4131539
0
ARC
8
DEFAULT_255_1_234
10
22.5083885
20
37.2376887
40
0.3344039
50
56.6229102
51
78.638727
0
ARC
8
DEFAULT_255_1_234
10
22.5298829
20
37.2752805
40
0.2912001
50
47.0253525
51
56.0854072
0
ARC
8
DEFAULT_255_1_234
10
22.5318609
20
37.2792223
40
0.2869704
50
10.9208013
51
46.7778124
0
ARC
8
DEFAULT_255_1_234
10
22.3954675
20
37.2476857
40
0.426899
50
359.6364486
51
11.6087304
0
ARC
8
DEFAULT_255_1_234
10
22.5789519
20
37.2461752
40
0.243409
50
332.3549906
51
359.7179418
0
ARC
8
DEFAULT_255_1_234
10
22.5139121
20
37.2770142
40
0.3153459
50
325.2333722
51
332.8745602
0
ARC
8
DEFAULT_255_1_234
10
22.5291744
20
37.2663828
40
0.2967456
50
292.9802137
51
325.2392345
0
ARC
8
DEFAULT_255_1_234
10
22.5017118
20
37.3197863
40
0.3566604
50
292.5402179
51
293.6924929
0
ARC
8
DEFAULT_255_1_234
10
22.5409714
20
36.6743091
40
0.3307468
50
57.6435486
51
72.8625112
0
ARC
8
DEFAULT_255_1_234
10
22.5764214
20
36.7317549
40
0.2632492
50
36.7248896
51
57.4697979
0
ARC
8
DEFAULT_255_1_234
10
22.5752847
20
36.733022
40
0.2634081
50
8.0545065
51
36.356114
0
ARC
8
DEFAULT_255_1_234
10
22.4890032
20
36.7175174
40
0.3510261
50
359.8320645
51
8.5869982
0
ARC
8
DEFAULT_255_1_234
10
22.4514808
20
36.7127101
40
0.3885653
50
343.9829931
51
0.5571613
0
ARC
8
DEFAULT_255_1_234
10
22.5401005
20
36.6884438
40
0.2966924
50
311.6359546
51
343.7651759
0
ARC
8
DEFAULT_255_1_234
10
22.5022574
20
36.7311102
40
0.3537231
50
279.7829875
51
311.6255694
0
ARC
8
DEFAULT_255_1_234
10
22.4721351
20
36.874828
40
0.5004971
50
269.7286406
51
280.3856417
0
ARC
8
DEFAULT_255_1_234
10
22.4659423
20
36.8706996
40
0.4963778
50
256.6828919
51
270.4412052
0
ARC
8
DEFAULT_255_1_234
10
22.4320719
20
36.7322394
40
0.3538406
50
229.4223008
51
256.8556159
0
ARC
8
DEFAULT_255_1_234
10
22.3906112
20
36.6855736
40
0.2914296
50
181.818294
51
229.6455059
0
ARC
8
DEFAULT_255_1_234
10
22.4946068
20
36.6986496
40
0.3959084
50
179.9755256
51
183.2323064
0
ARC
8
DEFAULT_255_1_234
10
22.4773814
20
36.6966037
40
0.2293034
50
179.4465117
51
196.2869258
0
ARC
8
DEFAULT_255_1_234
10
22.4286222
20
36.6832651
40
0.1787621
50
196.5661473
51
227.705904
0
ARC
8
DEFAULT_255_1_234
10
22.4450317
20
36.7016155
40
0.2033784
50
227.7652068
51
257.8762805
0
ARC
8
DEFAULT_255_1_234
10
22.4675287
20
36.7959156
40
0.3003081
50
257.4584385
51
270.426602
0
ARC
8
DEFAULT_255_1_234
10
22.4720853
20
36.8248996
40
0.329292
50
269.5962073
51
280.8789248
0
ARC
8
DEFAULT_255_1_234
10
22.4950382
20
36.7102685
40
0.2123908
50
280.6346389
51
299.8595945
0
ARC
8
DEFAULT_255_1_234
10
22.5141289
20
36.6740212
40
0.171457
50
300.3576302
51
314.5517981
0
ARC
8
DEFAULT_255_1_234
10
22.5058349
20
36.6800919
40
0.1816095
50
315.0728369
51
345.0431014
0
ARC
8
DEFAULT_255_1_234
10
22.4135163
20
36.7069841
40
0.2777492
50
344.5986631
51
357.9269593
0
ARC
8
DEFAULT_255_1_234
10
22.3239489
20
36.7131276
40
0.3674917
50
357.4748886
51
0.0231117
0
ARC
8
DEFAULT_255_1_234
10
22.4262599
20
36.7155679
40
0.2651907
50
359.5047933
51
13.4239635
0
ARC
8
DEFAULT_255_1_234
10
22.5129242
20
36.7377478
40
0.1757509
50
12.9498199
51
48.7551375
0
ARC
8
DEFAULT_255_1_234
10
22.4946976
20
36.71284
40
0.2065134
50
49.5088623
51
72.1836453
0
ARC
8
DEFAULT_255_1_234
10
22.4589129
20
36.6066291
40
0.3185836
50
71.9010081
51
84.3554254
0
ARC
8
DEFAULT_255_1_234
10
22.4427761
20
36.4705326
40
0.4556151
50
84.0193428
51
89.333121
0
LINE
8
DEFAULT_255_1_234
10
23.2480401
20
37.5598211
11
23.2480401
21
36.3904
0
LINE
8
DEFAULT_255_1_234
10
23.2480401
20
36.3904
11
23.0938307
21
36.3904
0
LINE
8
DEFAULT_255_1_234
10
23.0938307
20
36.3904
11
23.0938307
21
37.5598211
0
LINE
8
DEFAULT_255_1_234
10
23.0938307
20
37.5598211
11
23.2480401
21
37.5598211
0
LINE
8
DEFAULT_255_1_234
10
23.9323442
20
37.3590276
11
23.9323442
21
37.0176788
0
LINE
8
DEFAULT_255_1_234
10
23.9323442
20
37.0176788
11
24.2584328
21
37.0176788
0
LINE
8
DEFAULT_255_1_234
10
24.2584328
20
37.0176788
11
24.2584328
21
36.8771233
0
LINE
8
DEFAULT_255_1_234
10
24.2584328
20
36.8771233
11
23.9323442
21
36.8771233
0
LINE
8
DEFAULT_255_1_234
10
23.9323442
20
36.8771233
11
23.9323442
21
36.5076634
0
LINE
8
DEFAULT_255_1_234
10
23.9323442
20
36.5076634
11
23.7829539
21
36.5076634
0
LINE
8
DEFAULT_255_1_234
10
23.7829539
20
36.5076634
11
23.7829539
21
36.8771233
0
LINE
8
DEFAULT_255_1_234
10
23.7829539
20
36.8771233
11
23.4568653
21
36.8771233
0
LINE
8
DEFAULT_255_1_234
10
23.4568653
20
36.8771233
11
23.4568653
21
37.0176788
0
LINE
8
DEFAULT_255_1_234
10
23.4568653
20
37.0176788
11
23.7829539
21
37.0176788
0
LINE
8
DEFAULT_255_1_234
10
23.7829539
20
37.0176788
11
23.7829539
21
37.3590276
0
LINE
8
DEFAULT_255_1_234
10
23.7829539
20
37.3590276
11
23.9323442
21
37.3590276
0
LINE
8
DEFAULT_255_1_234
10
21.6993378
20
44.8636169
11
21.6993378
21
44.9848962
0
LINE
8
DEFAULT_255_1_234
10
21.6993378
20
44.9848962
11
21.810979
21
44.9848962
0
LINE
8
DEFAULT_255_1_234
10
21.6206268
20
45.1905087
11
21.4720396
21
45.1905087
0
LINE
8
DEFAULT_255_1_234
10
21.4615983
20
44.6363188
11
21.6109887
21
44.6363188
0
LINE
8
DEFAULT_255_1_234
10
21.810979
20
44.8636169
11
21.6993378
21
44.8636169
0
ARC
8
DEFAULT_255_1_234
10
21.8080656
20
45.3241713
40
0.3392876
50
270.4919872
51
281.8951556
0
ARC
8
DEFAULT_255_1_234
10
21.8321918
20
45.2139702
40
0.2264817
50
281.6691735
51
301.2943132
0
ARC
8
DEFAULT_255_1_234
10
21.8492128
20
45.1828304
40
0.1910381
50
301.7833094
51
311.7545298
0
ARC
8
DEFAULT_255_1_234
10
21.8583704
20
45.1726748
40
0.1773635
50
311.7323931
51
354.2802411
0
ARC
8
DEFAULT_255_1_234
10
21.7857329
20
45.1851722
40
0.2509385
50
353.0937916
51
0.1181479
0
ARC
8
DEFAULT_255_1_234
10
21.7396114
20
45.1899386
40
0.2970898
50
359.1805295
51
15.0453146
0
ARC
8
DEFAULT_255_1_234
10
21.8741951
20
45.2291992
40
0.1569564
50
13.9577229
51
77.6713066
0
ARC
8
DEFAULT_255_1_234
10
21.835548
20
45.0906949
40
0.3006298
50
76.1116566
51
90.7026153
0
ARC
8
DEFAULT_255_1_234
10
21.8296318
20
45.1180545
40
0.2732568
50
89.5324876
51
103.531937
0
ARC
8
DEFAULT_255_1_234
10
21.8095762
20
45.1979884
40
0.1908508
50
103.2931773
51
133.5619022
0
ARC
8
DEFAULT_255_1_234
10
21.8051251
20
45.2039375
40
0.1834746
50
133.8349307
51
173.5344437
0
ARC
8
DEFAULT_255_1_234
10
21.8774294
20
45.1911213
40
0.2568033
50
172.5096846
51
180.1366907
0
ARC
8
DEFAULT_255_1_234
10
21.7823188
20
45.1945622
40
0.3103056
50
155.3484492
51
180.7484736
0
ARC
8
DEFAULT_255_1_234
10
21.7774277
20
45.1916846
40
0.3070957
50
131.5744599
51
154.4798489
0
ARC
8
DEFAULT_255_1_234
10
21.8087424
20
45.160031
40
0.3515643
50
96.9875458
51
131.9690667
0
ARC
8
DEFAULT_255_1_234
10
21.8306904
20
45.0354636
40
0.4779224
50
89.8596053
51
97.7825159
0
ARC
8
DEFAULT_255_1_234
10
21.8354967
20
45.0092616
40
0.5041361
50
78.3655447
51
90.4131539
0
ARC
8
DEFAULT_255_1_234
10
21.8712885
20
45.1751887
40
0.3344039
50
56.6229102
51
78.638727
0
ARC
8
DEFAULT_255_1_234
10
21.8927829
20
45.2127805
40
0.2912001
50
47.0253525
51
56.0854072
0
ARC
8
DEFAULT_255_1_234
10
21.8947609
20
45.2167223
40
0.2869704
50
10.9208013
51
46.7778124
0
ARC
8
DEFAULT_255_1_234
10
21.7583675
20
45.1851857
40
0.426899
50
359.6364486
51
11.6087304
0
ARC
8
DEFAULT_255_1_234
10
21.9418519
20
45.1836752
40
0.243409
50
332.3549906
51
359.7179418
0
ARC
8
DEFAULT_255_1_234
10
21.8768121
20
45.2145142
40
0.3153459
50
325.2333722
51
332.8745602
0
ARC
8
DEFAULT_255_1_234
10
21.8920744
20
45.2038828
40
0.2967456
50
292.9802137
51
325.2392345
0
ARC
8
DEFAULT_255_1_234
10
21.8646118
20
45.2572863
40
0.3566604
50
292.5402179
51
293.6924929
0
ARC
8
DEFAULT_255_1_234
10
21.9038714
20
44.6118091
40
0.3307468
50
57.6435486
51
72.8625112
0
ARC
8
DEFAULT_255_1_234
10
21.9393214
20
44.6692549
40
0.2632492
50
36.7248896
51
57.4697979
0
ARC
8
DEFAULT_255_1_234
10
21.9381847
20
44.670522
40
0.2634081
50
8.0545065
51
36.356114
0
ARC
8
DEFAULT_255_1_234
10
21.8519032
20
44.6550174
40
0.3510261
50
359.8320645
51
8.5869982
0
ARC
8
DEFAULT_255_1_234
10
21.8143808
20
44.6502101
40
0.3885653
50
343.9829931
51
0.5571613
0
ARC
8
DEFAULT_255_1_234
10
21.9030005
20
44.6259438
40
0.2966924
50
311.6359546
51
343.7651759
0
ARC
8
DEFAULT_255_1_234
10
21.8651574
20
44.6686102
40
0.3537231
50
279.7829875
51
311.6255694
0
ARC
8
DEFAULT_255_1_234
10
21.8350351
20
44.812328
40
0.5004971
50
269.7286406
51
280.3856417
0
ARC
8
DEFAULT_255_1_234
10
21.8288423
20
44.8081996
40
0.4963778
50
256.6828919
51
270.4412052
0
ARC
8
DEFAULT_255_1_234
10
21.7949719
20
44.6697394
40
0.3538406
50
229.4223008
51
256.8556159
0
ARC
8
DEFAULT_255_1_234
10
21.7535112
20
44.6230736
40
0.2914296
50
181.818294
51
229.6455059
0
ARC
8
DEFAULT_255_1_234
10
21.8575068
20
44.6361496
40
0.3959084
50
179.9755256
51
183.2323064
0
ARC
8
DEFAULT_255_1_234
10
21.8402814
20
44.6341037
40
0.2293034
50
179.4465117
51
196.2869258
0
ARC
8
DEFAULT_255_1_234
10
21.7915222
20
44.6207651
40
0.1787621
50
196.5661473
51
227.705904
0
ARC
8
DEFAULT_255_1_234
10
21.8079317
20
44.6391155
40
0.2033784
50
227.7652068
51
257.8762805
0
ARC
8
DEFAULT_255_1_234
10
21.8304287
20
44.7334156
40
0.3003081
50
257.4584385
51
270.426602
0
ARC
8
DEFAULT_255_1_234
10
21.8349853
20
44.7623996
40
0.329292
50
269.5962073
51
280.8789248
0
ARC
8
DEFAULT_255_1_234
10
21.8579382
20
44.6477685
40
0.2123908
50
280.6346389
51
299.8595945
0
ARC
8
DEFAULT_255_1_234
10
21.8770289
20
44.6115212
40
0.171457
50
300.3576302
51
314.5517981
0
ARC
8
DEFAULT_255_1_234
10
21.8687349
20
44.6175919
40
0.1816095
50
315.0728369
51
345.0431014
0
ARC
8
DEFAULT_255_1_234
10
21.7764163
20
44.6444841
40
0.2777492
50
344.5986631
51
357.9269593
0
ARC
8
DEFAULT_255_1_234
10
21.6868489
20
44.6506276
40
0.3674917
50
357.4748886
51
0.0231117
0
ARC
8
DEFAULT_255_1_234
10
21.7891599
20
44.6530679
40
0.2651907
50
359.5047933
51
13.4239635
0
ARC
8
DEFAULT_255_1_234
10
21.8758242
20
44.6752478
40
0.1757509
50
12.9498199
51
48.7551375
0
ARC
8
DEFAULT_255_1_234
10
21.8575976
20
44.65034
40
0.2065134
50
49.5088623
51
72.1836453
0
ARC
8
DEFAULT_255_1_234
10
21.8218129
20
44.5441291
40
0.3185836
50
71.9010081
51
84.3554254
0
ARC
8
DEFAULT_255_1_234
10
21.8056761
20
44.4080326
40
0.4556151
50
84.0193428
51
89.333121
0
LINE
8
DEFAULT_255_1_234
10
22.5001021
20
45.4973211
11
22.8326161
21
44.5327093
0
LINE
8
DEFAULT_255_1_234
10
22.8326161
20
44.5327093
11
23.1667364
21
45.4973211
0
LINE
8
DEFAULT_255_1_234
10
23.1667364
20
45.4973211
11
23.3354029
21
45.4973211
0
LINE
8
DEFAULT_255_1_234
10
23.3354029
20
45.4973211
11
22.901689
21
44.3279
0
LINE
8
DEFAULT_255_1_234
10
22.901689
20
44.3279
11
22.7651495
21
44.3279
0
LINE
8
DEFAULT_255_1_234
10
22.7651495
20
44.3279
11
22.3322388
21
45.4973211
0
LINE
8
DEFAULT_255_1_234
10
22.3322388
20
45.4973211
11
22.5001021
21
45.4973211
0
LINE
8
DEFAULT_255_1_234
10
23.8944119
20
45.2965276
11
23.8944119
21
44.9551788
0
LINE
8
DEFAULT_255_1_234
10
23.8944119
20
44.9551788
11
24.2205004
21
44.9551788
0
LINE
8
DEFAULT_255_1_234
10
24.2205004
20
44.9551788
11
24.2205004
21
44.8146233
0
LINE
8
DEFAULT_255_1_234
10
24.2205004
20
44.8146233
11
23.8944119
21
44.8146233
0
LINE
8
DEFAULT_255_1_234
10
23.8944119
20
44.8146233
11
23.8944119
21
44.4451634
0
LINE
8
DEFAULT_255_1_234
10
23.8944119
20
44.4451634
11
23.7450215
21
44.4451634
0
LINE
8
DEFAULT_255_1_234
10
23.7450215
20
44.4451634
11
23.7450215
21
44.8146233
0
LINE
8
DEFAULT_255_1_234
10
23.7450215
20
44.8146233
11
23.418933
21
44.8146233
0
LINE
8
DEFAULT_255_1_234
10
23.418933
20
44.8146233
11
23.418933
21
44.9551788
0
LINE
8
DEFAULT_255_1_234
10
23.418933
20
44.9551788
11
23.7450215
21
44.9551788
0
LINE
8
DEFAULT_255_1_234
10
23.7450215
20
44.9551788
11
23.7450215
21
45.2965276
0
LINE
8
DEFAULT_255_1_234
10
23.7450215
20
45.2965276
11
23.8944119
21
45.2965276
0
LINE
8
DEFAULT_255_1_234
10
20.4529119
20
52.3866792
11
20.4529119
21
52.2654
0
LINE
8
DEFAULT_255_1_234
10
20.4529119
20
52.2654
11
19.686684
21
52.2654
0
LINE
8
DEFAULT_255_1_234
10
19.686684
20
52.2654
11
19.686684
21
52.3722221
0
LINE
8
DEFAULT_255_1_234
10
19.686684
20
52.3722221
11
20.0914836
21
52.8219995
0
LINE
8
DEFAULT_255_1_234
10
19.8127823
20
53.0902595
11
19.6641952
21
53.0902595
0
LINE
8
DEFAULT_255_1_234
10
20.1790296
20
52.7264218
11
19.8657918
21
52.3866792
0
LINE
8
DEFAULT_255_1_234
10
19.8657918
20
52.3866792
11
20.4529119
21
52.3866792
0
ARC
8
DEFAULT_255_1_234
10
18.742467
20
54.0149527
40
1.8008286
50
318.5132453
51
320.7828378
0
ARC
8
DEFAULT_255_1_234
10
19.2711644
20
53.5846426
40
1.1191493
50
320.7372736
51
323.9737074
0
ARC
8
DEFAULT_255_1_234
10
19.6631501
20
53.3006361
40
0.6350923
50
323.8961724
51
328.6421089
0
ARC
8
DEFAULT_255_1_234
10
19.8678096
20
53.1744031
40
0.3946393
50
328.8299013
51
331.789948
0
ARC
8
DEFAULT_255_1_234
10
19.9675274
20
53.1229509
40
0.2824501
50
331.4255242
51
352.9364833
0
ARC
8
DEFAULT_255_1_234
10
19.9811775
20
53.1198976
40
0.2685315
50
353.2248685
51
0.0169286
0
ARC
8
DEFAULT_255_1_234
10
20.0021652
20
53.122195
40
0.2475536
50
359.4866256
51
15.9339782
0
ARC
8
DEFAULT_255_1_234
10
20.0528637
20
53.1358286
40
0.1950618
50
16.1714718
51
43.5284424
0
ARC
8
DEFAULT_255_1_234
10
20.0605946
20
53.1435573
40
0.184134
50
43.4415429
51
83.1661404
0
ARC
8
DEFAULT_255_1_234
10
20.0471864
20
53.0698771
40
0.258926
50
82.160215
51
90.1505798
0
ARC
8
DEFAULT_255_1_234
10
20.0440291
20
53.0161865
40
0.3126255
50
89.5460705
51
102.5418777
0
ARC
8
DEFAULT_255_1_234
10
20.0197377
20
53.1192665
40
0.2067346
50
102.1739365
51
129.2061916
0
ARC
8
DEFAULT_255_1_234
10
20.0118449
20
53.1317094
40
0.1921118
50
129.7279328
51
135.7542026
0
ARC
8
DEFAULT_255_1_234
10
20.0239977
20
53.1220045
40
0.2075944
50
136.175737
51
166.3674722
0
ARC
8
DEFAULT_255_1_234
10
20.1246896
20
53.0950182
40
0.3118201
50
165.9092917
51
178.8683903
0
ARC
8
DEFAULT_255_1_234
10
20.2111757
20
53.0903179
40
0.3983935
50
178.438168
51
180.0083905
0
ARC
8
DEFAULT_255_1_234
10
20.0710359
20
53.0942231
40
0.4068601
50
163.2878735
51
180.5581814
0
ARC
8
DEFAULT_255_1_234
10
19.9908621
20
53.116284
40
0.3237344
50
133.454115
51
162.9470031
0
ARC
8
DEFAULT_255_1_234
10
20.0087162
20
53.0973
40
0.349795
50
100.7869394
51
133.4384016
0
ARC
8
DEFAULT_255_1_234
10
20.0434934
20
52.9424319
40
0.5084616
50
89.6605301
51
101.3704185
0
ARC
8
DEFAULT_255_1_234
10
20.0501273
20
52.9485496
40
0.502348
50
78.2171172
51
90.4130393
0
ARC
8
DEFAULT_255_1_234
10
20.0856351
20
53.1109637
40
0.3361092
50
55.9268222
51
78.4888551
0
ARC
8
DEFAULT_255_1_234
10
20.1052791
20
53.1448324
40
0.2970617
50
47.9292255
51
55.4054003
0
ARC
8
DEFAULT_255_1_234
10
20.1154352
20
53.1551502
40
0.2825983
50
4.3347696
51
48.0560701
0
ARC
8
DEFAULT_255_1_234
10
20.0058745
20
53.1381601
40
0.393225
50
359.925209
51
5.5967654
0
ARC
8
DEFAULT_255_1_234
10
20.0487637
20
53.1437816
40
0.3503892
50
337.8914096
51
358.9967724
0
ARC
8
DEFAULT_255_1_234
10
19.7774049
20
53.2484706
40
0.6412172
50
326.9135351
51
338.3505194
0
ARC
8
DEFAULT_255_1_234
10
19.3788353
20
53.5039284
40
1.1146189
50
319.6472867
51
327.095818
0
ARC
8
DEFAULT_255_1_234
10
18.9955356
20
53.8201
40
1.6114559
50
317.2586784
51
319.9046139
0
LINE
8
DEFAULT_255_1_234
10
21.3540729
20
52.6364663
11
21.5090854
21
52.6364663
0
LINE
8
DEFAULT_255_1_234
10
20.6087276
20
52.7954947
11
20.6087276
21
52.9079391
0
LINE
8
DEFAULT_255_1_234
10
21.5090854
20
53.0589357
11
21.3540729
21
53.0589357
0
LINE
8
DEFAULT_255_1_234
10
20.7637401
20
52.9039232
11
20.7637401
21
52.7906757
0
ARC
8
DEFAULT_255_1_234
10
20.9610241
20
52.6961846
40
0.5513052
50
340.1774281
51
353.7814284
0
ARC
8
DEFAULT_255_1_234
10
21.1181594
20
52.6376582
40
0.3836379
50
311.4558989
51
340.4421614
0
ARC
8
DEFAULT_255_1_234
10
21.1148262
20
52.6487528
40
0.3941894
50
282.4333181
51
310.7513653
0
ARC
8
DEFAULT_255_1_234
10
21.0709001
20
52.8302679
40
0.5809175
50
269.9358511
51
282.809604
0
ARC
8
DEFAULT_255_1_234
10
21.0657067
20
52.9760212
40
0.7266847
50
270.0021091
51
270.3581957
0
ARC
8
DEFAULT_255_1_234
10
21.0604484
20
52.7159585
40
0.4666519
50
250.7884749
51
270.6489167
0
ARC
8
DEFAULT_255_1_234
10
21.0436319
20
52.6522319
40
0.4009729
50
219.3627325
51
250.0611886
0
ARC
8
DEFAULT_255_1_234
10
21.126553
20
52.7227042
40
0.5097822
50
193.5479632
51
219.5756669
0
ARC
8
DEFAULT_255_1_234
10
21.3637151
20
52.7842919
40
0.7547848
50
181.1218675
51
193.87563
0
ARC
8
DEFAULT_255_1_234
10
21.5707332
20
52.795358
40
0.9620055
50
179.9918545
51
181.5394234
0
ARC
8
DEFAULT_255_1_234
10
21.3856434
20
52.9116788
40
0.7769248
50
169.5837241
51
180.2757934
0
ARC
8
DEFAULT_255_1_234
10
21.2019372
20
52.9456229
40
0.590109
50
155.0365899
51
169.6003176
0
ARC
8
DEFAULT_255_1_234
10
21.0883836
20
53.0003677
40
0.4640625
50
136.783148
51
155.2472683
0
ARC
8
DEFAULT_255_1_234
10
21.0494313
20
53.0334562
40
0.4130255
50
121.7633186
51
136.428115
0
ARC
8
DEFAULT_255_1_234
10
21.0629275
20
53.0085227
40
0.4413323
50
95.6459699
51
121.5490577
0
ARC
8
DEFAULT_255_1_234
10
21.0786557
20
52.8976949
40
0.55319
50
89.924208
51
96.1377933
0
ARC
8
DEFAULT_255_1_234
10
21.083699
20
52.9095542
40
0.5413475
50
76.6779277
51
90.4563316
0
ARC
8
DEFAULT_255_1_234
10
21.1230613
20
53.0686114
40
0.3775041
50
47.485847
51
76.9287264
0
ARC
8
DEFAULT_255_1_234
10
21.1083586
20
53.0586159
40
0.3948286
50
16.5424086
51
46.8933463
0
ARC
8
DEFAULT_255_1_234
10
20.9475743
20
53.0057861
40
0.564021
50
5.4072051
51
17.0365086
0
ARC
8
DEFAULT_255_1_234
10
20.803676
20
52.9826679
40
0.5556559
50
7.8891745
51
15.9239216
0
ARC
8
DEFAULT_255_1_234
10
21.0023773
20
53.0403631
40
0.3487515
50
15.7653144
51
27.9410532
0
ARC
8
DEFAULT_255_1_234
10
21.1127991
20
53.099479
40
0.2235026
50
27.8166557
51
46.4008329
0
ARC
8
DEFAULT_255_1_234
10
21.1177634
20
53.0989082
40
0.2205286
50
47.4371857
51
75.0698205
0
ARC
8
DEFAULT_255_1_234
10
21.0869029
20
52.9914765
40
0.3322915
50
74.7008593
51
87.8124495
0
ARC
8
DEFAULT_255_1_234
10
21.0795716
20
52.8858844
40
0.4380987
50
87.3814673
51
90.0240855
0
ARC
8
DEFAULT_255_1_234
10
21.0757259
20
53.0036291
40
0.3203749
50
89.3451631
51
108.5745436
0
ARC
8
DEFAULT_255_1_234
10
21.0620365
20
53.0549908
40
0.2673494
50
109.2998449
51
143.3037509
0
ARC
8
DEFAULT_255_1_234
10
21.1382437
20
52.9963881
40
0.3634757
50
143.0753173
51
163.1916937
0
ARC
8
DEFAULT_255_1_234
10
21.3334165
20
52.9347967
40
0.5681262
50
162.9373603
51
174.6208611
0
ARC
8
DEFAULT_255_1_234
10
21.5960207
20
52.906001
40
0.8322832
50
174.3419979
51
180.1430411
0
ARC
8
DEFAULT_255_1_234
10
21.5029363
20
52.7865698
40
0.7392076
50
179.6817502
51
189.150529
0
ARC
8
DEFAULT_255_1_234
10
21.2528611
20
52.744919
40
0.4856932
50
188.9910863
51
203.5773039
0
ARC
8
DEFAULT_255_1_234
10
21.1448944
20
52.7001211
40
0.3688271
50
203.9077269
51
215.1312379
0
ARC
8
DEFAULT_255_1_234
10
21.0526038
20
52.6285941
40
0.2522457
50
213.9071664
51
263.8849284
0
ARC
8
DEFAULT_255_1_234
10
21.0651367
20
52.7070518
40
0.3316174
50
263.1758525
51
270.1031083
0
ARC
8
DEFAULT_255_1_234
10
21.0683459
20
52.8317365
40
0.4563091
50
269.6719807
51
279.0609165
0
ARC
8
DEFAULT_255_1_234
10
21.0950227
20
52.6704907
40
0.2928759
50
278.8750225
51
293.6346586
0
ARC
8
DEFAULT_255_1_234
10
21.1270435
20
52.59529
40
0.2111472
50
293.8553404
51
310.0518804
0
ARC
8
DEFAULT_255_1_234
10
21.1275289
20
52.5890516
40
0.2060917
50
311.0646779
51
332.0108348
0
ARC
8
DEFAULT_255_1_234
10
21.0083016
20
52.6547978
40
0.3422352
50
331.6588543
51
343.2878891
0
ARC
8
DEFAULT_255_1_234
10
20.8020531
20
52.7181798
40
0.5580003
50
343.1446044
51
351.010618
0
ARC
8
DEFAULT_255_1_234
10
20.6479177
20
52.7462871
40
0.7146438
50
350.7157277
51
351.1602153
0
LINE
8
DEFAULT_255_1_234
10
22.6190717
20
52.8862534
11
22.6190717
21
52.8123614
0
LINE
8
DEFAULT_255_1_234
10
21.6785551
20
52.8019201
11
21.6785551
21
52.8862534
0
LINE
8
DEFAULT_255_1_234
10
22.4656655
20
52.8011169
11
22.4656655
21
52.8878597
0
LINE
8
DEFAULT_255_1_234
10
21.8319613
20
52.898301
11
21.8319613
21
52.8123614
0
ARC
8
DEFAULT_255_1_234
10
21.7548743
20
52.8084015
40
0.8642064
50
350.487711
51
0.2625388
0
ARC
8
DEFAULT_255_1_234
10
21.9841985
20
52.7689578
40
0.631518
50
336.0277639
51
350.5787438
0
ARC
8
DEFAULT_255_1_234
10
22.1186808
20
52.7081892
40
0.4839466
50
319.8877444
51
336.1328423
0
ARC
8
DEFAULT_255_1_234
10
22.1789449
20
52.659958
40
0.4067874
50
302.4806467
51
319.6143626
0
ARC
8
DEFAULT_255_1_234
10
22.1674459
20
52.6821202
40
0.4316636
50
275.8195682
51
302.1884709
0
ARC
8
DEFAULT_255_1_234
10
22.1508092
20
52.7963665
40
0.5470306
50
269.9171439
51
276.3397983
0
ARC
8
DEFAULT_255_1_234
10
22.1463302
20
52.7277681
40
0.4784458
50
252.5219675
51
270.4416499
0
ARC
8
DEFAULT_255_1_234
10
22.1319561
20
52.6738592
40
0.422716
50
237.5352116
51
252.1857531
0
ARC
8
DEFAULT_255_1_234
10
22.1408757
20
52.6852363
40
0.4371052
50
209.063312
51
237.3492538
0
ARC
8
DEFAULT_255_1_234
10
22.2278605
20
52.7398685
40
0.5397041
50
205.1183774
51
209.6470015
0
ARC
8
DEFAULT_255_1_234
10
22.3075642
20
52.773683
40
0.6262326
50
188.7215458
51
204.8240747
0
ARC
8
DEFAULT_255_1_234
10
22.507317
20
52.8073067
40
0.8287794
50
180.3723947
51
188.9252049
0
ARC
8
DEFAULT_255_1_234
10
22.5045922
20
52.8902402
40
0.8260467
50
169.5253763
51
180.2765336
0
ARC
8
DEFAULT_255_1_234
10
22.3143371
20
52.9252309
40
0.6326007
50
155.8315255
51
169.5089989
0
ARC
8
DEFAULT_255_1_234
10
22.1862872
20
52.9846348
40
0.4914567
50
139.6258461
51
156.0379525
0
ARC
8
DEFAULT_255_1_234
10
22.1273205
20
53.0320799
40
0.4158054
50
122.6416387
51
139.3430715
0
ARC
8
DEFAULT_255_1_234
10
22.1373825
20
53.0137451
40
0.4366739
50
93.0223692
51
122.455762
0
ARC
8
DEFAULT_255_1_234
10
22.1481822
20
52.9172709
40
0.5336137
50
89.975342
51
93.6341897
0
ARC
8
DEFAULT_255_1_234
10
22.1520601
20
52.9571242
40
0.4937738
50
73.746375
51
90.4233405
0
ARC
8
DEFAULT_255_1_234
10
22.169618
20
53.0251287
40
0.4235786
50
57.662753
51
73.4518111
0
ARC
8
DEFAULT_255_1_234
10
22.1688186
20
53.0272832
40
0.4221899
50
29.1440151
51
57.414694
0
ARC
8
DEFAULT_255_1_234
10
22.0753381
20
52.9689005
40
0.5322966
50
24.0982783
51
29.7323517
0
ARC
8
DEFAULT_255_1_234
10
21.9719656
20
52.9260399
40
0.6441673
50
8.6655297
51
23.8241346
0
ARC
8
DEFAULT_255_1_234
10
21.7485394
20
52.8895854
40
0.8705386
50
359.7806941
51
8.8218784
0
ARC
8
DEFAULT_255_1_234
10
21.6338392
20
52.8921345
40
0.8318373
50
359.7055579
51
8.036044
0
ARC
8
DEFAULT_255_1_234
10
21.9338398
20
52.9358239
40
0.5286768
50
7.8928306
51
20.2962107
0
ARC
8
DEFAULT_255_1_234
10
22.0965969
20
52.9958395
40
0.3552073
50
20.3231126
51
36.4992797
0
ARC
8
DEFAULT_255_1_234
10
22.1651515
20
53.0486402
40
0.2686974
50
36.1437156
51
85.6627023
0
ARC
8
DEFAULT_255_1_234
10
22.1489061
20
52.9446221
40
0.373739
50
84.3852322
51
90.0757696
0
ARC
8
DEFAULT_255_1_234
10
22.1446733
20
53.0106839
40
0.3076997
50
89.3038458
51
109.9045693
0
ARC
8
DEFAULT_255_1_234
10
22.1354124
20
53.0489062
40
0.2686424
50
110.8228367
51
143.9179474
0
ARC
8
DEFAULT_255_1_234
10
22.2287784
20
52.9776236
40
0.3860887
50
143.5289163
51
163.2980757
0
ARC
8
DEFAULT_255_1_234
10
22.4195605
20
52.9176433
40
0.5860659
50
163.0418846
51
174.3140048
0
ARC
8
DEFAULT_255_1_234
10
22.6599717
20
52.8898854
40
0.8280531
50
174.0509143
51
179.4176892
0
ARC
8
DEFAULT_255_1_234
10
22.6095456
20
52.8081954
40
0.7775954
50
179.6930361
51
188.7906598
0
ARC
8
DEFAULT_255_1_234
10
22.3431935
20
52.7655935
40
0.5078633
50
188.6331305
51
202.5629587
0
ARC
8
DEFAULT_255_1_234
10
22.2177527
20
52.7151996
40
0.3726913
50
202.8081362
51
216.1193925
0
ARC
8
DEFAULT_255_1_234
10
22.1368097
20
52.6500676
40
0.2689577
50
215.0755913
51
264.6379694
0
ARC
8
DEFAULT_255_1_234
10
22.1495047
20
52.7331513
40
0.3528978
50
263.846392
51
270.0833719
0
ARC
8
DEFAULT_255_1_234
10
22.1536437
20
52.7073374
40
0.3271036
50
269.3649385
51
287.5152008
0
ARC
8
DEFAULT_255_1_234
10
22.1714595
20
52.6426238
40
0.2600406
50
288.0630309
51
323.8113348
0
ARC
8
DEFAULT_255_1_234
10
22.0843436
20
52.7076049
40
0.3687189
50
323.6547608
51
342.6590488
0
ARC
8
DEFAULT_255_1_234
10
21.8812052
20
52.7736952
40
0.5823286
50
342.4091907
51
353.6451149
0
ARC
8
DEFAULT_255_1_234
10
21.5980562
20
52.808919
40
0.8676442
50
353.4029884
51
359.4847795
0
LINE
8
DEFAULT_255_1_234
10
22.8503857
20
53.4348211
11
23.0495729
21
53.4348211
0
LINE
8
DEFAULT_255_1_234
10
23.0495729
20
53.4348211
11
23.4318836
21
52.4806506
0
LINE
8
DEFAULT_255_1_234
10
23.4318836
20
52.4806506
11
23.8141943
21
53.4348211
0
LINE
8
DEFAULT_255_1_234
10
23.8141943
20
53.4348211
11
24.0141846
21
53.4348211
0
LINE
8
DEFAULT_255_1_234
10
24.0141846
20
53.4348211
11
24.0141846
21
52.2654
0
LINE
8
DEFAULT_255_1_234
10
24.0141846
20
52.2654
11
23.8599752
21
52.2654
0
LINE
8
DEFAULT_255_1_234
10
23.8599752
20
52.2654
11
23.8599752
21
52.7207996
0
LINE
8
DEFAULT_255_1_234
10
23.8599752
20
52.7207996
11
23.8744324
21
53.2123419
0
LINE
8
DEFAULT_255_1_234
10
23.8744324
20
53.2123419
11
23.4905153
21
52.2654
0
LINE
8
DEFAULT_255_1_234
10
23.4905153
20
52.2654
11
23.3724487
21
52.2654
0
LINE
8
DEFAULT_255_1_234
10
23.3724487
20
52.2654
11
22.9893348
21
53.2099324
0
LINE
8
DEFAULT_255_1_234
10
22.9893348
20
53.2099324
11
23.0045951
21
52.7207996
0
LINE
8
DEFAULT_255_1_234
10
23.0045951
20
52.7207996
11
23.0045951
21
52.2654
0
LINE
8
DEFAULT_255_1_234
10
23.0045951
20
52.2654
11
22.8503857
21
52.2654
0
LINE
8
DEFAULT_255_1_234
10
22.8503857
20
52.2654
11
22.8503857
21
53.4348211
0
LINE
8
DEFAULT_255_1_234
10
22.8866119
20
60.3241792
11
22.8866119
21
60.2029
0
LINE
8
DEFAULT_255_1_234
10
22.8866119
20
60.2029
11
22.120384
21
60.2029
0
LINE
8
DEFAULT_255_1_234
10
22.120384
20
60.2029
11
22.120384
21
60.3097221
0
LINE
8
DEFAULT_255_1_234
10
22.120384
20
60.3097221
11
22.5251836
21
60.7594995
0
LINE
8
DEFAULT_255_1_234
10
22.2464823
20
61.0277595
11
22.0978952
21
61.0277595
0
LINE
8
DEFAULT_255_1_234
10
22.6127296
20
60.6639218
11
22.2994918
21
60.3241792
0
LINE
8
DEFAULT_255_1_234
10
22.2994918
20
60.3241792
11
22.8866119
21
60.3241792
0
ARC
8
DEFAULT_255_1_234
10
21.176167
20
61.9524527
40
1.8008286
50
318.5132453
51
320.7828378
0
ARC
8
DEFAULT_255_1_234
10
21.7048644
20
61.5221426
40
1.1191493
50
320.7372736
51
323.9737074
0
ARC
8
DEFAULT_255_1_234
10
22.0968501
20
61.2381361
40
0.6350923
50
323.8961724
51
328.6421089
0
ARC
8
DEFAULT_255_1_234
10
22.3015096
20
61.1119031
40
0.3946393
50
328.8299013
51
331.789948
0
ARC
8
DEFAULT_255_1_234
10
22.4012274
20
61.0604509
40
0.2824501
50
331.4255242
51
352.9364833
0
ARC
8
DEFAULT_255_1_234
10
22.4148775
20
61.0573976
40
0.2685315
50
353.2248685
51
0.0169286
0
ARC
8
DEFAULT_255_1_234
10
22.4358652
20
61.059695
40
0.2475536
50
359.4866256
51
15.9339782
0
ARC
8
DEFAULT_255_1_234
10
22.4865637
20
61.0733286
40
0.1950618
50
16.1714718
51
43.5284424
0
ARC
8
DEFAULT_255_1_234
10
22.4942946
20
61.0810573
40
0.184134
50
43.4415429
51
83.1661404
0
ARC
8
DEFAULT_255_1_234
10
22.4808864
20
61.0073771
40
0.258926
50
82.160215
51
90.1505798
0
ARC
8
DEFAULT_255_1_234
10
22.4777291
20
60.9536865
40
0.3126255
50
89.5460705
51
102.5418777
0
ARC
8
DEFAULT_255_1_234
10
22.4534377
20
61.0567665
40
0.2067346
50
102.1739365
51
129.2061916
0
ARC
8
DEFAULT_255_1_234
10
22.4455449
20
61.0692094
40
0.1921118
50
129.7279328
51
135.7542026
0
ARC
8
DEFAULT_255_1_234
10
22.4576977
20
61.0595045
40
0.2075944
50
136.175737
51
166.3674722
0
ARC
8
DEFAULT_255_1_234
10
22.5583896
20
61.0325182
40
0.3118201
50
165.9092917
51
178.8683903
0
ARC
8
DEFAULT_255_1_234
10
22.6448757
20
61.0278179
40
0.3983935
50
178.438168
51
180.0083905
0
ARC
8
DEFAULT_255_1_234
10
22.5047359
20
61.0317231
40
0.4068601
50
163.2878735
51
180.5581814
0
ARC
8
DEFAULT_255_1_234
10
22.4245621
20
61.053784
40
0.3237344
50
133.454115
51
162.9470031
0
ARC
8
DEFAULT_255_1_234
10
22.4424162
20
61.0348
40
0.349795
50
100.7869394
51
133.4384016
0
ARC
8
DEFAULT_255_1_234
10
22.4771934
20
60.8799319
40
0.5084616
50
89.6605301
51
101.3704185
0
ARC
8
DEFAULT_255_1_234
10
22.4838273
20
60.8860496
40
0.502348
50
78.2171172
51
90.4130393
0
ARC
8
DEFAULT_255_1_234
10
22.5193351
20
61.0484637
40
0.3361092
50
55.9268222
51
78.4888551
0
ARC
8
DEFAULT_255_1_234
10
22.5389791
20
61.0823324
40
0.2970617
50
47.9292255
51
55.4054003
0
ARC
8
DEFAULT_255_1_234
10
22.5491352
20
61.0926502
40
0.2825983
50
4.3347696
51
48.0560701
0
ARC
8
DEFAULT_255_1_234
10
22.4395745
20
61.0756601
40
0.393225
50
359.925209
51
5.5967654
0
ARC
8
DEFAULT_255_1_234
10
22.4824637
20
61.0812816
40
0.3503892
50
337.8914096
51
358.9967724
0
ARC
8
DEFAULT_255_1_234
10
22.2111049
20
61.1859706
40
0.6412172
50
326.9135351
51
338.3505194
0
ARC
8
DEFAULT_255_1_234
10
21.8125353
20
61.4414284
40
1.1146189
50
319.6472867
51
327.095818
0
ARC
8
DEFAULT_255_1_234
10
21.4292356
20
61.7576
40
1.6114559
50
317.2586784
51
319.9046139
0
LINE
8
DEFAULT_255_1_234
10
23.2480401
20
61.3723211
11
23.2480401
21
60.2029
0
LINE
8
DEFAULT_255_1_234
10
23.2480401
20
60.2029
11
23.0938307
21
60.2029
0
LINE
8
DEFAULT_255_1_234
10
23.0938307
20
60.2029
11
23.0938307
21
61.3723211
0
LINE
8
DEFAULT_255_1_234
10
23.0938307
20
61.3723211
11
23.2480401
21
61.3723211
0
LINE
8
DEFAULT_255_1_234
10
23.9323442
20
61.1715276
11
23.9323442
21
60.8301788
0
LINE
8
DEFAULT_255_1_234
10
23.9323442
20
60.8301788
11
24.2584328
21
60.8301788
0
LINE
8
DEFAULT_255_1_234
10
24.2584328
20
60.8301788
11
24.2584328
21
60.6896233
0
LINE
8
DEFAULT_255_1_234
10
24.2584328
20
60.6896233
11
23.9323442
21
60.6896233
0
LINE
8
DEFAULT_255_1_234
10
23.9323442
20
60.6896233
11
23.9323442
21
60.3201634
0
LINE
8
DEFAULT_255_1_234
10
23.9323442
20
60.3201634
11
23.7829539
21
60.3201634
0
LINE
8
DEFAULT_255_1_234
10
23.7829539
20
60.3201634
11
23.7829539
21
60.6896233
0
LINE
8
DEFAULT_255_1_234
10
23.7829539
20
60.6896233
11
23.4568653
21
60.6896233
0
LINE
8
DEFAULT_255_1_234
10
23.4568653
20
60.6896233
11
23.4568653
21
60.8301788
0
LINE
8
DEFAULT_255_1_234
10
23.4568653
20
60.8301788
11
23.7829539
21
60.8301788
0
LINE
8
DEFAULT_255_1_234
10
23.7829539
20
60.8301788
11
23.7829539
21
61.1715276
0
LINE
8
DEFAULT_255_1_234
10
23.7829539
20
61.1715276
11
23.9323442
21
61.1715276
0
LINE
8
DEFAULT_255_1_234
10
22.2495119
20
68.2616792
11
22.2495119
21
68.1404
0
LINE
8
DEFAULT_255_1_234
10
22.2495119
20
68.1404
11
21.483284
21
68.1404
0
LINE
8
DEFAULT_255_1_234
10
21.483284
20
68.1404
11
21.483284
21
68.2472221
0
LINE
8
DEFAULT_255_1_234
10
21.483284
20
68.2472221
11
21.8880836
21
68.6969995
0
LINE
8
DEFAULT_255_1_234
10
21.6093823
20
68.9652595
11
21.4607952
21
68.9652595
0
LINE
8
DEFAULT_255_1_234
10
21.9756296
20
68.6014218
11
21.6623918
21
68.2616792
0
LINE
8
DEFAULT_255_1_234
10
21.6623918
20
68.2616792
11
22.2495119
21
68.2616792
0
ARC
8
DEFAULT_255_1_234
10
20.539067
20
69.8899527
40
1.8008286
50
318.5132453
51
320.7828378
0
ARC
8
DEFAULT_255_1_234
10
21.0677644
20
69.4596426
40
1.1191493
50
320.7372736
51
323.9737074
0
ARC
8
DEFAULT_255_1_234
10
21.4597501
20
69.1756361
40
0.6350923
50
323.8961724
51
328.6421089
0
ARC
8
DEFAULT_255_1_234
10
21.6644096
20
69.0494031
40
0.3946393
50
328.8299013
51
331.789948
0
ARC
8
DEFAULT_255_1_234
10
21.7641274
20
68.9979509
40
0.2824501
50
331.4255242
51
352.9364833
0
ARC
8
DEFAULT_255_1_234
10
21.7777775
20
68.9948976
40
0.2685315
50
353.2248685
51
0.0169286
0
ARC
8
DEFAULT_255_1_234
10
21.7987652
20
68.997195
40
0.2475536
50
359.4866256
51
15.9339782
0
ARC
8
DEFAULT_255_1_234
10
21.8494637
20
69.0108286
40
0.1950618
50
16.1714718
51
43.5284424
0
ARC
8
DEFAULT_255_1_234
10
21.8571946
20
69.0185573
40
0.184134
50
43.4415429
51
83.1661404
0
ARC
8
DEFAULT_255_1_234
10
21.8437864
20
68.9448771
40
0.258926
50
82.160215
51
90.1505798
0
ARC
8
DEFAULT_255_1_234
10
21.8406291
20
68.8911865
40
0.3126255
50
89.5460705
51
102.5418777
0
ARC
8
DEFAULT_255_1_234
10
21.8163377
20
68.9942665
40
0.2067346
50
102.1739365
51
129.2061916
0
ARC
8
DEFAULT_255_1_234
10
21.8084449
20
69.0067094
40
0.1921118
50
129.7279328
51
135.7542026
0
ARC
8
DEFAULT_255_1_234
10
21.8205977
20
68.9970045
40
0.2075944
50
136.175737
51
166.3674722
0
ARC
8
DEFAULT_255_1_234
10
21.9212896
20
68.9700182
40
0.3118201
50
165.9092917
51
178.8683903
0
ARC
8
DEFAULT_255_1_234
10
22.0077757
20
68.9653179
40
0.3983935
50
178.438168
51
180.0083905
0
ARC
8
DEFAULT_255_1_234
10
21.8676359
20
68.9692231
40
0.4068601
50
163.2878735
51
180.5581814
0
ARC
8
DEFAULT_255_1_234
10
21.7874621
20
68.991284
40
0.3237344
50
133.454115
51
162.9470031
0
ARC
8
DEFAULT_255_1_234
10
21.8053162
20
68.9723
40
0.349795
50
100.7869394
51
133.4384016
0
ARC
8
DEFAULT_255_1_234
10
21.8400934
20
68.8174319
40
0.5084616
50
89.6605301
51
101.3704185
0
ARC
8
DEFAULT_255_1_234
10
21.8467273
20
68.8235496
40
0.502348
50
78.2171172
51
90.4130393
0
ARC
8
DEFAULT_255_1_234
10
21.8822351
20
68.9859637
40
0.3361092
50
55.9268222
51
78.4888551
0
ARC
8
DEFAULT_255_1_234
10
21.9018791
20
69.0198324
40
0.2970617
50
47.9292255
51
55.4054003
0
ARC
8
DEFAULT_255_1_234
10
21.9120352
20
69.0301502
40
0.2825983
50
4.3347696
51
48.0560701
0
ARC
8
DEFAULT_255_1_234
10
21.8024745
20
69.0131601
40
0.393225
50
359.925209
51
5.5967654
0
ARC
8
DEFAULT_255_1_234
10
21.8453637
20
69.0187816
40
0.3503892
50
337.8914096
51
358.9967724
0
ARC
8
DEFAULT_255_1_234
10
21.5740049
20
69.1234706
40
0.6412172
50
326.9135351
51
338.3505194
0
ARC
8
DEFAULT_255_1_234
10
21.1754353
20
69.3789284
40
1.1146189
50
319.6472867
51
327.095818
0
ARC
8
DEFAULT_255_1_234
10
20.7921356
20
69.6951
40
1.6114559
50
317.2586784
51
319.9046139
0
LINE
8
DEFAULT_255_1_234
10
22.5001021
20
69.3098211
11
22.8326161
21
68.3452093
0
LINE
8
DEFAULT_255_1_234
10
22.8326161
20
68.3452093
11
23.1667364
21
69.3098211
0
LINE
8
DEFAULT_255_1_234
10
23.1667364
20
69.3098211
11
23.3354029
21
69.3098211
0
LINE
8
DEFAULT_255_1_234
10
23.3354029
20
69.3098211
11
22.901689
21
68.1404
0
LINE
8
DEFAULT_255_1_234
10
22.901689
20
68.1404
11
22.7651495
21
68.1404
0
LINE
8
DEFAULT_255_1_234
10
22.7651495
20
68.1404
11
22.3322388
21
69.3098211
0
LINE
8
DEFAULT_255_1_234
10
22.3322388
20
69.3098211
11
22.5001021
21
69.3098211
0
LINE
8
DEFAULT_255_1_234
10
23.8944119
20
69.1090276
11
23.8944119
21
68.7676788
0
LINE
8
DEFAULT_255_1_234
10
23.8944119
20
68.7676788
11
24.2205004
21
68.7676788
0
LINE
8
DEFAULT_255_1_234
10
24.2205004
20
68.7676788
11
24.2205004
21
68.6271233
0
LINE
8
DEFAULT_255_1_234
10
24.2205004
20
68.6271233
11
23.8944119
21
68.6271233
0
LINE
8
DEFAULT_255_1_234
10
23.8944119
20
68.6271233
11
23.8944119
21
68.2576634
0
LINE
8
DEFAULT_255_1_234
10
23.8944119
20
68.2576634
11
23.7450215
21
68.2576634
0
LINE
8
DEFAULT_255_1_234
10
23.7450215
20
68.2576634
11
23.7450215
21
68.6271233
0
LINE
8
DEFAULT_255_1_234
10
23.7450215
20
68.6271233
11
23.418933
21
68.6271233
0
LINE
8
DEFAULT_255_1_234
10
23.418933
20
68.6271233
11
23.418933
21
68.7676788
0
LINE
8
DEFAULT_255_1_234
10
23.418933
20
68.7676788
11
23.7450215
21
68.7676788
0
LINE
8
DEFAULT_255_1_234
10
23.7450215
20
68.7676788
11
23.7450215
21
69.1090276
0
LINE
8
DEFAULT_255_1_234
10
23.7450215
20
69.1090276
11
23.8944119
21
69.1090276
0
LINE
8
DEFAULT_255_1_234
10
20.1750137
20
77.2529433
11
20.1750137
21
76.0779
0
LINE
8
DEFAULT_255_1_234
10
20.1750137
20
76.0779
11
20.0256234
21
76.0779
0
LINE
8
DEFAULT_255_1_234
10
20.0256234
20
76.0779
11
20.0256234
21
77.0682133
0
LINE
8
DEFAULT_255_1_234
10
20.0256234
20
77.0682133
11
19.7260396
21
76.9581785
0
LINE
8
DEFAULT_255_1_234
10
19.7260396
20
76.9581785
11
19.7260396
21
77.0931117
0
LINE
8
DEFAULT_255_1_234
10
19.7260396
20
77.0931117
11
20.1517217
21
77.2529433
0
LINE
8
DEFAULT_255_1_234
10
20.1517217
20
77.2529433
11
20.1750137
21
77.2529433
0
LINE
8
DEFAULT_255_1_234
10
21.3540729
20
76.4489663
11
21.5090854
21
76.4489663
0
LINE
8
DEFAULT_255_1_234
10
20.6087276
20
76.6079947
11
20.6087276
21
76.7204391
0
LINE
8
DEFAULT_255_1_234
10
21.5090854
20
76.8714357
11
21.3540729
21
76.8714357
0
LINE
8
DEFAULT_255_1_234
10
20.7637401
20
76.7164232
11
20.7637401
21
76.6031757
0
ARC
8
DEFAULT_255_1_234
10
20.9610241
20
76.5086846
40
0.5513052
50
340.1774281
51
353.7814284
0
ARC
8
DEFAULT_255_1_234
10
21.1181594
20
76.4501582
40
0.3836379
50
311.4558989
51
340.4421614
0
ARC
8
DEFAULT_255_1_234
10
21.1148262
20
76.4612528
40
0.3941894
50
282.4333181
51
310.7513653
0
ARC
8
DEFAULT_255_1_234
10
21.0709001
20
76.6427679
40
0.5809175
50
269.9358511
51
282.809604
0
ARC
8
DEFAULT_255_1_234
10
21.0657067
20
76.7885212
40
0.7266847
50
270.0021091
51
270.3581957
0
ARC
8
DEFAULT_255_1_234
10
21.0604484
20
76.5284585
40
0.4666519
50
250.7884749
51
270.6489167
0
ARC
8
DEFAULT_255_1_234
10
21.0436319
20
76.4647319
40
0.4009729
50
219.3627325
51
250.0611886
0
ARC
8
DEFAULT_255_1_234
10
21.126553
20
76.5352042
40
0.5097822
50
193.5479632
51
219.5756669
0
ARC
8
DEFAULT_255_1_234
10
21.3637151
20
76.5967919
40
0.7547848
50
181.1218675
51
193.87563
0
ARC
8
DEFAULT_255_1_234
10
21.5707332
20
76.607858
40
0.9620055
50
179.9918545
51
181.5394234
0
ARC
8
DEFAULT_255_1_234
10
21.3856434
20
76.7241788
40
0.7769248
50
169.5837241
51
180.2757934
0
ARC
8
DEFAULT_255_1_234
10
21.2019372
20
76.7581229
40
0.590109
50
155.0365899
51
169.6003176
0
ARC
8
DEFAULT_255_1_234
10
21.0883836
20
76.8128677
40
0.4640625
50
136.783148
51
155.2472683
0
ARC
8
DEFAULT_255_1_234
10
21.0494313
20
76.8459562
40
0.4130255
50
121.7633186
51
136.428115
0
ARC
8
DEFAULT_255_1_234
10
21.0629275
20
76.8210227
40
0.4413323
50
95.6459699
51
121.5490577
0
ARC
8
DEFAULT_255_1_234
10
21.0786557
20
76.7101949
40
0.55319
50
89.924208
51
96.1377933
0
ARC
8
DEFAULT_255_1_234
10
21.083699
20
76.7220542
40
0.5413475
50
76.6779277
51
90.4563316
0
ARC
8
DEFAULT_255_1_234
10
21.1230613
20
76.8811114
40
0.3775041
50
47.485847
51
76.9287264
0
ARC
8
DEFAULT_255_1_234
10
21.1083586
20
76.8711159
40
0.3948286
50
16.5424086
51
46.8933463
0
ARC
8
DEFAULT_255_1_234
10
20.9475743
20
76.8182861
40
0.564021
50
5.4072051
51
17.0365086
0
ARC
8
DEFAULT_255_1_234
10
20.803676
20
76.7951679
40
0.5556559
50
7.8891745
51
15.9239216
0
ARC
8
DEFAULT_255_1_234
10
21.0023773
20
76.8528631
40
0.3487515
50
15.7653144
51
27.9410532
0
ARC
8
DEFAULT_255_1_234
10
21.1127991
20
76.911979
40
0.2235026
50
27.8166557
51
46.4008329
0
ARC
8
DEFAULT_255_1_234
10
21.1177634
20
76.9114082
40
0.2205286
50
47.4371857
51
75.0698205
0
ARC
8
DEFAULT_255_1_234
10
21.0869029
20
76.8039765
40
0.3322915
50
74.7008593
51
87.8124495
0
ARC
8
DEFAULT_255_1_234
10
21.0795716
20
76.6983844
40
0.4380987
50
87.3814673
51
90.0240855
0
ARC
8
DEFAULT_255_1_234
10
21.0757259
20
76.8161291
40
0.3203749
50
89.3451631
51
108.5745436
0
ARC
8
DEFAULT_255_1_234
10
21.0620365
20
76.8674908
40
0.2673494
50
109.2998449
51
143.3037509
0
ARC
8
DEFAULT_255_1_234
10
21.1382437
20
76.8088881
40
0.3634757
50
143.0753173
51
163.1916937
0
ARC
8
DEFAULT_255_1_234
10
21.3334165
20
76.7472967
40
0.5681262
50
162.9373603
51
174.6208611
0
ARC
8
DEFAULT_255_1_234
10
21.5960207
20
76.718501
40
0.8322832
50
174.3419979
51
180.1430411
0
ARC
8
DEFAULT_255_1_234
10
21.5029363
20
76.5990698
40
0.7392076
50
179.6817502
51
189.150529
0
ARC
8
DEFAULT_255_1_234
10
21.2528611
20
76.557419
40
0.4856932
50
188.9910863
51
203.5773039
0
ARC
8
DEFAULT_255_1_234
10
21.1448944
20
76.5126211
40
0.3688271
50
203.9077269
51
215.1312379
0
ARC
8
DEFAULT_255_1_234
10
21.0526038
20
76.4410941
40
0.2522457
50
213.9071664
51
263.8849284
0
ARC
8
DEFAULT_255_1_234
10
21.0651367
20
76.5195518
40
0.3316174
50
263.1758525
51
270.1031083
0
ARC
8
DEFAULT_255_1_234
10
21.0683459
20
76.6442365
40
0.4563091
50
269.6719807
51
279.0609165
0
ARC
8
DEFAULT_255_1_234
10
21.0950227
20
76.4829907
40
0.2928759
50
278.8750225
51
293.6346586
0
ARC
8
DEFAULT_255_1_234
10
21.1270435
20
76.40779
40
0.2111472
50
293.8553404
51
310.0518804
0
ARC
8
DEFAULT_255_1_234
10
21.1275289
20
76.4015516
40
0.2060917
50
311.0646779
51
332.0108348
0
ARC
8
DEFAULT_255_1_234
10
21.0083016
20
76.4672978
40
0.3422352
50
331.6588543
51
343.2878891
0
ARC
8
DEFAULT_255_1_234
10
20.8020531
20
76.5306798
40
0.5580003
50
343.1446044
51
351.010618
0
ARC
8
DEFAULT_255_1_234
10
20.6479177
20
76.5587871
40
0.7146438
50
350.7157277
51
351.1602153
0
LINE
8
DEFAULT_255_1_234
10
22.6190717
20
76.6987534
11
22.6190717
21
76.6248614
0
LINE
8
DEFAULT_255_1_234
10
21.6785551
20
76.6144201
11
21.6785551
21
76.6987534
0
LINE
8
DEFAULT_255_1_234
10
22.4656655
20
76.6136169
11
22.4656655
21
76.7003597
0
LINE
8
DEFAULT_255_1_234
10
21.8319613
20
76.710801
11
21.8319613
21
76.6248614
0
ARC
8
DEFAULT_255_1_234
10
21.7548743
20
76.6209015
40
0.8642064
50
350.487711
51
0.2625388
0
ARC
8
DEFAULT_255_1_234
10
21.9841985
20
76.5814578
40
0.631518
50
336.0277639
51
350.5787438
0
ARC
8
DEFAULT_255_1_234
10
22.1186808
20
76.5206892
40
0.4839466
50
319.8877444
51
336.1328423
0
ARC
8
DEFAULT_255_1_234
10
22.1789449
20
76.472458
40
0.4067874
50
302.4806467
51
319.6143626
0
ARC
8
DEFAULT_255_1_234
10
22.1674459
20
76.4946202
40
0.4316636
50
275.8195682
51
302.1884709
0
ARC
8
DEFAULT_255_1_234
10
22.1508092
20
76.6088665
40
0.5470306
50
269.9171439
51
276.3397983
0
ARC
8
DEFAULT_255_1_234
10
22.1463302
20
76.5402681
40
0.4784458
50
252.5219675
51
270.4416499
0
ARC
8
DEFAULT_255_1_234
10
22.1319561
20
76.4863592
40
0.422716
50
237.5352116
51
252.1857531
0
ARC
8
DEFAULT_255_1_234
10
22.1408757
20
76.4977363
40
0.4371052
50
209.063312
51
237.3492538
0
ARC
8
DEFAULT_255_1_234
10
22.2278605
20
76.5523685
40
0.5397041
50
205.1183774
51
209.6470015
0
ARC
8
DEFAULT_255_1_234
10
22.3075642
20
76.586183
40
0.6262326
50
188.7215458
51
204.8240747
0
ARC
8
DEFAULT_255_1_234
10
22.507317
20
76.6198067
40
0.8287794
50
180.3723947
51
188.9252049
0
ARC
8
DEFAULT_255_1_234
10
22.5045922
20
76.7027402
40
0.8260467
50
169.5253763
51
180.2765336
0
ARC
8
DEFAULT_255_1_234
10
22.3143371
20
76.7377309
40
0.6326007
50
155.8315255
51
169.5089989
0
ARC
8
DEFAULT_255_1_234
10
22.1862872
20
76.7971348
40
0.4914567
50
139.6258461
51
156.0379525
0
ARC
8
DEFAULT_255_1_234
10
22.1273205
20
76.8445799
40
0.4158054
50
122.6416387
51
139.3430715
0
ARC
8
DEFAULT_255_1_234
10
22.1373825
20
76.8262451
40
0.4366739
50
93.0223692
51
122.455762
0
ARC
8
DEFAULT_255_1_234
10
22.1481822
20
76.7297709
40
0.5336137
50
89.975342
51
93.6341897
0
ARC
8
DEFAULT_255_1_234
10
22.1520601
20
76.7696242
40
0.4937738
50
73.746375
51
90.4233405
0
ARC
8
DEFAULT_255_1_234
10
22.169618
20
76.8376287
40
0.4235786
50
57.662753
51
73.4518111
0
ARC
8
DEFAULT_255_1_234
10
22.1688186
20
76.8397832
40
0.4221899
50
29.1440151
51
57.414694
0
ARC
8
DEFAULT_255_1_234
10
22.0753381
20
76.7814005
40
0.5322966
50
24.0982783
51
29.7323517
0
ARC
8
DEFAULT_255_1_234
10
21.9719656
20
76.7385399
40
0.6441673
50
8.6655297
51
23.8241346
0
ARC
8
DEFAULT_255_1_234
10
21.7485394
20
76.7020854
40
0.8705386
50
359.7806941
51
8.8218784
0
ARC
8
DEFAULT_255_1_234
10
21.6338392
20
76.7046345
40
0.8318373
50
359.7055579
51
8.036044
0
ARC
8
DEFAULT_255_1_234
10
21.9338398
20
76.7483239
40
0.5286768
50
7.8928306
51
20.2962107
0
ARC
8
DEFAULT_255_1_234
10
22.0965969
20
76.8083395
40
0.3552073
50
20.3231126
51
36.4992797
0
ARC
8
DEFAULT_255_1_234
10
22.1651515
20
76.8611402
40
0.2686974
50
36.1437156
51
85.6627023
0
ARC
8
DEFAULT_255_1_234
10
22.1489061
20
76.7571221
40
0.373739
50
84.3852322
51
90.0757696
0
ARC
8
DEFAULT_255_1_234
10
22.1446733
20
76.8231839
40
0.3076997
50
89.3038458
51
109.9045693
0
ARC
8
DEFAULT_255_1_234
10
22.1354124
20
76.8614062
40
0.2686424
50
110.8228367
51
143.9179474
0
ARC
8
DEFAULT_255_1_234
10
22.2287784
20
76.7901236
40
0.3860887
50
143.5289163
51
163.2980757
0
ARC
8
DEFAULT_255_1_234
10
22.4195605
20
76.7301433
40
0.5860659
50
163.0418846
51
174.3140048
0
ARC
8
DEFAULT_255_1_234
10
22.6599717
20
76.7023854
40
0.8280531
50
174.0509143
51
179.4176892
0
ARC
8
DEFAULT_255_1_234
10
22.6095456
20
76.6206954
40
0.7775954
50
179.6930361
51
188.7906598
0
ARC
8
DEFAULT_255_1_234
10
22.3431935
20
76.5780935
40
0.5078633
50
188.6331305
51
202.5629587
0
ARC
8
DEFAULT_255_1_234
10
22.2177527
20
76.5276996
40
0.3726913
50
202.8081362
51
216.1193925
0
ARC
8
DEFAULT_255_1_234
10
22.1368097
20
76.4625676
40
0.2689577
50
215.0755913
51
264.6379694
0
ARC
8
DEFAULT_255_1_234
10
22.1495047
20
76.5456513
40
0.3528978
50
263.846392
51
270.0833719
0
ARC
8
DEFAULT_255_1_234
10
22.1536437
20
76.5198374
40
0.3271036
50
269.3649385
51
287.5152008
0
ARC
8
DEFAULT_255_1_234
10
22.1714595
20
76.4551238
40
0.2600406
50
288.0630309
51
323.8113348
0
ARC
8
DEFAULT_255_1_234
10
22.0843436
20
76.5201049
40
0.3687189
50
323.6547608
51
342.6590488
0
ARC
8
DEFAULT_255_1_234
10
21.8812052
20
76.5861952
40
0.5823286
50
342.4091907
51
353.6451149
0
ARC
8
DEFAULT_255_1_234
10
21.5980562
20
76.621419
40
0.8676442
50
353.4029884
51
359.4847795
0
LINE
8
DEFAULT_255_1_234
10
22.8503857
20
77.2473211
11
23.0495729
21
77.2473211
0
LINE
8
DEFAULT_255_1_234
10
23.0495729
20
77.2473211
11
23.4318836
21
76.2931506
0
LINE
8
DEFAULT_255_1_234
10
23.4318836
20
76.2931506
11
23.8141943
21
77.2473211
0
LINE
8
DEFAULT_255_1_234
10
23.8141943
20
77.2473211
11
24.0141846
21
77.2473211
0
LINE
8
DEFAULT_255_1_234
10
24.0141846
20
77.2473211
11
24.0141846
21
76.0779
0
LINE
8
DEFAULT_255_1_234
10
24.0141846
20
76.0779
11
23.8599752
21
76.0779
0
LINE
8
DEFAULT_255_1_234
10
23.8599752
20
76.0779
11
23.8599752
21
76.5332996
0
LINE
8
DEFAULT_255_1_234
10
23.8599752
20
76.5332996
11
23.8744324
21
77.0248419
0
LINE
8
DEFAULT_255_1_234
10
23.8744324
20
77.0248419
11
23.4905153
21
76.0779
0
LINE
8
DEFAULT_255_1_234
10
23.4905153
20
76.0779
11
23.3724487
21
76.0779
0
LINE
8
DEFAULT_255_1_234
10
23.3724487
20
76.0779
11
22.9893348
21
77.0224324
0
LINE
8
DEFAULT_255_1_234
10
22.9893348
20
77.0224324
11
23.0045951
21
76.5332996
0
LINE
8
DEFAULT_255_1_234
10
23.0045951
20
76.5332996
11
23.0045951
21
76.0779
0
LINE
8
DEFAULT_255_1_234
10
23.0045951
20
76.0779
11
22.8503857
21
76.0779
0
LINE
8
DEFAULT_255_1_234
10
22.8503857
20
76.0779
11
22.8503857
21
77.2473211
0
LINE
8
DEFAULT_255_1_234
10
22.6087137
20
85.1904433
11
22.6087137
21
84.0154
0
LINE
8
DEFAULT_255_1_234
10
22.6087137
20
84.0154
11
22.4593234
21
84.0154
0
LINE
8
DEFAULT_255_1_234
10
22.4593234
20
84.0154
11
22.4593234
21
85.0057133
0
LINE
8
DEFAULT_255_1_234
10
22.4593234
20
85.0057133
11
22.1597396
21
84.8956785
0
LINE
8
DEFAULT_255_1_234
10
22.1597396
20
84.8956785
11
22.1597396
21
85.0306117
0
LINE
8
DEFAULT_255_1_234
10
22.1597396
20
85.0306117
11
22.5854217
21
85.1904433
0
LINE
8
DEFAULT_255_1_234
10
22.5854217
20
85.1904433
11
22.6087137
21
85.1904433
0
LINE
8
DEFAULT_255_1_234
10
23.2480401
20
85.1848211
11
23.2480401
21
84.0154
0
LINE
8
DEFAULT_255_1_234
10
23.2480401
20
84.0154
11
23.0938307
21
84.0154
0
LINE
8
DEFAULT_255_1_234
10
23.0938307
20
84.0154
11
23.0938307
21
85.1848211
0
LINE
8
DEFAULT_255_1_234
10
23.0938307
20
85.1848211
11
23.2480401
21
85.1848211
0
LINE
8
DEFAULT_255_1_234
10
23.9323442
20
84.9840276
11
23.9323442
21
84.6426788
0
LINE
8
DEFAULT_255_1_234
10
23.9323442
20
84.6426788
11
24.2584328
21
84.6426788
0
LINE
8
DEFAULT_255_1_234
10
24.2584328
20
84.6426788
11
24.2584328
21
84.5021233
0
LINE
8
DEFAULT_255_1_234
10
24.2584328
20
84.5021233
11
23.9323442
21
84.5021233
0
LINE
8
DEFAULT_255_1_234
10
23.9323442
20
84.5021233
11
23.9323442
21
84.1326634
0
LINE
8
DEFAULT_255_1_234
10
23.9323442
20
84.1326634
11
23.7829539
21
84.1326634
0
LINE
8
DEFAULT_255_1_234
10
23.7829539
20
84.1326634
11
23.7829539
21
84.5021233
0
LINE
8
DEFAULT_255_1_234
10
23.7829539
20
84.5021233
11
23.4568653
21
84.5021233
0
LINE
8
DEFAULT_255_1_234
10
23.4568653
20
84.5021233
11
23.4568653
21
84.6426788
0
LINE
8
DEFAULT_255_1_234
10
23.4568653
20
84.6426788
11
23.7829539
21
84.6426788
0
LINE
8
DEFAULT_255_1_234
10
23.7829539
20
84.6426788
11
23.7829539
21
84.9840276
0
LINE
8
DEFAULT_255_1_234
10
23.7829539
20
84.9840276
11
23.9323442
21
84.9840276
0
LINE
8
DEFAULT_255_1_234
10
21.9716137
20
93.1279433
11
21.9716137
21
91.9529
0
LINE
8
DEFAULT_255_1_234
10
21.9716137
20
91.9529
11
21.8222234
21
91.9529
0
LINE
8
DEFAULT_255_1_234
10
21.8222234
20
91.9529
11
21.8222234
21
92.9432133
0
LINE
8
DEFAULT_255_1_234
10
21.8222234
20
92.9432133
11
21.5226396
21
92.8331785
0
LINE
8
DEFAULT_255_1_234
10
21.5226396
20
92.8331785
11
21.5226396
21
92.9681117
0
LINE
8
DEFAULT_255_1_234
10
21.5226396
20
92.9681117
11
21.9483217
21
93.1279433
0
LINE
8
DEFAULT_255_1_234
10
21.9483217
20
93.1279433
11
21.9716137
21
93.1279433
0
LINE
8
DEFAULT_255_1_234
10
22.5001021
20
93.1223211
11
22.8326161
21
92.1577093
0
LINE
8
DEFAULT_255_1_234
10
22.8326161
20
92.1577093
11
23.1667364
21
93.1223211
0
LINE
8
DEFAULT_255_1_234
10
23.1667364
20
93.1223211
11
23.3354029
21
93.1223211
0
LINE
8
DEFAULT_255_1_234
10
23.3354029
20
93.1223211
11
22.901689
21
91.9529
0
LINE
8
DEFAULT_255_1_234
10
22.901689
20
91.9529
11
22.7651495
21
91.9529
0
LINE
8
DEFAULT_255_1_234
10
22.7651495
20
91.9529
11
22.3322388
21
93.1223211
0
LINE
8
DEFAULT_255_1_234
10
22.3322388
20
93.1223211
11
22.5001021
21
93.1223211
0
LINE
8
DEFAULT_255_1_234
10
23.8944119
20
92.9215276
11
23.8944119
21
92.5801788
0
LINE
8
DEFAULT_255_1_234
10
23.8944119
20
92.5801788
11
24.2205004
21
92.5801788
0
LINE
8
DEFAULT_255_1_234
10
24.2205004
20
92.5801788
11
24.2205004
21
92.4396233
0
LINE
8
DEFAULT_255_1_234
10
24.2205004
20
92.4396233
11
23.8944119
21
92.4396233
0
LINE
8
DEFAULT_255_1_234
10
23.8944119
20
92.4396233
11
23.8944119
21
92.0701634
0
LINE
8
DEFAULT_255_1_234
10
23.8944119
20
92.0701634
11
23.7450215
21
92.0701634
0
LINE
8
DEFAULT_255_1_234
10
23.7450215
20
92.0701634
11
23.7450215
21
92.4396233
0
LINE
8
DEFAULT_255_1_234
10
23.7450215
20
92.4396233
11
23.418933
21
92.4396233
0
LINE
8
DEFAULT_255_1_234
10
23.418933
20
92.4396233
11
23.418933
21
92.5801788
0
LINE
8
DEFAULT_255_1_234
10
23.418933
20
92.5801788
11
23.7450215
21
92.5801788
0
LINE
8
DEFAULT_255_1_234
10
23.7450215
20
92.5801788
11
23.7450215
21
92.9215276
0
LINE
8
DEFAULT_255_1_234
10
23.7450215
20
92.9215276
11
23.8944119
21
92.9215276
0
ENDSEC
0
EOF